999
DXF file: C:\Users\sesa63760\Dev\_Creo\CAD\MCADID0004248_3D-CAD\drw0001_2.dxf
999
Pro/ENGINEER 2019471 by Parametric Technology Corporation
  0
SECTION
  2
HEADER
  9
$ACADVER
  1
AC1024
  9
$DWGCODEPAGE
  3
ANSI_1252
  9
$EXTMAX
 10
806.3712168621
 20
1140.4392924192
 30
0.0
  9
$EXTMIN
 10
0.0
 20
0.0
 30
0.0
  9
$LIMMIN
 10
0.0
 20
0.0
  9
$LIMMAX
 10
806.3712168621
 20
1140.4392924192
  9
$VIEWCTR
 10
403.185608431
 20
570.2196462096
  9
$VIEWSIZE
 40
1140.4392924192
  9
$CLAYER
  8
0
  9
$LTSCALE
 40
74.3397464688
  9
$CELTYPE
  6
BYLAYER
  9
$DIMSCALE
 40
1.0
  9
$DIMASZ
 40
9.5996573436
  9
$DIMEXO
 40
1.0
  9
$DIMDLI
 40
51.3620066512
  9
$DIMEXE
 40
1.0
  9
$DIMCEN
 40
12.1646857858
  9
$DIMLFAC
 40
1.0
  9
$DIMBLK
  1
_FILLED
  9
$DIMALT
 70
0
  9
$DIMALTF
 40
0.0393700787
  9
$DIMTXT
 40
13.439520281
  9
$DIMTOL
 70
1
  9
$DIMLIM
 70
0
  9
$DIMTFAC
 40
1.0
  9
$DIMTP
 40
0.01
  9
$DIMTM
 40
0.01
  9
$DIMGAP
 40
0.625
  9
$DIMDSEP
 70
46
  9
$AUNITS
 70
0
  9
$PDMODE
 70
3
  9
$PDSIZE
 40
0.3125
  9
$HANDSEED
  5
436
  9
$TILEMODE
 70
1
  9
$MEASUREMENT
 70
1
  9
$INSUNITS
 70
4
  0
ENDSEC
  0
SECTION
  2
CLASSES
  0
CLASS
  1
ACDBDICTIONARYWDFLT
  2
AcDbDictionaryWithDefault
  3
AutoCAD 2000
 90
0
 91
1
280
0
281
0
  0
CLASS
  1
ACDBPLACEHOLDER
  2
AcDbPlaceHolder
  3
AutoCAD 2000
 90
0
 91
1
280
0
281
0
  0
CLASS
  1
LAYOUT
  2
AcDbLayout
  3
AutoCAD 2000
 90
0
 91
0
280
0
281
0
  0
ENDSEC
  0
SECTION
  2
TABLES
  0
TABLE
  2
VPORT
  5
8
100
AcDbSymbolTable
 70
2
  0
VPORT
  5
1F4
100
AcDbSymbolTableRecord
100
AcDbViewportTableRecord
  2
*ACTIVE
 70
0
 10
0.0
 20
0.0
 11
1.0
 21
1.0
 12
403.185608431
 22
570.2196462096
 13
0.0
 23
0.0
 14
1.0
 24
1.0
 15
0.0
 25
0.0
 16
0.0
 26
0.0
 36
1.0
 17
0.0
 27
0.0
 37
0.0
 40
1140.4392924192
 41
0.7070707071
 42
50.0
 43
0.0
 44
0.0
 50
0.0
 51
0.0
 71
0
 72
100
 73
1
 74
1
 75
0
 76
0
 77
0
 78
0
  0
ENDTAB
  0
TABLE
  2
LTYPE
  5
5
100
AcDbSymbolTable
 70
6
  0
LTYPE
  5
14
100
AcDbSymbolTableRecord
100
AcDbLinetypeTableRecord
  2
BYBLOCK
 70
0
  3

 72
65
 73
0
 40
0.0
  0
LTYPE
  5
15
100
AcDbSymbolTableRecord
100
AcDbLinetypeTableRecord
  2
BYLAYER
 70
0
  3

 72
65
 73
0
 40
0.0
  0
LTYPE
  5
16
100
AcDbSymbolTableRecord
100
AcDbLinetypeTableRecord
  2
CONTINUOUS
 70
64
  3
Solid line
 72
65
 73
0
 40
0.0
  0
LTYPE
  5
1F5
100
AcDbSymbolTableRecord
100
AcDbLinetypeTableRecord
  2
CENTER
 70
64
  3
____ _ ____ _ ____ _ ____ _ ____ _ ____ _ ____
 72
65
 73
4
 40
0.6
 49
0.375
 74
0
 49
-0.075
 74
0
 49
0.075
 74
0
 49
-0.075
 74
0
  0
LTYPE
  5
1F6
100
AcDbSymbolTableRecord
100
AcDbLinetypeTableRecord
  2
HIDDEN
 70
64
  3
- - - - - - - - - - - - - - - - - - - -
 72
65
 73
2
 40
0.2
 49
0.1
 74
0
 49
-0.1
 74
0
  0
LTYPE
  5
1F7
100
AcDbSymbolTableRecord
100
AcDbLinetypeTableRecord
  2
PHANTOM
 70
64
  3
_____ _ _ _____ _ _ _____ _ _ _____
 72
65
 73
6
 40
0.8
 49
0.45
 74
0
 49
-0.05
 74
0
 49
0.1
 74
0
 49
-0.05
 74
0
 49
0.1
 74
0
 49
-0.05
 74
0
  0
LTYPE
  5
1F8
100
AcDbSymbolTableRecord
100
AcDbLinetypeTableRecord
  2
DOT
 70
64
  3
. . . . . . . . . . . . . . . . . . . .
 72
65
 73
2
 40
0.2
 49
0.1
 74
0
 49
-0.1
 74
0
  0
LTYPE
  5
1F9
100
AcDbSymbolTableRecord
100
AcDbLinetypeTableRecord
  2
DASHED
 70
64
  3
- - - - - - - - - - - - - - - - - - - -
 72
65
 73
2
 40
0.2
 49
0.1
 74
0
 49
-0.1
 74
0
  0
ENDTAB
  0
TABLE
  2
LAYER
  5
2
100
AcDbSymbolTable
 70
36
  0
LAYER
  5
10
100
AcDbSymbolTableRecord
100
AcDbLayerTableRecord
  2
0
 70
0
 62
7
  6
CONTINUOUS
370
-3
390
F
  0
LAYER
  5
1FA
100
AcDbSymbolTableRecord
100
AcDbLayerTableRecord
  2
DEFAULT_1
 70
0
 62
7
  6
CENTER
370
-3
390
F
  0
LAYER
  5
1FB
100
AcDbSymbolTableRecord
100
AcDbLayerTableRecord
  2
DEFAULT_2
 70
0
 62
7
  6
HIDDEN
370
-3
390
F
  0
LAYER
  5
1FC
100
AcDbSymbolTableRecord
100
AcDbLayerTableRecord
  2
DEFAULT_3
 70
0
 62
7
  6
PHANTOM
370
-3
390
F
  0
LAYER
  5
1FD
100
AcDbSymbolTableRecord
100
AcDbLayerTableRecord
  2
00_COMPONENTS
 70
0
 62
7
  6
CONTINUOUS
370
-3
390
F
  0
LAYER
  5
1FE
100
AcDbSymbolTableRecord
100
AcDbLayerTableRecord
  2
01_1_DEFAULT_DATUMS
 70
0
 62
7
  6
CONTINUOUS
370
-3
390
F
  0
LAYER
  5
1FF
100
AcDbSymbolTableRecord
100
AcDbLayerTableRecord
  2
01_PLANES
 70
0
 62
7
  6
CONTINUOUS
370
-3
390
F
  0
LAYER
  5
200
100
AcDbSymbolTableRecord
100
AcDbLayerTableRecord
  2
02_COORD_SYS
 70
0
 62
7
  6
CONTINUOUS
370
-3
390
F
  0
LAYER
  5
201
100
AcDbSymbolTableRecord
100
AcDbLayerTableRecord
  2
03_AXES
 70
0
 62
7
  6
CONTINUOUS
370
-3
390
F
  0
LAYER
  5
202
100
AcDbSymbolTableRecord
100
AcDbLayerTableRecord
  2
04_POINTS
 70
0
 62
7
  6
CONTINUOUS
370
-3
390
F
  0
LAYER
  5
203
100
AcDbSymbolTableRecord
100
AcDbLayerTableRecord
  2
05_CURVES
 70
0
 62
7
  6
CONTINUOUS
370
-3
390
F
  0
LAYER
  5
204
100
AcDbSymbolTableRecord
100
AcDbLayerTableRecord
  2
06_SURFS
 70
0
 62
7
  6
CONTINUOUS
370
-3
390
F
  0
LAYER
  5
205
100
AcDbSymbolTableRecord
100
AcDbLayerTableRecord
  2
07_COSMETICS
 70
0
 62
7
  6
CONTINUOUS
370
-3
390
F
  0
LAYER
  5
206
100
AcDbSymbolTableRecord
100
AcDbLayerTableRecord
  2
10_NOTES
 70
0
 62
7
  6
CONTINUOUS
370
-3
390
F
  0
LAYER
  5
207
100
AcDbSymbolTableRecord
100
AcDbLayerTableRecord
  2
11_NOTES_PUB
 70
0
 62
7
  6
CONTINUOUS
370
-3
390
F
  0
LAYER
  5
208
100
AcDbSymbolTableRecord
100
AcDbLayerTableRecord
  2
13_REF_GTOL
 70
0
 62
7
  6
CONTINUOUS
370
-3
390
F
  0
LAYER
  5
209
100
AcDbSymbolTableRecord
100
AcDbLayerTableRecord
  2
16_MISC
 70
0
 62
7
  6
CONTINUOUS
370
-3
390
F
  0
LAYER
  5
20A
100
AcDbSymbolTableRecord
100
AcDbLayerTableRecord
  2
17_NO_PRINT
 70
0
 62
7
  6
CONTINUOUS
370
-3
390
F
  0
LAYER
  5
20B
100
AcDbSymbolTableRecord
100
AcDbLayerTableRecord
  2
18_DATUM_CAMS_JOINTS
 70
0
 62
7
  6
CONTINUOUS
370
-3
390
F
  0
LAYER
  5
20C
100
AcDbSymbolTableRecord
100
AcDbLayerTableRecord
  2
19_DATUM_FUNCTIONAL
 70
0
 62
7
  6
CONTINUOUS
370
-3
390
F
  0
LAYER
  5
20D
100
AcDbSymbolTableRecord
100
AcDbLayerTableRecord
  2
20_DATUM_KINEMATIC_SCHEME
 70
0
 62
7
  6
CONTINUOUS
370
-3
390
F
  0
LAYER
  5
20E
100
AcDbSymbolTableRecord
100
AcDbLayerTableRecord
  2
3
 70
0
 62
7
  6
CONTINUOUS
370
-3
390
F
  0
LAYER
  5
20F
100
AcDbSymbolTableRecord
100
AcDbLayerTableRecord
  2
4
 70
0
 62
7
  6
CONTINUOUS
370
-3
390
F
  0
ENDTAB
  0
TABLE
  2
STYLE
  5
3
100
AcDbSymbolTable
 70
1
  0
STYLE
  5
11
100
AcDbSymbolTableRecord
100
AcDbTextStyleTableRecord
  2
STANDARD
 70
0
 40
0.0
 41
1.0
 50
0.0
 71
0
 42
0.2
  3
ARIAL.TTF
  4

  0
STYLE
  5
210
100
AcDbSymbolTableRecord
100
AcDbTextStyleTableRecord
  2
TEXTSTYLE_1
 70
0
 40
0.0
 41
0.8
 50
0.0
 71
0
 42
0.2
  3
gdt
  4

  0
ENDTAB
  0
TABLE
  2
VIEW
  5
6
100
AcDbSymbolTable
 70
0
  0
ENDTAB
  0
TABLE
  2
UCS
  5
7
100
AcDbSymbolTable
 70
0
  0
ENDTAB
  0
TABLE
  2
APPID
  5
9
100
AcDbSymbolTable
 70
1
  0
APPID
  5
211
100
AcDbSymbolTableRecord
100
AcDbRegAppTableRecord
  2
ACAD
 70
0
  0
ENDTAB
  0
TABLE
  2
BLOCK_RECORD
  5
1
100
AcDbSymbolTable
 70
0
  0
BLOCK_RECORD
  5
212
100
AcDbSymbolTableRecord
100
AcDbBlockTableRecord
  2
*Model_Space
  0
BLOCK_RECORD
  5
213
100
AcDbSymbolTableRecord
100
AcDbBlockTableRecord
  2
*Paper_Space
  0
BLOCK_RECORD
  5
214
100
AcDbSymbolTableRecord
100
AcDbBlockTableRecord
  2
_FILLED
  0
ENDTAB
  0
TABLE
  2
DIMSTYLE
  5
A
100
AcDbSymbolTable
 70
1
100
AcDbDimStyleTable
 71
0
  0
DIMSTYLE
105
215
100
AcDbSymbolTableRecord
100
AcDbDimStyleTableRecord
  2
STANDARD
 70
0
  3

  4

 40
1.0
 41
9.5996573436
 42
1.0
 43
0.38
 44
1.0
 45
0.0
 46
0.0
 47
0.01
 48
0.01
140
13.439520281
141
0.09
142
0.0
143
25.4
144
1.0
145
0.0
146
1.0
147
0.625
 71
1
 72
0
 73
0
 74
0
 75
0
 76
0
 77
1
 78
8
 79
2
170
0
171
1
172
0
173
0
174
0
175
0
176
0
177
0
178
0
270
2
179
2
271
2
272
2
273
2
274
2
275
0
280
0
281
0
282
0
283
1
284
8
285
0
286
0
287
3
288
0
340
11
278
46
341
214
342
214
343
214
344
214
  0
ENDTAB
  0
ENDSEC
  0
SECTION
  2
BLOCKS
  0
BLOCK
  5
20
100
AcDbEntity
  8
0
100
AcDbBlockBegin
  2
*Model_Space
 70
0
 10
0.0
 20
0.0
 30
0.0
  3
*Model_Space
  1

  0
ENDBLK
  5
21
100
AcDbEntity
  8
0
100
AcDbBlockEnd
  0
BLOCK
  5
1C
100
AcDbEntity
  8
0
100
AcDbBlockBegin
  2
*Paper_Space
 70
0
 10
0.0
 20
0.0
 30
0.0
  3
*Paper_Space
  1

  0
ENDBLK
  5
1D
100
AcDbEntity
  8
0
100
AcDbBlockEnd
  0
BLOCK
  5
216
100
AcDbEntity
  8
0
100
AcDbBlockBegin
  2
_FILLED
 70
64
 10
0.0
 20
0.0
  3
_FILLED
  1

  0
SOLID
  5
217
100
AcDbEntity
  8
0
  6
BYBLOCK
 62
0
100
AcDbTrace
 10
0.0
 20
0.0
 11
-1.0
 21
0.25
 12
-1.0
 22
-0.25
 13
-1.0
 23
-0.25
  0
ENDBLK
  5
218
100
AcDbEntity
  8
0
  6
BYBLOCK
 62
0
100
AcDbBlockEnd
  0
ENDSEC
  0
SECTION
  2
ENTITIES
  0
LINE
  5
219
100
AcDbEntity
  8
0
100
AcDbLine
 62
7
  6
BYLAYER
 10
511.4878550363
 20
76.0758157122
 11
505.8884317491
 21
76.0758157122
  0
LINE
  5
21A
100
AcDbEntity
  8
0
100
AcDbLine
 62
7
  6
BYLAYER
 10
469.4883300793
 20
76.0758157122
 11
463.887956712
 21
76.0758157122
  0
LINE
  5
21B
100
AcDbEntity
  8
0
100
AcDbLine
 62
7
  6
BYLAYER
 10
363.8387241478
 20
76.0758157122
 11
358.2393008606
 21
76.0758157122
  0
LINE
  5
21C
100
AcDbEntity
  8
0
100
AcDbLine
 62
7
  6
BYLAYER
 10
321.8391991908
 20
76.0758157122
 11
316.2388258235
 21
76.0758157122
  0
LINE
  5
21D
100
AcDbEntity
  8
0
100
AcDbLine
 62
7
  6
BYLAYER
 10
316.0391994374
 20
76.1757055737
 11
316.8664052765
 21
76.1757055737
  0
LINE
  5
21E
100
AcDbEntity
  8
0
100
AcDbLine
 62
7
  6
BYLAYER
 10
322.2119935984
 20
76.1757055737
 11
357.8664052736
 21
76.1757055737
  0
LINE
  5
21F
100
AcDbEntity
  8
0
100
AcDbLine
 62
7
  6
BYLAYER
 10
363.2119935955
 20
76.1757055737
 11
364.0391994374
 21
76.1757055737
  0
LINE
  5
220
100
AcDbEntity
  8
0
100
AcDbLine
 62
7
  6
BYLAYER
 10
463.688330326
 20
76.1757055737
 11
464.515536165
 21
76.1757055737
  0
LINE
  5
221
100
AcDbEntity
  8
0
100
AcDbLine
 62
7
  6
BYLAYER
 10
469.8611244869
 20
76.1757055737
 11
505.5155361621
 21
76.1757055737
  0
LINE
  5
222
100
AcDbEntity
  8
0
100
AcDbLine
 62
7
  6
BYLAYER
 10
510.861124484
 20
76.1757055737
 11
511.688330326
 21
76.1757055737
  0
LINE
  5
223
100
AcDbEntity
  8
0
100
AcDbLine
 62
7
  6
BYLAYER
 10
491.8297785062
 20
76.6757055737
 11
483.5478466717
 21
76.6757055737
  0
LINE
  5
224
100
AcDbEntity
  8
0
100
AcDbLine
 62
7
  6
BYLAYER
 10
344.1806476177
 20
76.6757055737
 11
335.8987157832
 21
76.6757055737
  0
LINE
  5
225
100
AcDbEntity
  8
0
100
AcDbLine
 62
7
  6
BYLAYER
 10
511.4883303231
 20
77.0758157122
 11
504.8883303231
 21
77.0758157122
  0
LINE
  5
226
100
AcDbEntity
  8
0
100
AcDbLine
 62
7
  6
BYLAYER
 10
470.488330326
 20
77.0758157122
 11
463.888330326
 21
77.0758157122
  0
LINE
  5
227
100
AcDbEntity
  8
0
100
AcDbLine
 62
7
  6
BYLAYER
 10
363.8391994345
 20
77.0758157122
 11
357.2391994345
 21
77.0758157122
  0
LINE
  5
228
100
AcDbEntity
  8
0
100
AcDbLine
 62
7
  6
BYLAYER
 10
322.8391994374
 20
77.0758157122
 11
316.2391994374
 21
77.0758157122
  0
LINE
  5
229
100
AcDbEntity
  8
0
100
AcDbLine
 62
7
  6
BYLAYER
 10
512.688330326
 20
77.1757055737
 11
511.4883303231
 21
77.1757055737
  0
LINE
  5
22A
100
AcDbEntity
  8
0
100
AcDbLine
 62
7
  6
BYLAYER
 10
504.8883303231
 20
77.1757055737
 11
491.688330326
 21
77.1757055803
  0
LINE
  5
22B
100
AcDbEntity
  8
0
100
AcDbLine
 62
7
  6
BYLAYER
 10
483.688330326
 20
77.1757055738
 11
470.488330326
 21
77.1757055737
  0
LINE
  5
22C
100
AcDbEntity
  8
0
100
AcDbLine
 62
7
  6
BYLAYER
 10
463.888330326
 20
77.1757055737
 11
462.688330326
 21
77.1757055737
  0
LINE
  5
22D
100
AcDbEntity
  8
0
100
AcDbLine
 62
7
  6
BYLAYER
 10
365.0391994374
 20
77.1757055737
 11
363.8391994345
 21
77.1757055737
  0
LINE
  5
22E
100
AcDbEntity
  8
0
100
AcDbLine
 62
7
  6
BYLAYER
 10
357.2391994345
 20
77.1757055737
 11
344.0391994374
 21
77.1757055803
  0
LINE
  5
22F
100
AcDbEntity
  8
0
100
AcDbLine
 62
7
  6
BYLAYER
 10
336.0391994374
 20
77.1757055738
 11
322.8391994374
 21
77.1757055737
  0
LINE
  5
230
100
AcDbEntity
  8
0
100
AcDbLine
 62
7
  6
BYLAYER
 10
316.2391994374
 20
77.1757055737
 11
315.0391994374
 21
77.1757055737
  0
LINE
  5
231
100
AcDbEntity
  8
0
100
AcDbLine
 62
7
  6
BYLAYER
 10
315.0391994374
 20
78.1757055048
 11
316.2391994374
 21
78.1757055737
  0
LINE
  5
232
100
AcDbEntity
  8
0
100
AcDbLine
 62
7
  6
BYLAYER
 10
322.8391994374
 20
78.1757055737
 11
324.0391994374
 21
78.1757055047
  0
LINE
  5
233
100
AcDbEntity
  8
0
100
AcDbLine
 62
7
  6
BYLAYER
 10
356.0391994374
 20
78.1757055048
 11
357.2391994345
 21
78.1757055737
  0
LINE
  5
234
100
AcDbEntity
  8
0
100
AcDbLine
 62
7
  6
BYLAYER
 10
363.8391994345
 20
78.1757055737
 11
365.0391994374
 21
78.1757055047
  0
LINE
  5
235
100
AcDbEntity
  8
0
100
AcDbLine
 62
7
  6
BYLAYER
 10
462.688330326
 20
78.1757055048
 11
463.888330326
 21
78.1757055737
  0
LINE
  5
236
100
AcDbEntity
  8
0
100
AcDbLine
 62
7
  6
BYLAYER
 10
470.488330326
 20
78.1757055737
 11
471.688330326
 21
78.1757055047
  0
LINE
  5
237
100
AcDbEntity
  8
0
100
AcDbLine
 62
7
  6
BYLAYER
 10
503.688330326
 20
78.1757055048
 11
504.8883303231
 21
78.1757055737
  0
LINE
  5
238
100
AcDbEntity
  8
0
100
AcDbLine
 62
7
  6
BYLAYER
 10
511.4883303231
 20
78.1757055737
 11
512.688330326
 21
78.1757055047
  0
LINE
  5
239
100
AcDbEntity
  8
0
100
AcDbLine
 62
7
  6
BYLAYER
 10
315.5391994374
 20
78.6757055737
 11
322.5391994374
 21
78.6757055737
  0
LINE
  5
23A
100
AcDbEntity
  8
0
100
AcDbLine
 62
7
  6
BYLAYER
 10
357.5391994374
 20
78.6757055737
 11
364.5391994374
 21
78.6757055737
  0
LINE
  5
23B
100
AcDbEntity
  8
0
100
AcDbLine
 62
7
  6
BYLAYER
 10
463.188330326
 20
78.6757055737
 11
470.188330326
 21
78.6757055737
  0
LINE
  5
23C
100
AcDbEntity
  8
0
100
AcDbLine
 62
7
  6
BYLAYER
 10
505.188330326
 20
78.6757055737
 11
512.188330326
 21
78.6757055737
  0
LINE
  5
23D
100
AcDbEntity
  8
0
100
AcDbLine
 62
7
  6
BYLAYER
 10
512.688330326
 20
79.1757055737
 11
505.188330326
 21
79.1757055737
  0
LINE
  5
23E
100
AcDbEntity
  8
0
100
AcDbLine
 62
7
  6
BYLAYER
 10
470.188330326
 20
79.1757055737
 11
462.688330326
 21
79.1757055737
  0
LINE
  5
23F
100
AcDbEntity
  8
0
100
AcDbLine
 62
7
  6
BYLAYER
 10
365.0391994374
 20
79.1757055737
 11
357.5391994374
 21
79.1757055737
  0
LINE
  5
240
100
AcDbEntity
  8
0
100
AcDbLine
 62
7
  6
BYLAYER
 10
322.5391994374
 20
79.1757055737
 11
315.0391994374
 21
79.1757055737
  0
LINE
  5
241
100
AcDbEntity
  8
0
100
AcDbLine
 62
7
  6
BYLAYER
 10
315.0391994374
 20
93.6757055737
 11
365.0391994374
 21
93.6757055737
  0
LINE
  5
242
100
AcDbEntity
  8
0
100
AcDbLine
 62
7
  6
BYLAYER
 10
462.688330326
 20
93.6757055737
 11
512.688330326
 21
93.6757055737
  0
LINE
  5
243
100
AcDbEntity
  8
4
100
AcDbLine
 62
7
  6
BYLAYER
 10
315.0387243944
 20
93.6758285207
 11
365.0387243944
 21
93.6758285207
  0
LINE
  5
244
100
AcDbEntity
  8
3
100
AcDbLine
 62
7
  6
BYLAYER
 10
462.6878552829
 20
93.6758285207
 11
512.6878552829
 21
93.6758285207
  0
LINE
  5
245
100
AcDbEntity
  8
4
100
AcDbLine
 62
7
  6
BYLAYER
 10
304.8499787109
 20
121.0239908354
 11
349.8499787109
 21
121.0239908354
  0
LINE
  5
246
100
AcDbEntity
  8
3
100
AcDbLine
 62
7
  6
BYLAYER
 10
452.4991095994
 20
121.0239908354
 11
497.4991095994
 21
121.0239908354
  0
LINE
  5
247
100
AcDbEntity
  8
3
100
AcDbLine
 62
7
  6
BYLAYER
 10
455.4991095994
 20
126.0239908354
 11
452.4991095994
 21
126.0239908354
  0
LINE
  5
248
100
AcDbEntity
  8
4
100
AcDbLine
 62
7
  6
BYLAYER
 10
307.8499787109
 20
126.0239908354
 11
304.8499787109
 21
126.0239908354
  0
LINE
  5
249
100
AcDbEntity
  8
3
100
AcDbLine
 62
7
  6
BYLAYER
 10
490.3883303245
 20
126.347453655
 11
484.9883303245
 21
126.347453655
  0
LINE
  5
24A
100
AcDbEntity
  8
4
100
AcDbLine
 62
7
  6
BYLAYER
 10
342.739199436
 20
126.347453655
 11
337.339199436
 21
126.347453655
  0
LINE
  5
24B
100
AcDbEntity
  8
4
100
AcDbLine
 62
7
  6
BYLAYER
 10
333.1499787109
 20
127.7739908354
 11
334.6348899672
 21
127.7739908354
  0
LINE
  5
24C
100
AcDbEntity
  8
4
100
AcDbLine
 62
7
  6
BYLAYER
 10
345.4431713652
 20
127.7739908354
 11
346.6499787109
 21
127.7739908354
  0
LINE
  5
24D
100
AcDbEntity
  8
3
100
AcDbLine
 62
7
  6
BYLAYER
 10
480.7991095994
 20
127.7739908354
 11
482.2840208557
 21
127.7739908354
  0
LINE
  5
24E
100
AcDbEntity
  8
3
100
AcDbLine
 62
7
  6
BYLAYER
 10
493.0923022537
 20
127.7739908354
 11
494.2991095994
 21
127.7739908354
  0
LINE
  5
24F
100
AcDbEntity
  8
3
100
AcDbLine
 62
7
  6
BYLAYER
 10
494.2991095994
 20
134.2739908354
 11
493.0926397933
 21
134.2739908354
  0
LINE
  5
250
100
AcDbEntity
  8
3
100
AcDbLine
 62
7
  6
BYLAYER
 10
482.2843583953
 20
134.2739908354
 11
480.7991095994
 21
134.2739908354
  0
LINE
  5
251
100
AcDbEntity
  8
4
100
AcDbLine
 62
7
  6
BYLAYER
 10
346.6499787109
 20
134.2739908354
 11
345.4435089048
 21
134.2739908354
  0
LINE
  5
252
100
AcDbEntity
  8
4
100
AcDbLine
 62
7
  6
BYLAYER
 10
334.6352275068
 20
134.2739908354
 11
333.1499787109
 21
134.2739908354
  0
LINE
  5
253
100
AcDbEntity
  8
4
100
AcDbLine
 62
7
  6
BYLAYER
 10
337.339199436
 20
135.7005280158
 11
342.739199436
 21
135.7005280158
  0
LINE
  5
254
100
AcDbEntity
  8
3
100
AcDbLine
 62
7
  6
BYLAYER
 10
484.9883303245
 20
135.7005280158
 11
490.3883303245
 21
135.7005280158
  0
LINE
  5
255
100
AcDbEntity
  8
0
100
AcDbLine
 62
7
  6
BYLAYER
 10
325.5384696478
 20
1060.1758157122
 11
325.0384716264
 21
1059.6758178707
  0
LINE
  5
256
100
AcDbEntity
  8
0
100
AcDbLine
 62
7
  6
BYLAYER
 10
323.7884716264
 20
1056.1758157122
 11
323.2884716264
 21
1055.6758157122
  0
LINE
  5
257
100
AcDbEntity
  8
3
100
AcDbLine
 62
7
  6
BYLAYER
 10
490.3883303245
 20
156.347453655
 11
484.9883303245
 21
156.347453655
  0
LINE
  5
258
100
AcDbEntity
  8
4
100
AcDbLine
 62
7
  6
BYLAYER
 10
342.739199436
 20
156.347453655
 11
337.339199436
 21
156.347453655
  0
LINE
  5
259
100
AcDbEntity
  8
4
100
AcDbLine
 62
7
  6
BYLAYER
 10
333.1499787109
 20
157.7739908354
 11
334.6348899672
 21
157.7739908354
  0
LINE
  5
25A
100
AcDbEntity
  8
4
100
AcDbLine
 62
7
  6
BYLAYER
 10
345.4431713652
 20
157.7739908354
 11
346.6499787109
 21
157.7739908354
  0
LINE
  5
25B
100
AcDbEntity
  8
3
100
AcDbLine
 62
7
  6
BYLAYER
 10
480.7991095994
 20
157.7739908354
 11
482.2840208557
 21
157.7739908354
  0
LINE
  5
25C
100
AcDbEntity
  8
3
100
AcDbLine
 62
7
  6
BYLAYER
 10
493.0923022537
 20
157.7739908354
 11
494.2991095994
 21
157.7739908354
  0
LINE
  5
25D
100
AcDbEntity
  8
3
100
AcDbLine
 62
7
  6
BYLAYER
 10
494.2991095994
 20
164.2739908354
 11
493.0926397933
 21
164.2739908354
  0
LINE
  5
25E
100
AcDbEntity
  8
3
100
AcDbLine
 62
7
  6
BYLAYER
 10
482.2843583953
 20
164.2739908354
 11
480.7991095994
 21
164.2739908354
  0
LINE
  5
25F
100
AcDbEntity
  8
4
100
AcDbLine
 62
7
  6
BYLAYER
 10
346.6499787109
 20
164.2739908354
 11
345.4435089048
 21
164.2739908354
  0
LINE
  5
260
100
AcDbEntity
  8
4
100
AcDbLine
 62
7
  6
BYLAYER
 10
334.6352275068
 20
164.2739908354
 11
333.1499787109
 21
164.2739908354
  0
LINE
  5
261
100
AcDbEntity
  8
4
100
AcDbLine
 62
7
  6
BYLAYER
 10
337.339199436
 20
165.7005280158
 11
342.739199436
 21
165.7005280158
  0
LINE
  5
262
100
AcDbEntity
  8
3
100
AcDbLine
 62
7
  6
BYLAYER
 10
484.9883303245
 20
165.7005280158
 11
490.3883303245
 21
165.7005280158
  0
LINE
  5
263
100
AcDbEntity
  8
4
100
AcDbLine
 62
7
  6
BYLAYER
 10
304.8499787109
 20
166.0239908354
 11
307.8499787109
 21
166.0239908354
  0
LINE
  5
264
100
AcDbEntity
  8
3
100
AcDbLine
 62
7
  6
BYLAYER
 10
452.4991095994
 20
166.0239908354
 11
455.4991095994
 21
166.0239908354
  0
LINE
  5
265
100
AcDbEntity
  8
0
100
AcDbLine
 62
7
  6
BYLAYER
 10
341.7884716264
 20
1056.1758157122
 11
341.2884716264
 21
1055.6758157122
  0
LINE
  5
266
100
AcDbEntity
  8
4
100
AcDbLine
 62
7
  6
BYLAYER
 10
304.8499787109
 20
171.0239908354
 11
349.8499787109
 21
171.0239908354
  0
LINE
  5
267
100
AcDbEntity
  8
3
100
AcDbLine
 62
7
  6
BYLAYER
 10
452.4991095994
 20
171.0239908354
 11
497.4991095994
 21
171.0239908354
  0
LINE
  5
268
100
AcDbEntity
  8
0
100
AcDbLine
 62
7
  6
BYLAYER
 10
473.1876005363
 20
1060.1758157122
 11
472.6876025149
 21
1059.6758178707
  0
LINE
  5
269
100
AcDbEntity
  8
0
100
AcDbLine
 62
7
  6
BYLAYER
 10
471.4376025149
 20
1056.1758157122
 11
470.9376025149
 21
1055.6758157122
  0
LINE
  5
26A
100
AcDbEntity
  8
4
100
AcDbLine
 62
7
  6
BYLAYER
 10
337.339199436
 20
1002.0354304767
 11
334.639199436
 21
997.3588932963
  0
LINE
  5
26B
100
AcDbEntity
  8
4
100
AcDbLine
 62
7
  6
BYLAYER
 10
342.739199436
 20
992.6823561158
 11
345.439199436
 21
997.3588932963
  0
LINE
  5
26C
100
AcDbEntity
  8
4
100
AcDbLine
 62
7
  6
BYLAYER
 10
337.339199436
 20
972.0354304767
 11
334.639199436
 21
967.3588932963
  0
LINE
  5
26D
100
AcDbEntity
  8
0
100
AcDbLine
 62
7
  6
BYLAYER
 10
489.4376025149
 20
1056.1758157122
 11
488.9376025149
 21
1055.6758157122
  0
LINE
  5
26E
100
AcDbEntity
  8
4
100
AcDbLine
 62
7
  6
BYLAYER
 10
334.639199436
 20
131.0239908354
 11
337.339199436
 21
126.347453655
  0
LINE
  5
26F
100
AcDbEntity
  8
4
100
AcDbLine
 62
7
  6
BYLAYER
 10
345.439199436
 20
131.0239908354
 11
342.739199436
 21
135.7005280158
  0
LINE
  5
270
100
AcDbEntity
  8
4
100
AcDbLine
 62
7
  6
BYLAYER
 10
334.639199436
 20
161.0239908354
 11
337.339199436
 21
156.347453655
  0
LINE
  5
271
100
AcDbEntity
  8
4
100
AcDbLine
 62
7
  6
BYLAYER
 10
342.739199436
 20
962.6823561158
 11
345.439199436
 21
967.3588932963
  0
LINE
  5
272
100
AcDbEntity
  8
4
100
AcDbLine
 62
7
  6
BYLAYER
 10
345.439199436
 20
161.0239908354
 11
342.739199436
 21
165.7005280158
  0
LINE
  5
273
100
AcDbEntity
  8
3
100
AcDbLine
 62
7
  6
BYLAYER
 10
484.9883303245
 20
1002.0354304767
 11
482.2883303245
 21
997.3588932963
  0
LINE
  5
274
100
AcDbEntity
  8
3
100
AcDbLine
 62
7
  6
BYLAYER
 10
490.3883303245
 20
992.6823561158
 11
493.0883303245
 21
997.3588932963
  0
LINE
  5
275
100
AcDbEntity
  8
3
100
AcDbLine
 62
7
  6
BYLAYER
 10
484.9883303245
 20
972.0354304767
 11
482.2883303245
 21
967.3588932963
  0
LINE
  5
276
100
AcDbEntity
  8
3
100
AcDbLine
 62
7
  6
BYLAYER
 10
482.2883303245
 20
131.0239908354
 11
484.9883303245
 21
126.347453655
  0
LINE
  5
277
100
AcDbEntity
  8
3
100
AcDbLine
 62
7
  6
BYLAYER
 10
493.0883303245
 20
131.0239908354
 11
490.3883303245
 21
135.7005280158
  0
LINE
  5
278
100
AcDbEntity
  8
3
100
AcDbLine
 62
7
  6
BYLAYER
 10
482.2883303245
 20
161.0239908354
 11
484.9883303245
 21
156.347453655
  0
LINE
  5
279
100
AcDbEntity
  8
3
100
AcDbLine
 62
7
  6
BYLAYER
 10
493.0883303245
 20
161.0239908354
 11
490.3883303245
 21
165.7005280158
  0
LINE
  5
27A
100
AcDbEntity
  8
4
100
AcDbLine
 62
7
  6
BYLAYER
 10
304.8499787109
 20
121.0239908354
 11
304.8499787109
 21
171.0239908354
  0
LINE
  5
27B
100
AcDbEntity
  8
4
100
AcDbLine
 62
7
  6
BYLAYER
 10
304.8499787109
 20
957.3588932963
 11
304.8499787109
 21
1007.3588932963
  0
LINE
  5
27C
100
AcDbEntity
  8
4
100
AcDbLine
 62
7
  6
BYLAYER
 10
307.8499787109
 20
1007.3588932963
 11
307.8499787109
 21
957.3588932963
  0
LINE
  5
27D
100
AcDbEntity
  8
4
100
AcDbLine
 62
7
  6
BYLAYER
 10
307.8499787109
 20
171.0239908354
 11
307.8499787109
 21
121.0239908354
  0
LINE
  5
27E
100
AcDbEntity
  8
4
100
AcDbLine
 62
7
  6
BYLAYER
 10
311.8499787109
 20
121.0239908354
 11
311.8499787109
 21
171.0239908354
  0
LINE
  5
27F
100
AcDbEntity
  8
4
100
AcDbLine
 62
7
  6
BYLAYER
 10
311.8499787109
 20
957.3588932963
 11
311.8499787109
 21
1007.3588932963
  0
LINE
  5
280
100
AcDbEntity
  8
3
100
AcDbLine
 62
7
  6
BYLAYER
 10
490.3883303245
 20
962.6823561158
 11
493.0883303245
 21
967.3588932963
  0
LINE
  5
281
100
AcDbEntity
  8
0
100
AcDbLine
 62
7
  6
BYLAYER
 10
315.0384716264
 20
1048.6758157122
 11
315.0384716264
 21
1046.6877494179
  0
LINE
  5
282
100
AcDbEntity
  8
0
100
AcDbLine
 62
7
  6
BYLAYER
 10
315.0384716264
 20
1046.6758157122
 11
315.0384716264
 21
1032.1758157122
  0
LINE
  5
283
100
AcDbEntity
  8
4
100
AcDbLine
 62
7
  6
BYLAYER
 10
315.0387243944
 20
1032.1758285207
 11
315.0387243944
 21
1007.3588932963
  0
LINE
  5
284
100
AcDbEntity
  8
4
100
AcDbLine
 62
7
  6
BYLAYER
 10
315.0387243944
 20
957.3588932963
 11
315.0387243944
 21
171.0239908354
  0
LINE
  5
285
100
AcDbEntity
  8
4
100
AcDbLine
 62
7
  6
BYLAYER
 10
315.0387243944
 20
121.0239908354
 11
315.0387243944
 21
93.6758285207
  0
LINE
  5
286
100
AcDbEntity
  8
0
100
AcDbLine
 62
7
  6
BYLAYER
 10
315.0391994374
 20
77.1757055737
 11
315.0391994374
 21
93.6757055737
  0
LINE
  5
287
100
AcDbEntity
  8
0
100
AcDbLine
 62
7
  6
BYLAYER
 10
316.0384716247
 20
1047.6758157122
 11
316.0384716264
 21
1049.6758157122
  0
LINE
  5
288
100
AcDbEntity
  8
0
100
AcDbLine
 62
7
  6
BYLAYER
 10
316.0391994374
 20
76.1757055737
 11
316.0391994357
 21
78.1757055737
  0
LINE
  5
289
100
AcDbEntity
  8
0
100
AcDbLine
 62
7
  6
BYLAYER
 10
316.2384716264
 20
1047.1758157122
 11
316.2384716264
 21
1048.7758157122
  0
LINE
  5
28A
100
AcDbEntity
  8
0
100
AcDbLine
 62
7
  6
BYLAYER
 10
316.2391994374
 20
77.0758157122
 11
316.2391994374
 21
78.6758157122
  0
LINE
  5
28B
100
AcDbEntity
  8
0
100
AcDbLine
 62
7
  6
BYLAYER
 10
319.0384716264
 20
1032.1758157122
 11
319.0384716264
 21
1047.1758157122
  0
LINE
  5
28C
100
AcDbEntity
  8
4
100
AcDbLine
 62
7
  6
BYLAYER
 10
319.0387243944
 20
93.6758285207
 11
319.0387243944
 21
121.0239908354
  0
LINE
  5
28D
100
AcDbEntity
  8
4
100
AcDbLine
 62
7
  6
BYLAYER
 10
319.0387243944
 20
171.0239908354
 11
319.0387243944
 21
957.3588932963
  0
LINE
  5
28E
100
AcDbEntity
  8
4
100
AcDbLine
 62
7
  6
BYLAYER
 10
319.0387243944
 20
1007.3588932963
 11
319.0387243944
 21
1032.1758285207
  0
LINE
  5
28F
100
AcDbEntity
  8
0
100
AcDbLine
 62
7
  6
BYLAYER
 10
319.0391994374
 20
78.6757055737
 11
319.0391994374
 21
93.6757055737
  0
LINE
  5
290
100
AcDbEntity
  8
0
100
AcDbLine
 62
7
  6
BYLAYER
 10
322.5384715536
 20
1047.1758157122
 11
322.5384715536
 21
1046.6758157122
  0
LINE
  5
291
100
AcDbEntity
  8
0
100
AcDbLine
 62
7
  6
BYLAYER
 10
322.5391993649
 20
79.1757055737
 11
322.5391993649
 21
78.6757055737
  0
LINE
  5
292
100
AcDbEntity
  8
0
100
AcDbLine
 62
7
  6
BYLAYER
 10
322.8384716264
 20
1048.7758157122
 11
322.8384716264
 21
1047.279998147
  0
LINE
  5
293
100
AcDbEntity
  8
0
100
AcDbLine
 62
7
  6
BYLAYER
 10
322.8391994374
 20
78.5716385795
 11
322.8391994374
 21
77.0758157122
  0
LINE
  5
294
100
AcDbEntity
  8
0
100
AcDbLine
 62
7
  6
BYLAYER
 10
323.0384716264
 20
1048.6758157122
 11
323.0384716264
 21
1047.6758157122
  0
LINE
  5
295
100
AcDbEntity
  8
0
100
AcDbLine
 62
7
  6
BYLAYER
 10
323.0391994374
 20
78.1757055737
 11
323.0391994374
 21
77.1757055737
  0
LINE
  5
296
100
AcDbEntity
  8
0
100
AcDbLine
 62
7
  6
BYLAYER
 10
323.2884716264
 20
1049.6758157122
 11
323.2884716264
 21
1055.6758157122
  0
LINE
  5
297
100
AcDbEntity
  8
0
100
AcDbLine
 62
7
  6
BYLAYER
 10
324.0384716264
 20
1047.6758157122
 11
324.0384716264
 21
1049.6758157122
  0
LINE
  5
298
100
AcDbEntity
  8
0
100
AcDbLine
 62
7
  6
BYLAYER
 10
324.0391994374
 20
76.1757055737
 11
324.0391994374
 21
78.1757055737
  0
LINE
  5
299
100
AcDbEntity
  8
0
100
AcDbLine
 62
7
  6
BYLAYER
 10
325.0384716264
 20
1056.1758157122
 11
325.0384716264
 21
1059.6758147748
  0
LINE
  5
29A
100
AcDbEntity
  8
0
100
AcDbLine
 62
7
  6
BYLAYER
 10
326.9142516264
 20
1057.3758157122
 11
326.9142516264
 21
1056.1758157122
  0
LINE
  5
29B
100
AcDbEntity
  8
0
100
AcDbLine
 62
7
  6
BYLAYER
 10
335.1642516264
 20
1057.3758157122
 11
335.1642516264
 21
1056.1758157122
  0
LINE
  5
29C
100
AcDbEntity
  8
0
100
AcDbLine
 62
7
  6
BYLAYER
 10
335.5384716264
 20
1048.6758157122
 11
335.5384716264
 21
1032.1758157122
  0
LINE
  5
29D
100
AcDbEntity
  8
4
100
AcDbLine
 62
7
  6
BYLAYER
 10
335.5387243944
 20
1032.1758285207
 11
335.5387243944
 21
1007.3588932963
  0
LINE
  5
29E
100
AcDbEntity
  8
4
100
AcDbLine
 62
7
  6
BYLAYER
 10
335.5387243944
 20
957.3588932963
 11
335.5387243944
 21
171.0239908354
  0
LINE
  5
29F
100
AcDbEntity
  8
4
100
AcDbLine
 62
7
  6
BYLAYER
 10
335.5387243944
 20
121.0239908354
 11
335.5387243944
 21
93.6758285207
  0
LINE
  5
2A0
100
AcDbEntity
  8
0
100
AcDbLine
 62
7
  6
BYLAYER
 10
335.5391994374
 20
93.6757055737
 11
335.5391994374
 21
77.1757055737
  0
LINE
  5
2A1
100
AcDbEntity
  8
0
100
AcDbLine
 62
7
  6
BYLAYER
 10
336.0384716264
 20
1032.1758157122
 11
336.0384716264
 21
1048.6758157121
  0
LINE
  5
2A2
100
AcDbEntity
  8
4
100
AcDbLine
 62
7
  6
BYLAYER
 10
336.0387243944
 20
93.6758285207
 11
336.0387243944
 21
121.0239908354
  0
LINE
  5
2A3
100
AcDbEntity
  8
4
100
AcDbLine
 62
7
  6
BYLAYER
 10
336.0387243944
 20
171.0239908354
 11
336.0387243944
 21
957.3588932963
  0
LINE
  5
2A4
100
AcDbEntity
  8
4
100
AcDbLine
 62
7
  6
BYLAYER
 10
336.0387243944
 20
1007.3588932963
 11
336.0387243944
 21
1032.1758285207
  0
LINE
  5
2A5
100
AcDbEntity
  8
0
100
AcDbLine
 62
7
  6
BYLAYER
 10
336.0391994374
 20
77.1757055737
 11
336.0391994374
 21
93.6757055737
  0
LINE
  5
2A6
100
AcDbEntity
  8
0
100
AcDbLine
 62
7
  6
BYLAYER
 10
337.0384716264
 20
1059.6758147748
 11
337.0384716264
 21
1056.1758157122
  0
LINE
  5
2A7
100
AcDbEntity
  8
0
100
AcDbLine
 62
7
  6
BYLAYER
 10
338.7884716264
 20
1049.6758157122
 11
338.7884716264
 21
1055.6758157122
  0
LINE
  5
2A8
100
AcDbEntity
  8
0
100
AcDbLine
 62
7
  6
BYLAYER
 10
341.2884716264
 20
1049.6758157122
 11
341.2884716264
 21
1055.6758157122
  0
LINE
  5
2A9
100
AcDbEntity
  8
0
100
AcDbLine
 62
7
  6
BYLAYER
 10
344.0384716264
 20
1048.6758157121
 11
344.0384716264
 21
1032.1758157122
  0
LINE
  5
2AA
100
AcDbEntity
  8
4
100
AcDbLine
 62
7
  6
BYLAYER
 10
344.0387243944
 20
1032.1758285207
 11
344.0387243944
 21
1007.3588932963
  0
LINE
  5
2AB
100
AcDbEntity
  8
4
100
AcDbLine
 62
7
  6
BYLAYER
 10
344.0387243944
 20
957.3588932963
 11
344.0387243944
 21
171.0239908354
  0
LINE
  5
2AC
100
AcDbEntity
  8
4
100
AcDbLine
 62
7
  6
BYLAYER
 10
344.0387243944
 20
121.0239908354
 11
344.0387243944
 21
93.6758285207
  0
LINE
  5
2AD
100
AcDbEntity
  8
0
100
AcDbLine
 62
7
  6
BYLAYER
 10
344.0391994374
 20
93.6757055737
 11
344.0391994374
 21
77.1757055738
  0
LINE
  5
2AE
100
AcDbEntity
  8
0
100
AcDbLine
 62
7
  6
BYLAYER
 10
344.5384716264
 20
1032.1758157122
 11
344.5384716264
 21
1048.6758157122
  0
LINE
  5
2AF
100
AcDbEntity
  8
4
100
AcDbLine
 62
7
  6
BYLAYER
 10
344.5387243944
 20
93.6758285207
 11
344.5387243944
 21
121.0239908354
  0
LINE
  5
2B0
100
AcDbEntity
  8
4
100
AcDbLine
 62
7
  6
BYLAYER
 10
344.5387243944
 20
171.0239908354
 11
344.5387243944
 21
957.3588932963
  0
LINE
  5
2B1
100
AcDbEntity
  8
4
100
AcDbLine
 62
7
  6
BYLAYER
 10
344.5387243944
 20
1007.3588932963
 11
344.5387243944
 21
1032.1758285207
  0
LINE
  5
2B2
100
AcDbEntity
  8
0
100
AcDbLine
 62
7
  6
BYLAYER
 10
344.5391994374
 20
77.1757055737
 11
344.5391994374
 21
93.6757055737
  0
LINE
  5
2B3
100
AcDbEntity
  8
0
100
AcDbLine
 62
7
  6
BYLAYER
 10
344.9152316264
 20
1057.3758157122
 11
344.9152316264
 21
1056.1758157122
  0
LINE
  5
2B4
100
AcDbEntity
  8
0
100
AcDbLine
 62
7
  6
BYLAYER
 10
353.1652316264
 20
1057.3758157122
 11
353.1652316264
 21
1056.1758157122
  0
LINE
  5
2B5
100
AcDbEntity
  8
4
100
AcDbLine
 62
7
  6
BYLAYER
 10
354.8499787109
 20
1002.3588932963
 11
354.8499787109
 21
962.3588932963
  0
LINE
  5
2B6
100
AcDbEntity
  8
4
100
AcDbLine
 62
7
  6
BYLAYER
 10
354.8499787109
 20
166.0239908354
 11
354.8499787109
 21
126.0239908354
  0
LINE
  5
2B7
100
AcDbEntity
  8
0
100
AcDbLine
 62
7
  6
BYLAYER
 10
356.0384716264
 20
1049.6758157122
 11
356.0384716264
 21
1047.6758157122
  0
LINE
  5
2B8
100
AcDbEntity
  8
0
100
AcDbLine
 62
7
  6
BYLAYER
 10
356.0391994374
 20
78.1757055737
 11
356.0391994374
 21
76.1757055737
  0
LINE
  5
2B9
100
AcDbEntity
  8
0
100
AcDbLine
 62
7
  6
BYLAYER
 10
356.7884716264
 20
1049.6758157122
 11
356.7884716264
 21
1055.6758157122
  0
LINE
  5
2BA
100
AcDbEntity
  8
0
100
AcDbLine
 62
7
  6
BYLAYER
 10
357.0384716264
 20
1047.6758157122
 11
357.0384716264
 21
1048.6758157122
  0
LINE
  5
2BB
100
AcDbEntity
  8
0
100
AcDbLine
 62
7
  6
BYLAYER
 10
357.0391994374
 20
77.1757055737
 11
357.0391994374
 21
78.1757055737
  0
LINE
  5
2BC
100
AcDbEntity
  8
0
100
AcDbLine
 62
7
  6
BYLAYER
 10
357.2384716264
 20
1047.2798827062
 11
357.2384716264
 21
1048.7758157122
  0
LINE
  5
2BD
100
AcDbEntity
  8
0
100
AcDbLine
 62
7
  6
BYLAYER
 10
357.2391994345
 20
77.0758157122
 11
357.2391994345
 21
78.571523137
  0
LINE
  5
2BE
100
AcDbEntity
  8
0
100
AcDbLine
 62
7
  6
BYLAYER
 10
357.5384716989
 20
1046.6758157122
 11
357.5384716989
 21
1047.1758157122
  0
LINE
  5
2BF
100
AcDbEntity
  8
0
100
AcDbLine
 62
7
  6
BYLAYER
 10
357.5391995103
 20
78.6757055737
 11
357.5391995103
 21
79.1757055737
  0
LINE
  5
2C0
100
AcDbEntity
  8
0
100
AcDbLine
 62
7
  6
BYLAYER
 10
361.0384716264
 20
1047.1758157122
 11
361.0384716264
 21
1032.1758157122
  0
LINE
  5
2C1
100
AcDbEntity
  8
4
100
AcDbLine
 62
7
  6
BYLAYER
 10
361.0387243944
 20
1032.1758285207
 11
361.0387243944
 21
93.6758285207
  0
LINE
  5
2C2
100
AcDbEntity
  8
0
100
AcDbLine
 62
7
  6
BYLAYER
 10
361.0391994374
 20
93.6757055737
 11
361.0391994374
 21
78.6757055737
  0
LINE
  5
2C3
100
AcDbEntity
  8
0
100
AcDbLine
 62
7
  6
BYLAYER
 10
363.8384716264
 20
1048.7758157122
 11
363.8384716264
 21
1047.1758157122
  0
LINE
  5
2C4
100
AcDbEntity
  8
0
100
AcDbLine
 62
7
  6
BYLAYER
 10
363.8391994345
 20
78.6758157122
 11
363.8391994345
 21
77.0758157122
  0
LINE
  5
2C5
100
AcDbEntity
  8
0
100
AcDbLine
 62
7
  6
BYLAYER
 10
364.0384716264
 20
1049.6758157122
 11
364.0384716281
 21
1047.6758157122
  0
LINE
  5
2C6
100
AcDbEntity
  8
0
100
AcDbLine
 62
7
  6
BYLAYER
 10
364.0391994391
 20
78.1757055737
 11
364.0391994374
 21
76.1757055737
  0
LINE
  5
2C7
100
AcDbEntity
  8
0
100
AcDbLine
 62
7
  6
BYLAYER
 10
365.0384716264
 20
1032.1758157122
 11
365.0384716264
 21
1048.6758157122
  0
LINE
  5
2C8
100
AcDbEntity
  8
4
100
AcDbLine
 62
7
  6
BYLAYER
 10
365.0387243944
 20
93.6758285207
 11
365.0387243944
 21
1032.1758285207
  0
LINE
  5
2C9
100
AcDbEntity
  8
0
100
AcDbLine
 62
7
  6
BYLAYER
 10
365.0391994374
 20
77.1757055737
 11
365.0391994375
 21
79.1637429205
  0
LINE
  5
2CA
100
AcDbEntity
  8
0
100
AcDbLine
 62
7
  6
BYLAYER
 10
365.0391994374
 20
79.1757055737
 11
365.0391994374
 21
93.6757055737
  0
LINE
  5
2CB
100
AcDbEntity
  8
3
100
AcDbLine
 62
7
  6
BYLAYER
 10
452.4991095994
 20
121.0239908354
 11
452.4991095994
 21
171.0239908354
  0
LINE
  5
2CC
100
AcDbEntity
  8
3
100
AcDbLine
 62
7
  6
BYLAYER
 10
452.4991095994
 20
957.3588932963
 11
452.4991095994
 21
1007.3588932963
  0
LINE
  5
2CD
100
AcDbEntity
  8
3
100
AcDbLine
 62
7
  6
BYLAYER
 10
455.4991095994
 20
1007.3588932963
 11
455.4991095994
 21
957.3588932963
  0
LINE
  5
2CE
100
AcDbEntity
  8
3
100
AcDbLine
 62
7
  6
BYLAYER
 10
455.4991095994
 20
171.0239908354
 11
455.4991095994
 21
121.0239908354
  0
LINE
  5
2CF
100
AcDbEntity
  8
3
100
AcDbLine
 62
7
  6
BYLAYER
 10
459.4991095994
 20
121.0239908354
 11
459.4991095994
 21
171.0239908354
  0
LINE
  5
2D0
100
AcDbEntity
  8
3
100
AcDbLine
 62
7
  6
BYLAYER
 10
459.4991095994
 20
957.3588932963
 11
459.4991095994
 21
1007.3588932963
  0
LINE
  5
2D1
100
AcDbEntity
  8
0
100
AcDbLine
 62
7
  6
BYLAYER
 10
462.6876025149
 20
1048.6758157122
 11
462.6876025149
 21
1046.6876660436
  0
LINE
  5
2D2
100
AcDbEntity
  8
0
100
AcDbLine
 62
7
  6
BYLAYER
 10
462.6876025149
 20
1046.6758157122
 11
462.6876025149
 21
1032.1758157122
  0
LINE
  5
2D3
100
AcDbEntity
  8
3
100
AcDbLine
 62
7
  6
BYLAYER
 10
462.6878552829
 20
1032.1758285207
 11
462.6878552829
 21
1007.3588932963
  0
LINE
  5
2D4
100
AcDbEntity
  8
3
100
AcDbLine
 62
7
  6
BYLAYER
 10
462.6878552829
 20
957.3588932963
 11
462.6878552829
 21
171.0239908354
  0
LINE
  5
2D5
100
AcDbEntity
  8
3
100
AcDbLine
 62
7
  6
BYLAYER
 10
462.6878552829
 20
121.0239908354
 11
462.6878552829
 21
93.6758285207
  0
LINE
  5
2D6
100
AcDbEntity
  8
0
100
AcDbLine
 62
7
  6
BYLAYER
 10
462.688330326
 20
77.1757055737
 11
462.688330326
 21
93.6757055737
  0
LINE
  5
2D7
100
AcDbEntity
  8
0
100
AcDbLine
 62
7
  6
BYLAYER
 10
463.6876025132
 20
1047.6758157122
 11
463.6876025149
 21
1049.6758157122
  0
LINE
  5
2D8
100
AcDbEntity
  8
0
100
AcDbLine
 62
7
  6
BYLAYER
 10
463.688330326
 20
76.1757055737
 11
463.6883303243
 21
78.1757055737
  0
LINE
  5
2D9
100
AcDbEntity
  8
0
100
AcDbLine
 62
7
  6
BYLAYER
 10
463.8876025149
 20
1047.1758157122
 11
463.8876025149
 21
1048.7758157122
  0
LINE
  5
2DA
100
AcDbEntity
  8
0
100
AcDbLine
 62
7
  6
BYLAYER
 10
463.888330326
 20
77.0758157122
 11
463.888330326
 21
78.6758157122
  0
LINE
  5
2DB
100
AcDbEntity
  8
0
100
AcDbLine
 62
7
  6
BYLAYER
 10
466.6876025149
 20
1032.1758157122
 11
466.6876025149
 21
1047.1758157122
  0
LINE
  5
2DC
100
AcDbEntity
  8
3
100
AcDbLine
 62
7
  6
BYLAYER
 10
466.6878552829
 20
93.6758285207
 11
466.6878552829
 21
121.0239908354
  0
LINE
  5
2DD
100
AcDbEntity
  8
3
100
AcDbLine
 62
7
  6
BYLAYER
 10
466.6878552829
 20
171.0239908354
 11
466.6878552829
 21
957.3588932963
  0
LINE
  5
2DE
100
AcDbEntity
  8
3
100
AcDbLine
 62
7
  6
BYLAYER
 10
466.6878552829
 20
1007.3588932963
 11
466.6878552829
 21
1032.1758285207
  0
LINE
  5
2DF
100
AcDbEntity
  8
0
100
AcDbLine
 62
7
  6
BYLAYER
 10
466.688330326
 20
78.6757055737
 11
466.688330326
 21
93.6757055737
  0
LINE
  5
2E0
100
AcDbEntity
  8
0
100
AcDbLine
 62
7
  6
BYLAYER
 10
470.1876024421
 20
1047.1758157122
 11
470.1876024421
 21
1046.6758157122
  0
LINE
  5
2E1
100
AcDbEntity
  8
0
100
AcDbLine
 62
7
  6
BYLAYER
 10
470.1883302534
 20
79.1757055737
 11
470.1883302534
 21
78.6757055737
  0
LINE
  5
2E2
100
AcDbEntity
  8
0
100
AcDbLine
 62
7
  6
BYLAYER
 10
470.4876025149
 20
1048.7758157122
 11
470.4876025149
 21
1047.279998147
  0
LINE
  5
2E3
100
AcDbEntity
  8
0
100
AcDbLine
 62
7
  6
BYLAYER
 10
470.488330326
 20
78.5716385795
 11
470.488330326
 21
77.0758157122
  0
LINE
  5
2E4
100
AcDbEntity
  8
0
100
AcDbLine
 62
7
  6
BYLAYER
 10
470.6876025149
 20
1048.6758157122
 11
470.6876025149
 21
1047.6758157122
  0
LINE
  5
2E5
100
AcDbEntity
  8
0
100
AcDbLine
 62
7
  6
BYLAYER
 10
470.688330326
 20
78.1757055737
 11
470.688330326
 21
77.1757055737
  0
LINE
  5
2E6
100
AcDbEntity
  8
0
100
AcDbLine
 62
7
  6
BYLAYER
 10
470.9376025149
 20
1049.6758157122
 11
470.9376025149
 21
1055.6758157122
  0
LINE
  5
2E7
100
AcDbEntity
  8
0
100
AcDbLine
 62
7
  6
BYLAYER
 10
471.6876025149
 20
1047.6758157122
 11
471.6876025149
 21
1049.6758157122
  0
LINE
  5
2E8
100
AcDbEntity
  8
0
100
AcDbLine
 62
7
  6
BYLAYER
 10
471.688330326
 20
76.1757055737
 11
471.688330326
 21
78.1757055737
  0
LINE
  5
2E9
100
AcDbEntity
  8
0
100
AcDbLine
 62
7
  6
BYLAYER
 10
472.6876025149
 20
1056.1758157122
 11
472.6876025149
 21
1059.6758147748
  0
LINE
  5
2EA
100
AcDbEntity
  8
0
100
AcDbLine
 62
7
  6
BYLAYER
 10
474.5633825149
 20
1057.3758157122
 11
474.5633825149
 21
1056.1758157122
  0
LINE
  5
2EB
100
AcDbEntity
  8
0
100
AcDbLine
 62
7
  6
BYLAYER
 10
482.8133825149
 20
1057.3758157122
 11
482.8133825149
 21
1056.1758157122
  0
LINE
  5
2EC
100
AcDbEntity
  8
0
100
AcDbLine
 62
7
  6
BYLAYER
 10
483.1876025149
 20
1048.6758157122
 11
483.1876025149
 21
1032.1758157122
  0
LINE
  5
2ED
100
AcDbEntity
  8
3
100
AcDbLine
 62
7
  6
BYLAYER
 10
483.1878552829
 20
1032.1758285207
 11
483.1878552829
 21
1007.3588932963
  0
LINE
  5
2EE
100
AcDbEntity
  8
3
100
AcDbLine
 62
7
  6
BYLAYER
 10
483.1878552829
 20
957.3588932963
 11
483.1878552829
 21
171.0239908354
  0
LINE
  5
2EF
100
AcDbEntity
  8
3
100
AcDbLine
 62
7
  6
BYLAYER
 10
483.1878552829
 20
121.0239908354
 11
483.1878552829
 21
93.6758285207
  0
LINE
  5
2F0
100
AcDbEntity
  8
0
100
AcDbLine
 62
7
  6
BYLAYER
 10
483.188330326
 20
93.6757055737
 11
483.188330326
 21
77.1757055737
  0
LINE
  5
2F1
100
AcDbEntity
  8
0
100
AcDbLine
 62
7
  6
BYLAYER
 10
483.6876025149
 20
1032.1758157122
 11
483.6876025149
 21
1048.6758157121
  0
LINE
  5
2F2
100
AcDbEntity
  8
3
100
AcDbLine
 62
7
  6
BYLAYER
 10
483.6878552829
 20
93.6758285207
 11
483.6878552829
 21
121.0239908354
  0
LINE
  5
2F3
100
AcDbEntity
  8
3
100
AcDbLine
 62
7
  6
BYLAYER
 10
483.6878552829
 20
171.0239908354
 11
483.6878552829
 21
957.3588932963
  0
LINE
  5
2F4
100
AcDbEntity
  8
3
100
AcDbLine
 62
7
  6
BYLAYER
 10
483.6878552829
 20
1007.3588932963
 11
483.6878552829
 21
1032.1758285207
  0
LINE
  5
2F5
100
AcDbEntity
  8
0
100
AcDbLine
 62
7
  6
BYLAYER
 10
483.688330326
 20
77.1757055737
 11
483.688330326
 21
93.6757055737
  0
LINE
  5
2F6
100
AcDbEntity
  8
0
100
AcDbLine
 62
7
  6
BYLAYER
 10
484.6876025149
 20
1059.6758147748
 11
484.6876025149
 21
1056.1758157122
  0
LINE
  5
2F7
100
AcDbEntity
  8
0
100
AcDbLine
 62
7
  6
BYLAYER
 10
486.4376025149
 20
1049.6758157122
 11
486.4376025149
 21
1055.6758157122
  0
LINE
  5
2F8
100
AcDbEntity
  8
0
100
AcDbLine
 62
7
  6
BYLAYER
 10
488.9376025149
 20
1049.6758157122
 11
488.9376025149
 21
1055.6758157122
  0
LINE
  5
2F9
100
AcDbEntity
  8
0
100
AcDbLine
 62
7
  6
BYLAYER
 10
491.6876025149
 20
1048.6758157121
 11
491.6876025149
 21
1032.1758157122
  0
LINE
  5
2FA
100
AcDbEntity
  8
3
100
AcDbLine
 62
7
  6
BYLAYER
 10
491.6878552829
 20
1032.1758285207
 11
491.6878552829
 21
1007.3588932963
  0
LINE
  5
2FB
100
AcDbEntity
  8
3
100
AcDbLine
 62
7
  6
BYLAYER
 10
491.6878552829
 20
957.3588932963
 11
491.6878552829
 21
171.0239908354
  0
LINE
  5
2FC
100
AcDbEntity
  8
3
100
AcDbLine
 62
7
  6
BYLAYER
 10
491.6878552829
 20
121.0239908354
 11
491.6878552829
 21
93.6758285207
  0
LINE
  5
2FD
100
AcDbEntity
  8
0
100
AcDbLine
 62
7
  6
BYLAYER
 10
491.688330326
 20
93.6757055737
 11
491.688330326
 21
77.1757055738
  0
LINE
  5
2FE
100
AcDbEntity
  8
0
100
AcDbLine
 62
7
  6
BYLAYER
 10
492.1876025149
 20
1032.1758157122
 11
492.1876025149
 21
1048.6758157122
  0
LINE
  5
2FF
100
AcDbEntity
  8
3
100
AcDbLine
 62
7
  6
BYLAYER
 10
492.1878552829
 20
93.6758285207
 11
492.1878552829
 21
121.0239908354
  0
LINE
  5
300
100
AcDbEntity
  8
3
100
AcDbLine
 62
7
  6
BYLAYER
 10
492.1878552829
 20
171.0239908354
 11
492.1878552829
 21
957.3588932963
  0
LINE
  5
301
100
AcDbEntity
  8
3
100
AcDbLine
 62
7
  6
BYLAYER
 10
492.1878552829
 20
1007.3588932963
 11
492.1878552829
 21
1032.1758285207
  0
LINE
  5
302
100
AcDbEntity
  8
0
100
AcDbLine
 62
7
  6
BYLAYER
 10
492.188330326
 20
77.1757055737
 11
492.188330326
 21
93.6757055737
  0
LINE
  5
303
100
AcDbEntity
  8
0
100
AcDbLine
 62
7
  6
BYLAYER
 10
492.5643625149
 20
1057.3758157122
 11
492.5643625149
 21
1056.1758157122
  0
LINE
  5
304
100
AcDbEntity
  8
0
100
AcDbLine
 62
7
  6
BYLAYER
 10
500.8143625149
 20
1057.3758157122
 11
500.8143625149
 21
1056.1758157122
  0
LINE
  5
305
100
AcDbEntity
  8
3
100
AcDbLine
 62
7
  6
BYLAYER
 10
502.4991095994
 20
1002.3588932963
 11
502.4991095994
 21
962.3588932963
  0
LINE
  5
306
100
AcDbEntity
  8
3
100
AcDbLine
 62
7
  6
BYLAYER
 10
502.4991095994
 20
166.0239908354
 11
502.4991095994
 21
126.0239908354
  0
LINE
  5
307
100
AcDbEntity
  8
0
100
AcDbLine
 62
7
  6
BYLAYER
 10
503.6876025149
 20
1049.6758157122
 11
503.6876025149
 21
1047.6758157122
  0
LINE
  5
308
100
AcDbEntity
  8
0
100
AcDbLine
 62
7
  6
BYLAYER
 10
503.688330326
 20
78.1757055737
 11
503.688330326
 21
76.1757055737
  0
LINE
  5
309
100
AcDbEntity
  8
0
100
AcDbLine
 62
7
  6
BYLAYER
 10
504.4376025149
 20
1049.6758157122
 11
504.4376025149
 21
1055.6758157122
  0
LINE
  5
30A
100
AcDbEntity
  8
0
100
AcDbLine
 62
7
  6
BYLAYER
 10
504.6876025149
 20
1047.6758157122
 11
504.6876025149
 21
1048.6758157122
  0
LINE
  5
30B
100
AcDbEntity
  8
0
100
AcDbLine
 62
7
  6
BYLAYER
 10
504.688330326
 20
77.1757055737
 11
504.688330326
 21
78.1757055737
  0
LINE
  5
30C
100
AcDbEntity
  8
0
100
AcDbLine
 62
7
  6
BYLAYER
 10
504.8876025149
 20
1047.2798827063
 11
504.8876025149
 21
1048.7758157122
  0
LINE
  5
30D
100
AcDbEntity
  8
0
100
AcDbLine
 62
7
  6
BYLAYER
 10
504.8883303231
 20
77.0758157122
 11
504.8883303231
 21
78.571523137
  0
LINE
  5
30E
100
AcDbEntity
  8
0
100
AcDbLine
 62
7
  6
BYLAYER
 10
505.1876025874
 20
1046.6758157122
 11
505.1876025874
 21
1047.1758157122
  0
LINE
  5
30F
100
AcDbEntity
  8
0
100
AcDbLine
 62
7
  6
BYLAYER
 10
505.1883303988
 20
78.6757055737
 11
505.1883303988
 21
79.1757055737
  0
LINE
  5
310
100
AcDbEntity
  8
0
100
AcDbLine
 62
7
  6
BYLAYER
 10
508.6876025149
 20
1047.1758157122
 11
508.6876025149
 21
1032.1758157122
  0
LINE
  5
311
100
AcDbEntity
  8
3
100
AcDbLine
 62
7
  6
BYLAYER
 10
508.6878552829
 20
1032.1758285207
 11
508.6878552829
 21
93.6758285207
  0
LINE
  5
312
100
AcDbEntity
  8
0
100
AcDbLine
 62
7
  6
BYLAYER
 10
508.688330326
 20
93.6757055737
 11
508.688330326
 21
78.6757055737
  0
LINE
  5
313
100
AcDbEntity
  8
0
100
AcDbLine
 62
7
  6
BYLAYER
 10
511.4876025149
 20
1048.7758157122
 11
511.4876025149
 21
1047.1758157122
  0
LINE
  5
314
100
AcDbEntity
  8
0
100
AcDbLine
 62
7
  6
BYLAYER
 10
511.4883303231
 20
78.6758157122
 11
511.4883303231
 21
77.0758157122
  0
LINE
  5
315
100
AcDbEntity
  8
0
100
AcDbLine
 62
7
  6
BYLAYER
 10
511.6876025149
 20
1049.6758157122
 11
511.6876025166
 21
1047.6758157122
  0
LINE
  5
316
100
AcDbEntity
  8
0
100
AcDbLine
 62
7
  6
BYLAYER
 10
511.6883303277
 20
78.1757055737
 11
511.688330326
 21
76.1757055737
  0
LINE
  5
317
100
AcDbEntity
  8
0
100
AcDbLine
 62
7
  6
BYLAYER
 10
512.6876025149
 20
1032.1758157122
 11
512.6876025149
 21
1048.6758157122
  0
LINE
  5
318
100
AcDbEntity
  8
3
100
AcDbLine
 62
7
  6
BYLAYER
 10
512.6878552829
 20
93.6758285207
 11
512.6878552829
 21
1032.1758285207
  0
LINE
  5
319
100
AcDbEntity
  8
0
100
AcDbLine
 62
7
  6
BYLAYER
 10
512.688330326
 20
77.1757055737
 11
512.688330326
 21
93.6757055737
  0
LINE
  5
31A
100
AcDbEntity
  8
4
100
AcDbLine
 62
7
  6
BYLAYER
 10
334.639199436
 20
967.3588932963
 11
337.339199436
 21
962.6823561158
  0
LINE
  5
31B
100
AcDbEntity
  8
4
100
AcDbLine
 62
7
  6
BYLAYER
 10
337.339199436
 20
165.7005280158
 11
334.639199436
 21
161.0239908354
  0
LINE
  5
31C
100
AcDbEntity
  8
4
100
AcDbLine
 62
7
  6
BYLAYER
 10
342.739199436
 20
156.347453655
 11
345.439199436
 21
161.0239908354
  0
LINE
  5
31D
100
AcDbEntity
  8
4
100
AcDbLine
 62
7
  6
BYLAYER
 10
337.339199436
 20
135.7005280158
 11
334.639199436
 21
131.0239908354
  0
LINE
  5
31E
100
AcDbEntity
  8
4
100
AcDbLine
 62
7
  6
BYLAYER
 10
342.739199436
 20
126.347453655
 11
345.439199436
 21
131.0239908354
  0
LINE
  5
31F
100
AcDbEntity
  8
4
100
AcDbLine
 62
7
  6
BYLAYER
 10
345.439199436
 20
967.3588932963
 11
342.739199436
 21
972.0354304767
  0
LINE
  5
320
100
AcDbEntity
  8
4
100
AcDbLine
 62
7
  6
BYLAYER
 10
334.639199436
 20
997.3588932963
 11
337.339199436
 21
992.6823561158
  0
LINE
  5
321
100
AcDbEntity
  8
4
100
AcDbLine
 62
7
  6
BYLAYER
 10
345.439199436
 20
997.3588932963
 11
342.739199436
 21
1002.0354304767
  0
LINE
  5
322
100
AcDbEntity
  8
3
100
AcDbLine
 62
7
  6
BYLAYER
 10
484.9883303245
 20
165.7005280158
 11
482.2883303245
 21
161.0239908354
  0
LINE
  5
323
100
AcDbEntity
  8
3
100
AcDbLine
 62
7
  6
BYLAYER
 10
482.2883303245
 20
967.3588932963
 11
484.9883303245
 21
962.6823561158
  0
LINE
  5
324
100
AcDbEntity
  8
3
100
AcDbLine
 62
7
  6
BYLAYER
 10
493.0883303245
 20
967.3588932963
 11
490.3883303245
 21
972.0354304767
  0
LINE
  5
325
100
AcDbEntity
  8
3
100
AcDbLine
 62
7
  6
BYLAYER
 10
490.3883303245
 20
156.347453655
 11
493.0883303245
 21
161.0239908354
  0
LINE
  5
326
100
AcDbEntity
  8
3
100
AcDbLine
 62
7
  6
BYLAYER
 10
484.9883303245
 20
135.7005280158
 11
482.2883303245
 21
131.0239908354
  0
LINE
  5
327
100
AcDbEntity
  8
3
100
AcDbLine
 62
7
  6
BYLAYER
 10
490.3883303245
 20
126.347453655
 11
493.0883303245
 21
131.0239908354
  0
LINE
  5
328
100
AcDbEntity
  8
0
100
AcDbLine
 62
7
  6
BYLAYER
 10
338.2884716264
 20
1056.1758157122
 11
338.7884716264
 21
1055.6758157122
  0
LINE
  5
329
100
AcDbEntity
  8
0
100
AcDbLine
 62
7
  6
BYLAYER
 10
336.538473605
 20
1060.1758157122
 11
337.0384716264
 21
1059.6758178707
  0
LINE
  5
32A
100
AcDbEntity
  8
3
100
AcDbLine
 62
7
  6
BYLAYER
 10
482.2883303245
 20
997.3588932963
 11
484.9883303245
 21
992.6823561158
  0
LINE
  5
32B
100
AcDbEntity
  8
3
100
AcDbLine
 62
7
  6
BYLAYER
 10
493.0883303245
 20
997.3588932963
 11
490.3883303245
 21
1002.0354304767
  0
LINE
  5
32C
100
AcDbEntity
  8
0
100
AcDbLine
 62
7
  6
BYLAYER
 10
356.2884716264
 20
1056.1758157122
 11
356.7884716264
 21
1055.6758157122
  0
LINE
  5
32D
100
AcDbEntity
  8
4
100
AcDbLine
 62
7
  6
BYLAYER
 10
304.8499787109
 20
957.3588932963
 11
349.8499787109
 21
957.3588932963
  0
LINE
  5
32E
100
AcDbEntity
  8
3
100
AcDbLine
 62
7
  6
BYLAYER
 10
452.4991095994
 20
957.3588932963
 11
497.4991095994
 21
957.3588932963
  0
LINE
  5
32F
100
AcDbEntity
  8
3
100
AcDbLine
 62
7
  6
BYLAYER
 10
455.4991095994
 20
962.3588932963
 11
452.4991095994
 21
962.3588932963
  0
LINE
  5
330
100
AcDbEntity
  8
4
100
AcDbLine
 62
7
  6
BYLAYER
 10
307.8499787109
 20
962.3588932963
 11
304.8499787109
 21
962.3588932963
  0
LINE
  5
331
100
AcDbEntity
  8
3
100
AcDbLine
 62
7
  6
BYLAYER
 10
490.3883303245
 20
962.6823561158
 11
484.9883303245
 21
962.6823561158
  0
LINE
  5
332
100
AcDbEntity
  8
4
100
AcDbLine
 62
7
  6
BYLAYER
 10
342.739199436
 20
962.6823561158
 11
337.339199436
 21
962.6823561158
  0
LINE
  5
333
100
AcDbEntity
  8
4
100
AcDbLine
 62
7
  6
BYLAYER
 10
333.1499787109
 20
964.1088932963
 11
334.6348899672
 21
964.1088932963
  0
LINE
  5
334
100
AcDbEntity
  8
4
100
AcDbLine
 62
7
  6
BYLAYER
 10
345.4431713652
 20
964.1088932963
 11
346.6499787109
 21
964.1088932963
  0
LINE
  5
335
100
AcDbEntity
  8
3
100
AcDbLine
 62
7
  6
BYLAYER
 10
480.7991095994
 20
964.1088932963
 11
482.2840208557
 21
964.1088932963
  0
LINE
  5
336
100
AcDbEntity
  8
3
100
AcDbLine
 62
7
  6
BYLAYER
 10
493.0923022537
 20
964.1088932963
 11
494.2991095994
 21
964.1088932963
  0
LINE
  5
337
100
AcDbEntity
  8
3
100
AcDbLine
 62
7
  6
BYLAYER
 10
494.2991095994
 20
970.6088932963
 11
493.0926397933
 21
970.6088932963
  0
LINE
  5
338
100
AcDbEntity
  8
3
100
AcDbLine
 62
7
  6
BYLAYER
 10
482.2843583953
 20
970.6088932963
 11
480.7991095994
 21
970.6088932963
  0
LINE
  5
339
100
AcDbEntity
  8
4
100
AcDbLine
 62
7
  6
BYLAYER
 10
346.6499787109
 20
970.6088932963
 11
345.4435089048
 21
970.6088932963
  0
LINE
  5
33A
100
AcDbEntity
  8
4
100
AcDbLine
 62
7
  6
BYLAYER
 10
334.6352275068
 20
970.6088932963
 11
333.1499787109
 21
970.6088932963
  0
LINE
  5
33B
100
AcDbEntity
  8
4
100
AcDbLine
 62
7
  6
BYLAYER
 10
337.339199436
 20
972.0354304767
 11
342.739199436
 21
972.0354304767
  0
LINE
  5
33C
100
AcDbEntity
  8
3
100
AcDbLine
 62
7
  6
BYLAYER
 10
484.9883303245
 20
972.0354304767
 11
490.3883303245
 21
972.0354304767
  0
LINE
  5
33D
100
AcDbEntity
  8
0
100
AcDbLine
 62
7
  6
BYLAYER
 10
485.9376025149
 20
1056.1758157122
 11
486.4376025149
 21
1055.6758157122
  0
LINE
  5
33E
100
AcDbEntity
  8
0
100
AcDbLine
 62
7
  6
BYLAYER
 10
484.1876044936
 20
1060.1758157122
 11
484.6876025149
 21
1059.6758178707
  0
LINE
  5
33F
100
AcDbEntity
  8
3
100
AcDbLine
 62
7
  6
BYLAYER
 10
490.3883303245
 20
992.6823561158
 11
484.9883303245
 21
992.6823561158
  0
LINE
  5
340
100
AcDbEntity
  8
4
100
AcDbLine
 62
7
  6
BYLAYER
 10
342.739199436
 20
992.6823561158
 11
337.339199436
 21
992.6823561158
  0
LINE
  5
341
100
AcDbEntity
  8
4
100
AcDbLine
 62
7
  6
BYLAYER
 10
333.1499787109
 20
994.1088932963
 11
334.6348899672
 21
994.1088932963
  0
LINE
  5
342
100
AcDbEntity
  8
4
100
AcDbLine
 62
7
  6
BYLAYER
 10
345.4431713652
 20
994.1088932963
 11
346.6499787109
 21
994.1088932963
  0
LINE
  5
343
100
AcDbEntity
  8
3
100
AcDbLine
 62
7
  6
BYLAYER
 10
480.7991095994
 20
994.1088932963
 11
482.2840208557
 21
994.1088932963
  0
LINE
  5
344
100
AcDbEntity
  8
3
100
AcDbLine
 62
7
  6
BYLAYER
 10
493.0923022537
 20
994.1088932963
 11
494.2991095994
 21
994.1088932963
  0
LINE
  5
345
100
AcDbEntity
  8
3
100
AcDbLine
 62
7
  6
BYLAYER
 10
494.2991095994
 20
1000.6088932963
 11
493.0926397933
 21
1000.6088932963
  0
LINE
  5
346
100
AcDbEntity
  8
3
100
AcDbLine
 62
7
  6
BYLAYER
 10
482.2843583953
 20
1000.6088932963
 11
480.7991095994
 21
1000.6088932963
  0
LINE
  5
347
100
AcDbEntity
  8
4
100
AcDbLine
 62
7
  6
BYLAYER
 10
346.6499787109
 20
1000.6088932963
 11
345.4435089048
 21
1000.6088932963
  0
LINE
  5
348
100
AcDbEntity
  8
4
100
AcDbLine
 62
7
  6
BYLAYER
 10
334.6352275068
 20
1000.6088932963
 11
333.1499787109
 21
1000.6088932963
  0
LINE
  5
349
100
AcDbEntity
  8
4
100
AcDbLine
 62
7
  6
BYLAYER
 10
337.339199436
 20
1002.0354304767
 11
342.739199436
 21
1002.0354304767
  0
LINE
  5
34A
100
AcDbEntity
  8
3
100
AcDbLine
 62
7
  6
BYLAYER
 10
484.9883303245
 20
1002.0354304767
 11
490.3883303245
 21
1002.0354304767
  0
LINE
  5
34B
100
AcDbEntity
  8
4
100
AcDbLine
 62
7
  6
BYLAYER
 10
304.8499787109
 20
1002.3588932963
 11
307.8499787109
 21
1002.3588932963
  0
LINE
  5
34C
100
AcDbEntity
  8
3
100
AcDbLine
 62
7
  6
BYLAYER
 10
452.4991095994
 20
1002.3588932963
 11
455.4991095994
 21
1002.3588932963
  0
LINE
  5
34D
100
AcDbEntity
  8
4
100
AcDbLine
 62
7
  6
BYLAYER
 10
304.8499787109
 20
1007.3588932963
 11
349.8499787109
 21
1007.3588932963
  0
LINE
  5
34E
100
AcDbEntity
  8
3
100
AcDbLine
 62
7
  6
BYLAYER
 10
452.4991095994
 20
1007.3588932963
 11
497.4991095994
 21
1007.3588932963
  0
LINE
  5
34F
100
AcDbEntity
  8
0
100
AcDbLine
 62
7
  6
BYLAYER
 10
503.9376025149
 20
1056.1758157122
 11
504.4376025149
 21
1055.6758157122
  0
LINE
  5
350
100
AcDbEntity
  8
0
100
AcDbLine
 62
7
  6
BYLAYER
 10
315.0384716264
 20
1032.1758157122
 11
365.0384716264
 21
1032.1758157122
  0
LINE
  5
351
100
AcDbEntity
  8
4
100
AcDbLine
 62
7
  6
BYLAYER
 10
315.0387243944
 20
1032.1758285207
 11
365.0387243944
 21
1032.1758285207
  0
LINE
  5
352
100
AcDbEntity
  8
0
100
AcDbLine
 62
7
  6
BYLAYER
 10
462.6876025149
 20
1032.1758157122
 11
512.6876025149
 21
1032.1758157122
  0
LINE
  5
353
100
AcDbEntity
  8
3
100
AcDbLine
 62
7
  6
BYLAYER
 10
462.6878552829
 20
1032.1758285207
 11
512.6878552829
 21
1032.1758285207
  0
LINE
  5
354
100
AcDbEntity
  8
0
100
AcDbLine
 62
7
  6
BYLAYER
 10
504.6876025149
 20
1045.6758157122
 11
488.6876193289
 21
1045.6758157122
  0
LINE
  5
355
100
AcDbEntity
  8
0
100
AcDbLine
 62
7
  6
BYLAYER
 10
486.6876025149
 20
1045.6758157122
 11
470.6876193289
 21
1045.6758157122
  0
LINE
  5
356
100
AcDbEntity
  8
0
100
AcDbLine
 62
7
  6
BYLAYER
 10
357.0384716264
 20
1045.6758157122
 11
341.0384884403
 21
1045.6758157122
  0
LINE
  5
357
100
AcDbEntity
  8
0
100
AcDbLine
 62
7
  6
BYLAYER
 10
339.0384716264
 20
1045.6758157122
 11
323.0384884403
 21
1045.6758157122
  0
LINE
  5
358
100
AcDbEntity
  8
0
100
AcDbLine
 62
7
  6
BYLAYER
 10
504.5823934861
 20
1045.6870099632
 11
488.7928281366
 21
1045.6870099632
  0
LINE
  5
359
100
AcDbEntity
  8
0
100
AcDbLine
 62
7
  6
BYLAYER
 10
486.5823934861
 20
1045.6870099632
 11
470.7928281366
 21
1045.6870099632
  0
LINE
  5
35A
100
AcDbEntity
  8
0
100
AcDbLine
 62
7
  6
BYLAYER
 10
356.9332625975
 20
1045.6870099632
 11
341.1436972481
 21
1045.6870099632
  0
LINE
  5
35B
100
AcDbEntity
  8
0
100
AcDbLine
 62
7
  6
BYLAYER
 10
338.9332625975
 20
1045.6870099632
 11
323.1436972481
 21
1045.6870099632
  0
LINE
  5
35C
100
AcDbEntity
  8
0
100
AcDbLine
 62
7
  6
BYLAYER
 10
322.9329769662
 20
1046.6645598954
 11
339.143949251
 21
1046.6645598954
  0
LINE
  5
35D
100
AcDbEntity
  8
0
100
AcDbLine
 62
7
  6
BYLAYER
 10
470.5821078547
 20
1046.6645598954
 11
486.7930801395
 21
1046.6645598954
  0
LINE
  5
35E
100
AcDbEntity
  8
0
100
AcDbLine
 62
7
  6
BYLAYER
 10
340.9331751418
 20
1046.6646026293
 11
357.1437510758
 21
1046.6646026293
  0
LINE
  5
35F
100
AcDbEntity
  8
0
100
AcDbLine
 62
7
  6
BYLAYER
 10
488.5823060303
 20
1046.6646026293
 11
504.7928819643
 21
1046.6646026293
  0
LINE
  5
360
100
AcDbEntity
  8
0
100
AcDbLine
 62
7
  6
BYLAYER
 10
315.0384716264
 20
1046.6758157122
 11
322.5384716264
 21
1046.6758157122
  0
LINE
  5
361
100
AcDbEntity
  8
0
100
AcDbLine
 62
7
  6
BYLAYER
 10
357.5384716264
 20
1046.6758157122
 11
365.0384716264
 21
1046.6758157122
  0
LINE
  5
362
100
AcDbEntity
  8
0
100
AcDbLine
 62
7
  6
BYLAYER
 10
462.6876025149
 20
1046.6758157122
 11
470.1876025149
 21
1046.6758157122
  0
LINE
  5
363
100
AcDbEntity
  8
0
100
AcDbLine
 62
7
  6
BYLAYER
 10
505.1876025149
 20
1046.6758157122
 11
512.6876025149
 21
1046.6758157122
  0
LINE
  5
364
100
AcDbEntity
  8
0
100
AcDbLine
 62
7
  6
BYLAYER
 10
315.5384716264
 20
1047.1758157122
 11
322.5384716264
 21
1047.1758157122
  0
LINE
  5
365
100
AcDbEntity
  8
0
100
AcDbLine
 62
7
  6
BYLAYER
 10
357.5384716264
 20
1047.1758157122
 11
364.5384716264
 21
1047.1758157122
  0
LINE
  5
366
100
AcDbEntity
  8
0
100
AcDbLine
 62
7
  6
BYLAYER
 10
463.1876025149
 20
1047.1758157122
 11
470.1876025149
 21
1047.1758157122
  0
LINE
  5
367
100
AcDbEntity
  8
0
100
AcDbLine
 62
7
  6
BYLAYER
 10
505.1876025149
 20
1047.1758157122
 11
512.1876025149
 21
1047.1758157122
  0
LINE
  5
368
100
AcDbEntity
  8
0
100
AcDbLine
 62
7
  6
BYLAYER
 10
512.6876025149
 20
1047.6758157811
 11
511.4876025149
 21
1047.6758157122
  0
LINE
  5
369
100
AcDbEntity
  8
0
100
AcDbLine
 62
7
  6
BYLAYER
 10
504.8876025149
 20
1047.6758157122
 11
503.6876025149
 21
1047.6758157812
  0
LINE
  5
36A
100
AcDbEntity
  8
0
100
AcDbLine
 62
7
  6
BYLAYER
 10
471.6876025149
 20
1047.6758157811
 11
470.4876025149
 21
1047.6758157122
  0
LINE
  5
36B
100
AcDbEntity
  8
0
100
AcDbLine
 62
7
  6
BYLAYER
 10
463.8876025149
 20
1047.6758157122
 11
462.6876025149
 21
1047.6758157812
  0
LINE
  5
36C
100
AcDbEntity
  8
0
100
AcDbLine
 62
7
  6
BYLAYER
 10
365.0384716264
 20
1047.6758157811
 11
363.8384716264
 21
1047.6758157122
  0
LINE
  5
36D
100
AcDbEntity
  8
0
100
AcDbLine
 62
7
  6
BYLAYER
 10
357.2384716264
 20
1047.6758157122
 11
356.0384716264
 21
1047.6758157812
  0
LINE
  5
36E
100
AcDbEntity
  8
0
100
AcDbLine
 62
7
  6
BYLAYER
 10
324.0384716264
 20
1047.6758157811
 11
322.8384716264
 21
1047.6758157122
  0
LINE
  5
36F
100
AcDbEntity
  8
0
100
AcDbLine
 62
7
  6
BYLAYER
 10
316.2384716264
 20
1047.6758157122
 11
315.0384716264
 21
1047.6758157812
  0
LINE
  5
370
100
AcDbEntity
  8
0
100
AcDbLine
 62
7
  6
BYLAYER
 10
315.0384716264
 20
1048.6758157122
 11
316.2384716264
 21
1048.6758157122
  0
LINE
  5
371
100
AcDbEntity
  8
0
100
AcDbLine
 62
7
  6
BYLAYER
 10
322.8384716264
 20
1048.6758157122
 11
336.0384716264
 21
1048.6758157055
  0
LINE
  5
372
100
AcDbEntity
  8
0
100
AcDbLine
 62
7
  6
BYLAYER
 10
344.0384716264
 20
1048.6758157121
 11
357.2384716264
 21
1048.6758157122
  0
LINE
  5
373
100
AcDbEntity
  8
0
100
AcDbLine
 62
7
  6
BYLAYER
 10
363.8384716264
 20
1048.6758157122
 11
365.0384716264
 21
1048.6758157122
  0
LINE
  5
374
100
AcDbEntity
  8
0
100
AcDbLine
 62
7
  6
BYLAYER
 10
462.6876025149
 20
1048.6758157122
 11
463.8876025149
 21
1048.6758157122
  0
LINE
  5
375
100
AcDbEntity
  8
0
100
AcDbLine
 62
7
  6
BYLAYER
 10
470.4876025149
 20
1048.6758157122
 11
483.6876025149
 21
1048.6758157055
  0
LINE
  5
376
100
AcDbEntity
  8
0
100
AcDbLine
 62
7
  6
BYLAYER
 10
491.6876025149
 20
1048.6758157121
 11
504.8876025149
 21
1048.6758157122
  0
LINE
  5
377
100
AcDbEntity
  8
0
100
AcDbLine
 62
7
  6
BYLAYER
 10
511.4876025149
 20
1048.6758157122
 11
512.6876025149
 21
1048.6758157122
  0
LINE
  5
378
100
AcDbEntity
  8
0
100
AcDbLine
 62
7
  6
BYLAYER
 10
316.2384716264
 20
1048.7758157122
 11
322.8384716264
 21
1048.7758157122
  0
LINE
  5
379
100
AcDbEntity
  8
0
100
AcDbLine
 62
7
  6
BYLAYER
 10
357.2384716264
 20
1048.7758157122
 11
363.8384716264
 21
1048.7758157122
  0
LINE
  5
37A
100
AcDbEntity
  8
0
100
AcDbLine
 62
7
  6
BYLAYER
 10
463.8876025149
 20
1048.7758157122
 11
470.4876025149
 21
1048.7758157122
  0
LINE
  5
37B
100
AcDbEntity
  8
0
100
AcDbLine
 62
7
  6
BYLAYER
 10
504.8876025149
 20
1048.7758157122
 11
511.4876025149
 21
1048.7758157122
  0
LINE
  5
37C
100
AcDbEntity
  8
0
100
AcDbLine
 62
7
  6
BYLAYER
 10
335.8970234462
 20
1049.1758157122
 11
344.1789552806
 21
1049.1758157122
  0
LINE
  5
37D
100
AcDbEntity
  8
0
100
AcDbLine
 62
7
  6
BYLAYER
 10
483.5461543347
 20
1049.1758157122
 11
491.8280861691
 21
1049.1758157122
  0
LINE
  5
37E
100
AcDbEntity
  8
0
100
AcDbLine
 62
7
  6
BYLAYER
 10
511.6876025149
 20
1049.6758157122
 11
510.8608077184
 21
1049.6758157122
  0
LINE
  5
37F
100
AcDbEntity
  8
0
100
AcDbLine
 62
7
  6
BYLAYER
 10
464.5143973114
 20
1049.6758157122
 11
463.6876025149
 21
1049.6758157122
  0
LINE
  5
380
100
AcDbEntity
  8
0
100
AcDbLine
 62
7
  6
BYLAYER
 10
364.0384716264
 20
1049.6758157122
 11
363.2116768299
 21
1049.6758157122
  0
LINE
  5
381
100
AcDbEntity
  8
0
100
AcDbLine
 62
7
  6
BYLAYER
 10
316.8652664229
 20
1049.6758157122
 11
316.0384716264
 21
1049.6758157122
  0
LINE
  5
382
100
AcDbEntity
  8
0
100
AcDbLine
 62
7
  6
BYLAYER
 10
322.2116768299
 20
1049.6758157122
 11
357.8652664229
 21
1049.6758157122
  0
LINE
  5
383
100
AcDbEntity
  8
0
100
AcDbLine
 62
7
  6
BYLAYER
 10
469.8608077184
 20
1049.6758157122
 11
505.5143973114
 21
1049.6758157122
  0
LINE
  5
384
100
AcDbEntity
  8
0
100
AcDbLine
 62
7
  6
BYLAYER
 10
316.2384718731
 20
1049.7758157122
 11
321.8383702004
 21
1049.7758157122
  0
LINE
  5
385
100
AcDbEntity
  8
0
100
AcDbLine
 62
7
  6
BYLAYER
 10
358.2384718731
 20
1049.7758157122
 11
363.8383702004
 21
1049.7758157122
  0
LINE
  5
386
100
AcDbEntity
  8
0
100
AcDbLine
 62
7
  6
BYLAYER
 10
463.8876027616
 20
1049.7758157122
 11
469.4875010889
 21
1049.7758157122
  0
LINE
  5
387
100
AcDbEntity
  8
0
100
AcDbLine
 62
7
  6
BYLAYER
 10
505.8876027616
 20
1049.7758157122
 11
511.4875010889
 21
1049.7758157122
  0
LINE
  5
388
100
AcDbEntity
  8
0
100
AcDbLine
 62
7
  6
BYLAYER
 10
504.4376025149
 20
1051.1758157122
 11
488.9376025149
 21
1051.1758157122
  0
LINE
  5
389
100
AcDbEntity
  8
0
100
AcDbLine
 62
7
  6
BYLAYER
 10
486.4376025149
 20
1051.1758157122
 11
470.9376025149
 21
1051.1758157122
  0
LINE
  5
38A
100
AcDbEntity
  8
0
100
AcDbLine
 62
7
  6
BYLAYER
 10
356.7884716264
 20
1051.1758157122
 11
341.2884716264
 21
1051.1758157122
  0
LINE
  5
38B
100
AcDbEntity
  8
0
100
AcDbLine
 62
7
  6
BYLAYER
 10
338.7884716264
 20
1051.1758157122
 11
323.2884716264
 21
1051.1758157122
  0
LINE
  5
38C
100
AcDbEntity
  8
0
100
AcDbLine
 62
7
  6
BYLAYER
 10
504.4375982321
 20
1054.1758157122
 11
488.9376067977
 21
1054.1758157122
  0
LINE
  5
38D
100
AcDbEntity
  8
0
100
AcDbLine
 62
7
  6
BYLAYER
 10
486.4375982321
 20
1054.1758157122
 11
470.9376067977
 21
1054.1758157122
  0
LINE
  5
38E
100
AcDbEntity
  8
0
100
AcDbLine
 62
7
  6
BYLAYER
 10
356.7884673436
 20
1054.1758157122
 11
341.2884759092
 21
1054.1758157122
  0
LINE
  5
38F
100
AcDbEntity
  8
0
100
AcDbLine
 62
7
  6
BYLAYER
 10
338.7884673436
 20
1054.1758157122
 11
323.2884759092
 21
1054.1758157122
  0
LINE
  5
390
100
AcDbEntity
  8
0
100
AcDbLine
 62
7
  6
BYLAYER
 10
323.2884716264
 20
1055.6758157122
 11
338.7884716264
 21
1055.6758157122
  0
LINE
  5
391
100
AcDbEntity
  8
0
100
AcDbLine
 62
7
  6
BYLAYER
 10
341.2884716264
 20
1055.6758157122
 11
356.7884716264
 21
1055.6758157122
  0
LINE
  5
392
100
AcDbEntity
  8
0
100
AcDbLine
 62
7
  6
BYLAYER
 10
470.9376025149
 20
1055.6758157122
 11
486.4376025149
 21
1055.6758157122
  0
LINE
  5
393
100
AcDbEntity
  8
0
100
AcDbLine
 62
7
  6
BYLAYER
 10
488.9376025149
 20
1055.6758157122
 11
504.4376025149
 21
1055.6758157122
  0
LINE
  5
394
100
AcDbEntity
  8
0
100
AcDbLine
 62
7
  6
BYLAYER
 10
323.7884756292
 20
1056.1758157122
 11
338.2884676236
 21
1056.1758157122
  0
LINE
  5
395
100
AcDbEntity
  8
0
100
AcDbLine
 62
7
  6
BYLAYER
 10
341.7884756292
 20
1056.1758157122
 11
356.2884676236
 21
1056.1758157122
  0
LINE
  5
396
100
AcDbEntity
  8
0
100
AcDbLine
 62
7
  6
BYLAYER
 10
471.4376065177
 20
1056.1758157122
 11
485.9375985121
 21
1056.1758157122
  0
LINE
  5
397
100
AcDbEntity
  8
0
100
AcDbLine
 62
7
  6
BYLAYER
 10
489.4376065177
 20
1056.1758157122
 11
503.9375985121
 21
1056.1758157122
  0
LINE
  5
398
100
AcDbEntity
  8
0
100
AcDbLine
 62
7
  6
BYLAYER
 10
326.9142516264
 20
1057.3758157122
 11
335.1642516264
 21
1057.3758157122
  0
LINE
  5
399
100
AcDbEntity
  8
0
100
AcDbLine
 62
7
  6
BYLAYER
 10
344.9152316264
 20
1057.3758157122
 11
353.1652316264
 21
1057.3758157122
  0
LINE
  5
39A
100
AcDbEntity
  8
0
100
AcDbLine
 62
7
  6
BYLAYER
 10
474.5633825149
 20
1057.3758157122
 11
482.8133825149
 21
1057.3758157122
  0
LINE
  5
39B
100
AcDbEntity
  8
0
100
AcDbLine
 62
7
  6
BYLAYER
 10
492.5643625149
 20
1057.3758157122
 11
500.8143625149
 21
1057.3758157122
  0
LINE
  5
39C
100
AcDbEntity
  8
0
100
AcDbLine
 62
7
  6
BYLAYER
 10
327.2143391025
 20
1057.6758157122
 11
334.8642702435
 21
1057.6758157122
  0
LINE
  5
39D
100
AcDbEntity
  8
0
100
AcDbLine
 62
7
  6
BYLAYER
 10
345.2151712585
 20
1057.6758157122
 11
352.8652535177
 21
1057.6758157122
  0
LINE
  5
39E
100
AcDbEntity
  8
0
100
AcDbLine
 62
7
  6
BYLAYER
 10
474.863469991
 20
1057.6758157122
 11
482.5134011321
 21
1057.6758157122
  0
LINE
  5
39F
100
AcDbEntity
  8
0
100
AcDbLine
 62
7
  6
BYLAYER
 10
492.864302147
 20
1057.6758157122
 11
500.5143844062
 21
1057.6758157122
  0
LINE
  5
3A0
100
AcDbEntity
  8
0
100
AcDbLine
 62
7
  6
BYLAYER
 10
325.0384716264
 20
1059.6758147748
 11
337.0384716264
 21
1059.6758147748
  0
LINE
  5
3A1
100
AcDbEntity
  8
0
100
AcDbLine
 62
7
  6
BYLAYER
 10
472.6876025149
 20
1059.6758147748
 11
484.6876025149
 21
1059.6758147748
  0
LINE
  5
3A2
100
AcDbEntity
  8
0
100
AcDbLine
 62
7
  6
BYLAYER
 10
325.5384769277
 20
1060.1758157122
 11
336.5384721907
 21
1060.1758157122
  0
LINE
  5
3A3
100
AcDbEntity
  8
0
100
AcDbLine
 62
7
  6
BYLAYER
 10
473.1876078163
 20
1060.1758157122
 11
484.1876030792
 21
1060.1758157122
  0
ARC
  5
3A4
100
AcDbEntity
  8
0
100
AcDbCircle
 62
7
  6
BYLAYER
 10
316.2387243975
 20
77.0758157122
 40
1.0
100
AcDbArc
 50
234.2503109332
 51
270.0
  0
ARC
  5
3A5
100
AcDbEntity
  8
0
100
AcDbCircle
 62
7
  6
BYLAYER
 10
321.8391994374
 20
77.0758157122
 40
1.0
100
AcDbArc
 50
270.0
 51
360.0
  0
ARC
  5
3A6
100
AcDbEntity
  8
0
100
AcDbCircle
 62
7
  6
BYLAYER
 10
317.2391994374
 20
77.0758157122
 40
1.0
100
AcDbArc
 50
180.0
 51
270.0
  0
ARC
  5
3A7
100
AcDbEntity
  8
0
100
AcDbCircle
 62
7
  6
BYLAYER
 10
324.0391994374
 20
77.1757055737
 40
1.0
100
AcDbArc
 50
180.0
 51
270.0
  0
ARC
  5
3A8
100
AcDbEntity
  8
0
100
AcDbCircle
 62
7
  6
BYLAYER
 10
316.0391994374
 20
77.1757055737
 40
1.0
100
AcDbArc
 50
180.0
 51
270.0
  0
ARC
  5
3A9
100
AcDbEntity
  8
0
100
AcDbCircle
 62
7
  6
BYLAYER
 10
335.0391994374
 20
77.1757055737
 40
1.0
100
AcDbArc
 50
270.0
 51
360.0
  0
ARC
  5
3AA
100
AcDbEntity
  8
0
100
AcDbCircle
 62
7
  6
BYLAYER
 10
315.5391994374
 20
79.1757055737
 40
0.5
100
AcDbArc
 50
180.0
 51
270.0
  0
ARC
  5
3AB
100
AcDbEntity
  8
0
100
AcDbCircle
 62
7
  6
BYLAYER
 10
322.5391994374
 20
78.1757055737
 40
0.5
100
AcDbArc
 50
0.0
 51
90.0
  0
ARC
  5
3AC
100
AcDbEntity
  8
4
100
AcDbCircle
 62
7
  6
BYLAYER
 10
333.1499787109
 20
131.0239908354
 40
3.25
100
AcDbArc
 50
90.0
 51
270.0
  0
ARC
  5
3AD
100
AcDbEntity
  8
4
100
AcDbCircle
 62
7
  6
BYLAYER
 10
333.1499787109
 20
161.0239908354
 40
3.25
100
AcDbArc
 50
90.0
 51
270.0
  0
ARC
  5
3AE
100
AcDbEntity
  8
0
100
AcDbCircle
 62
7
  6
BYLAYER
 10
363.8387243944
 20
77.0758157122
 40
1.0
100
AcDbArc
 50
270.0
 51
305.7190868306
  0
ARC
  5
3AF
100
AcDbEntity
  8
0
100
AcDbCircle
 62
7
  6
BYLAYER
 10
362.8391994345
 20
77.0758157122
 40
1.0
100
AcDbArc
 50
270.0
 51
360.0
  0
ARC
  5
3B0
100
AcDbEntity
  8
0
100
AcDbCircle
 62
7
  6
BYLAYER
 10
358.2391994345
 20
77.0758157122
 40
1.0
100
AcDbArc
 50
180.0
 51
270.0
  0
ARC
  5
3B1
100
AcDbEntity
  8
0
100
AcDbCircle
 62
7
  6
BYLAYER
 10
345.0391994374
 20
77.1757055737
 40
1.0
100
AcDbArc
 50
179.9999999984
 51
270.0
  0
ARC
  5
3B2
100
AcDbEntity
  8
0
100
AcDbCircle
 62
7
  6
BYLAYER
 10
356.0391994374
 20
77.1757055737
 40
1.0
100
AcDbArc
 50
270.0
 51
360.0
  0
ARC
  5
3B3
100
AcDbEntity
  8
0
100
AcDbCircle
 62
7
  6
BYLAYER
 10
364.0391994374
 20
77.1757055737
 40
1.0
100
AcDbArc
 50
270.0
 51
360.0
  0
ARC
  5
3B4
100
AcDbEntity
  8
0
100
AcDbCircle
 62
7
  6
BYLAYER
 10
357.5391994374
 20
78.1757055737
 40
0.5
100
AcDbArc
 50
90.0
 51
180.0
  0
ARC
  5
3B5
100
AcDbEntity
  8
0
100
AcDbCircle
 62
7
  6
BYLAYER
 10
364.5391994374
 20
79.1757055737
 40
0.5
100
AcDbArc
 50
270.0
 51
360.0
  0
CIRCLE
  5
3B6
100
AcDbEntity
  8
4
100
AcDbCircle
 62
7
  6
BYLAYER
 10
340.039199436
 20
131.0239908354
 40
6.3525
  0
CIRCLE
  5
3B7
100
AcDbEntity
  8
4
100
AcDbCircle
 62
7
  6
BYLAYER
 10
340.039199436
 20
161.0239908354
 40
6.3525
  0
ARC
  5
3B8
100
AcDbEntity
  8
4
100
AcDbCircle
 62
7
  6
BYLAYER
 10
349.8499787109
 20
126.0239908354
 40
5.0
100
AcDbArc
 50
270.0
 51
360.0
  0
ARC
  5
3B9
100
AcDbEntity
  8
4
100
AcDbCircle
 62
7
  6
BYLAYER
 10
349.8499787109
 20
166.0239908354
 40
5.0
100
AcDbArc
 50
0.0
 51
90.0
  0
ARC
  5
3BA
100
AcDbEntity
  8
4
100
AcDbCircle
 62
7
  6
BYLAYER
 10
346.6499787109
 20
131.0239908354
 40
3.25
100
AcDbArc
 50
270.0
 51
90.0
  0
ARC
  5
3BB
100
AcDbEntity
  8
4
100
AcDbCircle
 62
7
  6
BYLAYER
 10
346.6499787109
 20
161.0239908354
 40
3.25
100
AcDbArc
 50
270.0
 51
90.0
  0
CIRCLE
  5
3BC
100
AcDbEntity
  8
4
100
AcDbCircle
 62
7
  6
BYLAYER
 10
340.039199436
 20
131.0239908354
 40
3.0
  0
CIRCLE
  5
3BD
100
AcDbEntity
  8
4
100
AcDbCircle
 62
7
  6
BYLAYER
 10
340.039199436
 20
161.0239908354
 40
3.0
  0
ARC
  5
3BE
100
AcDbEntity
  8
4
100
AcDbCircle
 62
7
  6
BYLAYER
 10
333.1499787109
 20
967.3588932963
 40
3.25
100
AcDbArc
 50
90.0
 51
270.0
  0
ARC
  5
3BF
100
AcDbEntity
  8
4
100
AcDbCircle
 62
7
  6
BYLAYER
 10
333.1499787109
 20
997.3588932963
 40
3.25
100
AcDbArc
 50
90.0
 51
270.0
  0
ARC
  5
3C0
100
AcDbEntity
  8
0
100
AcDbCircle
 62
7
  6
BYLAYER
 10
316.2384716264
 20
1048.7758157122
 40
1.0
100
AcDbArc
 50
90.0
 51
125.746880854
  0
ARC
  5
3C1
100
AcDbEntity
  8
0
100
AcDbCircle
 62
7
  6
BYLAYER
 10
317.2384716264
 20
1048.7758157122
 40
1.0
100
AcDbArc
 50
90.0
 51
180.0
  0
ARC
  5
3C2
100
AcDbEntity
  8
0
100
AcDbCircle
 62
7
  6
BYLAYER
 10
321.8384716264
 20
1048.7758157122
 40
1.0
100
AcDbArc
 50
0.0
 51
90.0
  0
ARC
  5
3C3
100
AcDbEntity
  8
0
100
AcDbCircle
 62
7
  6
BYLAYER
 10
335.0384716264
 20
1048.6758157122
 40
1.0
100
AcDbArc
 50
0.0
 51
90.0
  0
ARC
  5
3C4
100
AcDbEntity
  8
0
100
AcDbCircle
 62
7
  6
BYLAYER
 10
316.0384716264
 20
1048.6758157122
 40
1.0
100
AcDbArc
 50
90.0
 51
180.0
  0
ARC
  5
3C5
100
AcDbEntity
  8
0
100
AcDbCircle
 62
7
  6
BYLAYER
 10
324.0384716264
 20
1048.6758157122
 40
1.0
100
AcDbArc
 50
90.0
 51
180.0
  0
ARC
  5
3C6
100
AcDbEntity
  8
0
100
AcDbCircle
 62
7
  6
BYLAYER
 10
322.5384716264
 20
1047.6758157122
 40
0.5
100
AcDbArc
 50
270.0
 51
360.0
  0
ARC
  5
3C7
100
AcDbEntity
  8
0
100
AcDbCircle
 62
7
  6
BYLAYER
 10
315.5384716264
 20
1046.6758157122
 40
0.5
100
AcDbArc
 50
90.0
 51
180.0
  0
ARC
  5
3C8
100
AcDbEntity
  8
0
100
AcDbCircle
 62
7
  6
BYLAYER
 10
339.0384539645
 20
1046.1758158952
 40
0.4999999532
100
AcDbArc
 50
257.819789003
 51
77.8195901876
  0
ARC
  5
3C9
100
AcDbEntity
  8
0
100
AcDbCircle
 62
7
  6
BYLAYER
 10
323.0384892883
 20
1046.1758158952
 40
0.4999999532
100
AcDbArc
 50
102.1804098123
 51
282.180210997
  0
ARC
  5
3CA
100
AcDbEntity
  8
0
100
AcDbCircle
 62
7
  6
BYLAYER
 10
327.2142516264
 20
1057.3758157122
 40
0.3
100
AcDbArc
 50
90.0
 51
180.0
  0
ARC
  5
3CB
100
AcDbEntity
  8
0
100
AcDbCircle
 62
7
  6
BYLAYER
 10
334.8642516264
 20
1057.3758157122
 40
0.3
100
AcDbArc
 50
0.0000000001
 51
90.0
  0
CIRCLE
  5
3CC
100
AcDbEntity
  8
4
100
AcDbCircle
 62
7
  6
BYLAYER
 10
340.039199436
 20
997.3588932963
 40
6.3525
  0
CIRCLE
  5
3CD
100
AcDbEntity
  8
4
100
AcDbCircle
 62
7
  6
BYLAYER
 10
340.039199436
 20
967.3588932963
 40
6.3525
  0
ARC
  5
3CE
100
AcDbEntity
  8
4
100
AcDbCircle
 62
7
  6
BYLAYER
 10
349.8499787109
 20
962.3588932963
 40
5.0
100
AcDbArc
 50
270.0
 51
360.0
  0
ARC
  5
3CF
100
AcDbEntity
  8
4
100
AcDbCircle
 62
7
  6
BYLAYER
 10
349.8499787109
 20
1002.3588932963
 40
5.0
100
AcDbArc
 50
0.0
 51
90.0
  0
ARC
  5
3D0
100
AcDbEntity
  8
4
100
AcDbCircle
 62
7
  6
BYLAYER
 10
346.6499787109
 20
967.3588932963
 40
3.25
100
AcDbArc
 50
270.0
 51
90.0
  0
ARC
  5
3D1
100
AcDbEntity
  8
4
100
AcDbCircle
 62
7
  6
BYLAYER
 10
346.6499787109
 20
997.3588932963
 40
3.25
100
AcDbArc
 50
270.0
 51
90.0
  0
CIRCLE
  5
3D2
100
AcDbEntity
  8
4
100
AcDbCircle
 62
7
  6
BYLAYER
 10
340.039199436
 20
967.3588932963
 40
3.0
  0
CIRCLE
  5
3D3
100
AcDbEntity
  8
4
100
AcDbCircle
 62
7
  6
BYLAYER
 10
340.039199436
 20
997.3588932963
 40
3.0
  0
ARC
  5
3D4
100
AcDbEntity
  8
0
100
AcDbCircle
 62
7
  6
BYLAYER
 10
363.8384716264
 20
1048.7758157122
 40
1.0
100
AcDbArc
 50
54.2529864704
 51
90.0
  0
ARC
  5
3D5
100
AcDbEntity
  8
0
100
AcDbCircle
 62
7
  6
BYLAYER
 10
358.2384716264
 20
1048.7758157122
 40
1.0
100
AcDbArc
 50
90.0
 51
180.0
  0
ARC
  5
3D6
100
AcDbEntity
  8
0
100
AcDbCircle
 62
7
  6
BYLAYER
 10
362.8384716264
 20
1048.7758157122
 40
1.0
100
AcDbArc
 50
0.0
 51
90.0
  0
ARC
  5
3D7
100
AcDbEntity
  8
0
100
AcDbCircle
 62
7
  6
BYLAYER
 10
356.0384716264
 20
1048.6758157122
 40
1.0
100
AcDbArc
 50
0.0
 51
90.0
  0
ARC
  5
3D8
100
AcDbEntity
  8
0
100
AcDbCircle
 62
7
  6
BYLAYER
 10
345.0384716264
 20
1048.6758157122
 40
1.0
100
AcDbArc
 50
90.0
 51
180.0000000008
  0
ARC
  5
3D9
100
AcDbEntity
  8
0
100
AcDbCircle
 62
7
  6
BYLAYER
 10
364.0384716264
 20
1048.6758157122
 40
1.0
100
AcDbArc
 50
0.0
 51
90.0
  0
ARC
  5
3DA
100
AcDbEntity
  8
0
100
AcDbCircle
 62
7
  6
BYLAYER
 10
364.5384716264
 20
1046.6758157122
 40
0.5
100
AcDbArc
 50
0.0
 51
90.0
  0
ARC
  5
3DB
100
AcDbEntity
  8
0
100
AcDbCircle
 62
7
  6
BYLAYER
 10
357.5384716264
 20
1047.6758157122
 40
0.5
100
AcDbArc
 50
180.0
 51
270.0
  0
ARC
  5
3DC
100
AcDbEntity
  8
0
100
AcDbCircle
 62
7
  6
BYLAYER
 10
357.038453964
 20
1046.175815895
 40
0.4999999534
100
AcDbArc
 50
257.8430202394
 51
77.8428213138
  0
ARC
  5
3DD
100
AcDbEntity
  8
0
100
AcDbCircle
 62
7
  6
BYLAYER
 10
341.0384892889
 20
1046.175815895
 40
0.4999999534
100
AcDbArc
 50
102.1571786862
 51
282.1569797606
  0
ARC
  5
3DE
100
AcDbEntity
  8
0
100
AcDbCircle
 62
7
  6
BYLAYER
 10
345.2152316264
 20
1057.3758157122
 40
0.3
100
AcDbArc
 50
90.0
 51
179.9999999999
  0
ARC
  5
3DF
100
AcDbEntity
  8
0
100
AcDbCircle
 62
7
  6
BYLAYER
 10
352.8652316264
 20
1057.3758157122
 40
0.3
100
AcDbArc
 50
0.0
 51
90.0
  0
ARC
  5
3E0
100
AcDbEntity
  8
0
100
AcDbCircle
 62
7
  6
BYLAYER
 10
463.887855286
 20
77.0758157122
 40
1.0
100
AcDbArc
 50
234.2503109332
 51
270.0
  0
ARC
  5
3E1
100
AcDbEntity
  8
0
100
AcDbCircle
 62
7
  6
BYLAYER
 10
469.488330326
 20
77.0758157122
 40
1.0
100
AcDbArc
 50
270.0
 51
360.0
  0
ARC
  5
3E2
100
AcDbEntity
  8
0
100
AcDbCircle
 62
7
  6
BYLAYER
 10
464.888330326
 20
77.0758157122
 40
1.0
100
AcDbArc
 50
180.0
 51
270.0
  0
ARC
  5
3E3
100
AcDbEntity
  8
0
100
AcDbCircle
 62
7
  6
BYLAYER
 10
471.688330326
 20
77.1757055737
 40
1.0
100
AcDbArc
 50
180.0
 51
270.0
  0
ARC
  5
3E4
100
AcDbEntity
  8
0
100
AcDbCircle
 62
7
  6
BYLAYER
 10
463.688330326
 20
77.1757055737
 40
1.0
100
AcDbArc
 50
179.9999999999
 51
270.0
  0
ARC
  5
3E5
100
AcDbEntity
  8
0
100
AcDbCircle
 62
7
  6
BYLAYER
 10
482.688330326
 20
77.1757055737
 40
1.0
100
AcDbArc
 50
270.0
 51
360.0
  0
ARC
  5
3E6
100
AcDbEntity
  8
0
100
AcDbCircle
 62
7
  6
BYLAYER
 10
463.188330326
 20
79.1757055737
 40
0.5
100
AcDbArc
 50
180.0
 51
270.0
  0
ARC
  5
3E7
100
AcDbEntity
  8
0
100
AcDbCircle
 62
7
  6
BYLAYER
 10
470.188330326
 20
78.1757055737
 40
0.5
100
AcDbArc
 50
0.0
 51
90.0
  0
ARC
  5
3E8
100
AcDbEntity
  8
3
100
AcDbCircle
 62
7
  6
BYLAYER
 10
480.7991095994
 20
131.0239908354
 40
3.25
100
AcDbArc
 50
90.0
 51
270.0
  0
ARC
  5
3E9
100
AcDbEntity
  8
3
100
AcDbCircle
 62
7
  6
BYLAYER
 10
480.7991095994
 20
161.0239908354
 40
3.25
100
AcDbArc
 50
90.0
 51
270.0
  0
ARC
  5
3EA
100
AcDbEntity
  8
0
100
AcDbCircle
 62
7
  6
BYLAYER
 10
511.487855283
 20
77.0758157122
 40
1.0
100
AcDbArc
 50
270.0
 51
305.7190868306
  0
ARC
  5
3EB
100
AcDbEntity
  8
0
100
AcDbCircle
 62
7
  6
BYLAYER
 10
510.4883303231
 20
77.0758157122
 40
1.0
100
AcDbArc
 50
270.0
 51
360.0
  0
ARC
  5
3EC
100
AcDbEntity
  8
0
100
AcDbCircle
 62
7
  6
BYLAYER
 10
505.8883303231
 20
77.0758157122
 40
1.0
100
AcDbArc
 50
180.0
 51
270.0
  0
ARC
  5
3ED
100
AcDbEntity
  8
0
100
AcDbCircle
 62
7
  6
BYLAYER
 10
492.688330326
 20
77.1757055737
 40
1.0
100
AcDbArc
 50
179.9999999984
 51
270.0
  0
ARC
  5
3EE
100
AcDbEntity
  8
0
100
AcDbCircle
 62
7
  6
BYLAYER
 10
503.688330326
 20
77.1757055737
 40
1.0
100
AcDbArc
 50
270.0
 51
360.0
  0
ARC
  5
3EF
100
AcDbEntity
  8
0
100
AcDbCircle
 62
7
  6
BYLAYER
 10
511.688330326
 20
77.1757055737
 40
1.0
100
AcDbArc
 50
270.0
 51
360.0
  0
ARC
  5
3F0
100
AcDbEntity
  8
0
100
AcDbCircle
 62
7
  6
BYLAYER
 10
505.188330326
 20
78.1757055737
 40
0.5
100
AcDbArc
 50
90.0
 51
180.0
  0
ARC
  5
3F1
100
AcDbEntity
  8
0
100
AcDbCircle
 62
7
  6
BYLAYER
 10
512.188330326
 20
79.1757055737
 40
0.5
100
AcDbArc
 50
270.0
 51
360.0
  0
CIRCLE
  5
3F2
100
AcDbEntity
  8
3
100
AcDbCircle
 62
7
  6
BYLAYER
 10
487.6883303245
 20
161.0239908354
 40
6.3525
  0
CIRCLE
  5
3F3
100
AcDbEntity
  8
3
100
AcDbCircle
 62
7
  6
BYLAYER
 10
487.6883303245
 20
131.0239908354
 40
6.3525
  0
ARC
  5
3F4
100
AcDbEntity
  8
3
100
AcDbCircle
 62
7
  6
BYLAYER
 10
497.4991095994
 20
126.0239908354
 40
5.0
100
AcDbArc
 50
270.0
 51
360.0
  0
ARC
  5
3F5
100
AcDbEntity
  8
3
100
AcDbCircle
 62
7
  6
BYLAYER
 10
497.4991095994
 20
166.0239908354
 40
5.0
100
AcDbArc
 50
0.0
 51
90.0
  0
ARC
  5
3F6
100
AcDbEntity
  8
3
100
AcDbCircle
 62
7
  6
BYLAYER
 10
494.2991095994
 20
131.0239908354
 40
3.25
100
AcDbArc
 50
270.0
 51
90.0
  0
ARC
  5
3F7
100
AcDbEntity
  8
3
100
AcDbCircle
 62
7
  6
BYLAYER
 10
494.2991095994
 20
161.0239908354
 40
3.25
100
AcDbArc
 50
270.0
 51
90.0
  0
CIRCLE
  5
3F8
100
AcDbEntity
  8
3
100
AcDbCircle
 62
7
  6
BYLAYER
 10
487.6883303245
 20
131.0239908354
 40
3.0
  0
CIRCLE
  5
3F9
100
AcDbEntity
  8
3
100
AcDbCircle
 62
7
  6
BYLAYER
 10
487.6883303245
 20
161.0239908354
 40
3.0
  0
ARC
  5
3FA
100
AcDbEntity
  8
3
100
AcDbCircle
 62
7
  6
BYLAYER
 10
480.7991095994
 20
967.3588932963
 40
3.25
100
AcDbArc
 50
90.0
 51
270.0
  0
ARC
  5
3FB
100
AcDbEntity
  8
3
100
AcDbCircle
 62
7
  6
BYLAYER
 10
480.7991095994
 20
997.3588932963
 40
3.25
100
AcDbArc
 50
90.0
 51
270.0
  0
ARC
  5
3FC
100
AcDbEntity
  8
0
100
AcDbCircle
 62
7
  6
BYLAYER
 10
463.8876025149
 20
1048.7758157122
 40
1.0
100
AcDbArc
 50
90.0
 51
125.746880854
  0
ARC
  5
3FD
100
AcDbEntity
  8
0
100
AcDbCircle
 62
7
  6
BYLAYER
 10
464.8876025149
 20
1048.7758157122
 40
1.0
100
AcDbArc
 50
90.0
 51
180.0
  0
ARC
  5
3FE
100
AcDbEntity
  8
0
100
AcDbCircle
 62
7
  6
BYLAYER
 10
469.4876025149
 20
1048.7758157122
 40
1.0
100
AcDbArc
 50
0.0
 51
90.0
  0
ARC
  5
3FF
100
AcDbEntity
  8
0
100
AcDbCircle
 62
7
  6
BYLAYER
 10
482.6876025149
 20
1048.6758157122
 40
1.0
100
AcDbArc
 50
0.0
 51
90.0
  0
ARC
  5
400
100
AcDbEntity
  8
0
100
AcDbCircle
 62
7
  6
BYLAYER
 10
463.6876025149
 20
1048.6758157122
 40
1.0
100
AcDbArc
 50
90.0
 51
180.0
  0
ARC
  5
401
100
AcDbEntity
  8
0
100
AcDbCircle
 62
7
  6
BYLAYER
 10
471.6876025149
 20
1048.6758157122
 40
1.0
100
AcDbArc
 50
90.0
 51
180.0
  0
ARC
  5
402
100
AcDbEntity
  8
0
100
AcDbCircle
 62
7
  6
BYLAYER
 10
470.1876025149
 20
1047.6758157122
 40
0.5
100
AcDbArc
 50
270.0
 51
360.0
  0
ARC
  5
403
100
AcDbEntity
  8
0
100
AcDbCircle
 62
7
  6
BYLAYER
 10
463.1876025149
 20
1046.6758157122
 40
0.5
100
AcDbArc
 50
90.0
 51
180.0
  0
ARC
  5
404
100
AcDbEntity
  8
0
100
AcDbCircle
 62
7
  6
BYLAYER
 10
486.687584853
 20
1046.1758158952
 40
0.4999999532
100
AcDbArc
 50
257.819789003
 51
77.8195901877
  0
ARC
  5
405
100
AcDbEntity
  8
0
100
AcDbCircle
 62
7
  6
BYLAYER
 10
470.6876201768
 20
1046.1758158952
 40
0.4999999532
100
AcDbArc
 50
102.1804098124
 51
282.180210997
  0
ARC
  5
406
100
AcDbEntity
  8
0
100
AcDbCircle
 62
7
  6
BYLAYER
 10
474.8633825149
 20
1057.3758157122
 40
0.3
100
AcDbArc
 50
90.0
 51
180.0
  0
ARC
  5
407
100
AcDbEntity
  8
0
100
AcDbCircle
 62
7
  6
BYLAYER
 10
482.5133825149
 20
1057.3758157122
 40
0.3
100
AcDbArc
 50
0.0000000001
 51
90.0
  0
CIRCLE
  5
408
100
AcDbEntity
  8
3
100
AcDbCircle
 62
7
  6
BYLAYER
 10
487.6883303245
 20
997.3588932963
 40
6.3525
  0
CIRCLE
  5
409
100
AcDbEntity
  8
3
100
AcDbCircle
 62
7
  6
BYLAYER
 10
487.6883303245
 20
967.3588932963
 40
6.3525
  0
ARC
  5
40A
100
AcDbEntity
  8
3
100
AcDbCircle
 62
7
  6
BYLAYER
 10
497.4991095994
 20
962.3588932963
 40
5.0
100
AcDbArc
 50
270.0
 51
360.0
  0
ARC
  5
40B
100
AcDbEntity
  8
3
100
AcDbCircle
 62
7
  6
BYLAYER
 10
497.4991095994
 20
1002.3588932963
 40
5.0
100
AcDbArc
 50
0.0
 51
90.0
  0
ARC
  5
40C
100
AcDbEntity
  8
3
100
AcDbCircle
 62
7
  6
BYLAYER
 10
494.2991095994
 20
967.3588932963
 40
3.25
100
AcDbArc
 50
270.0
 51
90.0
  0
ARC
  5
40D
100
AcDbEntity
  8
3
100
AcDbCircle
 62
7
  6
BYLAYER
 10
494.2991095994
 20
997.3588932963
 40
3.25
100
AcDbArc
 50
270.0
 51
90.0
  0
CIRCLE
  5
40E
100
AcDbEntity
  8
3
100
AcDbCircle
 62
7
  6
BYLAYER
 10
487.6883303245
 20
967.3588932963
 40
3.0
  0
CIRCLE
  5
40F
100
AcDbEntity
  8
3
100
AcDbCircle
 62
7
  6
BYLAYER
 10
487.6883303245
 20
997.3588932963
 40
3.0
  0
ARC
  5
410
100
AcDbEntity
  8
0
100
AcDbCircle
 62
7
  6
BYLAYER
 10
511.4876025149
 20
1048.7758157122
 40
1.0
100
AcDbArc
 50
54.2529864705
 51
90.0
  0
ARC
  5
411
100
AcDbEntity
  8
0
100
AcDbCircle
 62
7
  6
BYLAYER
 10
505.8876025149
 20
1048.7758157122
 40
1.0
100
AcDbArc
 50
90.0
 51
180.0
  0
ARC
  5
412
100
AcDbEntity
  8
0
100
AcDbCircle
 62
7
  6
BYLAYER
 10
510.4876025149
 20
1048.7758157122
 40
1.0
100
AcDbArc
 50
0.0
 51
90.0
  0
ARC
  5
413
100
AcDbEntity
  8
0
100
AcDbCircle
 62
7
  6
BYLAYER
 10
503.6876025149
 20
1048.6758157122
 40
1.0
100
AcDbArc
 50
0.0
 51
90.0
  0
ARC
  5
414
100
AcDbEntity
  8
0
100
AcDbCircle
 62
7
  6
BYLAYER
 10
492.6876025149
 20
1048.6758157122
 40
1.0
100
AcDbArc
 50
90.0
 51
180.0000000008
  0
ARC
  5
415
100
AcDbEntity
  8
0
100
AcDbCircle
 62
7
  6
BYLAYER
 10
511.6876025149
 20
1048.6758157122
 40
1.0
100
AcDbArc
 50
0.0
 51
90.0
  0
ARC
  5
416
100
AcDbEntity
  8
0
100
AcDbCircle
 62
7
  6
BYLAYER
 10
512.1876025149
 20
1046.6758157122
 40
0.5
100
AcDbArc
 50
0.0
 51
90.0
  0
ARC
  5
417
100
AcDbEntity
  8
0
100
AcDbCircle
 62
7
  6
BYLAYER
 10
505.1876025149
 20
1047.6758157122
 40
0.5
100
AcDbArc
 50
180.0
 51
270.0
  0
ARC
  5
418
100
AcDbEntity
  8
0
100
AcDbCircle
 62
7
  6
BYLAYER
 10
504.6875848525
 20
1046.175815895
 40
0.4999999534
100
AcDbArc
 50
257.8430202394
 51
77.8428213138
  0
ARC
  5
419
100
AcDbEntity
  8
0
100
AcDbCircle
 62
7
  6
BYLAYER
 10
488.6876201774
 20
1046.175815895
 40
0.4999999534
100
AcDbArc
 50
102.1571786862
 51
282.1569797606
  0
ARC
  5
41A
100
AcDbEntity
  8
0
100
AcDbCircle
 62
7
  6
BYLAYER
 10
492.8643625149
 20
1057.3758157122
 40
0.3
100
AcDbArc
 50
90.0
 51
179.9999999999
  0
ARC
  5
41B
100
AcDbEntity
  8
0
100
AcDbCircle
 62
7
  6
BYLAYER
 10
500.5143625149
 20
1057.3758157122
 40
0.3
100
AcDbArc
 50
0.0
 51
90.0
  0
SPLINE
  5
41C
100
AcDbEntity
  8
0
100
AcDbSpline
 62
7
  6
BYLAYER
 70
0
 71
3
 72
12
 73
8
 74
0
 42
0.0000001
 43
0.0000001
 44
0.0000000001
 40
0.0
 40
0.0
 40
0.0
 40
0.0
 40
0.1596770904
 40
0.2582781683
 40
0.3740954473
 40
0.6599411656
 40
1.0
 40
1.0
 40
1.0
 40
1.0
 10
492.6876045492
 20
1049.6758157125
 30
0.0
 10
492.623460468
 20
1049.6758025813
 30
0.0
 10
492.5195837875
 20
1049.6306926203
 30
0.0
 10
492.4157156498
 20
1049.5218473859
 30
0.0
 10
492.3068819756
 20
1049.3512869109
 30
0.0
 10
492.2128428887
 20
1049.0644389068
 30
0.0
 10
492.1876037007
 20
1048.8124211693
 30
0.0
 10
492.1876030558
 20
1048.6758157122
 30
0.0
  0
SPLINE
  5
41D
100
AcDbEntity
  8
0
100
AcDbSpline
 62
7
  6
BYLAYER
 70
0
 71
3
 72
12
 73
8
 74
0
 42
0.0000001
 43
0.0000001
 44
0.0000000001
 40
0.0
 40
0.0
 40
0.0
 40
0.0
 40
0.1249612752
 40
0.2501494132
 40
0.4995021241
 40
0.7494103699
 40
1.0
 40
1.0
 40
1.0
 40
1.0
 10
471.6876025149
 20
1047.6758157122
 30
0.0
 10
471.6876022946
 20
1047.5928072584
 30
0.0
 10
471.6554558114
 20
1047.4255448459
 30
0.0
 10
471.4925665614
 20
1047.1323088397
 30
0.0
 10
471.16778588
 20
1046.8537135667
 30
0.0
 10
470.6893995405
 20
1046.6827354759
 30
0.0
 10
470.3540625457
 20
1046.6758156708
 30
0.0
 10
470.1876025149
 20
1046.6758157122
 30
0.0
  0
SPLINE
  5
41E
100
AcDbEntity
  8
0
100
AcDbSpline
 62
7
  6
BYLAYER
 70
0
 71
3
 72
16
 73
12
 74
0
 42
0.0000001
 43
0.0000001
 44
0.0000000001
 40
0.0
 40
0.0
 40
0.0
 40
0.0
 40
0.2636273647
 40
0.4178764038
 40
0.5741876959
 40
0.7240052304
 40
0.8563237188
 40
0.9120390276
 40
0.957262702
 40
0.9883504454
 40
1.0
 40
1.0
 40
1.0
 40
1.0
 10
463.6876025266
 20
1047.6758157122
 30
0.0
 10
463.6876023717
 20
1047.6125216975
 30
0.0
 10
463.6180561913
 20
1047.5225961164
 30
0.0
 10
463.521688754
 20
1047.4283422097
 30
0.0
 10
463.4369035833
 20
1047.3562771379
 30
0.0
 10
463.3549736068
 20
1047.2904607852
 30
0.0
 10
463.2898436764
 20
1047.2419742465
 30
0.0
 10
463.2441121183
 20
1047.2097211082
 30
0.0
 10
463.216812697
 20
1047.1933098814
 30
0.0
 10
463.2000585755
 20
1047.1808397309
 30
0.0
 10
463.189339446
 20
1047.1780079542
 30
0.0
 10
463.1876025232
 20
1047.175815715
 30
0.0
  0
SPLINE
  5
41F
100
AcDbEntity
  8
0
100
AcDbSpline
 62
7
  6
BYLAYER
 70
0
 71
3
 72
16
 73
12
 74
0
 42
0.0000001
 43
0.0000001
 44
0.0000000001
 40
0.0
 40
0.0
 40
0.0
 40
0.0
 40
0.0116495546
 40
0.042737298
 40
0.0879609725
 40
0.1436762813
 40
0.2759947698
 40
0.4258123044
 40
0.5821235967
 40
0.7363726357
 40
1.0
 40
1.0
 40
1.0
 40
1.0
 10
512.1876025075
 20
1047.175815715
 30
0.0
 10
512.1858664589
 20
1047.1780086464
 30
0.0
 10
512.1751453414
 20
1047.1808388487
 30
0.0
 10
512.1583929365
 20
1047.1933103588
 30
0.0
 10
512.1310926842
 20
1047.2097209275
 30
0.0
 10
512.0853615256
 20
1047.2419743823
 30
0.0
 10
512.0202313548
 20
1047.2904607305
 30
0.0
 10
511.9383014682
 20
1047.3562771545
 30
0.0
 10
511.8535162717
 20
1047.4283422058
 30
0.0
 10
511.7571488428
 20
1047.5225961189
 30
0.0
 10
511.6876026599
 20
1047.6125216976
 30
0.0
 10
511.687602505
 20
1047.6758157122
 30
0.0
  0
SPLINE
  5
420
100
AcDbEntity
  8
0
100
AcDbSpline
 62
7
  6
BYLAYER
 70
0
 71
3
 72
12
 73
8
 74
0
 42
0.0000001
 43
0.0000001
 44
0.0000000001
 40
0.0
 40
0.0
 40
0.0
 40
0.0
 40
0.340047804
 40
0.6258992885
 40
0.7417192497
 40
0.8403209927
 40
1.0
 40
1.0
 40
1.0
 40
1.0
 10
483.1876010917
 20
1048.6758157122
 30
0.0
 10
483.1876010913
 20
1048.8124167303
 30
0.0
 10
483.1623618479
 20
1049.0644321809
 30
0.0
 10
483.0683255253
 20
1049.3512799795
 30
0.0
 10
482.9594911196
 20
1049.52184426
 30
0.0
 10
482.8556220145
 20
1049.6306918992
 30
0.0
 10
482.7517444213
 20
1049.6758012189
 30
0.0
 10
482.6875995741
 20
1049.6758157126
 30
0.0
  0
SPLINE
  5
421
100
AcDbEntity
  8
0
100
AcDbSpline
 62
7
  6
BYLAYER
 70
0
 71
3
 72
12
 73
8
 74
0
 42
0.0000001
 43
0.0000001
 44
0.0000000001
 40
0.0
 40
0.0
 40
0.0
 40
0.0
 40
0.1249608927
 40
0.2501492077
 40
0.4995019733
 40
0.7494104792
 40
1.0
 40
1.0
 40
1.0
 40
1.0
 10
503.6876025149
 20
1047.6758157122
 30
0.0
 10
503.6876027353
 20
1047.5928075129
 30
0.0
 10
503.7197490932
 20
1047.425545245
 30
0.0
 10
503.8826381079
 20
1047.1323092004
 30
0.0
 10
504.2074189756
 20
1046.8537136108
 30
0.0
 10
504.685805473
 20
1046.6827354994
 30
0.0
 10
505.0211425575
 20
1046.6758156709
 30
0.0
 10
505.1876025149
 20
1046.6758157122
 30
0.0
  0
SPLINE
  5
422
100
AcDbEntity
  8
0
100
AcDbSpline
 62
7
  6
BYLAYER
 70
0
 71
3
 72
12
 73
8
 74
0
 42
0.0000001
 43
0.0000001
 44
0.0000000001
 40
0.0
 40
0.0
 40
0.0
 40
0.0
 40
0.1596770904
 40
0.2582781683
 40
0.3740954473
 40
0.6599411656
 40
1.0
 40
1.0
 40
1.0
 40
1.0
 10
345.0384736607
 20
1049.6758157125
 30
0.0
 10
344.9743295795
 20
1049.6758025813
 30
0.0
 10
344.8704528989
 20
1049.6306926203
 30
0.0
 10
344.7665847613
 20
1049.5218473859
 30
0.0
 10
344.6577510871
 20
1049.3512869109
 30
0.0
 10
344.5637120002
 20
1049.0644389068
 30
0.0
 10
344.5384728122
 20
1048.8124211693
 30
0.0
 10
344.5384721672
 20
1048.6758157122
 30
0.0
  0
SPLINE
  5
423
100
AcDbEntity
  8
0
100
AcDbSpline
 62
7
  6
BYLAYER
 70
0
 71
3
 72
12
 73
8
 74
0
 42
0.0000001
 43
0.0000001
 44
0.0000000001
 40
0.0
 40
0.0
 40
0.0
 40
0.0
 40
0.1249612752
 40
0.2501494132
 40
0.4995021241
 40
0.7494103699
 40
1.0
 40
1.0
 40
1.0
 40
1.0
 10
324.0384716264
 20
1047.6758157122
 30
0.0
 10
324.0384714061
 20
1047.5928072584
 30
0.0
 10
324.0063249228
 20
1047.4255448459
 30
0.0
 10
323.8434356729
 20
1047.1323088397
 30
0.0
 10
323.5186549915
 20
1046.8537135667
 30
0.0
 10
323.040268652
 20
1046.6827354759
 30
0.0
 10
322.7049316572
 20
1046.6758156708
 30
0.0
 10
322.5384716264
 20
1046.6758157122
 30
0.0
  0
SPLINE
  5
424
100
AcDbEntity
  8
0
100
AcDbSpline
 62
7
  6
BYLAYER
 70
0
 71
3
 72
16
 73
12
 74
0
 42
0.0000001
 43
0.0000001
 44
0.0000000001
 40
0.0
 40
0.0
 40
0.0
 40
0.0
 40
0.2636273647
 40
0.4178764038
 40
0.5741876959
 40
0.7240052304
 40
0.8563237188
 40
0.9120390276
 40
0.957262702
 40
0.9883504454
 40
1.0
 40
1.0
 40
1.0
 40
1.0
 10
316.0384716381
 20
1047.6758157122
 30
0.0
 10
316.0384714832
 20
1047.6125216975
 30
0.0
 10
315.9689253029
 20
1047.5225961163
 30
0.0
 10
315.8725578654
 20
1047.4283422098
 30
0.0
 10
315.7877726952
 20
1047.3562771376
 30
0.0
 10
315.7058427168
 20
1047.2904607864
 30
0.0
 10
315.6407127914
 20
1047.2419742437
 30
0.0
 10
315.5949812251
 20
1047.2097211119
 30
0.0
 10
315.5676818208
 20
1047.1933098716
 30
0.0
 10
315.5509276641
 20
1047.180839749
 30
0.0
 10
315.5402085754
 20
1047.1780079399
 30
0.0
 10
315.5384716347
 20
1047.175815715
 30
0.0
  0
SPLINE
  5
425
100
AcDbEntity
  8
0
100
AcDbSpline
 62
7
  6
BYLAYER
 70
0
 71
3
 72
16
 73
12
 74
0
 42
0.0000001
 43
0.0000001
 44
0.0000000001
 40
0.0
 40
0.0
 40
0.0
 40
0.0
 40
0.0116495546
 40
0.042737298
 40
0.0879609725
 40
0.1436762813
 40
0.2759947698
 40
0.4258123044
 40
0.5821235967
 40
0.7363726357
 40
1.0
 40
1.0
 40
1.0
 40
1.0
 10
364.538471619
 20
1047.175815715
 30
0.0
 10
364.5367355704
 20
1047.1780086464
 30
0.0
 10
364.5260144528
 20
1047.1808388487
 30
0.0
 10
364.509262048
 20
1047.1933103588
 30
0.0
 10
364.4819617957
 20
1047.2097209275
 30
0.0
 10
364.4362306371
 20
1047.2419743823
 30
0.0
 10
364.3711004663
 20
1047.2904607305
 30
0.0
 10
364.2891705797
 20
1047.3562771545
 30
0.0
 10
364.2043853832
 20
1047.4283422058
 30
0.0
 10
364.1080179543
 20
1047.5225961189
 30
0.0
 10
364.0384717714
 20
1047.6125216976
 30
0.0
 10
364.0384716165
 20
1047.6758157122
 30
0.0
  0
SPLINE
  5
426
100
AcDbEntity
  8
0
100
AcDbSpline
 62
7
  6
BYLAYER
 70
0
 71
3
 72
12
 73
8
 74
0
 42
0.0000001
 43
0.0000001
 44
0.0000000001
 40
0.0
 40
0.0
 40
0.0
 40
0.0
 40
0.3400478061
 40
0.6258992925
 40
0.741719214
 40
0.8403209917
 40
1.0
 40
1.0
 40
1.0
 40
1.0
 10
335.5384702032
 20
1048.6758157122
 30
0.0
 10
335.5384702028
 20
1048.8124167303
 30
0.0
 10
335.5132309422
 20
1049.0644321682
 30
0.0
 10
335.4191946794
 20
1049.3512799916
 30
0.0
 10
335.3103601935
 20
1049.5218442087
 30
0.0
 10
335.206491159
 20
1049.6306919118
 30
0.0
 10
335.1026135327
 20
1049.6758012189
 30
0.0
 10
335.0384686856
 20
1049.6758157126
 30
0.0
  0
SPLINE
  5
427
100
AcDbEntity
  8
0
100
AcDbSpline
 62
7
  6
BYLAYER
 70
0
 71
3
 72
12
 73
8
 74
0
 42
0.0000001
 43
0.0000001
 44
0.0000000001
 40
0.0
 40
0.0
 40
0.0
 40
0.0
 40
0.1249608927
 40
0.2501492077
 40
0.4995019733
 40
0.7494104792
 40
1.0
 40
1.0
 40
1.0
 40
1.0
 10
356.0384716264
 20
1047.6758157122
 30
0.0
 10
356.0384718468
 20
1047.5928075129
 30
0.0
 10
356.0706182047
 20
1047.425545245
 30
0.0
 10
356.2335072194
 20
1047.1323092004
 30
0.0
 10
356.5582880871
 20
1046.8537136108
 30
0.0
 10
357.0366745844
 20
1046.6827354994
 30
0.0
 10
357.372011669
 20
1046.6758156709
 30
0.0
 10
357.5384716264
 20
1046.6758157122
 30
0.0
  0
SPLINE
  5
428
100
AcDbEntity
  8
0
100
AcDbSpline
 62
7
  6
BYLAYER
 70
0
 71
3
 72
12
 73
8
 74
0
 42
0.0000001
 43
0.0000001
 44
0.0000000001
 40
0.0
 40
0.0
 40
0.0
 40
0.0
 40
0.3400478034
 40
0.6258992875
 40
0.741719259
 40
0.840320993
 40
1.0
 40
1.0
 40
1.0
 40
1.0
 10
492.1883317491
 20
77.1757055737
 30
0.0
 10
492.1883317495
 20
77.0391045555
 30
0.0
 10
492.2135709884
 20
76.7870891016
 30
0.0
 10
492.3076073268
 20
76.5002413095
 30
0.0
 10
492.4164417114
 20
76.3296770124
 30
0.0
 10
492.5203108351
 20
76.22082939
 30
0.0
 10
492.6241884196
 20
76.175720067
 30
0.0
 10
492.6883332668
 20
76.1757055733
 30
0.0
  0
SPLINE
  5
429
100
AcDbEntity
  8
0
100
AcDbSpline
 62
7
  6
BYLAYER
 70
0
 71
3
 72
12
 73
8
 74
0
 42
0.0000001
 43
0.0000001
 44
0.0000000001
 40
0.0
 40
0.0
 40
0.0
 40
0.0
 40
0.1596770812
 40
0.2582781532
 40
0.3740954272
 40
0.6599411459
 40
1.0
 40
1.0
 40
1.0
 40
1.0
 10
482.6883283841
 20
76.1757055734
 30
0.0
 10
482.7524724625
 20
76.1757186976
 30
0.0
 10
482.8563491436
 20
76.2208286483
 30
0.0
 10
482.9602172831
 20
76.3296738733
 30
0.0
 10
483.069050963
 20
76.5002343435
 30
0.0
 10
483.1630900579
 20
76.787082357
 30
0.0
 10
483.188329249
 20
77.0391001066
 30
0.0
 10
483.188329894
 20
77.1757055736
 30
0.0
  0
SPLINE
  5
42A
100
AcDbEntity
  8
0
100
AcDbSpline
 62
7
  6
BYLAYER
 70
0
 71
3
 72
16
 73
12
 74
0
 42
0.0000001
 43
0.0000001
 44
0.0000000001
 40
0.0
 40
0.0
 40
0.0
 40
0.0
 40
0.0116495546
 40
0.042737298
 40
0.0879609725
 40
0.1436762813
 40
0.2759947698
 40
0.4258123044
 40
0.5821235967
 40
0.7363726357
 40
1.0
 40
1.0
 40
1.0
 40
1.0
 10
463.1883303334
 20
78.6757055708
 30
0.0
 10
463.190066382
 20
78.6735126394
 30
0.0
 10
463.2007874995
 20
78.6706824371
 30
0.0
 10
463.2175399043
 20
78.6582109271
 30
0.0
 10
463.2448401567
 20
78.6418003584
 30
0.0
 10
463.2905713152
 20
78.6095469036
 30
0.0
 10
463.3557014861
 20
78.5610605554
 30
0.0
 10
463.4376313727
 20
78.4952441314
 30
0.0
 10
463.5224165692
 20
78.4231790801
 30
0.0
 10
463.6187839981
 20
78.328925167
 30
0.0
 10
463.688330181
 20
78.2389995882
 30
0.0
 10
463.6883303359
 20
78.1757055737
 30
0.0
  0
SPLINE
  5
42B
100
AcDbEntity
  8
0
100
AcDbSpline
 62
7
  6
BYLAYER
 70
0
 71
3
 72
12
 73
8
 74
0
 42
0.0000001
 43
0.0000001
 44
0.0000000001
 40
0.0
 40
0.0
 40
0.0
 40
0.0
 40
0.1249608927
 40
0.2501492077
 40
0.4995019733
 40
0.7494104792
 40
1.0
 40
1.0
 40
1.0
 40
1.0
 10
471.688330326
 20
78.1757055737
 30
0.0
 10
471.6883301056
 20
78.2587137729
 30
0.0
 10
471.6561837477
 20
78.4259760409
 30
0.0
 10
471.493294733
 20
78.7192120855
 30
0.0
 10
471.1685138653
 20
78.9978076751
 30
0.0
 10
470.6901273679
 20
79.1687857865
 30
0.0
 10
470.3547902834
 20
79.175705615
 30
0.0
 10
470.188330326
 20
79.1757055737
 30
0.0
  0
SPLINE
  5
42C
100
AcDbEntity
  8
0
100
AcDbSpline
 62
7
  6
BYLAYER
 70
0
 71
3
 72
12
 73
8
 74
0
 42
0.0000001
 43
0.0000001
 44
0.0000000001
 40
0.0
 40
0.0
 40
0.0
 40
0.0
 40
0.1249612752
 40
0.2501494132
 40
0.4995021241
 40
0.7494103699
 40
1.0
 40
1.0
 40
1.0
 40
1.0
 10
503.688330326
 20
78.1757055737
 30
0.0
 10
503.6883305462
 20
78.2587140274
 30
0.0
 10
503.7204770295
 20
78.42597644
 30
0.0
 10
503.8833662795
 20
78.7192124462
 30
0.0
 10
504.2081469609
 20
78.9978077192
 30
0.0
 10
504.6865333004
 20
79.16878581
 30
0.0
 10
505.0218702951
 20
79.1757056151
 30
0.0
 10
505.188330326
 20
79.1757055737
 30
0.0
  0
SPLINE
  5
42D
100
AcDbEntity
  8
0
100
AcDbSpline
 62
7
  6
BYLAYER
 70
0
 71
3
 72
16
 73
12
 74
0
 42
0.0000001
 43
0.0000001
 44
0.0000000001
 40
0.0
 40
0.0
 40
0.0
 40
0.0
 40
0.2636273647
 40
0.4178764038
 40
0.5741876959
 40
0.7240052304
 40
0.8563237188
 40
0.9120390276
 40
0.957262702
 40
0.9883504454
 40
1.0
 40
1.0
 40
1.0
 40
1.0
 10
511.6883303143
 20
78.1757055737
 30
0.0
 10
511.6883304692
 20
78.2389995884
 30
0.0
 10
511.7578766494
 20
78.3289251696
 30
0.0
 10
511.8542440872
 20
78.4231790759
 30
0.0
 10
511.9390292562
 20
78.495244149
 30
0.0
 10
512.0209592386
 20
78.5610604971
 30
0.0
 10
512.0860891533
 20
78.6095470482
 30
0.0
 10
512.1318207374
 20
78.6418001659
 30
0.0
 10
512.1591201046
 20
78.6582114356
 30
0.0
 10
512.1758743379
 20
78.6706814975
 30
0.0
 10
512.186593338
 20
78.6735133768
 30
0.0
 10
512.1883303177
 20
78.6757055708
 30
0.0
  0
SPLINE
  5
42E
100
AcDbEntity
  8
0
100
AcDbSpline
 62
7
  6
BYLAYER
 70
0
 71
3
 72
12
 73
8
 74
0
 42
0.0000001
 43
0.0000001
 44
0.0000000001
 40
0.0
 40
0.0
 40
0.0
 40
0.0
 40
0.3400478041
 40
0.6258992887
 40
0.7417192481
 40
0.8403209927
 40
1.0
 40
1.0
 40
1.0
 40
1.0
 10
344.5392008606
 20
77.1757055737
 30
0.0
 10
344.539200861
 20
77.0391045556
 30
0.0
 10
344.5644401052
 20
76.7870891055
 30
0.0
 10
344.6584764252
 20
76.5002413058
 30
0.0
 10
344.7673108345
 20
76.3296770282
 30
0.0
 10
344.8711799364
 20
76.2208293861
 30
0.0
 10
344.9750575311
 20
76.175720067
 30
0.0
 10
345.0392023783
 20
76.1757055733
 30
0.0
  0
SPLINE
  5
42F
100
AcDbEntity
  8
0
100
AcDbSpline
 62
7
  6
BYLAYER
 70
0
 71
3
 72
12
 73
8
 74
0
 42
0.0000001
 43
0.0000001
 44
0.0000000001
 40
0.0
 40
0.0
 40
0.0
 40
0.0
 40
0.1596770812
 40
0.2582781532
 40
0.3740954272
 40
0.6599411459
 40
1.0
 40
1.0
 40
1.0
 40
1.0
 10
335.0391974955
 20
76.1757055734
 30
0.0
 10
335.103341574
 20
76.1757186976
 30
0.0
 10
335.2072182551
 20
76.2208286483
 30
0.0
 10
335.3110863946
 20
76.3296738733
 30
0.0
 10
335.4199200744
 20
76.5002343436
 30
0.0
 10
335.5139591694
 20
76.787082357
 30
0.0
 10
335.5391983605
 20
77.0391001066
 30
0.0
 10
335.5391990055
 20
77.1757055736
 30
0.0
  0
SPLINE
  5
430
100
AcDbEntity
  8
0
100
AcDbSpline
 62
7
  6
BYLAYER
 70
0
 71
3
 72
16
 73
12
 74
0
 42
0.0000001
 43
0.0000001
 44
0.0000000001
 40
0.0
 40
0.0
 40
0.0
 40
0.0
 40
0.0116495546
 40
0.042737298
 40
0.0879609725
 40
0.1436762813
 40
0.2759947698
 40
0.4258123044
 40
0.5821235967
 40
0.7363726357
 40
1.0
 40
1.0
 40
1.0
 40
1.0
 10
315.5391994448
 20
78.6757055708
 30
0.0
 10
315.5409355115
 20
78.6735126537
 30
0.0
 10
315.5516565881
 20
78.670682419
 30
0.0
 10
315.5684090282
 20
78.6582109369
 30
0.0
 10
315.5957092635
 20
78.6418003547
 30
0.0
 10
315.6414404302
 20
78.6095469064
 30
0.0
 10
315.7065705962
 20
78.5610605542
 30
0.0
 10
315.7885004846
 20
78.4952441317
 30
0.0
 10
315.8732856805
 20
78.42317908
 30
0.0
 10
315.9696531096
 20
78.328925167
 30
0.0
 10
316.0391992925
 20
78.2389995882
 30
0.0
 10
316.0391994474
 20
78.1757055737
 30
0.0
  0
SPLINE
  5
431
100
AcDbEntity
  8
0
100
AcDbSpline
 62
7
  6
BYLAYER
 70
0
 71
3
 72
12
 73
8
 74
0
 42
0.0000001
 43
0.0000001
 44
0.0000000001
 40
0.0
 40
0.0
 40
0.0
 40
0.0
 40
0.1249608927
 40
0.2501492077
 40
0.4995019733
 40
0.7494104792
 40
1.0
 40
1.0
 40
1.0
 40
1.0
 10
324.0391994374
 20
78.1757055737
 30
0.0
 10
324.0391992171
 20
78.2587137729
 30
0.0
 10
324.0070528592
 20
78.4259760409
 30
0.0
 10
323.8441638445
 20
78.7192120855
 30
0.0
 10
323.5193829768
 20
78.9978076751
 30
0.0
 10
323.0409964794
 20
79.1687857865
 30
0.0
 10
322.7056593949
 20
79.175705615
 30
0.0
 10
322.5391994374
 20
79.1757055737
 30
0.0
  0
SPLINE
  5
432
100
AcDbEntity
  8
0
100
AcDbSpline
 62
7
  6
BYLAYER
 70
0
 71
3
 72
12
 73
8
 74
0
 42
0.0000001
 43
0.0000001
 44
0.0000000001
 40
0.0
 40
0.0
 40
0.0
 40
0.0
 40
0.1249612752
 40
0.2501494132
 40
0.4995021241
 40
0.7494103699
 40
1.0
 40
1.0
 40
1.0
 40
1.0
 10
356.0391994374
 20
78.1757055737
 30
0.0
 10
356.0391996577
 20
78.2587140274
 30
0.0
 10
356.071346141
 20
78.42597644
 30
0.0
 10
356.2342353909
 20
78.7192124462
 30
0.0
 10
356.5590160723
 20
78.9978077192
 30
0.0
 10
357.0374024119
 20
79.16878581
 30
0.0
 10
357.3727394066
 20
79.1757056151
 30
0.0
 10
357.5391994374
 20
79.1757055737
 30
0.0
  0
SPLINE
  5
433
100
AcDbEntity
  8
0
100
AcDbSpline
 62
7
  6
BYLAYER
 70
0
 71
3
 72
16
 73
12
 74
0
 42
0.0000001
 43
0.0000001
 44
0.0000000001
 40
0.0
 40
0.0
 40
0.0
 40
0.0
 40
0.2636273647
 40
0.4178764038
 40
0.5741876959
 40
0.7240052304
 40
0.8563237188
 40
0.9120390276
 40
0.957262702
 40
0.9883504454
 40
1.0
 40
1.0
 40
1.0
 40
1.0
 10
364.0391994258
 20
78.1757055737
 30
0.0
 10
364.0391995807
 20
78.2389995884
 30
0.0
 10
364.1087457608
 20
78.3289251696
 30
0.0
 10
364.2051131987
 20
78.4231790759
 30
0.0
 10
364.2898983677
 20
78.495244149
 30
0.0
 10
364.3718283501
 20
78.5610604971
 30
0.0
 10
364.4369582648
 20
78.6095470482
 30
0.0
 10
364.4826898489
 20
78.6418001659
 30
0.0
 10
364.5099892161
 20
78.6582114356
 30
0.0
 10
364.5267434494
 20
78.6706814975
 30
0.0
 10
364.5374624495
 20
78.6735133768
 30
0.0
 10
364.5391994292
 20
78.6757055708
 30
0.0
  0
ENDSEC
  0
SECTION
  2
OBJECTS
  0
DICTIONARY
  5
C
100
AcDbDictionary
280
0
281
1
  3
ACAD_GROUP
350
D
  3
ACAD_MLINESTYLE
350
17
  3
ACAD_LAYOUT
350
1A
  3
ACAD_PLOTSETTINGS
350
19
  3
ACAD_PLOTSTYLENAME
350
E
  0
DICTIONARY
  5
D
102
{ACAD_REACTORS
330
C
102
}
100
AcDbDictionary
280
0
281
1
  0
ACDBDICTIONARYWDFLT
  5
E
102
{ACAD_REACTORS
330
C
102
}
100
AcDbDictionary
281
1
  3
Normal
350
F
100
AcDbDictionaryWithDefault
340
F
  0
DICTIONARY
  5
17
102
{ACAD_REACTORS
330
C
102
}
100
AcDbDictionary
280
0
281
1
  3
Standard
350
18
  0
DICTIONARY
  5
19
102
{ACAD_REACTORS
330
C
102
}
100
AcDbDictionary
281
1
  0
DICTIONARY
  5
1A
102
{ACAD_REACTORS
330
C
102
}
100
AcDbDictionary
281
1
  3
Model
350
434
  3
Layout1
350
435
  0
ACDBPLACEHOLDER
  5
F
102
{ACAD_REACTORS
330
E
102
}
  0
MLINESTYLE
  5
18
102
{ACAD_REACTORS
330
17
102
}
100
AcDbMlineStyle
  2
STANDARD
 70
0
  3

 62
256
 51
90.0
 52
90.0
 71
2
 49
0.5
 62
256
  6
BYLAYER
 49
-0.5
 62
256
  6
BYLAYER
  0
LAYOUT
  5
434
102
{ACAD_REACTORS
330
1A
102
}
100
AcDbPlotSettings
  1

  2
none_device
  4

  6

 40
0.0
 41
0.0
 42
0.0
 43
0.0
 44
210.0
 45
297.0
 46
0.0
 47
0.0
 48
0.0
 49
0.0
140
0.0
141
0.0
142
1.0
143
1.0
 70
1024
 72
1
 73
0
 74
0
  7

 75
0
147
1.0
148
0.0
149
0.0
100
AcDbLayout
  1
Model
 70
0
 71
0
 10
0.0
 20
0.0
 11
210.0
 21
297.0
 12
0.0
 22
0.0
 32
0.0
 14
0.0
 24
0.0
 34
0.0
 15
0.0
 25
0.0
 35
0.0
146
0.0
 13
0.0
 23
0.0
 33
0.0
 16
1.0
 26
0.0
 36
0.0
 17
0.0
 27
1.0
 37
0.0
 76
0
330
212
345
0
346
0
  0
LAYOUT
  5
435
102
{ACAD_REACTORS
330
1A
102
}
100
AcDbPlotSettings
  1

  2
none_device
  4

  6

 40
0.0
 41
0.0
 42
0.0
 43
0.0
 44
210.0
 45
297.0
 46
0.0
 47
0.0
 48
0.0
 49
0.0
140
0.0
141
0.0
142
1.0
143
1.0
 70
0
 72
1
 73
0
 74
0
  7

 75
0
147
1.0
148
0.0
149
0.0
100
AcDbLayout
  1
Layout1
 70
0
 71
1
 10
0.0
 20
0.0
 11
210.0
 21
297.0
 12
0.0
 22
0.0
 32
0.0
 14
0.0
 24
0.0
 34
0.0
 15
0.0
 25
0.0
 35
0.0
146
0.0
 13
0.0
 23
0.0
 33
0.0
 16
1.0
 26
0.0
 36
0.0
 17
0.0
 27
1.0
 37
0.0
 76
0
330
213
345
0
346
0
  0
ENDSEC
  0
EOF
