999
DXF file: C:\Users\sesa63760\Dev\_Creo\CAD\MCADID0004838_3D-CAD\drw0001_6.dxf
999
Pro/ENGINEER 2019471 by Parametric Technology Corporation
  0
SECTION
  2
HEADER
  9
$ACADVER
  1
AC1024
  9
$DWGCODEPAGE
  3
ANSI_1252
  9
$EXTMAX
 10
65.5180401414
 20
92.6612282
 30
0.0
  9
$EXTMIN
 10
0.0
 20
0.0
 30
0.0
  9
$LIMMIN
 10
0.0
 20
0.0
  9
$LIMMAX
 10
65.5180401414
 20
92.6612282
  9
$VIEWCTR
 10
32.7590200707
 20
46.3306141
  9
$VIEWSIZE
 40
92.6612282
  9
$CLAYER
  8
0
  9
$LTSCALE
 40
6.0401393197
  9
$CELTYPE
  6
BYLAYER
  9
$DIMSCALE
 40
1.0
  9
$DIMASZ
 40
0.7799766684
  9
$DIMEXO
 40
1.0
  9
$DIMDLI
 40
4.1731871663
  9
$DIMEXE
 40
1.0
  9
$DIMCEN
 40
0.9883864341
  9
$DIMLFAC
 40
1.0
  9
$DIMBLK
  1
_FILLED
  9
$DIMALT
 70
0
  9
$DIMALTF
 40
0.0393700787
  9
$DIMTXT
 40
1.0919673357
  9
$DIMTOL
 70
1
  9
$DIMLIM
 70
0
  9
$DIMTFAC
 40
1.0
  9
$DIMTP
 40
0.01
  9
$DIMTM
 40
0.01
  9
$DIMGAP
 40
0.625
  9
$DIMDSEP
 70
46
  9
$AUNITS
 70
0
  9
$PDMODE
 70
3
  9
$PDSIZE
 40
0.3125
  9
$HANDSEED
  5
2C0
  9
$TILEMODE
 70
1
  9
$MEASUREMENT
 70
1
  9
$INSUNITS
 70
4
  0
ENDSEC
  0
SECTION
  2
CLASSES
  0
CLASS
  1
ACDBDICTIONARYWDFLT
  2
AcDbDictionaryWithDefault
  3
AutoCAD 2000
 90
0
 91
1
280
0
281
0
  0
CLASS
  1
ACDBPLACEHOLDER
  2
AcDbPlaceHolder
  3
AutoCAD 2000
 90
0
 91
1
280
0
281
0
  0
CLASS
  1
LAYOUT
  2
AcDbLayout
  3
AutoCAD 2000
 90
0
 91
0
280
0
281
0
  0
ENDSEC
  0
SECTION
  2
TABLES
  0
TABLE
  2
VPORT
  5
8
100
AcDbSymbolTable
 70
2
  0
VPORT
  5
1F4
100
AcDbSymbolTableRecord
100
AcDbViewportTableRecord
  2
*ACTIVE
 70
0
 10
0.0
 20
0.0
 11
1.0
 21
1.0
 12
32.7590200707
 22
46.3306141
 13
0.0
 23
0.0
 14
1.0
 24
1.0
 15
0.0
 25
0.0
 16
0.0
 26
0.0
 36
1.0
 17
0.0
 27
0.0
 37
0.0
 40
92.6612282
 41
0.7070707071
 42
50.0
 43
0.0
 44
0.0
 50
0.0
 51
0.0
 71
0
 72
100
 73
1
 74
1
 75
0
 76
0
 77
0
 78
0
  0
ENDTAB
  0
TABLE
  2
LTYPE
  5
5
100
AcDbSymbolTable
 70
6
  0
LTYPE
  5
14
100
AcDbSymbolTableRecord
100
AcDbLinetypeTableRecord
  2
BYBLOCK
 70
0
  3

 72
65
 73
0
 40
0.0
  0
LTYPE
  5
15
100
AcDbSymbolTableRecord
100
AcDbLinetypeTableRecord
  2
BYLAYER
 70
0
  3

 72
65
 73
0
 40
0.0
  0
LTYPE
  5
16
100
AcDbSymbolTableRecord
100
AcDbLinetypeTableRecord
  2
CONTINUOUS
 70
64
  3
Solid line
 72
65
 73
0
 40
0.0
  0
LTYPE
  5
1F5
100
AcDbSymbolTableRecord
100
AcDbLinetypeTableRecord
  2
CENTER
 70
64
  3
____ _ ____ _ ____ _ ____ _ ____ _ ____ _ ____
 72
65
 73
4
 40
0.6
 49
0.375
 74
0
 49
-0.075
 74
0
 49
0.075
 74
0
 49
-0.075
 74
0
  0
LTYPE
  5
1F6
100
AcDbSymbolTableRecord
100
AcDbLinetypeTableRecord
  2
HIDDEN
 70
64
  3
- - - - - - - - - - - - - - - - - - - -
 72
65
 73
2
 40
0.2
 49
0.1
 74
0
 49
-0.1
 74
0
  0
LTYPE
  5
1F7
100
AcDbSymbolTableRecord
100
AcDbLinetypeTableRecord
  2
PHANTOM
 70
64
  3
_____ _ _ _____ _ _ _____ _ _ _____
 72
65
 73
6
 40
0.8
 49
0.45
 74
0
 49
-0.05
 74
0
 49
0.1
 74
0
 49
-0.05
 74
0
 49
0.1
 74
0
 49
-0.05
 74
0
  0
LTYPE
  5
1F8
100
AcDbSymbolTableRecord
100
AcDbLinetypeTableRecord
  2
DOT
 70
64
  3
. . . . . . . . . . . . . . . . . . . .
 72
65
 73
2
 40
0.2
 49
0.1
 74
0
 49
-0.1
 74
0
  0
LTYPE
  5
1F9
100
AcDbSymbolTableRecord
100
AcDbLinetypeTableRecord
  2
DASHED
 70
64
  3
- - - - - - - - - - - - - - - - - - - -
 72
65
 73
2
 40
0.2
 49
0.1
 74
0
 49
-0.1
 74
0
  0
ENDTAB
  0
TABLE
  2
LAYER
  5
2
100
AcDbSymbolTable
 70
36
  0
LAYER
  5
10
100
AcDbSymbolTableRecord
100
AcDbLayerTableRecord
  2
0
 70
0
 62
7
  6
CONTINUOUS
370
-3
390
F
  0
LAYER
  5
1FA
100
AcDbSymbolTableRecord
100
AcDbLayerTableRecord
  2
DEFAULT_1
 70
0
 62
7
  6
CENTER
370
-3
390
F
  0
LAYER
  5
1FB
100
AcDbSymbolTableRecord
100
AcDbLayerTableRecord
  2
DEFAULT_2
 70
0
 62
7
  6
HIDDEN
370
-3
390
F
  0
LAYER
  5
1FC
100
AcDbSymbolTableRecord
100
AcDbLayerTableRecord
  2
DEFAULT_3
 70
0
 62
7
  6
PHANTOM
370
-3
390
F
  0
LAYER
  5
1FD
100
AcDbSymbolTableRecord
100
AcDbLayerTableRecord
  2
00_COMPONENTS
 70
0
 62
7
  6
CONTINUOUS
370
-3
390
F
  0
LAYER
  5
1FE
100
AcDbSymbolTableRecord
100
AcDbLayerTableRecord
  2
01_1_DEFAULT_DATUMS
 70
0
 62
7
  6
CONTINUOUS
370
-3
390
F
  0
LAYER
  5
1FF
100
AcDbSymbolTableRecord
100
AcDbLayerTableRecord
  2
01_PLANES
 70
0
 62
7
  6
CONTINUOUS
370
-3
390
F
  0
LAYER
  5
200
100
AcDbSymbolTableRecord
100
AcDbLayerTableRecord
  2
02_COORD_SYS
 70
0
 62
7
  6
CONTINUOUS
370
-3
390
F
  0
LAYER
  5
201
100
AcDbSymbolTableRecord
100
AcDbLayerTableRecord
  2
03_AXES
 70
0
 62
7
  6
CONTINUOUS
370
-3
390
F
  0
LAYER
  5
202
100
AcDbSymbolTableRecord
100
AcDbLayerTableRecord
  2
04_POINTS
 70
0
 62
7
  6
CONTINUOUS
370
-3
390
F
  0
LAYER
  5
203
100
AcDbSymbolTableRecord
100
AcDbLayerTableRecord
  2
05_CURVES
 70
0
 62
7
  6
CONTINUOUS
370
-3
390
F
  0
LAYER
  5
204
100
AcDbSymbolTableRecord
100
AcDbLayerTableRecord
  2
06_SURFS
 70
0
 62
7
  6
CONTINUOUS
370
-3
390
F
  0
LAYER
  5
205
100
AcDbSymbolTableRecord
100
AcDbLayerTableRecord
  2
07_COSMETICS
 70
0
 62
7
  6
CONTINUOUS
370
-3
390
F
  0
LAYER
  5
206
100
AcDbSymbolTableRecord
100
AcDbLayerTableRecord
  2
10_NOTES
 70
0
 62
7
  6
CONTINUOUS
370
-3
390
F
  0
LAYER
  5
207
100
AcDbSymbolTableRecord
100
AcDbLayerTableRecord
  2
11_NOTES_PUB
 70
0
 62
7
  6
CONTINUOUS
370
-3
390
F
  0
LAYER
  5
208
100
AcDbSymbolTableRecord
100
AcDbLayerTableRecord
  2
13_REF_GTOL
 70
0
 62
7
  6
CONTINUOUS
370
-3
390
F
  0
LAYER
  5
209
100
AcDbSymbolTableRecord
100
AcDbLayerTableRecord
  2
16_MISC
 70
0
 62
7
  6
CONTINUOUS
370
-3
390
F
  0
LAYER
  5
20A
100
AcDbSymbolTableRecord
100
AcDbLayerTableRecord
  2
17_NO_PRINT
 70
0
 62
7
  6
CONTINUOUS
370
-3
390
F
  0
LAYER
  5
20B
100
AcDbSymbolTableRecord
100
AcDbLayerTableRecord
  2
18_DATUM_CAMS_JOINTS
 70
0
 62
7
  6
CONTINUOUS
370
-3
390
F
  0
LAYER
  5
20C
100
AcDbSymbolTableRecord
100
AcDbLayerTableRecord
  2
19_DATUM_FUNCTIONAL
 70
0
 62
7
  6
CONTINUOUS
370
-3
390
F
  0
LAYER
  5
20D
100
AcDbSymbolTableRecord
100
AcDbLayerTableRecord
  2
20_DATUM_KINEMATIC_SCHEME
 70
0
 62
7
  6
CONTINUOUS
370
-3
390
F
  0
ENDTAB
  0
TABLE
  2
STYLE
  5
3
100
AcDbSymbolTable
 70
1
  0
STYLE
  5
11
100
AcDbSymbolTableRecord
100
AcDbTextStyleTableRecord
  2
STANDARD
 70
0
 40
0.0
 41
1.0
 50
0.0
 71
0
 42
0.2
  3
ARIAL.TTF
  4

  0
STYLE
  5
20E
100
AcDbSymbolTableRecord
100
AcDbTextStyleTableRecord
  2
TEXTSTYLE_1
 70
0
 40
0.0
 41
0.8
 50
0.0
 71
0
 42
0.2
  3
gdt
  4

  0
ENDTAB
  0
TABLE
  2
VIEW
  5
6
100
AcDbSymbolTable
 70
0
  0
ENDTAB
  0
TABLE
  2
UCS
  5
7
100
AcDbSymbolTable
 70
0
  0
ENDTAB
  0
TABLE
  2
APPID
  5
9
100
AcDbSymbolTable
 70
1
  0
APPID
  5
20F
100
AcDbSymbolTableRecord
100
AcDbRegAppTableRecord
  2
ACAD
 70
0
  0
ENDTAB
  0
TABLE
  2
BLOCK_RECORD
  5
1
100
AcDbSymbolTable
 70
0
  0
BLOCK_RECORD
  5
210
100
AcDbSymbolTableRecord
100
AcDbBlockTableRecord
  2
*Model_Space
  0
BLOCK_RECORD
  5
211
100
AcDbSymbolTableRecord
100
AcDbBlockTableRecord
  2
*Paper_Space
  0
BLOCK_RECORD
  5
212
100
AcDbSymbolTableRecord
100
AcDbBlockTableRecord
  2
_FILLED
  0
ENDTAB
  0
TABLE
  2
DIMSTYLE
  5
A
100
AcDbSymbolTable
 70
1
100
AcDbDimStyleTable
 71
0
  0
DIMSTYLE
105
213
100
AcDbSymbolTableRecord
100
AcDbDimStyleTableRecord
  2
STANDARD
 70
0
  3

  4

 40
1.0
 41
0.7799766684
 42
1.0
 43
0.38
 44
1.0
 45
0.0
 46
0.0
 47
0.01
 48
0.01
140
1.0919673357
141
0.09
142
0.0
143
25.4
144
1.0
145
0.0
146
1.0
147
0.625
 71
1
 72
0
 73
0
 74
0
 75
0
 76
0
 77
1
 78
8
 79
2
170
0
171
1
172
0
173
0
174
0
175
0
176
0
177
0
178
0
270
2
179
2
271
2
272
2
273
2
274
2
275
0
280
0
281
0
282
0
283
1
284
8
285
0
286
0
287
3
288
0
340
11
278
46
341
212
342
212
343
212
344
212
  0
ENDTAB
  0
ENDSEC
  0
SECTION
  2
BLOCKS
  0
BLOCK
  5
20
100
AcDbEntity
  8
0
100
AcDbBlockBegin
  2
*Model_Space
 70
0
 10
0.0
 20
0.0
 30
0.0
  3
*Model_Space
  1

  0
ENDBLK
  5
21
100
AcDbEntity
  8
0
100
AcDbBlockEnd
  0
BLOCK
  5
1C
100
AcDbEntity
  8
0
100
AcDbBlockBegin
  2
*Paper_Space
 70
0
 10
0.0
 20
0.0
 30
0.0
  3
*Paper_Space
  1

  0
ENDBLK
  5
1D
100
AcDbEntity
  8
0
100
AcDbBlockEnd
  0
BLOCK
  5
214
100
AcDbEntity
  8
0
100
AcDbBlockBegin
  2
_FILLED
 70
64
 10
0.0
 20
0.0
  3
_FILLED
  1

  0
SOLID
  5
215
100
AcDbEntity
  8
0
  6
BYBLOCK
 62
0
100
AcDbTrace
 10
0.0
 20
0.0
 11
-1.0
 21
0.25
 12
-1.0
 22
-0.25
 13
-1.0
 23
-0.25
  0
ENDBLK
  5
216
100
AcDbEntity
  8
0
  6
BYBLOCK
 62
0
100
AcDbBlockEnd
  0
ENDSEC
  0
SECTION
  2
ENTITIES
  0
LINE
  5
217
100
AcDbEntity
  8
0
100
AcDbLine
 62
7
  6
BYLAYER
 10
42.553226675
 20
7.655618771
 11
34.5533125159
 21
7.655618771
  0
LINE
  5
218
100
AcDbEntity
  8
0
100
AcDbLine
 62
7
  6
BYLAYER
 10
42.6532695954
 20
7.755618771
 11
39.1532695954
 21
7.755618771
  0
LINE
  5
219
100
AcDbEntity
  8
0
100
AcDbLine
 62
7
  6
BYLAYER
 10
37.9532695954
 20
7.755618771
 11
34.4532695954
 21
7.755618771
  0
LINE
  5
21A
100
AcDbEntity
  8
0
100
AcDbLine
 62
7
  6
BYLAYER
 10
48.553183349
 20
8.005618771
 11
28.5533558419
 21
8.005618771
  0
LINE
  5
21B
100
AcDbEntity
  8
0
100
AcDbLine
 62
7
  6
BYLAYER
 10
33.0621355861
 20
83.5015764763
 11
32.5596368551
 21
83.2109548046
  0
LINE
  5
21C
100
AcDbEntity
  8
0
100
AcDbLine
 62
7
  6
BYLAYER
 10
33.0611627452
 20
84.5027488749
 11
32.5599956078
 21
84.2130389333
  0
LINE
  5
21D
100
AcDbEntity
  8
0
100
AcDbLine
 62
7
  6
BYLAYER
 10
33.0671977247
 20
84.5056010858
 11
33.0604024312
 21
84.5023093149
  0
LINE
  5
21E
100
AcDbEntity
  8
0
100
AcDbLine
 62
7
  6
BYLAYER
 10
33.0619139667
 20
82.5018842297
 11
32.5589047195
 21
82.2110453601
  0
LINE
  5
21F
100
AcDbEntity
  8
0
100
AcDbLine
 62
7
  6
BYLAYER
 10
33.0599721683
 20
81.5020222271
 11
32.5591920437
 21
81.2125734335
  0
LINE
  5
220
100
AcDbEntity
  8
0
100
AcDbLine
 62
7
  6
BYLAYER
 10
33.0618282342
 20
80.5026698598
 11
32.5603528164
 21
80.2127217393
  0
LINE
  5
221
100
AcDbEntity
  8
0
100
AcDbLine
 62
7
  6
BYLAYER
 10
33.0627411828
 20
79.5019996844
 11
32.5590944783
 21
79.2107485961
  0
LINE
  5
222
100
AcDbEntity
  8
0
100
AcDbLine
 62
7
  6
BYLAYER
 10
33.0630771225
 20
76.5026007893
 11
32.5602251871
 21
76.211791313
  0
LINE
  5
223
100
AcDbEntity
  8
0
100
AcDbLine
 62
7
  6
BYLAYER
 10
33.0603310555
 20
78.5018758498
 11
32.5589211427
 21
78.2120445462
  0
LINE
  5
224
100
AcDbEntity
  8
0
100
AcDbLine
 62
7
  6
BYLAYER
 10
44.0462384833
 20
83.9866863104
 11
44.5473314502
 21
84.2763457543
  0
LINE
  5
225
100
AcDbEntity
  8
0
100
AcDbLine
 62
7
  6
BYLAYER
 10
33.0609438759
 20
77.502540099
 11
32.5601223484
 21
77.2130162363
  0
LINE
  5
226
100
AcDbEntity
  8
0
100
AcDbLine
 62
7
  6
BYLAYER
 10
44.0455295052
 20
82.9867472651
 11
44.5476949511
 21
83.2770507738
  0
LINE
  5
227
100
AcDbEntity
  8
0
100
AcDbLine
 62
7
  6
BYLAYER
 10
28.5533558419
 20
18.505618771
 11
48.553183349
 21
18.505618771
  0
LINE
  5
228
100
AcDbEntity
  8
0
100
AcDbLine
 62
7
  6
BYLAYER
 10
48.6531392055
 20
18.755618771
 11
28.4533999003
 21
18.755618771
  0
LINE
  5
229
100
AcDbEntity
  8
0
100
AcDbLine
 62
7
  6
BYLAYER
 10
53.3532500015
 20
19.105618771
 11
12.3532695529
 21
19.105618771
  0
LINE
  5
22A
100
AcDbEntity
  8
0
100
AcDbLine
 62
7
  6
BYLAYER
 10
54.3532695529
 20
20.105618771
 11
12.4267352569
 21
20.105618771
  0
LINE
  5
22B
100
AcDbEntity
  8
0
100
AcDbLine
 62
7
  6
BYLAYER
 10
32.5532695529
 20
82.2048357399
 11
32.5589041985
 21
82.2115154866
  0
LINE
  5
22C
100
AcDbEntity
  8
0
100
AcDbLine
 62
7
  6
BYLAYER
 10
32.5532695529
 20
83.2041471421
 11
32.5596361948
 21
83.211489553
  0
LINE
  5
22D
100
AcDbEntity
  8
0
100
AcDbLine
 62
7
  6
BYLAYER
 10
32.5599954616
 20
84.2131553651
 11
32.5532695529
 21
84.2056184569
  0
LINE
  5
22E
100
AcDbEntity
  8
0
100
AcDbLine
 62
7
  6
BYLAYER
 10
32.5603520033
 20
80.2133527976
 11
32.553269553
 21
80.2056182756
  0
LINE
  5
22F
100
AcDbEntity
  8
0
100
AcDbLine
 62
7
  6
BYLAYER
 10
44.0431730164
 20
81.9864280328
 11
44.5471661893
 21
82.2779125285
  0
LINE
  5
230
100
AcDbEntity
  8
0
100
AcDbLine
 62
7
  6
BYLAYER
 10
44.0432115766
 20
80.9859588324
 11
44.5462873405
 21
81.2769110013
  0
LINE
  5
231
100
AcDbEntity
  8
0
100
AcDbLine
 62
7
  6
BYLAYER
 10
44.0456359606
 20
79.9860580869
 11
44.546435109
 21
80.2755668779
  0
LINE
  5
232
100
AcDbEntity
  8
0
100
AcDbLine
 62
7
  6
BYLAYER
 10
32.5589205877
 20
78.2125267434
 11
32.5532695529
 21
78.2056186034
  0
LINE
  5
233
100
AcDbEntity
  8
0
100
AcDbLine
 62
7
  6
BYLAYER
 10
32.5591919054
 20
81.2126907865
 11
32.5532695529
 21
81.2056188459
  0
LINE
  5
234
100
AcDbEntity
  8
0
100
AcDbLine
 62
7
  6
BYLAYER
 10
32.5532695529
 20
79.2044517954
 11
32.5590938487
 21
79.2112996575
  0
LINE
  5
235
100
AcDbEntity
  8
0
100
AcDbLine
 62
7
  6
BYLAYER
 10
32.5601220824
 20
77.2132261055
 11
32.5532695529
 21
77.2056184997
  0
LINE
  5
236
100
AcDbEntity
  8
0
100
AcDbLine
 62
7
  6
BYLAYER
 10
32.5532695529
 20
76.205618771
 11
32.5602233098
 21
76.2132664079
  0
LINE
  5
237
100
AcDbEntity
  8
0
100
AcDbLine
 62
7
  6
BYLAYER
 10
44.0438035252
 20
78.9865874154
 11
44.5474429821
 21
79.277834016
  0
LINE
  5
238
100
AcDbEntity
  8
0
100
AcDbLine
 62
7
  6
BYLAYER
 10
44.0428506244
 20
77.986086393
 11
44.546536219
 21
78.2774101983
  0
LINE
  5
239
100
AcDbEntity
  8
0
100
AcDbLine
 62
7
  6
BYLAYER
 10
44.0447114074
 20
76.9859180349
 11
44.546186477
 21
77.2758659259
  0
LINE
  5
23A
100
AcDbEntity
  8
0
100
AcDbLine
 62
7
  6
BYLAYER
 10
16.4232695529
 20
74.505618771
 11
12.3532695529
 21
19.105618771
  0
LINE
  5
23B
100
AcDbEntity
  8
0
100
AcDbLine
 62
7
  6
BYLAYER
 10
44.5473319903
 20
84.2758879668
 11
44.5532695529
 21
84.2829692159
  0
LINE
  5
23C
100
AcDbEntity
  8
0
100
AcDbLine
 62
7
  6
BYLAYER
 10
44.5532695529
 20
83.2832881803
 11
44.5476952661
 21
83.2767594957
  0
LINE
  5
23D
100
AcDbEntity
  8
0
100
AcDbLine
 62
7
  6
BYLAYER
 10
44.5532695529
 20
82.2844231225
 11
44.5471668898
 21
82.2773242099
  0
LINE
  5
23E
100
AcDbEntity
  8
0
100
AcDbLine
 62
7
  6
BYLAYER
 10
41.5528588527
 20
80.1176187551
 11
41.3028936375
 21
79.8288320709
  0
LINE
  5
23F
100
AcDbEntity
  8
0
100
AcDbLine
 62
7
  6
BYLAYER
 10
44.5532695529
 20
81.2844393972
 11
44.5462878739
 21
81.2765119656
  0
LINE
  5
240
100
AcDbEntity
  8
0
100
AcDbLine
 62
7
  6
BYLAYER
 10
44.5532695529
 20
79.2841409004
 11
44.5474436046
 21
79.2772895138
  0
LINE
  5
241
100
AcDbEntity
  8
0
100
AcDbLine
 62
7
  6
BYLAYER
 10
44.5532695529
 20
78.2845856303
 11
44.5465368878
 21
78.2768948517
  0
LINE
  5
242
100
AcDbEntity
  8
0
100
AcDbLine
 62
7
  6
BYLAYER
 10
44.5532695529
 20
80.283325538
 11
44.5464351165
 21
80.2755610006
  0
LINE
  5
243
100
AcDbEntity
  8
0
100
AcDbLine
 62
7
  6
BYLAYER
 10
44.5532695529
 20
77.2838192635
 11
44.5461865212
 21
77.2758328556
  0
LINE
  5
244
100
AcDbEntity
  8
0
100
AcDbLine
 62
7
  6
BYLAYER
 10
28.4532695529
 20
19.105618771
 11
28.4532695529
 21
18.755618771
  0
LINE
  5
245
100
AcDbEntity
  8
0
100
AcDbLine
 62
7
  6
BYLAYER
 10
28.5532695954
 20
18.505618771
 11
28.5532695954
 21
8.005618771
  0
LINE
  5
246
100
AcDbEntity
  8
0
100
AcDbLine
 62
7
  6
BYLAYER
 10
32.5532695529
 20
84.2051811403
 11
32.5532695529
 21
83.783132491
  0
LINE
  5
247
100
AcDbEntity
  8
0
100
AcDbLine
 62
7
  6
BYLAYER
 10
32.5532695529
 20
83.2036687792
 11
32.5532695529
 21
82.784073119
  0
LINE
  5
248
100
AcDbEntity
  8
0
100
AcDbLine
 62
7
  6
BYLAYER
 10
32.5532695529
 20
82.2045548368
 11
32.5532695529
 21
81.7829690402
  0
LINE
  5
249
100
AcDbEntity
  8
0
100
AcDbLine
 62
7
  6
BYLAYER
 10
32.5532695529
 20
81.205618771
 11
32.5532695529
 21
80.7840329744
  0
LINE
  5
24A
100
AcDbEntity
  8
0
100
AcDbLine
 62
7
  6
BYLAYER
 10
32.5532695529
 20
80.2045146922
 11
32.5532695529
 21
79.7845596152
  0
LINE
  5
24B
100
AcDbEntity
  8
0
100
AcDbLine
 62
7
  6
BYLAYER
 10
32.5532695529
 20
79.2040654728
 11
32.5532695529
 21
78.7831498755
  0
LINE
  5
24C
100
AcDbEntity
  8
0
100
AcDbLine
 62
7
  6
BYLAYER
 10
32.5532695529
 20
78.2054578702
 11
32.5532695529
 21
77.7835309984
  0
LINE
  5
24D
100
AcDbEntity
  8
0
100
AcDbLine
 62
7
  6
BYLAYER
 10
32.5532695529
 20
77.2050225017
 11
32.5532695529
 21
76.784725584
  0
LINE
  5
24E
100
AcDbEntity
  8
0
100
AcDbLine
 62
7
  6
BYLAYER
 10
32.5532695529
 20
76.2038041454
 11
32.5532695529
 21
74.505618771
  0
LINE
  5
24F
100
AcDbEntity
  8
0
100
AcDbLine
 62
7
  6
BYLAYER
 10
32.5532695529
 20
76.205618771
 11
32.5532695529
 21
76.7829690402
  0
LINE
  5
250
100
AcDbEntity
  8
0
100
AcDbLine
 62
7
  6
BYLAYER
 10
33.3782695529
 20
85.005618771
 11
33.3782695529
 21
84.505618771
  0
LINE
  5
251
100
AcDbEntity
  8
0
100
AcDbLine
 62
7
  6
BYLAYER
 10
33.5032695954
 20
18.755618771
 11
33.5032695954
 21
18.505618771
  0
LINE
  5
252
100
AcDbEntity
  8
0
100
AcDbLine
 62
7
  6
BYLAYER
 10
34.4532695954
 20
8.005618771
 11
34.4532695954
 21
7.755618771
  0
LINE
  5
253
100
AcDbEntity
  8
0
100
AcDbLine
 62
7
  6
BYLAYER
 10
34.8031006227
 20
73.505618771
 11
34.8031006227
 21
20.105618771
  0
LINE
  5
254
100
AcDbEntity
  8
0
100
AcDbLine
 62
7
  6
BYLAYER
 10
37.9532695954
 20
7.655618771
 11
37.9532695954
 21
8.005618771
  0
LINE
  5
255
100
AcDbEntity
  8
0
100
AcDbLine
 62
7
  6
BYLAYER
 10
39.1532695954
 20
7.655618771
 11
39.1532695954
 21
8.005618771
  0
LINE
  5
256
100
AcDbEntity
  8
0
100
AcDbLine
 62
7
  6
BYLAYER
 10
42.6532695954
 20
8.005618771
 11
42.6532695954
 21
7.755618771
  0
LINE
  5
257
100
AcDbEntity
  8
0
100
AcDbLine
 62
7
  6
BYLAYER
 10
43.6032695954
 20
18.755618771
 11
43.6032695954
 21
18.505618771
  0
LINE
  5
258
100
AcDbEntity
  8
0
100
AcDbLine
 62
7
  6
BYLAYER
 10
43.7282695529
 20
85.005618771
 11
43.7282695529
 21
84.505618771
  0
LINE
  5
259
100
AcDbEntity
  8
0
100
AcDbLine
 62
7
  6
BYLAYER
 10
44.5532695529
 20
84.505618771
 11
44.5532695529
 21
84.2832106421
  0
LINE
  5
25A
100
AcDbEntity
  8
0
100
AcDbLine
 62
7
  6
BYLAYER
 10
44.5532695529
 20
83.7050843675
 11
44.5532695529
 21
83.2835065757
  0
LINE
  5
25B
100
AcDbEntity
  8
0
100
AcDbLine
 62
7
  6
BYLAYER
 10
44.5532695529
 20
82.7050471614
 11
44.5532695529
 21
82.2848986684
  0
LINE
  5
25C
100
AcDbEntity
  8
0
100
AcDbLine
 62
7
  6
BYLAYER
 10
44.5532695529
 20
81.7036635121
 11
44.5532695529
 21
81.2849242991
  0
LINE
  5
25D
100
AcDbEntity
  8
0
100
AcDbLine
 62
7
  6
BYLAYER
 10
44.5532695529
 20
80.7036891427
 11
44.5532695529
 21
80.2835406498
  0
LINE
  5
25E
100
AcDbEntity
  8
0
100
AcDbLine
 62
7
  6
BYLAYER
 10
44.5532695529
 20
79.7050812355
 11
44.5532695529
 21
79.2845190228
  0
LINE
  5
25F
100
AcDbEntity
  8
0
100
AcDbLine
 62
7
  6
BYLAYER
 10
44.5532695529
 20
78.7040319591
 11
44.5532695529
 21
78.2851185432
  0
LINE
  5
260
100
AcDbEntity
  8
0
100
AcDbLine
 62
7
  6
BYLAYER
 10
44.5532695529
 20
77.7034784274
 11
44.5532695529
 21
77.284072761
  0
LINE
  5
261
100
AcDbEntity
  8
0
100
AcDbLine
 62
7
  6
BYLAYER
 10
44.5532695529
 20
76.7045551448
 11
44.5532695529
 21
74.505618771
  0
LINE
  5
262
100
AcDbEntity
  8
0
100
AcDbLine
 62
7
  6
BYLAYER
 10
48.5532695954
 20
18.505618771
 11
48.5532695954
 21
8.005618771
  0
LINE
  5
263
100
AcDbEntity
  8
0
100
AcDbLine
 62
7
  6
BYLAYER
 10
48.6532695529
 20
19.105618771
 11
48.6532695529
 21
18.755618771
  0
LINE
  5
264
100
AcDbEntity
  8
0
100
AcDbLine
 62
7
  6
BYLAYER
 10
32.5596770369
 20
78.7756129832
 11
32.5532695529
 21
78.782969059
  0
LINE
  5
265
100
AcDbEntity
  8
0
100
AcDbLine
 62
7
  6
BYLAYER
 10
32.5588345426
 20
77.7761139654
 11
32.5532695529
 21
77.7829695811
  0
LINE
  5
266
100
AcDbEntity
  8
0
100
AcDbLine
 62
7
  6
BYLAYER
 10
54.3532695529
 20
73.505618771
 11
54.3532695529
 21
20.105618771
  0
LINE
  5
267
100
AcDbEntity
  8
0
100
AcDbLine
 62
7
  6
BYLAYER
 10
32.5532695529
 20
79.7841702654
 11
32.5603858525
 21
79.7761466367
  0
LINE
  5
268
100
AcDbEntity
  8
0
100
AcDbLine
 62
7
  6
BYLAYER
 10
32.5532695529
 20
80.7837513342
 11
32.5589041975
 21
80.7770717502
  0
LINE
  5
269
100
AcDbEntity
  8
0
100
AcDbLine
 62
7
  6
BYLAYER
 10
32.559191905
 20
81.7758970181
 11
32.5532695529
 21
81.7829689593
  0
LINE
  5
26A
100
AcDbEntity
  8
0
100
AcDbLine
 62
7
  6
BYLAYER
 10
33.0532695529
 20
76.4942939056
 11
32.5532695529
 21
76.7829690402
  0
LINE
  5
26B
100
AcDbEntity
  8
0
100
AcDbLine
 62
7
  6
BYLAYER
 10
32.5603520028
 20
82.7752350114
 11
32.553269553
 21
82.7829695241
  0
LINE
  5
26C
100
AcDbEntity
  8
0
100
AcDbLine
 62
7
  6
BYLAYER
 10
32.5597308343
 20
83.775582211
 11
32.5532695529
 21
83.7829691506
  0
LINE
  5
26D
100
AcDbEntity
  8
0
100
AcDbLine
 62
7
  6
BYLAYER
 10
16.3498038489
 20
73.505618771
 11
54.3532695529
 21
73.505618771
  0
LINE
  5
26E
100
AcDbEntity
  8
0
100
AcDbLine
 62
7
  6
BYLAYER
 10
16.4232695529
 20
74.505618771
 11
53.3532695529
 21
74.505618771
  0
LINE
  5
26F
100
AcDbEntity
  8
0
100
AcDbLine
 62
7
  6
BYLAYER
 10
32.5596770418
 20
78.7756169506
 11
33.0467967543
 21
78.4940519839
  0
LINE
  5
270
100
AcDbEntity
  8
0
100
AcDbLine
 62
7
  6
BYLAYER
 10
32.5588356529
 20
77.7770860821
 11
33.0473430522
 21
77.4946768986
  0
LINE
  5
271
100
AcDbEntity
  8
0
100
AcDbLine
 62
7
  6
BYLAYER
 10
32.560386139
 20
79.7763589327
 11
33.0487853906
 21
79.4939286289
  0
LINE
  5
272
100
AcDbEntity
  8
0
100
AcDbLine
 62
7
  6
BYLAYER
 10
32.5589047192
 20
80.7775424513
 11
33.0480651599
 21
80.494711577
  0
LINE
  5
273
100
AcDbEntity
  8
0
100
AcDbLine
 62
7
  6
BYLAYER
 10
44.5532695529
 20
77.7040058012
 11
44.5468480039
 21
77.7114040372
  0
LINE
  5
274
100
AcDbEntity
  8
0
100
AcDbLine
 62
7
  6
BYLAYER
 10
41.3029399138
 20
79.8263789781
 11
41.5529090923
 21
79.5375922529
  0
LINE
  5
275
100
AcDbEntity
  8
0
100
AcDbLine
 62
7
  6
BYLAYER
 10
44.5476359556
 20
76.7125163761
 11
44.5532695528
 21
76.7056183
  0
LINE
  5
276
100
AcDbEntity
  8
0
100
AcDbLine
 62
7
  6
BYLAYER
 10
32.5591920433
 20
81.7760143779
 11
33.0466022928
 21
81.494293914
  0
LINE
  5
277
100
AcDbEntity
  8
0
100
AcDbLine
 62
7
  6
BYLAYER
 10
32.5597308577
 20
83.775601281
 11
33.0479716554
 21
83.4933840751
  0
LINE
  5
278
100
AcDbEntity
  8
0
100
AcDbLine
 62
7
  6
BYLAYER
 10
32.5603528159
 20
82.7758660722
 11
33.0480651595
 21
82.493876252
  0
LINE
  5
279
100
AcDbEntity
  8
0
100
AcDbLine
 62
7
  6
BYLAYER
 10
44.5476342655
 20
76.7110458126
 11
44.0584744499
 21
76.9938763161
  0
LINE
  5
27A
100
AcDbEntity
  8
0
100
AcDbLine
 62
7
  6
BYLAYER
 10
44.5532695529
 20
78.7044198601
 11
44.5461551053
 21
78.7124645517
  0
LINE
  5
27B
100
AcDbEntity
  8
0
100
AcDbLine
 62
7
  6
BYLAYER
 10
44.5532695529
 20
81.7041467985
 11
44.5462878746
 21
81.7120765815
  0
LINE
  5
27C
100
AcDbEntity
  8
0
100
AcDbLine
 62
7
  6
BYLAYER
 10
44.5532695529
 20
82.7052606569
 11
44.5464351133
 21
82.7130245987
  0
LINE
  5
27D
100
AcDbEntity
  8
0
100
AcDbLine
 62
7
  6
BYLAYER
 10
44.5532695529
 20
80.7041654874
 11
44.5471668907
 21
80.7112646396
  0
LINE
  5
27E
100
AcDbEntity
  8
0
100
AcDbLine
 62
7
  6
BYLAYER
 10
44.5532695529
 20
79.7053007284
 11
44.5476952674
 21
79.7118298549
  0
LINE
  5
27F
100
AcDbEntity
  8
0
100
AcDbLine
 62
7
  6
BYLAYER
 10
44.5476581052
 20
83.7125027915
 11
44.5532695529
 21
83.7056186166
  0
LINE
  5
280
100
AcDbEntity
  8
0
100
AcDbLine
 62
7
  6
BYLAYER
 10
33.0281315516
 20
84.505618771
 11
33.0471275936
 21
84.4946349576
  0
LINE
  5
281
100
AcDbEntity
  8
0
100
AcDbLine
 62
7
  6
BYLAYER
 10
44.5461547888
 20
78.7122304967
 11
44.0577592025
 21
78.9946584144
  0
LINE
  5
282
100
AcDbEntity
  8
0
100
AcDbLine
 62
7
  6
BYLAYER
 10
44.5476949507
 20
79.7115370376
 11
44.0592319956
 21
79.9939184777
  0
LINE
  5
283
100
AcDbEntity
  8
0
100
AcDbLine
 62
7
  6
BYLAYER
 10
44.5468472815
 20
77.7108241276
 11
44.0568903568
 21
77.9942074129
  0
LINE
  5
284
100
AcDbEntity
  8
0
100
AcDbLine
 62
7
  6
BYLAYER
 10
44.5471661889
 20
80.7106752829
 11
44.0571973941
 21
80.9940481354
  0
LINE
  5
285
100
AcDbEntity
  8
0
100
AcDbLine
 62
7
  6
BYLAYER
 10
33.0273120512
 20
84.505618771
 11
44.553201691
 21
84.505618771
  0
LINE
  5
286
100
AcDbEntity
  8
0
100
AcDbLine
 62
7
  6
BYLAYER
 10
44.5464351086
 20
82.7130209335
 11
44.0592319952
 21
82.9946693509
  0
LINE
  5
287
100
AcDbEntity
  8
0
100
AcDbLine
 62
7
  6
BYLAYER
 10
44.5476570472
 20
83.7115803656
 11
44.0590088892
 21
83.9940688993
  0
LINE
  5
288
100
AcDbEntity
  8
0
100
AcDbLine
 62
7
  6
BYLAYER
 10
44.54628734
 20
81.7116768101
 11
44.0571973939
 21
81.9945396941
  0
LINE
  5
289
100
AcDbEntity
  8
0
100
AcDbLine
 62
7
  6
BYLAYER
 10
33.3784713053
 20
85.005618771
 11
43.7280678005
 21
85.005618771
  0
ARC
  5
28A
100
AcDbEntity
  8
0
100
AcDbCircle
 62
7
  6
BYLAYER
 10
53.3532695529
 20
73.505618771
 40
1.0
100
AcDbArc
 50
0.0
 51
90.0
  0
ARC
  5
28B
100
AcDbEntity
  8
0
100
AcDbCircle
 62
7
  6
BYLAYER
 10
53.3532695529
 20
20.105618771
 40
1.0
100
AcDbArc
 50
270.0
 51
360.0
  0
ARC
  5
28C
100
AcDbEntity
  8
0
100
AcDbCircle
 62
7
  6
BYLAYER
 10
34.5532695954
 20
7.755618771
 40
0.1
100
AcDbArc
 50
180.0
 51
270.0
  0
ARC
  5
28D
100
AcDbEntity
  8
0
100
AcDbCircle
 62
7
  6
BYLAYER
 10
42.5532695954
 20
7.755618771
 40
0.1
100
AcDbArc
 50
270.0
 51
360.0
  0
SPLINE
  5
28E
100
AcDbEntity
  8
0
100
AcDbSpline
 62
7
  6
BYLAYER
 70
0
 71
3
 72
27
 73
23
 74
0
 42
0.0000001
 43
0.0000001
 44
0.0000000001
 40
0.0
 40
0.0
 40
0.0
 40
0.0
 40
0.0007163281
 40
0.0018288924
 40
0.003466582
 40
0.0056667552
 40
0.0118007601
 40
0.0202740173
 40
0.0310879114
 40
0.0442196077
 40
0.0596394623
 40
0.0773161031
 40
0.1192784699
 40
0.1696969261
 40
0.2281035968
 40
0.2939270283
 40
0.3665475417
 40
0.4452610776
 40
0.5293215976
 40
0.6179020206
 40
0.8052169256
 40
1.0
 40
1.0
 40
1.0
 40
1.0
 10
44.5532694809
 20
83.7056186142
 30
0.0
 10
44.5532688635
 20
83.7041832195
 30
0.0
 10
44.5511606357
 20
83.7007196626
 30
0.0
 10
44.5451808258
 20
83.6971505051
 30
0.0
 10
44.5359948492
 20
83.6933211518
 30
0.0
 10
44.5168125328
 20
83.687662516
 30
0.0
 10
44.483754819
 20
83.6809985617
 30
0.0
 10
44.4333766527
 20
83.6734429087
 30
0.0
 10
44.3688537487
 20
83.6658169706
 30
0.0
 10
44.2903460977
 20
83.65812636
 30
0.0
 10
44.1980326781
 20
83.6504037392
 30
0.0
 10
44.0480261116
 20
83.6394425467
 30
0.0
 10
43.8278871886
 20
83.6260992967
 30
0.0
 10
43.526124285
 20
83.6107361191
 30
0.0
 10
43.1764966914
 20
83.5953258842
 30
0.0
 10
42.7823451413
 20
83.5798605469
 30
0.0
 10
42.3474751973
 20
83.5643643688
 30
0.0
 10
41.8760406038
 20
83.5488573874
 30
0.0
 10
41.372608619
 20
83.5333673353
 30
0.0
 10
40.6516301194
 20
83.5122384887
 30
0.0
 10
39.7088381094
 20
83.4860002145
 30
0.0
 10
38.9434268515
 20
83.4665663898
 30
0.0
 10
38.5532695529
 20
83.455618771
 30
0.0
  0
SPLINE
  5
28F
100
AcDbEntity
  8
0
100
AcDbSpline
 62
7
  6
BYLAYER
 70
0
 71
3
 72
27
 73
23
 74
0
 42
0.0000001
 43
0.0000001
 44
0.0000000001
 40
0.0
 40
0.0
 40
0.0
 40
0.0
 40
0.0007162869
 40
0.0018288463
 40
0.0034666066
 40
0.0056669006
 40
0.0118011527
 40
0.0202744124
 40
0.0310883052
 40
0.0442201871
 40
0.0596401412
 40
0.0773165224
 40
0.119278236
 40
0.1696969572
 40
0.2281054917
 40
0.2939307223
 40
0.3665519043
 40
0.445264932
 40
0.5293238904
 40
0.6179017206
 40
0.8052118591
 40
1.0
 40
1.0
 40
1.0
 40
1.0
 10
32.553269555
 20
83.7829691512
 30
0.0
 10
32.5532696742
 20
83.7844044638
 30
0.0
 10
32.5553773786
 20
83.7878685213
 30
0.0
 10
32.5613573742
 20
83.7914375498
 30
0.0
 10
32.5705436828
 20
83.7952670131
 30
0.0
 10
32.5897269493
 20
83.80092562
 30
0.0
 10
32.6227854007
 20
83.8075895562
 30
0.0
 10
32.6731640546
 20
83.8151454178
 30
0.0
 10
32.7376873389
 20
83.8227713864
 30
0.0
 10
32.8161955893
 20
83.8304618308
 30
0.0
 10
32.9085090891
 20
83.8381842325
 30
0.0
 10
33.0585140649
 20
83.8491450938
 30
0.0
 10
33.2786517616
 20
83.8624875742
 30
0.0
 10
33.580417633
 20
83.8778512299
 30
0.0
 10
33.9300530179
 20
83.8932644443
 30
0.0
 10
34.3242133455
 20
83.9087290156
 30
0.0
 10
34.7590876043
 20
83.9242158786
 30
0.0
 10
35.2305192712
 20
83.9397274879
 30
0.0
 10
35.733940873
 20
83.9552530061
 30
0.0
 10
36.4549023951
 20
83.9763575573
 30
0.0
 10
37.3976980495
 20
84.0022945283
 30
0.0
 10
38.1630843847
 20
84.0226702297
 30
0.0
 10
38.5532695529
 20
84.032969059
 30
0.0
  0
SPLINE
  5
290
100
AcDbEntity
  8
0
100
AcDbSpline
 62
7
  6
BYLAYER
 70
0
 71
3
 72
9
 73
5
 74
0
 42
0.0000001
 43
0.0000001
 44
0.0000000001
 40
0.0
 40
0.0
 40
0.0
 40
0.0
 40
0.4937717478
 40
1.0
 40
1.0
 40
1.0
 40
1.0
 10
40.4073715185
 20
84.505618771
 30
0.0
 10
40.1022225969
 20
84.4967190814
 30
0.0
 10
39.4841640182
 20
84.4809331614
 30
0.0
 10
38.8661510287
 20
84.4634719792
 30
0.0
 10
38.5532695529
 20
84.4556187874
 30
0.0
  0
SPLINE
  5
291
100
AcDbEntity
  8
0
100
AcDbSpline
 62
7
  6
BYLAYER
 70
0
 71
3
 72
23
 73
19
 74
0
 42
0.0000001
 43
0.0000001
 44
0.0000000001
 40
0.0
 40
0.0
 40
0.0
 40
0.0
 40
0.1896354809
 40
0.3724031406
 40
0.5416599496
 40
0.6192816109
 40
0.6912785939
 40
0.7569937997
 40
0.8158398464
 40
0.8672755035
 40
0.9108428004
 40
0.9461475692
 40
0.9606018389
 40
0.9728856816
 40
0.9829730285
 40
0.9908448492
 40
0.9965059718
 40
1.0
 40
1.0
 40
1.0
 40
1.0
 10
38.5532695529
 20
84.032969059
 30
0.0
 10
38.9325295111
 20
84.0429795204
 30
0.0
 10
39.6773099209
 20
84.0628010273
 30
0.0
 10
40.7605672169
 20
84.0925580083
 30
0.0
 10
41.6197595723
 20
84.1179702852
 30
0.0
 10
42.2573783591
 20
84.1386798881
 30
0.0
 10
42.6879207356
 20
84.1537414398
 30
0.0
 10
43.0808760191
 20
84.1687814264
 30
0.0
 10
43.4326634891
 20
84.1837869412
 30
0.0
 10
43.7400999106
 20
84.1987368213
 30
0.0
 10
44.0003751895
 20
84.2136174474
 30
0.0
 10
44.1866497688
 20
84.2265901838
 30
0.0
 10
44.3103091389
 20
84.2373247412
 30
0.0
 10
44.3836178248
 20
84.2447873074
 30
0.0
 10
44.4436456125
 20
84.2522189881
 30
0.0
 10
44.4904174035
 20
84.2594859386
 30
0.0
 10
44.5235894775
 20
84.266730337
 30
0.0
 10
44.5413103733
 20
84.2723107719
 30
0.0
 10
44.5473160369
 20
84.2758879388
 30
0.0
  0
SPLINE
  5
292
100
AcDbEntity
  8
0
100
AcDbSpline
 62
7
  6
BYLAYER
 70
0
 71
3
 72
27
 73
23
 74
0
 42
0.0000001
 43
0.0000001
 44
0.0000000001
 40
0.0
 40
0.0
 40
0.0
 40
0.0
 40
0.0007162182
 40
0.0018286604
 40
0.0034662786
 40
0.0056664213
 40
0.011800399
 40
0.0202735113
 40
0.0310874072
 40
0.0442194104
 40
0.0596396206
 40
0.0773164101
 40
0.1192796236
 40
0.1696983937
 40
0.2281042228
 40
0.2939269908
 40
0.3665475283
 40
0.4452612283
 40
0.5293214476
 40
0.6179013695
 40
0.8052153783
 40
1.0
 40
1.0
 40
1.0
 40
1.0
 10
32.5532695522
 20
78.7829690589
 30
0.0
 10
32.5532695298
 20
78.7844042338
 30
0.0
 10
32.5553767048
 20
78.7878681707
 30
0.0
 10
32.5613560838
 20
78.7914370466
 30
0.0
 10
32.5705415464
 20
78.7952663493
 30
0.0
 10
32.5897236877
 20
78.8009248024
 30
0.0
 10
32.6227809851
 20
78.8075886236
 30
0.0
 10
32.6731588014
 20
78.8151444485
 30
0.0
 10
32.7376820225
 20
78.8227705636
 30
0.0
 10
32.8161910117
 20
78.8304613192
 30
0.0
 10
32.9085060613
 20
78.8381841171
 30
0.0
 10
33.0585153388
 20
78.8491456987
 30
0.0
 10
33.2786569556
 20
78.8624884944
 30
0.0
 10
33.5804205437
 20
78.8778516637
 30
0.0
 10
33.9300457677
 20
78.8932627405
 30
0.0
 10
34.3241944445
 20
78.9087273276
 30
0.0
 10
34.7590636225
 20
78.9242201923
 30
0.0
 10
35.2304979827
 20
78.93972943
 30
0.0
 10
35.7339283639
 20
78.9552326525
 30
0.0
 10
36.4549038919
 20
78.976351739
 30
0.0
 10
37.3976994045
 20
79.0024791855
 30
0.0
 10
38.1631024442
 20
79.0222608956
 30
0.0
 10
38.5532695529
 20
79.0329690402
 30
0.0
  0
SPLINE
  5
293
100
AcDbEntity
  8
0
100
AcDbSpline
 62
7
  6
BYLAYER
 70
0
 71
3
 72
23
 73
19
 74
0
 42
0.0000001
 43
0.0000001
 44
0.0000000001
 40
0.0
 40
0.0
 40
0.0
 40
0.0
 40
0.1893127616
 40
0.3717937144
 40
0.5408380293
 40
0.6183897367
 40
0.6903462809
 40
0.7560528403
 40
0.8149250948
 40
0.866422008
 40
0.9100887447
 40
0.9455291475
 40
0.960066125
 40
0.9724416714
 40
0.9826286979
 40
0.9906088692
 40
0.9963865148
 40
1.0
 40
1.0
 40
1.0
 40
1.0
 10
38.5532695529
 20
84.4556187874
 30
0.0
 10
38.1746991919
 20
84.4461168327
 30
0.0
 10
37.4312666998
 20
84.4256466657
 30
0.0
 10
36.3498095447
 20
84.3961707359
 30
0.0
 10
35.4918843273
 20
84.3707793426
 30
0.0
 10
34.8550067118
 20
84.3500958155
 30
0.0
 10
34.4247660328
 20
84.3350695387
 30
0.0
 10
34.0319144681
 20
84.3200588795
 30
0.0
 10
33.6800209589
 20
84.305078825
 30
0.0
 10
33.3722554066
 20
84.2901532431
 30
0.0
 10
33.1114239056
 20
84.2752987536
 30
0.0
 10
32.9245393283
 20
84.2623490742
 30
0.0
 10
32.8002732816
 20
84.2516402541
 30
0.0
 10
32.7264252049
 20
84.2441887366
 30
0.0
 10
32.6657969922
 20
84.2367683956
 30
0.0
 10
32.6183866782
 20
84.2295010946
 30
0.0
 10
32.5844929402
 20
84.2222650589
 30
0.0
 10
32.5663153691
 20
84.21668547
 30
0.0
 10
32.5600078099
 20
84.2131553886
 30
0.0
  0
SPLINE
  5
294
100
AcDbEntity
  8
0
100
AcDbSpline
 62
7
  6
BYLAYER
 70
0
 71
3
 72
24
 73
20
 74
0
 42
0.0000001
 43
0.0000001
 44
0.0000000001
 40
0.0
 40
0.0
 40
0.0
 40
0.0
 40
0.0034304149
 40
0.0090381829
 40
0.0168642068
 40
0.0269126859
 40
0.039163627
 40
0.0535892473
 40
0.088845389
 40
0.1323761644
 40
0.1837849605
 40
0.2426167693
 40
0.3083331866
 40
0.3803475754
 40
0.4580000604
 40
0.5405909924
 40
0.6273510813
 40
0.810238695
 40
1.0
 40
1.0
 40
1.0
 40
1.0
 10
32.5589187701
 20
82.2114418501
 30
0.0
 10
32.5648363616
 20
82.2149186346
 30
0.0
 10
32.5823758777
 20
82.2202879155
 30
0.0
 10
32.6152468438
 20
82.2273672698
 30
0.0
 10
32.6617502151
 20
82.2345769755
 30
0.0
 10
32.72152794
 20
82.2421249461
 30
0.0
 10
32.7946147323
 20
82.2498176748
 30
0.0
 10
32.9180205364
 20
82.2609875939
 30
0.0
 10
33.1040389128
 20
82.2745117196
 30
0.0
 10
33.3640856956
 20
82.2897279062
 30
0.0
 10
33.6713956995
 20
82.3044411942
 30
0.0
 10
34.0231546905
 20
82.3186533412
 30
0.0
 10
34.4161609883
 20
82.3330925336
 30
0.0
 10
34.8468247954
 20
82.3481383207
 30
0.0
 10
35.3112508375
 20
82.3637405829
 30
0.0
 10
35.8051815383
 20
82.379763454
 30
0.0
 10
36.5096077784
 20
82.4007886045
 30
0.0
 10
37.4284738778
 20
82.4240724476
 30
0.0
 10
38.1737426917
 20
82.4454367736
 30
0.0
 10
38.5532695529
 20
82.455618771
 30
0.0
  0
SPLINE
  5
295
100
AcDbEntity
  8
0
100
AcDbSpline
 62
7
  6
BYLAYER
 70
0
 71
3
 72
23
 73
19
 74
0
 42
0.0000001
 43
0.0000001
 44
0.0000000001
 40
0.0
 40
0.0
 40
0.0
 40
0.0
 40
0.1892636064
 40
0.3717030261
 40
0.540716868
 40
0.6182575278
 40
0.6902061345
 40
0.7559103765
 40
0.8147862823
 40
0.8662933156
 40
0.9099756188
 40
0.9454371292
 40
0.9599858983
 40
0.9723745841
 40
0.982576593
 40
0.9905732451
 40
0.9963684145
 40
1.0
 40
1.0
 40
1.0
 40
1.0
 10
38.5532695529
 20
77.455618771
 30
0.0
 10
38.1748057652
 20
77.44614941
 30
0.0
 10
37.4315732978
 20
77.4256460263
 30
0.0
 10
36.3503840103
 20
77.3961861037
 30
0.0
 10
35.4926451819
 20
77.3708041371
 30
0.0
 10
34.8558816313
 20
77.3501244824
 30
0.0
 10
34.4256936994
 20
77.3351029511
 30
0.0
 10
34.0328645529
 20
77.3200971584
 30
0.0
 10
33.6809563468
 20
77.30512114
 30
0.0
 10
33.3731392333
 20
77.2901992929
 30
0.0
 10
33.1122200268
 20
77.2753478547
 30
0.0
 10
32.9252425694
 20
77.2624022564
 30
0.0
 10
32.8008866636
 20
77.2516972205
 30
0.0
 10
32.7269601865
 20
77.2442474172
 30
0.0
 10
32.666242741
 20
77.236829256
 30
0.0
 10
32.6187358974
 20
77.2295625787
 30
0.0
 10
32.584733277
 20
77.2223281475
 30
0.0
 10
32.5664864547
 20
77.2167488819
 30
0.0
 10
32.560133575
 20
77.2132261118
 30
0.0
  0
SPLINE
  5
296
100
AcDbEntity
  8
0
100
AcDbSpline
 62
7
  6
BYLAYER
 70
0
 71
3
 72
27
 73
23
 74
0
 42
0.0000001
 43
0.0000001
 44
0.0000000001
 40
0.0
 40
0.0
 40
0.0
 40
0.0
 40
0.1947866183
 40
0.3820934456
 40
0.4706682402
 40
0.554723326
 40
0.6334338839
 40
0.7060532906
 40
0.7718777745
 40
0.830287632
 40
0.8807121826
 40
0.9226822491
 40
0.9403616742
 40
0.9557843619
 40
0.9689189014
 40
0.9797359222
 40
0.9882136625
 40
0.9943529598
 40
0.9965549618
 40
0.9981925237
 40
0.9993001585
 40
1.0
 40
1.0
 40
1.0
 40
1.0
 10
38.5532695529
 20
77.0329690402
 30
0.0
 10
38.1630803023
 20
77.0229927722
 30
0.0
 10
37.3976708142
 20
77.0039871934
 30
0.0
 10
36.4548920953
 20
76.9780451754
 30
0.0
 10
35.7339854985
 20
76.9558637191
 30
0.0
 10
35.2306047163
 20
76.9396972638
 30
0.0
 10
34.7591849963
 20
76.9243762448
 30
0.0
 10
34.3243001622
 20
76.9095273343
 30
0.0
 10
33.9301167218
 20
76.8947627744
 30
0.0
 10
33.5804535925
 20
76.8796838208
 30
0.0
 10
33.2786794528
 20
76.8638515832
 30
0.0
 10
33.0585459461
 20
76.8499007231
 30
0.0
 10
32.9085329569
 20
76.8386760409
 30
0.0
 10
32.8162126329
 20
76.8308374027
 30
0.0
 10
32.7376965948
 20
76.8230562983
 30
0.0
 10
32.6731640303
 20
76.8153276538
 30
0.0
 10
32.622783774
 20
76.8076142939
 30
0.0
 10
32.5897279835
 20
76.8008120018
 30
0.0
 10
32.5705517942
 20
76.79510192
 30
0.0
 10
32.5613673801
 20
76.791267984
 30
0.0
 10
32.5554230469
 20
76.7877654904
 30
0.0
 10
32.5532699804
 20
76.7843725854
 30
0.0
 10
32.5532695531
 20
76.782970231
 30
0.0
  0
SPLINE
  5
297
100
AcDbEntity
  8
0
100
AcDbSpline
 62
7
  6
BYLAYER
 70
0
 71
3
 72
40
 73
36
 74
0
 42
0.0000001
 43
0.0000001
 44
0.0000000001
 40
0.0
 40
0.0
 40
0.0
 40
0.0
 40
0.0018447353
 40
0.0047698966
 40
0.0087989101
 40
0.0139327462
 40
0.0201577986
 40
0.0274577241
 40
0.0452126104
 40
0.0670394619
 40
0.092753922
 40
0.1221472278
 40
0.1549595041
 40
0.1909095509
 40
0.2296526092
 40
0.3140505467
 40
0.4051296752
 40
0.4996399682
 40
0.5941626005
 40
0.6853085156
 40
0.7285825086
 40
0.7697807141
 40
0.80853488
 40
0.8445010791
 40
0.8773655514
 40
0.9068456078
 40
0.9326721383
 40
0.9545979836
 40
0.9724055773
 40
0.9797209854
 40
0.9859575193
 40
0.9911023238
 40
0.9951517819
 40
0.9981106675
 40
1.0
 40
1.0
 40
1.0
 40
1.0
 10
44.0465802134
 20
83.9863209313
 30
0.0
 10
44.0407437509
 20
83.9828991742
 30
0.0
 10
44.0239232516
 20
83.9773598762
 30
0.0
 10
43.9925584075
 20
83.9701256392
 30
0.0
 10
43.9487864311
 20
83.9627222724
 30
0.0
 10
43.8928873251
 20
83.9550588986
 30
0.0
 10
43.8248848764
 20
83.9473126221
 30
0.0
 10
43.7107040591
 20
83.9362082976
 30
0.0
 10
43.5392520666
 20
83.9230617814
 30
0.0
 10
43.3002172953
 20
83.9085222797
 30
0.0
 10
43.0184241578
 20
83.8941250216
 30
0.0
 10
42.6963016827
 20
83.879661104
 30
0.0
 10
42.3366225603
 20
83.8648121589
 30
0.0
 10
41.9426530234
 20
83.8492842442
 30
0.0
 10
41.3595854991
 20
83.8277213682
 30
0.0
 10
40.5743379094
 20
83.8024199347
 30
0.0
 10
39.5845576864
 20
83.7743965863
 30
0.0
 10
38.5576985069
 20
83.7439932173
 30
0.0
 10
37.5306133612
 20
83.7129548213
 30
0.0
 10
36.69131984
 20
83.688655234
 30
0.0
 10
36.0475370973
 20
83.6691354549
 30
0.0
 10
35.5958549319
 20
83.6540895612
 30
0.0
 10
35.1710085871
 20
83.6385286487
 30
0.0
 10
34.7767493249
 20
83.6229446541
 30
0.0
 10
34.4165203582
 20
83.6076244873
 30
0.0
 10
34.0934933954
 20
83.592795972
 30
0.0
 10
33.8106013126
 20
83.5785235255
 30
0.0
 10
33.5705807968
 20
83.5642612633
 30
0.0
 10
33.3984978444
 20
83.5513371693
 30
0.0
 10
33.2840032141
 20
83.5404401163
 30
0.0
 10
33.2158507371
 20
83.5327864674
 30
0.0
 10
33.1597896897
 20
83.5251231217
 30
0.0
 10
33.1158015779
 20
83.5175882702
 30
0.0
 10
33.0840984661
 20
83.5101531071
 30
0.0
 10
33.0670511929
 20
83.5044300218
 30
0.0
 10
33.0610559263
 20
83.5009559187
 30
0.0
  0
SPLINE
  5
298
100
AcDbEntity
  8
0
100
AcDbSpline
 62
7
  6
BYLAYER
 70
0
 71
3
 72
24
 73
20
 74
0
 42
0.0000001
 43
0.0000001
 44
0.0000000001
 40
0.0
 40
0.0
 40
0.0
 40
0.0
 40
0.0034668105
 40
0.0091092031
 40
0.0169668196
 40
0.027043406
 40
0.0393188414
 40
0.0537655023
 40
0.0890539398
 40
0.132605805
 40
0.1840275245
 40
0.2428645527
 40
0.3085789106
 40
0.3805835696
 40
0.4582177088
 40
0.5407819388
 40
0.627509546
 40
0.8103224778
 40
1.0
 40
1.0
 40
1.0
 40
1.0
 10
32.5591077636
 20
79.2112100904
 30
0.0
 10
32.5650967027
 20
79.2147088898
 30
0.0
 10
32.5827442852
 20
79.2201772334
 30
0.0
 10
32.6158004719
 20
79.2274014686
 30
0.0
 10
32.6624656572
 20
79.2347739226
 30
0.0
 10
32.7223955749
 20
79.2424651853
 30
0.0
 10
32.7956175436
 20
79.2502660738
 30
0.0
 10
32.9191713628
 20
79.261510105
 30
0.0
 10
33.1053490727
 20
79.2748735579
 30
0.0
 10
33.3655489522
 20
79.2896493221
 30
0.0
 10
33.672943302
 20
79.3040974526
 30
0.0
 10
34.0247241171
 20
79.3183924654
 30
0.0
 10
34.4177000954
 20
79.3330962915
 30
0.0
 10
34.8482843503
 20
79.3484602498
 30
0.0
 10
35.3125876507
 20
79.3641980127
 30
0.0
 10
35.8063598715
 20
79.3800428758
 30
0.0
 10
36.5105173128
 20
79.4006516169
 30
0.0
 10
37.4289950306
 20
79.4235107634
 30
0.0
 10
38.1739237827
 20
79.445203389
 30
0.0
 10
38.5532695529
 20
79.455618771
 30
0.0
  0
SPLINE
  5
299
100
AcDbEntity
  8
0
100
AcDbSpline
 62
7
  6
BYLAYER
 70
0
 71
3
 72
27
 73
23
 74
0
 42
0.0000001
 43
0.0000001
 44
0.0000000001
 40
0.0
 40
0.0
 40
0.0
 40
0.0
 40
0.1947933951
 40
0.3821127523
 40
0.4706920726
 40
0.554750979
 40
0.6334646913
 40
0.7060872409
 40
0.7719146582
 40
0.8303267333
 40
0.8807505061
 40
0.922714915
 40
0.9403897781
 40
0.9558065073
 40
0.968934036
 40
0.9797434721
 40
0.9882137991
 40
0.9915724099
 40
0.9943499396
 40
0.9965529538
 40
0.9981964464
 40
1.0
 40
1.0
 40
1.0
 40
1.0
 10
38.5532695529
 20
80.0329690402
 30
0.0
 10
38.1630791135
 20
80.0230003167
 30
0.0
 10
37.3976366598
 20
80.0046511578
 30
0.0
 10
36.4549136482
 20
79.9761578324
 30
0.0
 10
35.7339487246
 20
79.9553339507
 30
0.0
 10
35.2305172313
 20
79.9405918965
 30
0.0
 10
34.7590778145
 20
79.9257102826
 30
0.0
 10
34.3242019542
 20
79.9104425546
 30
0.0
 10
33.9300592803
 20
79.8945027331
 30
0.0
 10
33.5804468545
 20
79.8783774237
 30
0.0
 10
33.2786921639
 20
79.862573896
 30
0.0
 10
33.0585523292
 20
79.8492284632
 30
0.0
 10
32.9085304846
 20
79.8386462544
 30
0.0
 10
32.8162095096
 20
79.831278701
 30
0.0
 10
32.7376943455
 20
79.8239605876
 30
0.0
 10
32.6731604674
 20
79.8166091441
 30
0.0
 10
32.6282823879
 20
79.8100601712
 30
0.0
 10
32.5995020289
 20
79.8044855747
 30
0.0
 10
32.5833180418
 20
79.8006784075
 30
0.0
 10
32.570381714
 20
79.7967156598
 30
0.0
 10
32.5605064767
 20
79.7926805744
 30
0.0
 10
32.5532710094
 20
79.7877874227
 30
0.0
 10
32.5532696059
 20
79.784173548
 30
0.0
  0
SPLINE
  5
29A
100
AcDbEntity
  8
0
100
AcDbSpline
 62
7
  6
BYLAYER
 70
0
 71
3
 72
10
 73
6
 74
0
 42
0.0000001
 43
0.0000001
 44
0.0000000001
 40
0.0
 40
0.0
 40
0.0
 40
0.0
 40
0.2346177073
 40
0.4823727435
 40
1.0
 40
1.0
 40
1.0
 40
1.0
 10
41.5532704505
 20
80.1162623449
 30
0.0
 10
41.3186797629
 20
80.1088334505
 30
0.0
 10
40.8363157795
 20
80.0950643577
 30
0.0
 10
39.8363007713
 20
80.0678501308
 30
0.0
 10
39.0709277329
 20
80.0461943547
 30
0.0
 10
38.5532695529
 20
80.0329690402
 30
0.0
  0
SPLINE
  5
29B
100
AcDbEntity
  8
0
100
AcDbSpline
 62
7
  6
BYLAYER
 70
0
 71
3
 72
10
 73
6
 74
0
 42
0.0000001
 43
0.0000001
 44
0.0000000001
 40
0.0
 40
0.0
 40
0.0
 40
0.0
 40
0.2610097057
 40
0.517624431
 40
1.0
 40
1.0
 40
1.0
 40
1.0
 10
38.5532695529
 20
79.4556988276
 30
0.0
 10
38.8142816134
 20
79.4628652191
 30
0.0
 10
39.3319393136
 20
79.4760072553
 30
0.0
 10
40.3319761158
 20
79.5024588696
 30
0.0
 10
41.070918577
 20
79.5246926114
 30
0.0
 10
41.5532695557
 20
79.5389521044
 30
0.0
  0
SPLINE
  5
29C
100
AcDbEntity
  8
0
100
AcDbSpline
 62
7
  6
BYLAYER
 70
0
 71
3
 72
27
 73
23
 74
0
 42
0.0000001
 43
0.0000001
 44
0.0000000001
 40
0.0
 40
0.0
 40
0.0
 40
0.0
 40
0.0007163936
 40
0.0018290098
 40
0.0034666933
 40
0.0056668228
 40
0.0118007515
 40
0.0202741642
 40
0.031088194
 40
0.0442198329
 40
0.0596396252
 40
0.0773163859
 40
0.1192787272
 40
0.1696972849
 40
0.2281044541
 40
0.2939286329
 40
0.3665501845
 40
0.4452640861
 40
0.5293239055
 40
0.6179033964
 40
0.8052177504
 40
1.0
 40
1.0
 40
1.0
 40
1.0
 10
44.5532692995
 20
76.7056182967
 30
0.0
 10
44.5532681558
 20
76.7041827713
 30
0.0
 10
44.5511592242
 20
76.7007196389
 30
0.0
 10
44.5451793341
 20
76.697150299
 30
0.0
 10
44.5359933041
 20
76.6933209822
 30
0.0
 10
44.5168113114
 20
76.687662242
 30
0.0
 10
44.4837535189
 20
76.6809981982
 30
0.0
 10
44.4333749121
 20
76.6734426974
 30
0.0
 10
44.368851542
 20
76.6658167829
 30
0.0
 10
44.290343876
 20
76.6581261317
 30
0.0
 10
44.1980304677
 20
76.6504035303
 30
0.0
 10
44.0480238411
 20
76.639442597
 30
0.0
 10
43.8278845535
 20
76.6260994638
 30
0.0
 10
43.5261205549
 20
76.6107360939
 30
0.0
 10
43.17649036
 20
76.5953247969
 30
0.0
 10
42.7823342824
 20
76.5798595615
 30
0.0
 10
42.3474599847
 20
76.5643663992
 30
0.0
 10
41.8760241083
 20
76.5488580091
 30
0.0
 10
41.3725950821
 20
76.5333569135
 30
0.0
 10
40.6516208296
 20
76.5122354506
 30
0.0
 10
39.7088309797
 20
76.4860918443
 30
0.0
 10
38.9434307676
 20
76.4663638859
 30
0.0
 10
38.5532695529
 20
76.455618771
 30
0.0
  0
SPLINE
  5
29D
100
AcDbEntity
  8
0
100
AcDbSpline
 62
7
  6
BYLAYER
 70
0
 71
3
 72
27
 73
23
 74
0
 42
0.0000001
 43
0.0000001
 44
0.0000000001
 40
0.0
 40
0.0
 40
0.0
 40
0.0
 40
0.1947918563
 40
0.382100774
 40
0.4706807241
 40
0.5547409681
 40
0.6334540385
 40
0.706076133
 40
0.7719064221
 40
0.8303227776
 40
0.8807494441
 40
0.922715385
 40
0.9403901578
 40
0.9558064792
 40
0.9689333969
 40
0.9797421454
 40
0.9882121478
 40
0.9915707953
 40
0.9943484399
 40
0.9965516216
 40
0.9981953396
 40
1.0
 40
1.0
 40
1.0
 40
1.0
 10
38.5532695529
 20
78.455618771
 30
0.0
 10
38.9434576804
 20
78.4655923943
 30
0.0
 10
39.7088755358
 20
78.4840313129
 30
0.0
 10
40.6515803959
 20
78.5124373628
 30
0.0
 10
41.3725310715
 20
78.5332248271
 30
0.0
 10
41.8759656741
 20
78.5479907203
 30
0.0
 10
42.3474071383
 20
78.5628562361
 30
0.0
 10
42.7822879347
 20
78.5781144043
 30
0.0
 10
43.1764443777
 20
78.5940685257
 30
0.0
 10
43.5260775999
 20
78.6101969309
 30
0.0
 10
43.8278502805
 20
78.6260039896
 30
0.0
 10
44.0479992518
 20
78.6393502095
 30
0.0
 10
44.1980238184
 20
78.649928154
 30
0.0
 10
44.2903429888
 20
78.6572930148
 30
0.0
 10
44.3688550796
 20
78.6646094605
 30
0.0
 10
44.433385668
 20
78.6719623286
 30
0.0
 10
44.4782615322
 20
78.678514324
 30
0.0
 10
44.5070409357
 20
78.6840919337
 30
0.0
 10
44.5232252568
 20
78.6879015277
 30
0.0
 10
44.5361610862
 20
78.6918681154
 30
0.0
 10
44.5460391556
 20
78.6959068651
 30
0.0
 10
44.5532705308
 20
78.7008106747
 30
0.0
 10
44.5532694558
 20
78.7044267756
 30
0.0
  0
SPLINE
  5
29E
100
AcDbEntity
  8
0
100
AcDbSpline
 62
7
  6
BYLAYER
 70
0
 71
3
 72
27
 73
23
 74
0
 42
0.0000001
 43
0.0000001
 44
0.0000000001
 40
0.0
 40
0.0
 40
0.0
 40
0.0
 40
0.194801169
 40
0.3821341745
 40
0.4707252713
 40
0.5547960842
 40
0.6335184143
 40
0.7061462247
 40
0.771975886
 40
0.8303897753
 40
0.8808182489
 40
0.9227913365
 40
0.9404717631
 40
0.9558934421
 40
0.9690247967
 40
0.9798357864
 40
0.9883025026
 40
0.9916563396
 40
0.9944267252
 40
0.9966195803
 40
0.9982486424
 40
1.0
 40
1.0
 40
1.0
 40
1.0
 10
38.5532695529
 20
77.455618771
 30
0.0
 10
38.9434504601
 20
77.4653813004
 30
0.0
 10
39.7088637495
 20
77.4841595202
 30
0.0
 10
40.6516312278
 20
77.510886417
 30
0.0
 10
41.3725753078
 20
77.5330530591
 30
0.0
 10
41.8759950054
 20
77.5490165357
 30
0.0
 10
42.3474446131
 20
77.56403165
 30
0.0
 10
42.7823395117
 20
77.5786794506
 30
0.0
 10
43.1765076005
 20
77.5936528829
 30
0.0
 10
43.5261436979
 20
77.6090721626
 30
0.0
 10
43.8278954969
 20
77.6251089041
 30
0.0
 10
44.0480155369
 20
77.639132756
 30
0.0
 10
44.1980216972
 20
77.6503013971
 30
0.0
 10
44.2903353368
 20
77.6580241399
 30
0.0
 10
44.3688414225
 20
77.6655812909
 30
0.0
 10
44.4333660037
 20
77.6730029197
 30
0.0
 10
44.4782403455
 20
77.6794101223
 30
0.0
 10
44.5070326873
 20
77.6847607839
 30
0.0
 10
44.5232021578
 20
77.6883835986
 30
0.0
 10
44.5361558444
 20
77.6921342121
 30
0.0
 10
44.5459065016
 20
77.6959188577
 30
0.0
 10
44.5532677353
 20
77.7004985179
 30
0.0
 10
44.5532694445
 20
77.7040075322
 30
0.0
  0
SPLINE
  5
29F
100
AcDbEntity
  8
0
100
AcDbSpline
 62
7
  6
BYLAYER
 70
0
 71
3
 72
23
 73
19
 74
0
 42
0.0000001
 43
0.0000001
 44
0.0000000001
 40
0.0
 40
0.0
 40
0.0
 40
0.0
 40
0.0036466703
 40
0.0094539964
 40
0.0174627731
 40
0.0276779304
 40
0.0400799824
 40
0.0546410237
 40
0.0901206953
 40
0.1338167401
 40
0.1853340406
 40
0.2442196428
 40
0.3099286816
 40
0.3818763812
 40
0.4594072039
 40
0.6283851346
 40
0.8107826793
 40
1.0
 40
1.0
 40
1.0
 40
1.0
 10
32.5602495536
 20
76.2134265085
 30
0.0
 10
32.5666333843
 20
76.2169550847
 30
0.0
 10
32.5849589823
 20
76.2224805975
 30
0.0
 10
32.6190656948
 20
76.2295802545
 30
0.0
 10
32.6666688918
 20
76.236698697
 30
0.0
 10
32.7274720458
 20
76.2440240616
 30
0.0
 10
32.8014810894
 20
76.2513999936
 30
0.0
 10
32.9259312126
 20
76.2619759084
 30
0.0
 10
33.1130171561
 20
76.2745449847
 30
0.0
 10
33.3740489828
 20
76.2886939541
 30
0.0
 10
33.6819323556
 20
76.3033594032
 30
0.0
 10
34.0338558948
 20
76.3187959314
 30
0.0
 10
34.4266701533
 20
76.3344889201
 30
0.0
 10
34.8568093713
 20
76.3500846726
 30
0.0
 10
35.4934547451
 20
76.3708005674
 30
0.0
 10
36.3510356239
 20
76.3944301677
 30
0.0
 10
37.4319246742
 20
76.4242332591
 30
0.0
 10
38.1749380682
 20
76.4451994492
 30
0.0
 10
38.5532695529
 20
76.455618771
 30
0.0
  0
SPLINE
  5
2A0
100
AcDbEntity
  8
0
100
AcDbSpline
 62
7
  6
BYLAYER
 70
0
 71
3
 72
27
 73
23
 74
0
 42
0.0000001
 43
0.0000001
 44
0.0000000001
 40
0.0
 40
0.0
 40
0.0
 40
0.0
 40
0.0007161982
 40
0.0018287167
 40
0.0034665282
 40
0.0056669282
 40
0.0118013627
 40
0.0202744296
 40
0.0310879453
 40
0.0442196842
 40
0.0596396367
 40
0.0773160635
 40
0.1192787773
 40
0.1696982982
 40
0.2281066226
 40
0.2939307739
 40
0.3665498182
 40
0.4452615401
 40
0.5293209322
 40
0.6179000106
 40
0.8052114937
 40
1.0
 40
1.0
 40
1.0
 40
1.0
 10
32.5532696767
 20
77.7829695787
 30
0.0
 10
32.5532691899
 20
77.7844047135
 30
0.0
 10
32.5553761344
 20
77.7878692623
 30
0.0
 10
32.5613562561
 20
77.7914379249
 30
0.0
 10
32.5705427678
 20
77.7952673799
 30
0.0
 10
32.5897268527
 20
77.8009257432
 30
0.0
 10
32.6227854992
 20
77.8075894669
 30
0.0
 10
32.6731633847
 20
77.8151453362
 30
0.0
 10
32.7376852397
 20
77.8227712255
 30
0.0
 10
32.8161924717
 20
77.8304614239
 30
0.0
 10
32.9085057829
 20
77.8381837538
 30
0.0
 10
33.0585128372
 20
77.8491450127
 30
0.0
 10
33.2786542082
 20
77.862488241
 30
0.0
 10
33.5804232926
 20
77.8778519401
 30
0.0
 10
33.9300578352
 20
77.8932625192
 30
0.0
 10
34.3242112801
 20
77.9087277017
 30
0.0
 10
34.7590761708
 20
77.9242237714
 30
0.0
 10
35.2305019985
 20
77.9397311332
 30
0.0
 10
35.7339255005
 20
77.9552207238
 30
0.0
 10
36.4548923572
 20
77.9763483844
 30
0.0
 10
37.397685997
 20
78.0025823785
 30
0.0
 10
38.1631013506
 20
78.0220192939
 30
0.0
 10
38.5532695529
 20
78.0329690402
 30
0.0
  0
SPLINE
  5
2A1
100
AcDbEntity
  8
0
100
AcDbSpline
 62
7
  6
BYLAYER
 70
0
 71
3
 72
28
 73
24
 74
0
 42
0.0000001
 43
0.0000001
 44
0.0000000001
 40
0.0
 40
0.0
 40
0.0
 40
0.0
 40
0.0763031372
 40
0.1569048588
 40
0.2403481146
 40
0.325298384
 40
0.4103877596
 40
0.4942245994
 40
0.5754365171
 40
0.6526888317
 40
0.7247071458
 40
0.7903517118
 40
0.8485786547
 40
0.8984201672
 40
0.9199242535
 40
0.9390308062
 40
0.9556541961
 40
0.9697330107
 40
0.9812295969
 40
0.990109846
 40
0.9963542714
 40
0.9984955599
 40
1.0
 40
1.0
 40
1.0
 40
1.0
 10
41.3029495266
 20
79.826422407
 30
0.0
 10
41.0931769488
 20
79.8194099568
 30
0.0
 10
40.6617720595
 20
79.806272579
 30
0.0
 10
40.0009257352
 20
79.7867796076
 30
0.0
 10
39.3163269744
 20
79.7657956469
 30
0.0
 10
38.6193799787
 20
79.7447589494
 30
0.0
 10
37.9213327932
 20
79.724287736
 30
0.0
 10
37.2335389893
 20
79.7050118031
 30
0.0
 10
36.5673150586
 20
79.6856019098
 30
0.0
 10
35.9336415258
 20
79.6653302655
 30
0.0
 10
35.3428357431
 20
79.6444111503
 30
0.0
 10
34.804394584
 20
79.623635405
 30
0.0
 10
34.3269538136
 20
79.604138168
 30
0.0
 10
33.970915094
 20
79.5875423208
 30
0.0
 10
33.7224892744
 20
79.5736828209
 30
0.0
 10
33.56537132
 20
79.5636600081
 30
0.0
 10
33.4287382742
 20
79.5534169485
 30
0.0
 10
33.313129517
 20
79.5429915277
 30
0.0
 10
33.2188937472
 20
79.532655892
 30
0.0
 10
33.1463916666
 20
79.5225083852
 30
0.0
 10
33.0995917936
 20
79.5138987171
 30
0.0
 10
33.0734240656
 20
79.5064850628
 30
0.0
 10
33.0640389548
 20
79.5027570805
 30
0.0
 10
33.0604554467
 20
79.5006872651
 30
0.0
  0
SPLINE
  5
2A2
100
AcDbEntity
  8
0
100
AcDbSpline
 62
7
  6
BYLAYER
 70
0
 71
3
 72
23
 73
19
 74
0
 42
0.0000001
 43
0.0000001
 44
0.0000000001
 40
0.0
 40
0.0
 40
0.0
 40
0.0
 40
0.2168261592
 40
0.4130664049
 40
0.5850961952
 40
0.6611331011
 40
0.7300928439
 40
0.7916835512
 40
0.8456248105
 40
0.8917047253
 40
0.9297435234
 40
0.9595749218
 40
0.9811140968
 40
0.9887747317
 40
0.9943825442
 40
0.9964367147
 40
0.9980165519
 40
1.0
 40
1.0
 40
1.0
 40
1.0
 10
41.5532695557
 20
79.5389521044
 30
0.0
 10
41.7707198473
 20
79.5458381823
 30
0.0
 10
42.1849781049
 20
79.5588678885
 30
0.0
 10
42.7717104182
 20
79.5789570208
 30
0.0
 10
43.2171779319
 20
79.59647118
 30
0.0
 10
43.5349742354
 20
79.6103423075
 30
0.0
 10
43.7420234632
 20
79.6202638812
 30
0.0
 10
43.9268685659
 20
79.6302978638
 30
0.0
 10
44.0887005351
 20
79.6406409209
 30
0.0
 10
44.2268259477
 20
79.6512190083
 30
0.0
 10
44.3406811272
 20
79.6618058491
 30
0.0
 10
44.4297767631
 20
79.6723382555
 30
0.0
 10
44.4883461896
 20
79.6814068497
 30
0.0
 10
44.5224319149
 20
79.689172865
 30
0.0
 10
44.5371503363
 20
79.6935804039
 30
0.0
 10
44.5456993245
 20
79.6974018941
 30
0.0
 10
44.5504283433
 20
79.7001703243
 30
0.0
 10
44.5532640189
 20
79.7032873739
 30
0.0
 10
44.5532593095
 20
79.7052775229
 30
0.0
  0
SPLINE
  5
2A3
100
AcDbEntity
  8
0
100
AcDbSpline
 62
7
  6
BYLAYER
 70
0
 71
3
 72
24
 73
20
 74
0
 42
0.0000001
 43
0.0000001
 44
0.0000000001
 40
0.0
 40
0.0
 40
0.0
 40
0.0
 40
0.0034670211
 40
0.0091101359
 40
0.0169676882
 40
0.0270437153
 40
0.0393196294
 40
0.0537670836
 40
0.0890558993
 40
0.1326101441
 40
0.1840337004
 40
0.2428737843
 40
0.3085877508
 40
0.3805896779
 40
0.4582214479
 40
0.5407856858
 40
0.6275121771
 40
0.8103172446
 40
1.0
 40
1.0
 40
1.0
 40
1.0
 10
44.5474341228
 20
79.2773712475
 30
0.0
 10
44.5414424786
 20
79.2738762527
 30
0.0
 10
44.5237914728
 20
79.2684147742
 30
0.0
 10
44.4907319836
 20
79.261196659
 30
0.0
 10
44.4440655262
 20
79.2538319969
 30
0.0
 10
44.3841352862
 20
79.2461459529
 30
0.0
 10
44.3109125451
 20
79.2383397724
 30
0.0
 10
44.1873566861
 20
79.2270824249
 30
0.0
 10
44.0011732994
 20
79.2136978124
 30
0.0
 10
43.7409623201
 20
79.198955037
 30
0.0
 10
43.4335532835
 20
79.1845157682
 30
0.0
 10
43.0817638862
 20
79.1702133208
 30
0.0
 10
42.6887878588
 20
79.1555194548
 30
0.0
 10
42.2582153432
 20
79.1401405496
 30
0.0
 10
41.7939225877
 20
79.1243982347
 30
0.0
 10
41.300157011
 20
79.1085708133
 30
0.0
 10
40.5960190079
 20
79.0879244114
 30
0.0
 10
39.6775520418
 20
79.0649574077
 30
0.0
 10
38.9326257293
 20
79.0433804785
 30
0.0
 10
38.5532695529
 20
79.0329690402
 30
0.0
  0
SPLINE
  5
2A4
100
AcDbEntity
  8
0
100
AcDbSpline
 62
7
  6
BYLAYER
 70
0
 71
3
 72
40
 73
36
 74
0
 42
0.0000001
 43
0.0000001
 44
0.0000000001
 40
0.0
 40
0.0
 40
0.0
 40
0.0
 40
0.0018595427
 40
0.0047845376
 40
0.0087976458
 40
0.0139019985
 40
0.0200948614
 40
0.027367863
 40
0.0450950726
 40
0.0669564224
 40
0.0927578976
 40
0.1222348705
 40
0.1551087491
 40
0.1910799979
 40
0.2298379686
 40
0.3143315355
 40
0.4055597681
 40
0.500176774
 40
0.5947891415
 40
0.6859691935
 40
0.7292281929
 40
0.7704182339
 40
0.8091751971
 40
0.8451499827
 40
0.8780047864
 40
0.9074329213
 40
0.93316458
 40
0.9549651798
 40
0.9726697227
 40
0.979938673
 40
0.9861326499
 40
0.9912404995
 40
0.9952530757
 40
0.9981666195
 40
1.0
 40
1.0
 40
1.0
 40
1.0
 10
44.0460592613
 20
78.9852897605
 30
0.0
 10
44.040238044
 20
78.9817362185
 30
0.0
 10
44.0233899045
 20
78.9760331219
 30
0.0
 10
43.9920294181
 20
78.9688130498
 30
0.0
 10
43.9483815498
 20
78.9616376274
 30
0.0
 10
43.8927090722
 20
78.9544142524
 30
0.0
 10
43.8249682704
 20
78.9472329499
 30
0.0
 10
43.7110237303
 20
78.9369800057
 30
0.0
 10
43.539594822
 20
78.92450198
 30
0.0
 10
43.3002328562
 20
78.9095718135
 30
0.0
 10
43.0177378438
 20
78.8939945078
 30
0.0
 10
42.6948008038
 20
78.8784041547
 30
0.0
 10
42.3345095823
 20
78.8631996128
 30
0.0
 10
41.9401370926
 20
78.8483841615
 30
0.0
 10
41.3564954445
 20
78.8287238638
 30
0.0
 10
40.5702527017
 20
78.8038916957
 30
0.0
 10
39.5792412103
 20
78.7725840413
 30
0.0
 10
38.551060006
 20
78.7425832749
 30
0.0
 10
37.5229982259
 20
78.7146420267
 30
0.0
 10
36.6833075501
 20
78.6890584825
 30
0.0
 10
36.0395136228
 20
78.6678067844
 30
0.0
 10
35.5879057588
 20
78.6522584872
 30
0.0
 10
35.1630086699
 20
78.6373232369
 30
0.0
 10
34.7686840375
 20
78.6228780131
 30
0.0
 10
34.4085987811
 20
78.6084217278
 30
0.0
 10
34.0861275447
 20
78.593683494
 30
0.0
 10
33.8042636276
 20
78.5785829174
 30
0.0
 10
33.565497396
 20
78.5630737725
 30
0.0
 10
33.3944648527
 20
78.5496053675
 30
0.0
 10
33.28066336
 20
78.5388317147
 30
0.0
 10
33.2129418692
 20
78.5314614525
 30
0.0
 10
33.1572575741
 20
78.5242194038
 30
0.0
 10
33.113621972
 20
78.5171864519
 30
0.0
 10
33.0823457168
 20
78.5102286433
 30
0.0
 10
33.0655575275
 20
78.5048382378
 30
0.0
 10
33.0597460053
 20
78.5014558102
 30
0.0
  0
SPLINE
  5
2A5
100
AcDbEntity
  8
0
100
AcDbSpline
 62
7
  6
BYLAYER
 70
0
 71
3
 72
23
 73
19
 74
0
 42
0.0000001
 43
0.0000001
 44
0.0000000001
 40
0.0
 40
0.0
 40
0.0
 40
0.0
 40
0.0035653146
 40
0.0092979264
 40
0.0172360883
 40
0.0273837683
 40
0.0397222498
 40
0.0542244503
 40
0.0896027636
 40
0.13322043
 40
0.184684958
 40
0.2435428873
 40
0.3092528166
 40
0.38122875
 40
0.458812073
 40
0.6279496965
 40
0.8105522047
 40
1.0
 40
1.0
 40
1.0
 40
1.0
 10
32.5596459461
 20
83.2114430817
 30
0.0
 10
32.5658220666
 20
83.2150108402
 30
0.0
 10
32.583783853
 20
83.2206886437
 30
0.0
 10
32.6173537989
 20
83.228133797
 30
0.0
 10
32.6644730661
 20
83.2356781832
 30
0.0
 10
32.7248277988
 20
83.2434202698
 30
0.0
 10
32.7984295784
 20
83.2511755982
 30
0.0
 10
32.9224107596
 20
83.2622192625
 30
0.0
 10
33.1090308118
 20
83.2751070923
 30
0.0
 10
33.3696407109
 20
83.2892516435
 30
0.0
 10
33.677274234
 20
83.3035550704
 30
0.0
 10
34.0291229686
 20
83.3183669345
 30
0.0
 10
34.4220173859
 20
83.3337212604
 30
0.0
 10
34.8523816846
 20
83.3495477761
 30
0.0
 10
35.4895906612
 20
83.370926177
 30
0.0
 10
36.3481262866
 20
83.3953388727
 30
0.0
 10
37.4304213658
 20
83.4237501262
 30
0.0
 10
38.1744206543
 20
83.4449884603
 30
0.0
 10
38.5532695529
 20
83.455618771
 30
0.0
  0
SPLINE
  5
2A6
100
AcDbEntity
  8
0
100
AcDbSpline
 62
7
  6
BYLAYER
 70
0
 71
3
 72
27
 73
23
 74
0
 42
0.0000001
 43
0.0000001
 44
0.0000000001
 40
0.0
 40
0.0
 40
0.0
 40
0.0
 40
0.1947869962
 40
0.3820985994
 40
0.4706708783
 40
0.5547261567
 40
0.6334385629
 40
0.7060606864
 40
0.7718871306
 40
0.8302957911
 40
0.8807134637
 40
0.9226701461
 40
0.9403458629
 40
0.9557617973
 40
0.9688897596
 40
0.9797043434
 40
0.988184779
 40
0.9915480411
 40
0.9943301581
 40
0.9965380671
 40
0.9981869724
 40
1.0
 40
1.0
 40
1.0
 40
1.0
 10
38.5532695529
 20
82.455618771
 30
0.0
 10
38.9434508607
 20
82.4660866073
 30
0.0
 10
39.7088750638
 20
82.4852873444
 30
0.0
 10
40.6516377101
 20
82.5122973893
 30
0.0
 10
41.3726117813
 20
82.5325963801
 30
0.0
 10
41.8760430952
 20
82.5472727185
 30
0.0
 10
42.347476677
 20
82.562651968
 30
0.0
 10
42.7823417015
 20
82.5785863107
 30
0.0
 10
43.1764800267
 20
82.5947952601
 30
0.0
 10
43.5260905648
 20
82.6108161123
 30
0.0
 10
43.8278554461
 20
82.6259686012
 30
0.0
 10
44.0480182571
 20
82.6386683973
 30
0.0
 10
44.1980378985
 20
82.6491674489
 30
0.0
 10
44.2903544149
 20
82.6566595402
 30
0.0
 10
44.3688610398
 20
82.6642153393
 30
0.0
 10
44.4333952298
 20
82.6718625682
 30
0.0
 10
44.4782792014
 20
82.6786680726
 30
0.0
 10
44.5070568911
 20
82.6844626708
 30
0.0
 10
44.5232372494
 20
82.6884145797
 30
0.0
 10
44.5361649684
 20
82.6924998195
 30
0.0
 10
44.5460394316
 20
82.6966599724
 30
0.0
 10
44.5532554491
 20
82.7015972791
 30
0.0
 10
44.5532627844
 20
82.7052302864
 30
0.0
  0
SPLINE
  5
2A7
100
AcDbEntity
  8
0
100
AcDbSpline
 62
7
  6
BYLAYER
 70
0
 71
3
 72
23
 73
19
 74
0
 42
0.0000001
 43
0.0000001
 44
0.0000000001
 40
0.0
 40
0.0
 40
0.0
 40
0.0
 40
0.0036300231
 40
0.009420037
 40
0.0174087521
 40
0.0276008178
 40
0.0399787121
 40
0.0545160243
 40
0.0899527562
 40
0.1336136812
 40
0.1851052534
 40
0.2439734862
 40
0.3096778309
 40
0.3816327433
 40
0.4591824885
 40
0.6282222169
 40
0.8106991186
 40
1.0
 40
1.0
 40
1.0
 40
1.0
 10
44.5465266141
 20
78.2768929286
 30
0.0
 10
44.5402342971
 20
78.2732684268
 30
0.0
 10
44.5220652458
 20
78.2674542834
 30
0.0
 10
44.4881607119
 20
78.2599006736
 30
0.0
 10
44.4407429838
 20
78.252320875
 30
0.0
 10
44.3801082676
 20
78.2446654434
 30
0.0
 10
44.306255416
 20
78.2370721928
 30
0.0
 10
44.1819894873
 20
78.2263182352
 30
0.0
 10
43.99508863
 20
78.2137232962
 30
0.0
 10
43.7342333128
 20
78.1996609023
 30
0.0
 10
43.4264636267
 20
78.1852302907
 30
0.0
 10
43.0745854907
 20
78.170125912
 30
0.0
 10
42.6817568464
 20
78.1545417481
 30
0.0
 10
42.2515403173
 20
78.1386896737
 30
0.0
 10
41.6146670531
 20
78.1175657258
 30
0.0
 10
40.7566826202
 20
78.0937443731
 30
0.0
 10
39.675210147
 20
78.0647961958
 30
0.0
 10
38.9318012758
 20
78.0435922183
 30
0.0
 10
38.5532695529
 20
78.0329690402
 30
0.0
  0
SPLINE
  5
2A8
100
AcDbEntity
  8
0
100
AcDbSpline
 62
7
  6
BYLAYER
 70
0
 71
3
 72
27
 73
23
 74
0
 42
0.0000001
 43
0.0000001
 44
0.0000000001
 40
0.0
 40
0.0
 40
0.0
 40
0.0
 40
0.0015513524
 40
0.0037002133
 40
0.009844801
 40
0.0184735894
 40
0.0295815864
 40
0.04315353
 40
0.0591470308
 40
0.0774908759
 40
0.0981119256
 40
0.145877367
 40
0.2017654464
 40
0.2650377654
 40
0.3348586884
 40
0.4102828971
 40
0.4902198694
 40
0.5735451781
 40
0.6591114618
 40
0.7457400897
 40
0.8322336019
 40
1.0
 40
1.0
 40
1.0
 40
1.0
 10
44.0451241961
 20
77.9847742307
 30
0.0
 10
44.0417406014
 20
77.9829043204
 30
0.0
 10
44.0331125413
 20
77.9795023969
 30
0.0
 10
44.0094989809
 20
77.9728464082
 30
0.0
 10
43.9679388518
 20
77.9652658996
 30
0.0
 10
43.9040511554
 20
77.9565330913
 30
0.0
 10
43.8215105699
 20
77.9476184699
 30
0.0
 10
43.7205790039
 20
77.9383577475
 30
0.0
 10
43.6015693126
 20
77.9288160499
 30
0.0
 10
43.464956872
 20
77.9191295663
 30
0.0
 10
43.2492553797
 20
77.9055140381
 30
0.0
 10
42.9399887395
 20
77.88922958
 30
0.0
 10
42.5244089679
 20
77.8710719192
 30
0.0
 10
42.0538001402
 20
77.8535189652
 30
0.0
 10
41.534500937
 20
77.8353338811
 30
0.0
 10
40.9736845937
 20
77.8161139026
 30
0.0
 10
40.3792011674
 20
77.7967683451
 30
0.0
 10
39.7594200753
 20
77.77777636
 30
0.0
 10
39.1229284508
 20
77.7597392591
 30
0.0
 10
38.4785312023
 20
77.7419823909
 30
0.0
 10
37.6294017324
 20
77.7175178717
 30
0.0
 10
36.996100389
 20
77.6978405597
 30
0.0
 10
36.5782448261
 20
77.6845274871
 30
0.0
  0
SPLINE
  5
2A9
100
AcDbEntity
  8
0
100
AcDbSpline
 62
7
  6
BYLAYER
 70
0
 71
3
 72
21
 73
17
 74
0
 42
0.0000001
 43
0.0000001
 44
0.0000000001
 40
0.0
 40
0.0
 40
0.0
 40
0.0
 40
0.2031907638
 40
0.3906659025
 40
0.558462732
 40
0.7030299963
 40
0.7656702214
 40
0.8214804278
 40
0.8701828283
 40
0.9115445036
 40
0.9453428846
 40
0.971394888
 40
0.9814830998
 40
0.989603182
 40
0.9957615068
 40
1.0
 40
1.0
 40
1.0
 40
1.0
 10
36.5782448261
 20
77.6845274871
 30
0.0
 10
36.3396262662
 20
77.6769249889
 30
0.0
 10
35.8808451518
 20
77.6623040125
 30
0.0
 10
35.2250308874
 20
77.6407511583
 30
0.0
 10
34.6381495909
 20
77.6188225265
 30
0.0
 10
34.1979809561
 20
77.598870412
 30
0.0
 10
33.8893945162
 20
77.5822271679
 30
0.0
 10
33.6933436351
 20
77.5705534343
 30
0.0
 10
33.5223198538
 20
77.5592610897
 30
0.0
 10
33.3771964356
 20
77.5482760989
 30
0.0
 10
33.2587663921
 20
77.5375028409
 30
0.0
 10
33.1771019446
 20
77.5281128467
 30
0.0
 10
33.1257119196
 20
77.5201465927
 30
0.0
 10
33.0975804494
 20
77.51469228
 30
0.0
 10
33.0765370532
 20
77.5092310119
 30
0.0
 10
33.0650036317
 20
77.5049035343
 30
0.0
 10
33.0606863526
 20
77.5024212347
 30
0.0
  0
SPLINE
  5
2AA
100
AcDbEntity
  8
0
100
AcDbSpline
 62
7
  6
BYLAYER
 70
0
 71
3
 72
27
 73
23
 74
0
 42
0.0000001
 43
0.0000001
 44
0.0000000001
 40
0.0
 40
0.0
 40
0.0
 40
0.0
 40
0.194795429
 40
0.3821167718
 40
0.4707013835
 40
0.5547655004
 40
0.6334813201
 40
0.7061048136
 40
0.7719347951
 40
0.8303509785
 40
0.8807785619
 40
0.9227464342
 40
0.940422518
 40
0.9558393185
 40
0.9689660097
 40
0.9797737817
 40
0.9882410672
 40
0.9915973442
 40
0.9943719111
 40
0.9965712051
 40
0.9982099984
 40
1.0
 40
1.0
 40
1.0
 40
1.0
 10
38.5532695529
 20
81.455618771
 30
0.0
 10
38.9434580255
 20
81.4654153284
 30
0.0
 10
39.7088861832
 20
81.4838289594
 30
0.0
 10
40.6516120809
 20
81.5120021257
 30
0.0
 10
41.3725681416
 20
81.5333273497
 30
0.0
 10
41.8760004786
 20
81.5484376501
 30
0.0
 10
42.3474467753
 20
81.5632158159
 30
0.0
 10
42.7823339513
 20
81.5781425099
 30
0.0
 10
43.176494352
 20
81.5937604422
 30
0.0
 10
43.5261251734
 20
81.6097541114
 30
0.0
 10
43.8278821872
 20
81.625811786
 30
0.0
 10
44.0480126446
 20
81.6394911822
 30
0.0
 10
44.1980284508
 20
81.6502334718
 30
0.0
 10
44.2903436633
 20
81.6576517966
 30
0.0
 10
44.3688520303
 20
81.6649630491
 30
0.0
 10
44.4333799567
 20
81.6722515237
 30
0.0
 10
44.4782558773
 20
81.6786961279
 30
0.0
 10
44.507038976
 20
81.6841673365
 30
0.0
 10
44.5232190631
 20
81.6878999395
 30
0.0
 10
44.5361583297
 20
81.6917888781
 30
0.0
 10
44.5460061073
 20
81.6957415597
 30
0.0
 10
44.5532691324
 20
81.7005595176
 30
0.0
 10
44.5532695519
 20
81.7041461422
 30
0.0
  0
SPLINE
  5
2AB
100
AcDbEntity
  8
0
100
AcDbSpline
 62
7
  6
BYLAYER
 70
0
 71
3
 72
28
 73
24
 74
0
 42
0.0000001
 43
0.0000001
 44
0.0000000001
 40
0.0
 40
0.0
 40
0.0
 40
0.0
 40
0.1947926749
 40
0.2898596781
 40
0.3821171044
 40
0.4707040201
 40
0.5547710693
 40
0.6334902467
 40
0.7061146896
 40
0.7719399613
 40
0.8303488627
 40
0.8807737284
 40
0.9227458909
 40
0.9404273175
 40
0.9558513188
 40
0.9689856175
 40
0.9797991971
 40
0.9882672506
 40
0.9943898278
 40
0.9965812122
 40
0.9982073209
 40
0.9993042212
 40
1.0
 40
1.0
 40
1.0
 40
1.0
 10
38.5532695529
 20
80.455618771
 30
0.0
 10
38.9434452203
 20
80.4655885801
 30
0.0
 10
39.5240543957
 20
80.4799828198
 30
0.0
 10
40.289420478
 20
80.5005497595
 30
0.0
 10
40.8420339422
 20
80.5163612984
 30
0.0
 10
41.3725813738
 20
80.5327055852
 30
0.0
 10
41.8759930156
 20
80.5489123005
 30
0.0
 10
42.347431986
 20
80.5642581236
 30
0.0
 10
42.7823168889
 20
80.5791078946
 30
0.0
 10
43.1764830574
 20
80.5938958183
 30
0.0
 10
43.5261235514
 20
80.6089644919
 30
0.0
 10
43.8278836802
 20
80.6247341195
 30
0.0
 10
44.0480108902
 20
80.6387060283
 30
0.0
 10
44.1980146861
 20
80.6500674184
 30
0.0
 10
44.2903280056
 20
80.657984909
 30
0.0
 10
44.3688349993
 20
80.6657538186
 30
0.0
 10
44.4333528872
 20
80.6733194474
 30
0.0
 10
44.4837264729
 20
80.6806367917
 30
0.0
 10
44.5167847702
 20
80.6869986229
 30
0.0
 10
44.5359773108
 20
80.6923757175
 30
0.0
 10
44.5451572848
 20
80.696029766
 30
0.0
 10
44.5511254925
 20
80.6994067208
 30
0.0
 10
44.5532687207
 20
80.70277647
 30
0.0
 10
44.5532694382
 20
80.704170591
 30
0.0
  0
SPLINE
  5
2AC
100
AcDbEntity
  8
0
100
AcDbSpline
 62
7
  6
BYLAYER
 70
0
 71
3
 72
27
 73
23
 74
0
 42
0.0000001
 43
0.0000001
 44
0.0000000001
 40
0.0
 40
0.0
 40
0.0
 40
0.0
 40
0.000716149
 40
0.0018285311
 40
0.0034661437
 40
0.0056663198
 40
0.0118003795
 40
0.0202734118
 40
0.0310872654
 40
0.0442194153
 40
0.0596396721
 40
0.0773161171
 40
0.1192781419
 40
0.1696963741
 40
0.228102815
 40
0.2939259914
 40
0.3665456655
 40
0.445258139
 40
0.5293173671
 40
0.6178965793
 40
0.8052115939
 40
1.0
 40
1.0
 40
1.0
 40
1.0
 10
32.5532696359
 20
81.7829689585
 30
0.0
 10
32.5532691527
 20
81.7844039949
 30
0.0
 10
32.5553755289
 20
81.7878683163
 30
0.0
 10
32.5613548144
 20
81.7914370247
 30
0.0
 10
32.5705401328
 20
81.7952663701
 30
0.0
 10
32.5897225631
 20
81.8009247627
 30
0.0
 10
32.6227799095
 20
81.8075885433
 30
0.0
 10
32.6731576444
 20
81.8151444968
 30
0.0
 10
32.7376809207
 20
81.8227705925
 30
0.0
 10
32.8161902404
 20
81.8304611811
 30
0.0
 10
32.9085050059
 20
81.8381838409
 30
0.0
 10
33.058511318
 20
81.8491453382
 30
0.0
 10
33.2786487996
 20
81.8624881476
 30
0.0
 10
33.5804101962
 20
81.8778510802
 30
0.0
 10
33.930036445
 20
81.8932616717
 30
0.0
 10
34.3241854522
 20
81.9087268289
 30
0.0
 10
34.7590512145
 20
81.9242222198
 30
0.0
 10
35.2304795061
 20
81.9397298671
 30
0.0
 10
35.7339043928
 20
81.9552226396
 30
0.0
 10
36.4548783394
 20
81.9763499119
 30
0.0
 10
37.397679927
 20
82.0025576287
 30
0.0
 10
38.1630999524
 20
82.0220753938
 30
0.0
 10
38.5532695529
 20
82.0329690402
 30
0.0
  0
SPLINE
  5
2AD
100
AcDbEntity
  8
0
100
AcDbSpline
 62
7
  6
BYLAYER
 70
0
 71
3
 72
23
 73
19
 74
0
 42
0.0000001
 43
0.0000001
 44
0.0000000001
 40
0.0
 40
0.0
 40
0.0
 40
0.0
 40
0.1891742047
 40
0.3715289716
 40
0.5404825874
 40
0.6180041261
 40
0.6899423639
 40
0.7556448678
 40
0.8145288789
 40
0.8660537109
 40
0.9097648418
 40
0.9452647422
 40
0.9598367124
 40
0.9722510622
 40
0.9824809461
 40
0.9905077861
 40
0.9963352582
 40
1.0
 40
1.0
 40
1.0
 40
1.0
 10
38.5532695529
 20
80.455618771
 30
0.0
 10
38.175005996
 20
80.4459533414
 30
0.0
 10
37.4321467256
 20
80.425738001
 30
0.0
 10
36.3514747625
 20
80.3962065795
 30
0.0
 10
35.4941008168
 20
80.3708441483
 30
0.0
 10
34.857543771
 20
80.3501835739
 30
0.0
 10
34.427436824
 20
80.3351666303
 30
0.0
 10
34.0346324901
 20
80.3201670566
 30
0.0
 10
33.682690809
 20
80.3051993772
 30
0.0
 10
33.3747771374
 20
80.290284624
 30
0.0
 10
33.1136985075
 20
80.2754400027
 30
0.0
 10
32.9265476722
 20
80.2625002456
 30
0.0
 10
32.8020212828
 20
80.2518020846
 30
0.0
 10
32.7279438698
 20
80.2443552794
 30
0.0
 10
32.6670590443
 20
80.2369402725
 30
0.0
 10
32.6193740778
 20
80.2296738092
 30
0.0
 10
32.5851721049
 20
80.2224417578
 30
0.0
 10
32.5667975912
 20
80.2168629655
 30
0.0
 10
32.5603624396
 20
80.2133528204
 30
0.0
  0
SPLINE
  5
2AE
100
AcDbEntity
  8
0
100
AcDbSpline
 62
7
  6
BYLAYER
 70
0
 71
3
 72
23
 73
19
 74
0
 42
0.0000001
 43
0.0000001
 44
0.0000000001
 40
0.0
 40
0.0
 40
0.0
 40
0.0
 40
0.0036802216
 40
0.0095134342
 40
0.0175409654
 40
0.0277681481
 40
0.040177813
 40
0.0547449346
 40
0.090238505
 40
0.1339455097
 40
0.1854697192
 40
0.2443523944
 40
0.3100548639
 40
0.381992704
 40
0.4595141971
 40
0.6284685035
 40
0.8108324865
 40
1.0
 40
1.0
 40
1.0
 40
1.0
 10
44.546171196
 20
77.2757473304
 30
0.0
 10
44.5397682364
 20
77.2721154687
 30
0.0
 10
44.521395347
 20
77.2663314396
 30
0.0
 10
44.4871818266
 20
77.2589531773
 30
0.0
 10
44.4394836688
 20
77.2516859072
 30
0.0
 10
44.3785876019
 20
77.2444712523
 30
0.0
 10
44.304502377
 20
77.2373414064
 30
0.0
 10
44.1799626447
 20
77.227171892
 30
0.0
 10
43.9928086585
 20
77.2147387222
 30
0.0
 10
43.7317464422
 20
77.1999748257
 30
0.0
 10
43.4238646371
 20
77.1846137871
 30
0.0
 10
43.0719586799
 20
77.1688322448
 30
0.0
 10
42.6791691238
 20
77.1534080768
 30
0.0
 10
42.2490491009
 20
77.1386496256
 30
0.0
 10
41.6124588631
 20
77.1188046573
 30
0.0
 10
40.755027814
 20
77.0944533213
 30
0.0
 10
39.6743810817
 20
77.0634103176
 30
0.0
 10
38.9315235129
 20
77.0426401494
 30
0.0
 10
38.5532695529
 20
77.0329690402
 30
0.0
  0
SPLINE
  5
2AF
100
AcDbEntity
  8
0
100
AcDbSpline
 62
7
  6
BYLAYER
 70
0
 71
3
 72
39
 73
35
 74
0
 42
0.0000001
 43
0.0000001
 44
0.0000000001
 40
0.0
 40
0.0
 40
0.0
 40
0.0
 40
0.0019155101
 40
0.0049134738
 40
0.0090169337
 40
0.0142243833
 40
0.020520856
 40
0.0278895225
 40
0.0457717497
 40
0.0677041202
 40
0.0934940245
 40
0.1229271418
 40
0.155753794
 40
0.1917001136
 40
0.2304251809
 40
0.3147602744
 40
0.4057130003
 40
0.5000549507
 40
0.5943901791
 40
0.6853441816
 40
0.7696683058
 40
0.808373162
 40
0.8442910932
 40
0.8771069839
 40
0.9065473793
 40
0.9323535461
 40
0.9542933139
 40
0.972153149
 40
0.979505311
 40
0.9857843967
 40
0.990976228
 40
0.9950726735
 40
0.9980748195
 40
1.0
 40
1.0
 40
1.0
 40
1.0
 10
44.0453685224
 20
76.9855027481
 30
0.0
 10
44.0391771954
 20
76.9821853613
 30
0.0
 10
44.0218085059
 20
76.9767590826
 30
0.0
 10
43.9895828605
 20
76.9696484108
 30
0.0
 10
43.944995355
 20
76.9623216658
 30
0.0
 10
43.888282837
 20
76.9547046179
 30
0.0
 10
43.8195027445
 20
76.9469663085
 30
0.0
 10
43.7043563492
 20
76.9358304945
 30
0.0
 10
43.5318355705
 20
76.9225156637
 30
0.0
 10
43.2917219125
 20
76.9076720692
 30
0.0
 10
43.0091626224
 20
76.8932117869
 30
0.0
 10
42.6865996001
 20
76.8790311237
 30
0.0
 10
42.3267758113
 20
76.8645098914
 30
0.0
 10
41.9328832918
 20
76.8492072614
 30
0.0
 10
41.3502094451
 20
76.827758905
 30
0.0
 10
40.5658662452
 20
76.8016525645
 30
0.0
 10
39.577543959
 20
76.7736451465
 30
0.0
 10
38.5525749156
 20
76.7443504567
 30
0.0
 10
37.5276559892
 20
76.7131750279
 30
0.0
 10
36.5394446711
 20
76.6834996096
 30
0.0
 10
35.7551451339
 20
76.6595200622
 30
0.0
 10
35.1726542646
 20
76.6390341459
 30
0.0
 10
34.7789816141
 20
76.6236532596
 30
0.0
 10
34.419322717
 20
76.6079668838
 30
0.0
 10
34.096768638
 20
76.5925839533
 30
0.0
 10
33.8141099768
 20
76.5778886896
 30
0.0
 10
33.5739610728
 20
76.5636002163
 30
0.0
 10
33.4014862004
 20
76.5512615955
 30
0.0
 10
33.2864749677
 20
76.5408994704
 30
0.0
 10
33.2178334092
 20
76.5335500071
 30
0.0
 10
33.1612524697
 20
76.5260460218
 30
0.0
 10
33.1167639467
 20
76.5184846857
 30
0.0
 10
33.0846169048
 20
76.510922722
 30
0.0
 10
33.0673117584
 20
76.5050652861
 30
0.0
 10
33.061203247
 20
76.5015264885
 30
0.0
  0
SPLINE
  5
2B0
100
AcDbEntity
  8
0
100
AcDbSpline
 62
7
  6
BYLAYER
 70
0
 71
3
 72
24
 73
20
 74
0
 42
0.0000001
 43
0.0000001
 44
0.0000000001
 40
0.0
 40
0.0
 40
0.0
 40
0.0
 40
0.0034123142
 40
0.0090045914
 40
0.0168214413
 40
0.0268602056
 40
0.039099942
 40
0.0535163537
 40
0.0887660568
 40
0.1322892615
 40
0.1836974987
 40
0.2425271289
 40
0.3082477397
 40
0.3802674259
 40
0.4579281769
 40
0.5405262497
 40
0.6272931305
 40
0.8102075011
 40
1.0
 40
1.0
 40
1.0
 40
1.0
 10
44.5476728839
 20
83.2767546703
 30
0.0
 10
44.5417811884
 20
83.2733054171
 30
0.0
 10
44.524279593
 20
83.2680293185
 30
0.0
 10
44.4914717183
 20
83.2610845346
 30
0.0
 10
44.4450172772
 20
83.2540047382
 30
0.0
 10
44.3852835868
 20
83.2465988871
 30
0.0
 10
44.3122439539
 20
83.2390410422
 30
0.0
 10
44.1888813597
 20
83.2280066529
 30
0.0
 10
44.0029185445
 20
83.2144048666
 30
0.0
 10
43.7429213398
 20
83.1988714208
 30
0.0
 10
43.4356432669
 20
83.183961943
 30
0.0
 10
43.0838903024
 20
83.1695908861
 30
0.0
 10
42.6908696612
 20
83.1552147074
 30
0.0
 10
42.2601614396
 20
83.1405181664
 30
0.0
 10
41.795688832
 20
83.1251760412
 30
0.0
 10
41.3017150022
 20
83.1092290081
 30
0.0
 10
40.5972173248
 20
83.0880586249
 30
0.0
 10
39.6782563781
 20
83.0637392569
 30
0.0
 10
38.9328626188
 20
83.042901599
 30
0.0
 10
38.5532695529
 20
83.0329690402
 30
0.0
  0
SPLINE
  5
2B1
100
AcDbEntity
  8
0
100
AcDbSpline
 62
7
  6
BYLAYER
 70
0
 71
3
 72
41
 73
37
 74
0
 42
0.0000001
 43
0.0000001
 44
0.0000000001
 40
0.0
 40
0.0
 40
0.0
 40
0.0
 40
0.0018496604
 40
0.0047687627
 40
0.0087776094
 40
0.0138775036
 40
0.020062604
 40
0.0273218121
 40
0.0450105731
 40
0.0668216384
 40
0.0925611225
 40
0.1220066522
 40
0.1548765768
 40
0.1908547546
 40
0.22961288
 40
0.2708099607
 40
0.3140865253
 40
0.3590511784
 40
0.4053014936
 40
0.4999429244
 40
0.5945848724
 40
0.6858171868
 40
0.7703060657
 40
0.8090667947
 40
0.8450476555
 40
0.8779232652
 40
0.9073873455
 40
0.9331470581
 40
0.9549764574
 40
0.97268805
 40
0.9799532227
 40
0.9861422724
 40
0.9912448372
 40
0.9952523561
 40
0.9981642521
 40
1.0
 40
1.0
 40
1.0
 40
1.0
 10
44.04671848
 20
82.9861129943
 30
0.0
 10
44.040966846
 20
82.9825150136
 30
0.0
 10
44.0242238738
 20
82.9766736009
 30
0.0
 10
43.9929987004
 20
82.9691933502
 30
0.0
 10
43.9494491709
 20
82.9617244978
 30
0.0
 10
43.8938665986
 20
82.9542502102
 30
0.0
 10
43.8262349345
 20
82.9468996218
 30
0.0
 10
43.7125185212
 20
82.936487043
 30
0.0
 10
43.5414512308
 20
82.9240440946
 30
0.0
 10
43.3025965156
 20
82.9096228618
 30
0.0
 10
43.0205722814
 20
82.8947964505
 30
0.0
 10
42.6979689938
 20
82.8793257214
 30
0.0
 10
42.3377836355
 20
82.8635875471
 30
0.0
 10
41.9433957446
 20
82.848241285
 30
0.0
 10
41.5184247644
 20
82.8334399281
 30
0.0
 10
41.0666598313
 20
82.8189367551
 30
0.0
 10
40.5921171169
 20
82.8045055801
 30
0.0
 10
40.0990437691
 20
82.7896652136
 30
0.0
 10
39.4176721535
 20
82.7686413747
 30
0.0
 10
38.5541631707
 20
82.7424473643
 30
0.0
 10
37.5256741014
 20
82.7136179939
 30
0.0
 10
36.5344208796
 20
82.6853065945
 30
0.0
 10
35.7481819064
 20
82.6585601023
 30
0.0
 10
35.1645325783
 20
82.6373201049
 30
0.0
 10
34.7700948976
 20
82.6222508012
 30
0.0
 10
34.4097574535
 20
82.6078079145
 30
0.0
 10
34.0869344711
 20
82.5935392776
 30
0.0
 10
33.8046921408
 20
82.5788227806
 30
0.0
 10
33.5656527049
 20
82.5636897079
 30
0.0
 10
33.3944842101
 20
82.5502716122
 30
0.0
 10
33.2807114402
 20
82.5391781818
 30
0.0
 10
33.2130700971
 20
82.5315112978
 30
0.0
 10
33.1574772428
 20
82.5239714735
 30
0.0
 10
33.1139221291
 20
82.5167206903
 30
0.0
 10
33.0826804728
 20
82.5096560473
 30
0.0
 10
33.065903917
 20
82.5042502406
 30
0.0
 10
33.0600713373
 20
82.50088602
 30
0.0
  0
SPLINE
  5
2B2
100
AcDbEntity
  8
0
100
AcDbSpline
 62
7
  6
BYLAYER
 70
0
 71
3
 72
23
 73
19
 74
0
 42
0.0000001
 43
0.0000001
 44
0.0000000001
 40
0.0
 40
0.0
 40
0.0
 40
0.0
 40
0.1896404911
 40
0.3724199124
 40
0.5416863739
 40
0.6193101167
 40
0.6913070147
 40
0.7570203519
 40
0.815863088
 40
0.8672952963
 40
0.9108598859
 40
0.9461608769
 40
0.960613569
 40
0.9728955868
 40
0.9829803739
 40
0.9908495134
 40
0.9965083437
 40
1.0
 40
1.0
 40
1.0
 40
1.0
 10
38.5532695529
 20
81.455618771
 30
0.0
 10
38.1739856615
 20
81.4460959976
 30
0.0
 10
37.4291865587
 20
81.4255924696
 30
0.0
 10
36.34586696
 20
81.3960567595
 30
0.0
 10
35.4866249417
 20
81.3706216905
 30
0.0
 10
34.8489812112
 20
81.3498936156
 30
0.0
 10
34.4184368151
 20
81.3348388277
 30
0.0
 10
34.0254905656
 20
81.3198014413
 30
0.0
 10
33.6737191875
 20
81.3047942745
 30
0.0
 10
33.3663006947
 20
81.2898432074
 30
0.0
 10
33.1060443562
 20
81.2749633128
 30
0.0
 10
32.9197853217
 20
81.2619897192
 30
0.0
 10
32.7961399957
 20
81.2512545931
 30
0.0
 10
32.7228430091
 20
81.2437918756
 30
0.0
 10
32.6628294001
 20
81.236359758
 30
0.0
 10
32.6160724441
 20
81.229092682
 30
0.0
 10
32.5829157704
 20
81.2218485738
 30
0.0
 10
32.5652034936
 20
81.2162689322
 30
0.0
 10
32.5592039098
 20
81.2126907848
 30
0.0
  0
SPLINE
  5
2B3
100
AcDbEntity
  8
0
100
AcDbSpline
 62
7
  6
BYLAYER
 70
0
 71
3
 72
23
 73
19
 74
0
 42
0.0000001
 43
0.0000001
 44
0.0000000001
 40
0.0
 40
0.0
 40
0.0
 40
0.0
 40
0.003518398
 40
0.0092087324
 40
0.0171088818
 40
0.0272227749
 40
0.0395317695
 40
0.0540079651
 40
0.0893424647
 40
0.1329276896
 40
0.1843709808
 40
0.2432191052
 40
0.3089294704
 40
0.3809155538
 40
0.4585206302
 40
0.627731259
 40
0.8104363452
 40
1.0
 40
1.0
 40
1.0
 40
1.0
 10
44.5471569312
 20
82.2773930789
 30
0.0
 10
44.54106831
 20
82.2738609003
 30
0.0
 10
44.5232575177
 20
82.2682788116
 30
0.0
 10
44.4899333583
 20
82.2609199894
 30
0.0
 10
44.4430333142
 20
82.2534259893
 30
0.0
 10
44.3828841909
 20
82.2456642428
 30
0.0
 10
44.30946626
 20
82.2378360727
 30
0.0
 10
44.1856939158
 20
82.2266302676
 30
0.0
 10
43.9992880149
 20
82.2134882943
 30
0.0
 10
43.7388723688
 20
82.1991399089
 30
0.0
 10
43.4313502239
 20
82.1848737145
 30
0.0
 10
43.0795342281
 20
82.1703745032
 30
0.0
 10
42.686608714
 20
82.1553432512
 30
0.0
 10
42.2561552467
 20
82.1396754831
 30
0.0
 10
41.6187183442
 20
82.1180265224
 30
0.0
 10
40.7597829853
 20
82.092460746
 30
0.0
 10
39.6768270763
 20
82.0651552296
 30
0.0
 10
38.9323681496
 20
82.043553581
 30
0.0
 10
38.5532695529
 20
82.0329690402
 30
0.0
  0
SPLINE
  5
2B4
100
AcDbEntity
  8
0
100
AcDbSpline
 62
7
  6
BYLAYER
 70
0
 71
3
 72
40
 73
36
 74
0
 42
0.0000001
 43
0.0000001
 44
0.0000000001
 40
0.0
 40
0.0
 40
0.0
 40
0.0
 40
0.0018692337
 40
0.0048050448
 40
0.0088302721
 40
0.0139485196
 40
0.0201576921
 40
0.0274517644
 40
0.045226487
 40
0.067117628
 40
0.0929316899
 40
0.122408217
 40
0.1552735066
 40
0.1912332065
 40
0.2299822893
 40
0.3144489872
 40
0.4056283112
 40
0.5001866668
 40
0.5947463968
 40
0.6858687003
 40
0.7291096093
 40
0.7702882591
 40
0.8090405695
 40
0.845012203
 40
0.8778613416
 40
0.9072748803
 40
0.9330039443
 40
0.95482169
 40
0.9725568893
 40
0.979845432
 40
0.9860593185
 40
0.991186776
 40
0.9952183049
 40
0.9981499762
 40
1.0
 40
1.0
 40
1.0
 40
1.0
 10
44.0456865686
 20
81.9849842791
 30
0.0
 10
44.0397874495
 20
81.9814921437
 30
0.0
 10
44.0228393288
 20
81.9758910171
 30
0.0
 10
43.9913185755
 20
81.9688216655
 30
0.0
 10
43.9475191488
 20
81.9617797984
 30
0.0
 10
43.8916814229
 20
81.9546471733
 30
0.0
 10
43.8237561531
 20
81.9474717251
 30
0.0
 10
43.7095183209
 20
81.9370848613
 30
0.0
 10
43.5377614377
 20
81.9242924732
 30
0.0
 10
43.2980946377
 20
81.9091718909
 30
0.0
 10
43.0154633295
 20
81.8935819379
 30
0.0
 10
42.6925272164
 20
81.8781004825
 30
0.0
 10
42.3323194541
 20
81.8632259606
 30
0.0
 10
41.9380679716
 20
81.848675874
 30
0.0
 10
41.3546399753
 20
81.8288861064
 30
0.0
 10
40.5687683349
 20
81.8036568287
 30
0.0
 10
39.5783159047
 20
81.7721481528
 30
0.0
 10
38.5507608392
 20
81.7429796984
 30
0.0
 10
37.5233832322
 20
81.7149623968
 30
0.0
 10
36.6842367326
 20
81.6886722467
 30
0.0
 10
36.0407993159
 20
81.6675092869
 30
0.0
 10
35.5893324642
 20
81.6523034707
 30
0.0
 10
35.1645230113
 20
81.6376135096
 30
0.0
 10
34.7702656424
 20
81.6233349812
 30
0.0
 10
34.4102893511
 20
81.6088334391
 30
0.0
 10
34.0879408136
 20
81.5936665181
 30
0.0
 10
33.8061133392
 20
81.5782312208
 30
0.0
 10
33.5671901419
 20
81.5628276869
 30
0.0
 10
33.39590129
 20
81.5496090963
 30
0.0
 10
33.2818301026
 20
81.5390314427
 30
0.0
 10
33.2138797341
 20
81.5318018144
 30
0.0
 10
33.1579677785
 20
81.5246754881
 30
0.0
 10
33.1141138819
 20
81.5177035934
 30
0.0
 10
33.0826385682
 20
81.5107403029
 30
0.0
 10
33.0657385975
 20
81.5052628723
 30
0.0
 10
33.0598889703
 20
81.5018255006
 30
0.0
  0
SPLINE
  5
2B5
100
AcDbEntity
  8
0
100
AcDbSpline
 62
7
  6
BYLAYER
 70
0
 71
3
 72
23
 73
19
 74
0
 42
0.0000001
 43
0.0000001
 44
0.0000000001
 40
0.0
 40
0.0
 40
0.0
 40
0.0
 40
0.1947132286
 40
0.3823145137
 40
0.5549928435
 40
0.6337086125
 40
0.7063449
 40
0.7722181094
 40
0.8306490238
 40
0.8810651638
 40
0.9230330367
 40
0.9561315
 40
0.9692402303
 40
0.9800260298
 40
0.9884758481
 40
0.9945832525
 40
0.9983650808
 40
1.0
 40
1.0
 40
1.0
 40
1.0
 10
34.8031006227
 20
20.105618771
 30
0.0
 10
34.8031006227
 20
20.0406433823
 30
0.0
 10
34.8028213703
 20
19.9130656503
 30
0.0
 10
34.801586289
 20
19.7278692392
 30
0.0
 10
34.7998689216
 20
19.5813865973
 30
0.0
 10
34.7980787284
 20
19.473272956
 30
0.0
 10
34.7966126395
 20
19.4008000422
 30
0.0
 10
34.7950004706
 20
19.3351007957
 30
0.0
 10
34.7932576973
 20
19.2768232863
 30
0.0
 10
34.7914034786
 20
19.2265286002
 30
0.0
 10
34.7894628567
 20
19.1847043109
 30
0.0
 10
34.787691546
 20
19.1553212256
 30
0.0
 10
34.7861801128
 20
19.1363783958
 30
0.0
 10
34.7851130139
 20
19.1256027598
 30
0.0
 10
34.784097991
 20
19.1172962422
 30
0.0
 10
34.7829907492
 20
19.111060782
 30
0.0
 10
34.7821680136
 20
19.1077023531
 30
0.0
 10
34.7811546383
 20
19.105618771
 30
0.0
 10
34.7806090692
 20
19.105618771
 30
0.0
  0
SPLINE
  5
2B6
100
AcDbEntity
  8
0
100
AcDbSpline
 62
7
  6
BYLAYER
 70
0
 71
3
 72
27
 73
23
 74
0
 42
0.0000001
 43
0.0000001
 44
0.0000000001
 40
0.0
 40
0.0
 40
0.0
 40
0.0
 40
0.1947983648
 40
0.3821094806
 40
0.4706901565
 40
0.5547523338
 40
0.6334681709
 40
0.7060910479
 40
0.7719176002
 40
0.8303270985
 40
0.8807493807
 40
0.9227182957
 40
0.9403994981
 40
0.9558255093
 40
0.9689633228
 40
0.979781047
 40
0.9882547034
 40
0.9943846961
 40
0.9965798081
 40
0.9982090359
 40
0.9993073457
 40
1.0
 40
1.0
 40
1.0
 40
1.0
 10
38.5532695529
 20
81.0329690402
 30
0.0
 10
38.163093562
 20
81.0222171846
 30
0.0
 10
37.397687286
 20
81.0030477685
 30
0.0
 10
36.4548748522
 20
80.9782129026
 30
0.0
 10
35.7339445376
 20
80.9566471986
 30
0.0
 10
35.2305480223
 20
80.940472271
 30
0.0
 10
34.7591426248
 20
80.924348226
 30
0.0
 10
34.3242827754
 20
80.9086911392
 30
0.0
 10
33.9301074878
 20
80.8938905958
 30
0.0
 10
33.5804410348
 20
80.8792816254
 30
0.0
 10
33.2786503516
 20
80.864188576
 30
0.0
 10
33.0585011223
 20
80.8506377895
 30
0.0
 10
32.9085010162
 20
80.839206672
 30
0.0
 10
32.8161898176
 20
80.8311090357
 30
0.0
 10
32.7376867711
 20
80.8230833918
 30
0.0
 10
32.6731732601
 20
80.8152382556
 30
0.0
 10
32.6228019546
 20
80.8076620659
 30
0.0
 10
32.589745424
 20
80.8011039345
 30
0.0
 10
32.5705568422
 20
80.7956134128
 30
0.0
 10
32.5613763333
 20
80.7919078908
 30
0.0
 10
32.5554227331
 20
80.7885151218
 30
0.0
 10
32.5532689039
 20
80.7851548411
 30
0.0
 10
32.5532700749
 20
80.7837669467
 30
0.0
  0
SPLINE
  5
2B7
100
AcDbEntity
  8
0
100
AcDbSpline
 62
7
  6
BYLAYER
 70
0
 71
3
 72
23
 73
19
 74
0
 42
0.0000001
 43
0.0000001
 44
0.0000000001
 40
0.0
 40
0.0
 40
0.0
 40
0.0
 40
0.0036711029
 40
0.0094971042
 40
0.0175175513
 40
0.0277375193
 40
0.0401400865
 40
0.0546997131
 40
0.0901759986
 40
0.1338676677
 40
0.1853793659
 40
0.2442557279
 40
0.3099577205
 40
0.3819005825
 40
0.4594300214
 40
0.6284078135
 40
0.810799369
 40
1.0
 40
1.0
 40
1.0
 40
1.0
 10
44.5462761386
 20
81.2764738589
 30
0.0
 10
44.5399065952
 20
81.2728195532
 30
0.0
 10
44.5215976657
 20
81.2669452849
 30
0.0
 10
44.487471402
 20
81.2593766749
 30
0.0
 10
44.439854659
 20
81.2518502987
 30
0.0
 10
44.3790340613
 20
81.2443399512
 30
0.0
 10
44.305015595
 20
81.236935858
 30
0.0
 10
44.1805583071
 20
81.2264650839
 30
0.0
 10
43.9934704843
 20
81.2140658881
 30
0.0
 10
43.7324544059
 20
81.1998823644
 30
0.0
 10
43.4245959888
 20
81.1851616182
 30
0.0
 10
43.0726975246
 20
81.1697373122
 30
0.0
 10
42.6799045655
 20
81.1540620102
 30
0.0
 10
42.2497701138
 20
81.1384536928
 30
0.0
 10
41.613102888
 20
81.1177877314
 30
0.0
 10
40.7554913162
 20
81.0942125352
 30
0.0
 10
39.6745930467
 20
81.0643734453
 30
0.0
 10
38.9315870273
 20
81.0433941175
 30
0.0
 10
38.5532695529
 20
81.0329690402
 30
0.0
  0
SPLINE
  5
2B8
100
AcDbEntity
  8
0
100
AcDbSpline
 62
7
  6
BYLAYER
 70
0
 71
3
 72
40
 73
36
 74
0
 42
0.0000001
 43
0.0000001
 44
0.0000000001
 40
0.0
 40
0.0
 40
0.0
 40
0.0
 40
0.0019073675
 40
0.004892988
 40
0.0089770906
 40
0.0141572706
 40
0.0204260063
 40
0.0277739515
 40
0.0456477058
 40
0.067593817
 40
0.0934006696
 40
0.1228347991
 40
0.1556490498
 40
0.1915624329
 40
0.2302637145
 40
0.2714093114
 40
0.3146073372
 40
0.405569211
 40
0.499917073
 40
0.5942640554
 40
0.6852201813
 40
0.7695589583
 40
0.808285314
 40
0.8442243701
 40
0.877060377
 40
0.9064994733
 40
0.9322938353
 40
0.9542269505
 40
0.972102853
 40
0.9794663685
 40
0.985753355
 40
0.9909503745
 40
0.9950532245
 40
0.9980634698
 40
1.0
 40
1.0
 40
1.0
 40
1.0
 10
44.0450579555
 20
80.9849494802
 30
0.0
 10
44.038899641
 20
80.9816345003
 30
0.0
 10
44.0215910162
 20
80.9762520865
 30
0.0
 10
43.9894880094
 20
80.9692792119
 30
0.0
 10
43.9450810614
 20
80.9621949918
 30
0.0
 10
43.8886050088
 20
80.9548984679
 30
0.0
 10
43.8200739411
 20
80.9474713484
 30
0.0
 10
43.7051145222
 20
80.9366482915
 30
0.0
 10
43.5326741376
 20
80.9231988036
 30
0.0
 10
43.2925274278
 20
80.9077752687
 30
0.0
 10
43.0098907033
 20
80.8928378929
 30
0.0
 10
42.6873398902
 20
80.8782897464
 30
0.0
 10
42.3276905195
 20
80.8639226137
 30
0.0
 10
41.934040683
 20
80.8494503875
 30
0.0
 10
41.509842553
 20
80.8344137429
 30
0.0
 10
41.0589393224
 20
80.8187382274
 30
0.0
 10
40.4164877478
 20
80.7974930953
 30
0.0
 10
39.578977183
 20
80.7724769429
 30
0.0
 10
38.5539212751
 20
80.7446694352
 30
0.0
 10
37.528963944
 20
80.7141108597
 30
0.0
 10
36.5407379486
 20
80.6831586803
 30
0.0
 10
35.7563535907
 20
80.6587564821
 30
0.0
 10
35.1736544487
 20
80.6391066045
 30
0.0
 10
34.7797564966
 20
80.6241230797
 30
0.0
 10
34.4199573345
 20
80.6087177709
 30
0.0
 10
34.0973996234
 20
80.5932027055
 30
0.0
 10
33.8148612465
 20
80.5778762475
 30
0.0
 10
33.5747626054
 20
80.5631191364
 30
0.0
 10
33.4022256389
 20
80.5507366752
 30
0.0
 10
33.2870788084
 20
80.5405100202
 30
0.0
 10
33.21833539
 20
80.5333092151
 30
0.0
 10
33.16165779
 20
80.526030239
 30
0.0
 10
33.1170473489
 20
80.5187831815
 30
0.0
 10
33.0847434607
 20
80.5115032199
 30
0.0
 10
33.0673122487
 20
80.5057845054
 30
0.0
 10
33.0611433908
 20
80.5022679307
 30
0.0
  0
SPLINE
  5
2B9
100
AcDbEntity
  8
0
100
AcDbSpline
 62
7
  6
BYLAYER
 70
0
 71
3
 72
23
 73
19
 74
0
 42
0.0000001
 43
0.0000001
 44
0.0000000001
 40
0.0
 40
0.0
 40
0.0
 40
0.0
 40
0.1897561196
 40
0.3726372357
 40
0.541979977
 40
0.6196287664
 40
0.6916403181
 40
0.7573559184
 40
0.816188543
 40
0.867598475
 40
0.9111291756
 40
0.9463819439
 40
0.9608054826
 40
0.973054918
 40
0.9831036103
 40
0.9909336089
 40
0.996550866
 40
1.0
 40
1.0
 40
1.0
 40
1.0
 10
38.5532695529
 20
78.455618771
 30
0.0
 10
38.173738923
 20
78.4459175646
 30
0.0
 10
37.428460224
 20
78.4256392703
 30
0.0
 10
36.3444986677
 20
78.3960093267
 30
0.0
 10
35.4848057462
 20
78.3705629259
 30
0.0
 10
34.8468967261
 20
78.3498266273
 30
0.0
 10
34.416246218
 20
78.3347593736
 30
0.0
 10
34.0232661717
 20
78.3197113799
 30
0.0
 10
33.671537066
 20
78.3046956784
 30
0.0
 10
33.364235619
 20
78.2897354664
 30
0.0
 10
33.1041754065
 20
78.2748466804
 30
0.0
 10
32.9181300865
 20
78.261863972
 30
0.0
 10
32.79470015
 20
78.2511195931
 30
0.0
 10
32.7215957254
 20
78.2436530663
 30
0.0
 10
32.6617985466
 20
78.2362165218
 30
0.0
 10
32.6152710565
 20
78.2289492757
 30
0.0
 10
32.5823741681
 20
78.221702053
 30
0.0
 10
32.5648231092
 20
78.216122508
 30
0.0
 10
32.5589330881
 20
78.2125267524
 30
0.0
  0
SPLINE
  5
2BA
100
AcDbEntity
  8
0
100
AcDbSpline
 62
7
  6
BYLAYER
 70
0
 71
3
 72
27
 73
23
 74
0
 42
0.0000001
 43
0.0000001
 44
0.0000000001
 40
0.0
 40
0.0
 40
0.0
 40
0.0
 40
0.0007163884
 40
0.0018290151
 40
0.0034667278
 40
0.0056668976
 40
0.0118009025
 40
0.0202743228
 40
0.0310883785
 40
0.0442201056
 40
0.059639979
 40
0.0773167451
 40
0.1192791711
 40
0.1696977769
 40
0.2281048971
 40
0.2939288489
 40
0.3665499303
 40
0.445263614
 40
0.5293236958
 40
0.61790352
 40
0.8052178032
 40
1.0
 40
1.0
 40
1.0
 40
1.0
 10
32.5532697542
 20
82.7829695264
 30
0.0
 10
32.5532708175
 20
82.7844050416
 30
0.0
 10
32.5553797236
 20
82.7878682626
 30
0.0
 10
32.5613597177
 20
82.7914375587
 30
0.0
 10
32.5705459117
 20
82.7952668952
 30
0.0
 10
32.5897282136
 20
82.8009256244
 30
0.0
 10
32.6227862529
 20
82.8075896788
 30
0.0
 10
32.6731650683
 20
82.8151452857
 30
0.0
 10
32.7376886782
 20
82.8227712649
 30
0.0
 10
32.8161967374
 20
82.8304619346
 30
0.0
 10
32.9085105008
 20
82.8381845117
 30
0.0
 10
33.0585174825
 20
82.8491453406
 30
0.0
 10
33.2786570817
 20
82.8624879874
 30
0.0
 10
33.5804212303
 20
82.8778517324
 30
0.0
 10
33.9300508882
 20
82.8932650211
 30
0.0
 10
34.324205541
 20
82.9087288802
 30
0.0
 10
34.7590782914
 20
82.9242141896
 30
0.0
 10
35.2305131702
 20
82.9397266694
 30
0.0
 10
35.7339420408
 20
82.9552575085
 30
0.0
 10
36.4549180311
 20
82.9763594268
 30
0.0
 10
37.3977149316
 20
83.0022540243
 30
0.0
 10
38.1630940522
 20
83.0227595778
 30
0.0
 10
38.5532695529
 20
83.0329690402
 30
0.0
  0
SPLINE
  5
2BB
100
AcDbEntity
  8
0
100
AcDbSpline
 62
7
  6
BYLAYER
 70
0
 71
3
 72
20
 73
16
 74
0
 42
0.0000001
 43
0.0000001
 44
0.0000000001
 40
0.0
 40
0.0
 40
0.0
 40
0.0
 40
0.0042986469
 40
0.0104296566
 40
0.0283368226
 40
0.0538276751
 40
0.0868689983
 40
0.1273391335
 40
0.1750888487
 40
0.2299572784
 40
0.2917207059
 40
0.434907921
 40
0.6024706047
 40
0.7919185746
 40
1.0
 40
1.0
 40
1.0
 40
1.0
 10
44.5464333
 20
80.2755424172
 30
0.0
 10
44.5426918348
 20
80.2734267506
 30
0.0
 10
44.5328787762
 20
80.2696769207
 30
0.0
 10
44.5055125229
 20
80.2623695873
 30
0.0
 10
44.4565643715
 20
80.2542130903
 30
0.0
 10
44.380718379
 20
80.2449493421
 30
0.0
 10
44.2821337226
 20
80.2357361494
 30
0.0
 10
44.1612507415
 20
80.2263578641
 30
0.0
 10
44.0184947105
 20
80.2167756973
 30
0.0
 10
43.8544303011
 20
80.2068388723
 30
0.0
 10
43.5950302935
 20
80.1925357285
 30
0.0
 10
43.2229650772
 20
80.1749370249
 30
0.0
 10
42.7232069996
 20
80.1551550097
 30
0.0
 10
42.1585293469
 20
80.1350477338
 30
0.0
 10
41.7612398585
 20
80.1224104138
 30
0.0
 10
41.5532704505
 20
80.1162623449
 30
0.0
  0
SPLINE
  5
2BC
100
AcDbEntity
  8
0
100
AcDbSpline
 62
7
  6
BYLAYER
 70
0
 71
3
 72
20
 73
16
 74
0
 42
0.0000001
 43
0.0000001
 44
0.0000000001
 40
0.0
 40
0.0
 40
0.0
 40
0.0
 40
0.0045371046
 40
0.0109023625
 40
0.0292653295
 40
0.0552046893
 40
0.0886300712
 40
0.1293882638
 40
0.1773175548
 40
0.2322347382
 40
0.2939279362
 40
0.436766314
 40
0.6038105153
 40
0.7926372453
 40
1.0
 40
1.0
 40
1.0
 40
1.0
 10
44.0457355886
 20
79.9858342537
 30
0.0
 10
44.042096444
 20
79.983821051
 30
0.0
 10
44.0327340024
 20
79.9801595934
 30
0.0
 10
44.0069168153
 20
79.9728827915
 30
0.0
 10
43.9611688404
 20
79.9644107074
 30
0.0
 10
43.8906274097
 20
79.9545036572
 30
0.0
 10
43.7993833289
 20
79.9444463692
 30
0.0
 10
43.6879076254
 20
79.9343260788
 30
0.0
 10
43.5566453232
 20
79.9243755254
 30
0.0
 10
43.4061335999
 20
79.9146555281
 30
0.0
 10
43.168689643
 20
79.9012334947
 30
0.0
 10
42.8284640061
 20
79.8851322402
 30
0.0
 10
42.3717177265
 20
79.8662416607
 30
0.0
 10
41.8558378264
 20
79.8458556461
 30
0.0
 10
41.4929110656
 20
79.832717931
 30
0.0
 10
41.3029399138
 20
79.8263789781
 30
0.0
  0
SPLINE
  5
2BD
100
AcDbEntity
  8
0
100
AcDbSpline
 62
7
  6
BYLAYER
 70
0
 71
3
 72
23
 73
19
 74
0
 42
0.0000001
 43
0.0000001
 44
0.0000000001
 40
0.0
 40
0.0
 40
0.0
 40
0.0
 40
0.0016349192
 40
0.0054167475
 40
0.0115241519
 40
0.0199739702
 40
0.0307597697
 40
0.0438685
 40
0.0769669633
 40
0.1189348362
 40
0.1693509762
 40
0.2277818906
 40
0.2936551
 40
0.3662913875
 40
0.4450071565
 40
0.6176854863
 40
0.8052867714
 40
1.0
 40
1.0
 40
1.0
 40
1.0
 10
34.7806090692
 20
74.505618771
 30
0.0
 10
34.7811546383
 20
74.505618771
 30
0.0
 10
34.7821680136
 20
74.5035351889
 30
0.0
 10
34.7829907492
 20
74.5001767601
 30
0.0
 10
34.784097991
 20
74.4939412998
 30
0.0
 10
34.7851130139
 20
74.4856347822
 30
0.0
 10
34.7861801128
 20
74.4748591462
 30
0.0
 10
34.787691546
 20
74.4559163164
 30
0.0
 10
34.7894628567
 20
74.4265332311
 30
0.0
 10
34.7914034786
 20
74.3847089418
 30
0.0
 10
34.7932576973
 20
74.3344142557
 30
0.0
 10
34.7950004706
 20
74.2761367463
 30
0.0
 10
34.7966126395
 20
74.2104374998
 30
0.0
 10
34.7980787284
 20
74.137964586
 30
0.0
 10
34.7998689216
 20
74.0298509447
 30
0.0
 10
34.801586289
 20
73.8833683028
 30
0.0
 10
34.8028213703
 20
73.6981718917
 30
0.0
 10
34.8031006227
 20
73.5705941597
 30
0.0
 10
34.8031006227
 20
73.505618771
 30
0.0
  0
ENDSEC
  0
SECTION
  2
OBJECTS
  0
DICTIONARY
  5
C
100
AcDbDictionary
280
0
281
1
  3
ACAD_GROUP
350
D
  3
ACAD_MLINESTYLE
350
17
  3
ACAD_LAYOUT
350
1A
  3
ACAD_PLOTSETTINGS
350
19
  3
ACAD_PLOTSTYLENAME
350
E
  0
DICTIONARY
  5
D
102
{ACAD_REACTORS
330
C
102
}
100
AcDbDictionary
280
0
281
1
  0
ACDBDICTIONARYWDFLT
  5
E
102
{ACAD_REACTORS
330
C
102
}
100
AcDbDictionary
281
1
  3
Normal
350
F
100
AcDbDictionaryWithDefault
340
F
  0
DICTIONARY
  5
17
102
{ACAD_REACTORS
330
C
102
}
100
AcDbDictionary
280
0
281
1
  3
Standard
350
18
  0
DICTIONARY
  5
19
102
{ACAD_REACTORS
330
C
102
}
100
AcDbDictionary
281
1
  0
DICTIONARY
  5
1A
102
{ACAD_REACTORS
330
C
102
}
100
AcDbDictionary
281
1
  3
Model
350
2BE
  3
Layout1
350
2BF
  0
ACDBPLACEHOLDER
  5
F
102
{ACAD_REACTORS
330
E
102
}
  0
MLINESTYLE
  5
18
102
{ACAD_REACTORS
330
17
102
}
100
AcDbMlineStyle
  2
STANDARD
 70
0
  3

 62
256
 51
90.0
 52
90.0
 71
2
 49
0.5
 62
256
  6
BYLAYER
 49
-0.5
 62
256
  6
BYLAYER
  0
LAYOUT
  5
2BE
102
{ACAD_REACTORS
330
1A
102
}
100
AcDbPlotSettings
  1

  2
none_device
  4

  6

 40
0.0
 41
0.0
 42
0.0
 43
0.0
 44
210.0
 45
297.0
 46
0.0
 47
0.0
 48
0.0
 49
0.0
140
0.0
141
0.0
142
1.0
143
1.0
 70
1024
 72
1
 73
0
 74
0
  7

 75
0
147
1.0
148
0.0
149
0.0
100
AcDbLayout
  1
Model
 70
0
 71
0
 10
0.0
 20
0.0
 11
210.0
 21
297.0
 12
0.0
 22
0.0
 32
0.0
 14
0.0
 24
0.0
 34
0.0
 15
0.0
 25
0.0
 35
0.0
146
0.0
 13
0.0
 23
0.0
 33
0.0
 16
1.0
 26
0.0
 36
0.0
 17
0.0
 27
1.0
 37
0.0
 76
0
330
210
345
0
346
0
  0
LAYOUT
  5
2BF
102
{ACAD_REACTORS
330
1A
102
}
100
AcDbPlotSettings
  1

  2
none_device
  4

  6

 40
0.0
 41
0.0
 42
0.0
 43
0.0
 44
210.0
 45
297.0
 46
0.0
 47
0.0
 48
0.0
 49
0.0
140
0.0
141
0.0
142
1.0
143
1.0
 70
0
 72
1
 73
0
 74
0
  7

 75
0
147
1.0
148
0.0
149
0.0
100
AcDbLayout
  1
Layout1
 70
0
 71
1
 10
0.0
 20
0.0
 11
210.0
 21
297.0
 12
0.0
 22
0.0
 32
0.0
 14
0.0
 24
0.0
 34
0.0
 15
0.0
 25
0.0
 35
0.0
146
0.0
 13
0.0
 23
0.0
 33
0.0
 16
1.0
 26
0.0
 36
0.0
 17
0.0
 27
1.0
 37
0.0
 76
0
330
211
345
0
346
0
  0
ENDSEC
  0
EOF
