999
DXF file: C:\Users\sesa63760\Dev\_Creo\CAD\MCADID0002084_3D-CAD\drw0001_2.dxf
999
Pro/ENGINEER 2019471 by Parametric Technology Corporation
  0
SECTION
  2
HEADER
  9
$ACADVER
  1
AC1024
  9
$DWGCODEPAGE
  3
ANSI_1252
  9
$EXTMAX
 10
551.016373053
 20
779.2945847464
 30
0.0
  9
$EXTMIN
 10
0.0
 20
0.0
 30
0.0
  9
$LIMMIN
 10
0.0
 20
0.0
  9
$LIMMAX
 10
551.016373053
 20
779.2945847464
  9
$VIEWCTR
 10
275.5081865265
 20
389.6472923732
  9
$VIEWSIZE
 40
779.2945847464
  9
$CLAYER
  8
0
  9
$LTSCALE
 40
50.7984618205
  9
$CELTYPE
  6
BYLAYER
  9
$DIMSCALE
 40
1.0
  9
$DIMASZ
 40
6.5597187268
  9
$DIMEXO
 40
1.0
  9
$DIMDLI
 40
35.097119076
  9
$DIMEXE
 40
1.0
  9
$DIMCEN
 40
8.3124755706
  9
$DIMLFAC
 40
1.0
  9
$DIMBLK
  1
_FILLED
  9
$DIMALT
 70
0
  9
$DIMALTF
 40
0.0393700787
  9
$DIMTXT
 40
9.1836062176
  9
$DIMTOL
 70
1
  9
$DIMLIM
 70
0
  9
$DIMTFAC
 40
1.0
  9
$DIMTP
 40
0.01
  9
$DIMTM
 40
0.01
  9
$DIMGAP
 40
0.625
  9
$DIMDSEP
 70
46
  9
$AUNITS
 70
0
  9
$PDMODE
 70
3
  9
$PDSIZE
 40
0.3125
  9
$HANDSEED
  5
305
  9
$TILEMODE
 70
1
  9
$MEASUREMENT
 70
1
  9
$INSUNITS
 70
4
  0
ENDSEC
  0
SECTION
  2
CLASSES
  0
CLASS
  1
ACDBDICTIONARYWDFLT
  2
AcDbDictionaryWithDefault
  3
AutoCAD 2000
 90
0
 91
1
280
0
281
0
  0
CLASS
  1
ACDBPLACEHOLDER
  2
AcDbPlaceHolder
  3
AutoCAD 2000
 90
0
 91
1
280
0
281
0
  0
CLASS
  1
LAYOUT
  2
AcDbLayout
  3
AutoCAD 2000
 90
0
 91
0
280
0
281
0
  0
ENDSEC
  0
SECTION
  2
TABLES
  0
TABLE
  2
VPORT
  5
8
100
AcDbSymbolTable
 70
2
  0
VPORT
  5
1F4
100
AcDbSymbolTableRecord
100
AcDbViewportTableRecord
  2
*ACTIVE
 70
0
 10
0.0
 20
0.0
 11
1.0
 21
1.0
 12
275.5081865265
 22
389.6472923732
 13
0.0
 23
0.0
 14
1.0
 24
1.0
 15
0.0
 25
0.0
 16
0.0
 26
0.0
 36
1.0
 17
0.0
 27
0.0
 37
0.0
 40
779.2945847464
 41
0.7070707071
 42
50.0
 43
0.0
 44
0.0
 50
0.0
 51
0.0
 71
0
 72
100
 73
1
 74
1
 75
0
 76
0
 77
0
 78
0
  0
ENDTAB
  0
TABLE
  2
LTYPE
  5
5
100
AcDbSymbolTable
 70
6
  0
LTYPE
  5
14
100
AcDbSymbolTableRecord
100
AcDbLinetypeTableRecord
  2
BYBLOCK
 70
0
  3

 72
65
 73
0
 40
0.0
  0
LTYPE
  5
15
100
AcDbSymbolTableRecord
100
AcDbLinetypeTableRecord
  2
BYLAYER
 70
0
  3

 72
65
 73
0
 40
0.0
  0
LTYPE
  5
16
100
AcDbSymbolTableRecord
100
AcDbLinetypeTableRecord
  2
CONTINUOUS
 70
64
  3
Solid line
 72
65
 73
0
 40
0.0
  0
LTYPE
  5
1F5
100
AcDbSymbolTableRecord
100
AcDbLinetypeTableRecord
  2
CENTER
 70
64
  3
____ _ ____ _ ____ _ ____ _ ____ _ ____ _ ____
 72
65
 73
4
 40
0.6
 49
0.375
 74
0
 49
-0.075
 74
0
 49
0.075
 74
0
 49
-0.075
 74
0
  0
LTYPE
  5
1F6
100
AcDbSymbolTableRecord
100
AcDbLinetypeTableRecord
  2
HIDDEN
 70
64
  3
- - - - - - - - - - - - - - - - - - - -
 72
65
 73
2
 40
0.2
 49
0.1
 74
0
 49
-0.1
 74
0
  0
LTYPE
  5
1F7
100
AcDbSymbolTableRecord
100
AcDbLinetypeTableRecord
  2
PHANTOM
 70
64
  3
_____ _ _ _____ _ _ _____ _ _ _____
 72
65
 73
6
 40
0.8
 49
0.45
 74
0
 49
-0.05
 74
0
 49
0.1
 74
0
 49
-0.05
 74
0
 49
0.1
 74
0
 49
-0.05
 74
0
  0
LTYPE
  5
1F8
100
AcDbSymbolTableRecord
100
AcDbLinetypeTableRecord
  2
DOT
 70
64
  3
. . . . . . . . . . . . . . . . . . . .
 72
65
 73
2
 40
0.2
 49
0.1
 74
0
 49
-0.1
 74
0
  0
LTYPE
  5
1F9
100
AcDbSymbolTableRecord
100
AcDbLinetypeTableRecord
  2
DASHED
 70
64
  3
- - - - - - - - - - - - - - - - - - - -
 72
65
 73
2
 40
0.2
 49
0.1
 74
0
 49
-0.1
 74
0
  0
ENDTAB
  0
TABLE
  2
LAYER
  5
2
100
AcDbSymbolTable
 70
36
  0
LAYER
  5
10
100
AcDbSymbolTableRecord
100
AcDbLayerTableRecord
  2
0
 70
0
 62
7
  6
CONTINUOUS
370
-3
390
F
  0
LAYER
  5
1FA
100
AcDbSymbolTableRecord
100
AcDbLayerTableRecord
  2
DEFAULT_1
 70
0
 62
7
  6
CENTER
370
-3
390
F
  0
LAYER
  5
1FB
100
AcDbSymbolTableRecord
100
AcDbLayerTableRecord
  2
DEFAULT_2
 70
0
 62
8
  6
HIDDEN
370
-3
390
F
  0
LAYER
  5
1FC
100
AcDbSymbolTableRecord
100
AcDbLayerTableRecord
  2
DEFAULT_3
 70
0
 62
7
  6
PHANTOM
370
-3
390
F
  0
LAYER
  5
1FD
100
AcDbSymbolTableRecord
100
AcDbLayerTableRecord
  2
00_COMPONENTS
 70
0
 62
7
  6
CONTINUOUS
370
-3
390
F
  0
LAYER
  5
1FE
100
AcDbSymbolTableRecord
100
AcDbLayerTableRecord
  2
01_1_DEFAULT_DATUMS
 70
0
 62
7
  6
CONTINUOUS
370
-3
390
F
  0
LAYER
  5
1FF
100
AcDbSymbolTableRecord
100
AcDbLayerTableRecord
  2
01_PLANES
 70
0
 62
7
  6
CONTINUOUS
370
-3
390
F
  0
LAYER
  5
200
100
AcDbSymbolTableRecord
100
AcDbLayerTableRecord
  2
02_COORD_SYS
 70
0
 62
7
  6
CONTINUOUS
370
-3
390
F
  0
LAYER
  5
201
100
AcDbSymbolTableRecord
100
AcDbLayerTableRecord
  2
03_AXES
 70
0
 62
7
  6
CONTINUOUS
370
-3
390
F
  0
LAYER
  5
202
100
AcDbSymbolTableRecord
100
AcDbLayerTableRecord
  2
04_POINTS
 70
0
 62
7
  6
CONTINUOUS
370
-3
390
F
  0
LAYER
  5
203
100
AcDbSymbolTableRecord
100
AcDbLayerTableRecord
  2
05_CURVES
 70
0
 62
7
  6
CONTINUOUS
370
-3
390
F
  0
LAYER
  5
204
100
AcDbSymbolTableRecord
100
AcDbLayerTableRecord
  2
06_SURFS
 70
0
 62
7
  6
CONTINUOUS
370
-3
390
F
  0
LAYER
  5
205
100
AcDbSymbolTableRecord
100
AcDbLayerTableRecord
  2
07_COSMETICS
 70
0
 62
7
  6
CONTINUOUS
370
-3
390
F
  0
LAYER
  5
206
100
AcDbSymbolTableRecord
100
AcDbLayerTableRecord
  2
10_NOTES
 70
0
 62
7
  6
CONTINUOUS
370
-3
390
F
  0
LAYER
  5
207
100
AcDbSymbolTableRecord
100
AcDbLayerTableRecord
  2
11_NOTES_PUB
 70
0
 62
7
  6
CONTINUOUS
370
-3
390
F
  0
LAYER
  5
208
100
AcDbSymbolTableRecord
100
AcDbLayerTableRecord
  2
13_REF_GTOL
 70
0
 62
7
  6
CONTINUOUS
370
-3
390
F
  0
LAYER
  5
209
100
AcDbSymbolTableRecord
100
AcDbLayerTableRecord
  2
16_MISC
 70
0
 62
7
  6
CONTINUOUS
370
-3
390
F
  0
LAYER
  5
20A
100
AcDbSymbolTableRecord
100
AcDbLayerTableRecord
  2
17_NO_PRINT
 70
0
 62
7
  6
CONTINUOUS
370
-3
390
F
  0
LAYER
  5
20B
100
AcDbSymbolTableRecord
100
AcDbLayerTableRecord
  2
18_DATUM_CAMS_JOINTS
 70
0
 62
7
  6
CONTINUOUS
370
-3
390
F
  0
LAYER
  5
20C
100
AcDbSymbolTableRecord
100
AcDbLayerTableRecord
  2
19_DATUM_FUNCTIONAL
 70
0
 62
7
  6
CONTINUOUS
370
-3
390
F
  0
LAYER
  5
20D
100
AcDbSymbolTableRecord
100
AcDbLayerTableRecord
  2
20_DATUM_KINEMATIC_SCHEME
 70
0
 62
7
  6
CONTINUOUS
370
-3
390
F
  0
ENDTAB
  0
TABLE
  2
STYLE
  5
3
100
AcDbSymbolTable
 70
1
  0
STYLE
  5
11
100
AcDbSymbolTableRecord
100
AcDbTextStyleTableRecord
  2
STANDARD
 70
0
 40
0.0
 41
0.8
 50
0.0
 71
0
 42
0.2
  3
txt
  4

  0
STYLE
  5
20E
100
AcDbSymbolTableRecord
100
AcDbTextStyleTableRecord
  2
TEXTSTYLE_1
 70
0
 40
0.0
 41
0.8
 50
0.0
 71
0
 42
0.2
  3
gdt
  4

  0
ENDTAB
  0
TABLE
  2
VIEW
  5
6
100
AcDbSymbolTable
 70
0
  0
ENDTAB
  0
TABLE
  2
UCS
  5
7
100
AcDbSymbolTable
 70
0
  0
ENDTAB
  0
TABLE
  2
APPID
  5
9
100
AcDbSymbolTable
 70
1
  0
APPID
  5
20F
100
AcDbSymbolTableRecord
100
AcDbRegAppTableRecord
  2
ACAD
 70
0
  0
ENDTAB
  0
TABLE
  2
BLOCK_RECORD
  5
1
100
AcDbSymbolTable
 70
0
  0
BLOCK_RECORD
  5
210
100
AcDbSymbolTableRecord
100
AcDbBlockTableRecord
  2
*Model_Space
  0
BLOCK_RECORD
  5
211
100
AcDbSymbolTableRecord
100
AcDbBlockTableRecord
  2
*Paper_Space
  0
BLOCK_RECORD
  5
212
100
AcDbSymbolTableRecord
100
AcDbBlockTableRecord
  2
_FILLED
  0
ENDTAB
  0
TABLE
  2
DIMSTYLE
  5
A
100
AcDbSymbolTable
 70
1
100
AcDbDimStyleTable
 71
0
  0
DIMSTYLE
105
213
100
AcDbSymbolTableRecord
100
AcDbDimStyleTableRecord
  2
STANDARD
 70
0
  3

  4

 40
1.0
 41
6.5597187268
 42
1.0
 43
0.38
 44
1.0
 45
0.0
 46
0.0
 47
0.01
 48
0.01
140
9.1836062176
141
0.09
142
0.0
143
25.4
144
1.0
145
0.0
146
1.0
147
0.625
 71
1
 72
0
 73
0
 74
0
 75
0
 76
0
 77
1
 78
8
 79
2
170
0
171
1
172
0
173
0
174
0
175
0
176
0
177
0
178
0
270
2
179
2
271
2
272
2
273
2
274
2
275
0
280
0
281
0
282
0
283
1
284
8
285
0
286
0
287
3
288
0
340
11
278
46
341
212
342
212
343
212
344
212
  0
ENDTAB
  0
ENDSEC
  0
SECTION
  2
BLOCKS
  0
BLOCK
  5
20
100
AcDbEntity
  8
0
100
AcDbBlockBegin
  2
*Model_Space
 70
0
 10
0.0
 20
0.0
 30
0.0
  3
*Model_Space
  1

  0
ENDBLK
  5
21
100
AcDbEntity
  8
0
100
AcDbBlockEnd
  0
BLOCK
  5
1C
100
AcDbEntity
  8
0
100
AcDbBlockBegin
  2
*Paper_Space
 70
0
 10
0.0
 20
0.0
 30
0.0
  3
*Paper_Space
  1

  0
ENDBLK
  5
1D
100
AcDbEntity
  8
0
100
AcDbBlockEnd
  0
BLOCK
  5
214
100
AcDbEntity
  8
0
100
AcDbBlockBegin
  2
_FILLED
 70
64
 10
0.0
 20
0.0
  3
_FILLED
  1

  0
SOLID
  5
215
100
AcDbEntity
  8
0
  6
BYBLOCK
 62
0
100
AcDbTrace
 10
0.0
 20
0.0
 11
-1.0
 21
0.25
 12
-1.0
 22
-0.25
 13
-1.0
 23
-0.25
  0
ENDBLK
  5
216
100
AcDbEntity
  8
0
  6
BYBLOCK
 62
0
100
AcDbBlockEnd
  0
ENDSEC
  0
SECTION
  2
ENTITIES
  0
LINE
  5
217
100
AcDbEntity
  8
0
100
AcDbLine
 62
7
  6
CONTINUOUS
 10
60.415250345
 20
393.2197015573
 11
60.415250345
 21
376.7133363664
  0
LINE
  5
218
100
AcDbEntity
  8
0
100
AcDbLine
 62
7
  6
CONTINUOUS
 10
65.402397018
 20
376.4601537709
 11
65.402397018
 21
393.4728841527
  0
LINE
  5
219
100
AcDbEntity
  8
0
100
AcDbLine
 62
7
  6
CONTINUOUS
 10
78.415250345
 20
395.0520368866
 11
78.415250345
 21
374.881001037
  0
LINE
  5
21A
100
AcDbEntity
  8
0
100
AcDbLine
 62
7
  6
CONTINUOUS
 10
83.402397018
 20
374.6278184416
 11
83.402397018
 21
395.3052194821
  0
LINE
  5
21B
100
AcDbEntity
  8
0
100
AcDbLine
 62
7
  6
CONTINUOUS
 10
96.415250345
 20
396.884372216
 11
96.415250345
 21
373.0486657077
  0
LINE
  5
21C
100
AcDbEntity
  8
0
100
AcDbLine
 62
7
  6
CONTINUOUS
 10
101.402397018
 20
372.7954831122
 11
101.402397018
 21
397.1375548114
  0
LINE
  5
21D
100
AcDbEntity
  8
0
100
AcDbLine
 62
7
  6
CONTINUOUS
 10
114.415250345
 20
398.7167075453
 11
114.415250345
 21
371.2163303783
  0
LINE
  5
21E
100
AcDbEntity
  8
0
100
AcDbLine
 62
7
  6
CONTINUOUS
 10
119.402397018
 20
370.9631477829
 11
119.402397018
 21
398.9698901408
  0
LINE
  5
21F
100
AcDbEntity
  8
0
100
AcDbLine
 62
7
  6
CONTINUOUS
 10
132.415250345
 20
400.5490428746
 11
132.415250345
 21
369.383995049
  0
LINE
  5
220
100
AcDbEntity
  8
0
100
AcDbLine
 62
7
  6
CONTINUOUS
 10
137.402397018
 20
369.1308124535
 11
137.402397018
 21
400.8022254701
  0
LINE
  5
221
100
AcDbEntity
  8
0
100
AcDbLine
 62
7
  6
CONTINUOUS
 10
143.5595562308
 20
401.4290021564
 11
143.5595562307
 21
368.5040357672
  0
LINE
  5
222
100
AcDbEntity
  8
0
100
AcDbLine
 62
7
  6
CONTINUOUS
 10
144.2984167753
 20
368.4563733973
 11
144.2984167753
 21
401.4766645263
  0
LINE
  5
223
100
AcDbEntity
  8
0
100
AcDbLine
 62
7
  6
CONTINUOUS
 10
479.7854911782
 20
355.3231158891
 11
479.7568876029
 21
355.3165764559
  0
LINE
  5
224
100
AcDbEntity
  8
0
100
AcDbLine
 62
7
  6
CONTINUOUS
 10
216.9281036719
 20
366.4665189618
 11
216.9281036719
 21
403.4665189618
  0
LINE
  5
225
100
AcDbEntity
  8
0
100
AcDbLine
 62
7
  6
CONTINUOUS
 10
223.9281036719
 20
411.9665189618
 11
223.9281036719
 21
403.3229892107
  0
LINE
  5
226
100
AcDbEntity
  8
0
100
AcDbLine
 62
7
  6
CONTINUOUS
 10
224.0013830026
 20
403.3229892108
 11
224.0013830026
 21
366.3665189618
  0
LINE
  5
227
100
AcDbEntity
  8
0
100
AcDbLine
 62
7
  6
CONTINUOUS
 10
226.8757464526
 20
364.0259949382
 11
226.8757459412
 21
382.1475252691
  0
LINE
  5
228
100
AcDbEntity
  8
0
100
AcDbLine
 62
7
  6
CONTINUOUS
 10
226.8757424339
 20
387.7855126475
 11
226.8757464526
 21
405.6910345505
  0
LINE
  5
229
100
AcDbEntity
  8
0
100
AcDbLine
 62
7
  6
CONTINUOUS
 10
228.9281036719
 20
379.438262699
 11
228.9281036719
 21
390.4947752246
  0
LINE
  5
22A
100
AcDbEntity
  8
0
100
AcDbLine
 62
7
  6
CONTINUOUS
 10
231.8757464526
 20
376.4387196135
 11
231.8757464526
 21
393.4943183101
  0
LWPOLYLINE
  5
22B
100
AcDbEntity
  8
0
100
AcDbPolyline
 62
7
  6
CONTINUOUS
 90
6
 70
0
 10
485.3697629219
 20
356.4665189618
 10
487.2687671849
 20
356.6316778089
 10
491.4828143489
 20
358.3215420755
 10
493.2387422006
 20
359.7802217316
 10
495.672675197
 20
363.6129493632
 10
496.1887398274
 20
365.4791240039
  0
LINE
  5
22C
100
AcDbEntity
  8
0
100
AcDbLine
 62
7
  6
CONTINUOUS
 10
248.3027463237
 20
406.2205255208
 11
248.2989160923
 21
406.4665189618
  0
LINE
  5
22D
100
AcDbEntity
  8
0
100
AcDbLine
 62
7
  6
CONTINUOUS
 10
238.8281036719
 20
386.9414388883
 11
238.8281036719
 21
382.9915989054
  0
LINE
  5
22E
100
AcDbEntity
  8
0
100
AcDbLine
 62
7
  6
CONTINUOUS
 10
243.8281036719
 20
382.9460364114
 11
243.8281036719
 21
386.9870015122
  0
LINE
  5
22F
100
AcDbEntity
  8
0
100
AcDbLine
 62
7
  6
CONTINUOUS
 10
248.585122949
 20
408.2676491769
 11
248.2989231186
 21
406.4665189618
  0
LINE
  5
230
100
AcDbEntity
  8
0
100
AcDbLine
 62
7
  6
CONTINUOUS
 10
258.9281036719
 20
354.9665189618
 11
254.9281036719
 21
354.9665189618
  0
LINE
  5
231
100
AcDbEntity
  8
0
100
AcDbLine
 62
7
  6
CONTINUOUS
 10
479.723644264
 20
355.4665189618
 11
265.4330006831
 21
355.4665189618
  0
LINE
  5
232
100
AcDbEntity
  8
0
100
AcDbLine
 62
7
  6
CONTINUOUS
 10
259.7864444218
 20
356.4665189618
 11
261.0361851423
 21
356.4665189618
  0
LINE
  5
233
100
AcDbEntity
  8
0
100
AcDbLine
 62
7
  6
CONTINUOUS
 10
484.1200722511
 20
356.4665189618
 11
485.3697629219
 21
356.4665189618
  0
LINE
  5
234
100
AcDbEntity
  8
0
100
AcDbLine
 62
7
  6
CONTINUOUS
 10
258.9281036719
 20
356.6665189618
 11
254.9281036719
 21
356.6665189618
  0
LINE
  5
235
100
AcDbEntity
  8
0
100
AcDbLine
 62
7
  6
CONTINUOUS
 10
260.8863358709
 20
356.9958372783
 11
484.2698714738
 21
356.9958372779
  0
LINE
  5
236
100
AcDbEntity
  8
0
100
AcDbLine
 62
7
  6
CONTINUOUS
 10
260.8863354833
 20
357.3917209137
 11
484.2698718444
 21
357.3917209137
  0
LINE
  5
237
100
AcDbEntity
  8
0
100
AcDbLine
 62
7
  6
CONTINUOUS
 10
267.140052187
 20
358.9504433629
 11
282.3076629029
 21
358.9504433629
  0
LINE
  5
238
100
AcDbEntity
  8
0
100
AcDbLine
 62
7
  6
CONTINUOUS
 10
282.3485522122
 20
358.95044354
 11
462.3076551316
 21
358.95044354
  0
LINE
  5
239
100
AcDbEntity
  8
0
100
AcDbLine
 62
7
  6
CONTINUOUS
 10
462.3485448039
 20
358.9504433628
 11
478.0161551549
 21
358.9504433628
  0
LINE
  5
23A
100
AcDbEntity
  8
0
100
AcDbLine
 62
7
  6
CONTINUOUS
 10
472.2704272929
 20
354.4665189618
 11
272.8573061009
 21
354.4665308238
  0
LINE
  5
23B
100
AcDbEntity
  8
0
100
AcDbLine
 62
7
  6
CONTINUOUS
 10
269.0208014448
 20
354.67051524
 11
272.8573034498
 21
354.4665353676
  0
LINE
  5
23C
100
AcDbEntity
  8
0
100
AcDbLine
 62
7
  6
CONTINUOUS
 10
144.2984167753
 20
368.4563733973
 11
143.5595562307
 21
368.5040357672
  0
LINE
  5
23D
100
AcDbEntity
  8
0
100
AcDbLine
 62
7
  6
CONTINUOUS
 10
258.9172837498
 20
356.5421109859
 11
259.7864444218
 21
356.4665189618
  0
LINE
  5
23E
100
AcDbEntity
  8
0
100
AcDbLine
 62
7
  6
CONTINUOUS
 10
65.402397018
 20
376.4601537709
 11
78.4281036719
 21
375.1341836325
  0
LINE
  5
23F
100
AcDbEntity
  8
0
100
AcDbLine
 62
7
  6
CONTINUOUS
 10
83.402397018
 20
374.6278184415
 11
96.4281036719
 21
373.3018483031
  0
LINE
  5
240
100
AcDbEntity
  8
0
100
AcDbLine
 62
7
  6
CONTINUOUS
 10
101.402397018
 20
372.7954831122
 11
114.4281036719
 21
371.4695129738
  0
LINE
  5
241
100
AcDbEntity
  8
0
100
AcDbLine
 62
7
  6
CONTINUOUS
 10
119.402397018
 20
370.9631477829
 11
132.4281036719
 21
369.6371776445
  0
LINE
  5
242
100
AcDbEntity
  8
0
100
AcDbLine
 62
7
  6
CONTINUOUS
 10
137.402397018
 20
369.1308124535
 11
143.5595562307
 21
368.5040357672
  0
LINE
  5
243
100
AcDbEntity
  8
0
100
AcDbLine
 62
7
  6
CONTINUOUS
 10
265.507074608
 20
355.2201069983
 11
269.0208014448
 21
354.67051524
  0
LINE
  5
244
100
AcDbEntity
  8
0
100
AcDbLine
 62
7
  6
CONTINUOUS
 10
265.3993362797
 20
355.3165761292
 11
265.3659798429
 21
355.3242047054
  0
LINE
  5
245
100
AcDbEntity
  8
0
100
AcDbLine
 62
7
  6
CONTINUOUS
 10
262.6450400344
 20
355.9447446215
 11
265.507074608
 21
355.2201069983
  0
LINE
  5
246
100
AcDbEntity
  8
0
100
AcDbLine
 62
7
  6
CONTINUOUS
 10
259.8170699543
 20
356.8948364866
 11
259.822222384
 21
356.8933107385
  0
LINE
  5
247
100
AcDbEntity
  8
0
100
AcDbLine
 62
7
  6
CONTINUOUS
 10
262.6447506022
 20
355.9449636632
 11
262.6450400344
 21
355.9447446215
  0
LWPOLYLINE
  5
248
100
AcDbEntity
  8
0
100
AcDbPolyline
 62
7
  6
CONTINUOUS
 90
5
 70
0
 10
249.478412189
 20
363.6314639402
 10
249.4835321114
 20
363.6129494576
 10
251.9174650956
 20
359.7802217803
 10
253.6733929518
 20
358.3215421043
 10
254.9281036719
 20
357.8183937654
  0
LINE
  5
249
100
AcDbEntity
  8
0
100
AcDbLine
 62
7
  6
CONTINUOUS
 10
254.1166491452
 20
389.8165189618
 11
254.1166491452
 21
389.5637279625
  0
LINE
  5
24A
100
AcDbEntity
  8
0
100
AcDbLine
 62
7
  6
CONTINUOUS
 10
254.9281036719
 20
354.9665189618
 11
254.9281036719
 21
356.6665189618
  0
LINE
  5
24B
100
AcDbEntity
  8
0
100
AcDbLine
 62
7
  6
CONTINUOUS
 10
254.9281036719
 20
383.9665188584
 11
254.9281036719
 21
389.8165189618
  0
LINE
  5
24C
100
AcDbEntity
  8
0
100
AcDbLine
 62
7
  6
CONTINUOUS
 10
258.9281036719
 20
356.6665189618
 11
258.9281036719
 21
354.9665189618
  0
LINE
  5
24D
100
AcDbEntity
  8
0
100
AcDbLine
 62
7
  6
CONTINUOUS
 10
260.8863353544
 20
356.9958329356
 11
260.8863353544
 21
357.3917209137
  0
LINE
  5
24E
100
AcDbEntity
  8
0
100
AcDbLine
 62
7
  6
CONTINUOUS
 10
264.525017734
 20
386.9665189618
 11
264.525017734
 21
389.8165189618
  0
LINE
  5
24F
100
AcDbEntity
  8
0
100
AcDbLine
 62
7
  6
CONTINUOUS
 10
265.815018159
 20
383.9665188929
 11
265.815018159
 21
386.9665189618
  0
LINE
  5
250
100
AcDbEntity
  8
0
100
AcDbLine
 62
7
  6
CONTINUOUS
 10
216.9281036719
 20
366.4665189618
 11
224.0013830026
 21
366.4665189618
  0
LINE
  5
251
100
AcDbEntity
  8
0
100
AcDbLine
 62
7
  6
CONTINUOUS
 10
278.1281036719
 20
367.9665189618
 11
286.5281036719
 21
367.9665189618
  0
LINE
  5
252
100
AcDbEntity
  8
0
100
AcDbLine
 62
7
  6
CONTINUOUS
 10
458.1281036719
 20
367.9665189618
 11
466.5281036719
 21
367.9665189618
  0
LINE
  5
253
100
AcDbEntity
  8
0
100
AcDbLine
 62
7
  6
CONTINUOUS
 10
267.1399586826
 20
368.5510544571
 11
478.0161200794
 21
368.5510544571
  0
LINE
  5
254
100
AcDbEntity
  8
0
100
AcDbLine
 62
7
  6
CONTINUOUS
 10
226.8757464526
 20
364.0259949382
 11
249.478412189
 21
363.6314639402
  0
LINE
  5
255
100
AcDbEntity
  8
0
100
AcDbLine
 62
7
  6
CONTINUOUS
 10
144.2984167753
 20
368.4563733973
 11
216.9281036718
 21
366.4665189618
  0
LINE
  5
256
100
AcDbEntity
  8
0
100
AcDbLine
 62
7
  6
CONTINUOUS
 10
266.8198725331
 20
405.3827510479
 11
266.8198725331
 21
414.983343253
  0
LINE
  5
257
100
AcDbEntity
  8
0
100
AcDbLine
 62
7
  6
CONTINUOUS
 10
267.140052187
 20
358.9504433629
 11
267.140052187
 21
368.5510550469
  0
LINE
  5
258
100
AcDbEntity
  8
0
100
AcDbLine
 62
7
  6
CONTINUOUS
 10
278.1281036719
 20
367.9665189618
 11
278.1281036719
 21
360.5928465108
  0
LINE
  5
259
100
AcDbEntity
  8
0
100
AcDbLine
 62
7
  6
CONTINUOUS
 10
248.9672779235
 20
365.4801561326
 11
251.2596492244
 21
367.2820294044
  0
LINE
  5
25A
100
AcDbEntity
  8
0
100
AcDbLine
 62
7
  6
CONTINUOUS
 10
253.8317749155
 20
383.9665188584
 11
498.2319142356
 21
383.9665188584
  0
LINE
  5
25B
100
AcDbEntity
  8
0
100
AcDbLine
 62
7
  6
CONTINUOUS
 10
255.0345266684
 20
386.9665189618
 11
496.7543623701
 21
386.9665189618
  0
LINE
  5
25C
100
AcDbEntity
  8
0
100
AcDbLine
 62
7
  6
CONTINUOUS
 10
252.1930728221
 20
389.8165189618
 11
495.8304065857
 21
389.8165189618
  0
LINE
  5
25D
100
AcDbEntity
  8
0
100
AcDbLine
 62
7
  6
CONTINUOUS
 10
226.8757464526
 20
376.5259949382
 11
258.9281036719
 21
375.9665189618
  0
LINE
  5
25E
100
AcDbEntity
  8
0
100
AcDbLine
 62
7
  6
CONTINUOUS
 10
248.585122949
 20
408.2676491769
 11
250.8985960297
 21
406.4686659845
  0
LINE
  5
25F
100
AcDbEntity
  8
0
100
AcDbLine
 62
7
  6
CONTINUOUS
 10
286.5281036719
 20
360.5928465108
 11
286.5281036719
 21
367.9665189618
  0
LINE
  5
260
100
AcDbEntity
  8
0
100
AcDbLine
 62
7
  6
CONTINUOUS
 10
260.1599270706
 20
356.7814797359
 11
259.7864593683
 21
356.4665189618
  0
LINE
  5
261
100
AcDbEntity
  8
0
100
AcDbLine
 62
7
  6
CONTINUOUS
 10
226.8757464526
 20
393.4069545212
 11
249.7995493533
 21
393.8071794535
  0
LINE
  5
262
100
AcDbEntity
  8
0
100
AcDbLine
 62
7
  6
CONTINUOUS
 10
249.4911576205
 20
393.9665189618
 11
248.493578881
 21
393.9665189618
  0
LINE
  5
263
100
AcDbEntity
  8
0
100
AcDbLine
 62
7
  6
CONTINUOUS
 10
224.0013830026
 20
403.3229892107
 11
223.9281036719
 21
403.3229892107
  0
LINE
  5
264
100
AcDbEntity
  8
0
100
AcDbLine
 62
7
  6
CONTINUOUS
 10
216.9281036719
 20
403.4665189618
 11
223.9281036719
 21
403.4665189618
  0
LINE
  5
265
100
AcDbEntity
  8
0
100
AcDbLine
 62
7
  6
CONTINUOUS
 10
259.4361067663
 20
417.4665189618
 11
261.5547597156
 21
415.7112301181
  0
LINE
  5
266
100
AcDbEntity
  8
0
100
AcDbLine
 62
7
  6
CONTINUOUS
 10
65.402397018
 20
393.4728841527
 11
78.4281036719
 21
394.7988542912
  0
LINE
  5
267
100
AcDbEntity
  8
0
100
AcDbLine
 62
7
  6
CONTINUOUS
 10
83.402397018
 20
395.3052194821
 11
96.4281036719
 21
396.6311896205
  0
LINE
  5
268
100
AcDbEntity
  8
0
100
AcDbLine
 62
7
  6
CONTINUOUS
 10
101.402397018
 20
397.1375548114
 11
114.4281036719
 21
398.4635249498
  0
LINE
  5
269
100
AcDbEntity
  8
0
100
AcDbLine
 62
7
  6
CONTINUOUS
 10
119.402397018
 20
398.9698901408
 11
132.4281036719
 21
400.2958602792
  0
LINE
  5
26A
100
AcDbEntity
  8
0
100
AcDbLine
 62
7
  6
CONTINUOUS
 10
137.402397018
 20
400.8022254701
 11
143.5595562308
 21
401.4290021564
  0
LWPOLYLINE
  5
26B
100
AcDbEntity
  8
0
100
AcDbPolyline
 62
7
  6
CONTINUOUS
 90
6
 70
0
 10
259.4366634752
 20
417.4665189584
 10
257.4780633097
 20
417.2907457387
 10
253.2307861684
 20
415.5487591475
 10
251.4720086126
 20
414.0536312496
 10
249.0689582268
 20
410.1422077216
 10
248.585353968
 20
408.2690399661
  0
LINE
  5
26C
100
AcDbEntity
  8
0
100
AcDbLine
 62
7
  6
CONTINUOUS
 10
144.2984167754
 20
401.4766645263
 11
143.5595562308
 21
401.4290021564
  0
LINE
  5
26D
100
AcDbEntity
  8
0
100
AcDbLine
 62
7
  6
CONTINUOUS
 10
144.2984167754
 20
401.4766645263
 11
216.9281036718
 21
403.4665189618
  0
LINE
  5
26E
100
AcDbEntity
  8
0
100
AcDbLine
 62
7
  6
CONTINUOUS
 10
248.0253699245
 20
406.2762110364
 11
248.3021535992
 21
406.2810423134
  0
LINE
  5
26F
100
AcDbEntity
  8
0
100
AcDbLine
 62
7
  6
CONTINUOUS
 10
266.8198725331
 20
405.3827510479
 11
478.3363406794
 21
405.3827510479
  0
LINE
  5
270
100
AcDbEntity
  8
0
100
AcDbLine
 62
7
  6
CONTINUOUS
 10
238.4002326085
 20
407.9665168078
 11
229.4559765935
 21
407.9665168081
  0
LINE
  5
271
100
AcDbEntity
  8
0
100
AcDbLine
 62
7
  6
CONTINUOUS
 10
266.8198880107
 20
414.983343253
 11
478.336355483
 21
414.983343253
  0
LINE
  5
272
100
AcDbEntity
  8
0
100
AcDbLine
 62
7
  6
CONTINUOUS
 10
446.7607700823
 20
415.353421234
 11
304.8954352876
 21
415.353421234
  0
LINE
  5
273
100
AcDbEntity
  8
0
100
AcDbLine
 62
7
  6
CONTINUOUS
 10
259.4366634752
 20
417.4665189618
 11
300.8281356078
 21
417.4665189618
  0
LINE
  5
274
100
AcDbEntity
  8
0
100
AcDbLine
 62
7
  6
CONTINUOUS
 10
450.8270535586
 20
417.4665189618
 11
485.7195418948
 21
417.4665189618
  0
LWPOLYLINE
  5
275
100
AcDbEntity
  8
0
100
AcDbPolyline
 62
7
  6
CONTINUOUS
 90
3
 70
0
 10
450.8229232169
 20
417.4665189618
 10
450.6615975826
 20
417.3806126337
 10
446.7607700823
 20
415.353421234
  0
LINE
  5
276
100
AcDbEntity
  8
0
100
AcDbLine
 62
7
  6
CONTINUOUS
 10
450.8230698627
 20
417.466399169
 11
446.7607700823
 21
415.353421234
  0
LWPOLYLINE
  5
277
100
AcDbEntity
  8
0
100
AcDbPolyline
 62
7
  6
CONTINUOUS
 90
3
 70
0
 10
484.9829154503
 20
356.7702180904
 10
485.1538677049
 20
356.8313865504
 10
485.2749499324
 20
356.8738397912
  0
LINE
  5
278
100
AcDbEntity
  8
0
100
AcDbLine
 62
7
  6
CONTINUOUS
 10
485.2749499324
 20
356.8738397912
 11
485.3291339403
 21
356.8918117897
  0
LINE
  5
279
100
AcDbEntity
  8
0
100
AcDbLine
 62
7
  6
CONTINUOUS
 10
485.3291339403
 20
356.8918117897
 11
485.3341177205
 21
356.8933523259
  0
LINE
  5
27A
100
AcDbEntity
  8
0
100
AcDbLine
 62
7
  6
CONTINUOUS
 10
483.6014523402
 20
415.7112138849
 11
485.7200987426
 21
417.4665189618
  0
LINE
  5
27B
100
AcDbEntity
  8
0
100
AcDbLine
 62
7
  6
CONTINUOUS
 10
494.2576220428
 20
406.4686617238
 11
496.5710823926
 21
408.2676493475
  0
LINE
  5
27C
100
AcDbEntity
  8
0
100
AcDbLine
 62
7
  6
CONTINUOUS
 10
493.8965547383
 20
367.2820724302
 11
496.1887394897
 21
365.479123222
  0
LINE
  5
27D
100
AcDbEntity
  8
0
100
AcDbLine
 62
7
  6
CONTINUOUS
 10
485.3694322432
 20
356.467644632
 11
484.9940175716
 21
356.7833873953
  0
LWPOLYLINE
  5
27E
100
AcDbEntity
  8
0
100
AcDbPolyline
 62
7
  6
CONTINUOUS
 90
3
 70
0
 10
497.6437895218
 20
400.2915189618
 10
496.628602897
 20
399.4156650802
 10
495.354864324
 20
398.3256586331
  0
LINE
  5
27F
100
AcDbEntity
  8
0
100
AcDbLine
 62
7
  6
CONTINUOUS
 10
497.6437895218
 20
400.2915189618
 11
495.354864324
 21
398.3256586331
  0
LINE
  5
280
100
AcDbEntity
  8
0
100
AcDbLine
 62
7
  6
CONTINUOUS
 10
458.1281036719
 20
367.9665189618
 11
458.1281036719
 21
360.5928465108
  0
LINE
  5
281
100
AcDbEntity
  8
0
100
AcDbLine
 62
7
  6
CONTINUOUS
 10
466.5281036719
 20
360.5928465108
 11
466.5281036719
 21
367.9665189618
  0
LINE
  5
282
100
AcDbEntity
  8
0
100
AcDbLine
 62
7
  6
CONTINUOUS
 10
478.0161551549
 20
368.5510550469
 11
478.0161551549
 21
358.9504433628
  0
LINE
  5
283
100
AcDbEntity
  8
0
100
AcDbLine
 62
7
  6
CONTINUOUS
 10
478.3363406794
 20
414.983343253
 11
478.3363406794
 21
405.3827510479
  0
LINE
  5
284
100
AcDbEntity
  8
0
100
AcDbLine
 62
7
  6
CONTINUOUS
 10
479.3411891841
 20
386.9665189618
 11
479.3411891841
 21
383.9665188929
  0
LINE
  5
285
100
AcDbEntity
  8
0
100
AcDbLine
 62
7
  6
CONTINUOUS
 10
480.6311768674
 20
389.8165189618
 11
480.6311768674
 21
386.9665189618
  0
LINE
  5
286
100
AcDbEntity
  8
0
100
AcDbLine
 62
7
  6
CONTINUOUS
 10
484.2698713453
 20
357.3917209137
 11
484.2698713453
 21
356.9958329356
  0
LINE
  5
287
100
AcDbEntity
  8
0
100
AcDbLine
 62
7
  6
CONTINUOUS
 10
493.9564394197
 20
383.9665189273
 11
493.9564394176
 21
386.9665189618
  0
LINE
  5
288
100
AcDbEntity
  8
0
100
AcDbLine
 62
7
  6
CONTINUOUS
 10
494.0308415248
 20
386.9665189618
 11
494.0308415248
 21
389.8165189618
  0
LINE
  5
289
100
AcDbEntity
  8
0
100
AcDbLine
 62
7
  6
CONTINUOUS
 10
494.3329041808
 20
386.9665189618
 11
494.3329041808
 21
389.8165189618
  0
LINE
  5
28A
100
AcDbEntity
  8
0
100
AcDbLine
 62
7
  6
CONTINUOUS
 10
494.62789731
 20
386.9665189618
 11
494.62789731
 21
389.8165189618
  0
LINE
  5
28B
100
AcDbEntity
  8
0
100
AcDbLine
 62
7
  6
CONTINUOUS
 10
496.7543764061
 20
386.9665189618
 11
496.7543764061
 21
383.9665189618
  0
LWPOLYLINE
  5
28C
100
AcDbEntity
  8
0
100
AcDbPolyline
 62
7
  6
CONTINUOUS
 90
6
 70
0
 10
496.570851402
 20
408.2690399665
 10
496.0872471009
 20
410.1422078412
 10
493.6841967304
 20
414.0536312783
 10
491.9254192054
 20
415.5487591451
 10
487.6781421509
 20
417.2907457225
 10
485.7195418948
 20
417.4665189586
  0
LINE
  5
28D
100
AcDbEntity
  8
0
100
AcDbLine
 62
7
  6
CONTINUOUS
 10
496.5710823926
 20
408.2676493476
 11
497.6433932542
 21
400.2915189618
  0
ARC
  5
28E
100
AcDbEntity
  8
0
100
AcDbCircle
 62
7
  6
CONTINUOUS
 10
134.915250345
 20
369.383995049
 40
2.5
100
AcDbArc
 50
180.0
 51
354.1875176168
  0
ARC
  5
28F
100
AcDbEntity
  8
0
100
AcDbCircle
 62
7
  6
CONTINUOUS
 10
98.915250345
 20
396.884372216
 40
2.5
100
AcDbArc
 50
5.8124823835
 51
180.0
  0
ARC
  5
290
100
AcDbEntity
  8
0
100
AcDbCircle
 62
7
  6
CONTINUOUS
 10
98.915250345
 20
373.0486657077
 40
2.5
100
AcDbArc
 50
180.0
 51
354.1875176165
  0
ARC
  5
291
100
AcDbEntity
  8
0
100
AcDbCircle
 62
7
  6
CONTINUOUS
 10
116.915250345
 20
398.7167075453
 40
2.5
100
AcDbArc
 50
5.8124823832
 51
180.0
  0
ARC
  5
292
100
AcDbEntity
  8
0
100
AcDbCircle
 62
7
  6
CONTINUOUS
 10
80.915250345
 20
395.0520368866
 40
2.5
100
AcDbArc
 50
5.8124823835
 51
180.0
  0
ARC
  5
293
100
AcDbEntity
  8
0
100
AcDbCircle
 62
7
  6
CONTINUOUS
 10
116.915250345
 20
371.2163303783
 40
2.5
100
AcDbArc
 50
180.0
 51
354.1875176168
  0
ARC
  5
294
100
AcDbEntity
  8
0
100
AcDbCircle
 62
7
  6
CONTINUOUS
 10
80.915250345
 20
374.881001037
 40
2.5
100
AcDbArc
 50
180.0
 51
354.1875176165
  0
ARC
  5
295
100
AcDbEntity
  8
0
100
AcDbCircle
 62
7
  6
CONTINUOUS
 10
134.915250345
 20
400.5490428746
 40
2.5
100
AcDbArc
 50
5.8124823832
 51
180.0
  0
ARC
  5
296
100
AcDbEntity
  8
0
100
AcDbCircle
 62
7
  6
CONTINUOUS
 10
62.915250345
 20
393.2197015573
 40
2.5
100
AcDbArc
 50
5.8124823833
 51
180.0
  0
ARC
  5
297
100
AcDbEntity
  8
0
100
AcDbCircle
 62
7
  6
CONTINUOUS
 10
62.915250345
 20
376.7133363664
 40
2.5
100
AcDbArc
 50
180.0
 51
354.1875176167
  0
ARC
  5
298
100
AcDbEntity
  8
0
100
AcDbCircle
 62
7
  6
CONTINUOUS
 10
232.6809919965
 20
320.4571103529
 40
45.4265716476
100
AcDbArc
 50
53.347868213
 51
54.77600746
  0
ARC
  5
299
100
AcDbEntity
  8
0
100
AcDbCircle
 62
7
  6
CONTINUOUS
 10
260.8837291376
 20
368.0050335364
 40
11.0091965668
100
AcDbArc
 50
268.1962597752
 51
270.0135663684
  0
ARC
  5
29A
100
AcDbEntity
  8
0
100
AcDbCircle
 62
7
  6
CONTINUOUS
 10
260.8694790313
 20
367.5789485746
 40
10.1871565862
100
AcDbArc
 50
258.7354208517
 51
270.0948037631
  0
ARC
  5
29B
100
AcDbEntity
  8
0
100
AcDbCircle
 62
7
  6
CONTINUOUS
 10
226.9281036719
 20
367.0255380236
 40
3.0
100
AcDbArc
 50
192.6898286543
 51
269.0
  0
ARC
  5
29C
100
AcDbEntity
  8
0
100
AcDbCircle
 62
7
  6
CONTINUOUS
 10
282.7944581927
 20
419.2336844273
 40
66.4331169606
100
AcDbArc
 50
250.2617710724
 51
250.6990550503
  0
ARC
  5
29D
100
AcDbEntity
  8
0
100
AcDbCircle
 62
7
  6
CONTINUOUS
 10
272.8830448624
 20
391.1326022044
 40
36.6660541494
100
AcDbArc
 50
264.0350925561
 51
268.7865668124
  0
ARC
  5
29E
100
AcDbEntity
  8
0
100
AcDbCircle
 62
7
  6
CONTINUOUS
 10
272.8348047008
 20
390.6638212417
 40
36.194798216
100
AcDbArc
 50
262.3627178948
 51
264.0339268125
  0
ARC
  5
29F
100
AcDbEntity
  8
0
100
AcDbCircle
 62
7
  6
CONTINUOUS
 10
272.7325424284
 20
389.9249174458
 40
35.448858382
100
AcDbArc
 50
258.4354237034
 51
262.3678154045
  0
ARC
  5
2A0
100
AcDbEntity
  8
0
100
AcDbCircle
 62
7
  6
CONTINUOUS
 10
272.6563741265
 20
389.5270000841
 40
35.0437497365
100
AcDbArc
 50
257.9690815792
 51
258.4270046254
  0
ARC
  5
2A1
100
AcDbEntity
  8
0
100
AcDbCircle
 62
7
  6
CONTINUOUS
 10
272.5355252772
 20
388.9974197426
 40
34.5006126982
100
AcDbArc
 50
253.3404625378
 51
257.9820500849
  0
ARC
  5
2A2
100
AcDbEntity
  8
0
100
AcDbCircle
 62
7
  6
CONTINUOUS
 10
272.8849485962
 20
387.3856143276
 40
32.9190953658
100
AcDbArc
 50
269.7940857063
 51
269.999984492
  0
ARC
  5
2A3
100
AcDbEntity
  8
0
100
AcDbCircle
 62
7
  6
CONTINUOUS
 10
272.8849262938
 20
382.2980839807
 40
27.8315650188
100
AcDbArc
 50
269.5076386716
 51
270.0000241365
  0
ARC
  5
2A4
100
AcDbEntity
  8
0
100
AcDbCircle
 62
7
  6
CONTINUOUS
 10
266.5943610479
 20
377.1682608509
 40
21.0570461986
100
AcDbArc
 50
253.1038893031
 51
253.2816233555
  0
ARC
  5
2A5
100
AcDbEntity
  8
0
100
AcDbCircle
 62
7
  6
CONTINUOUS
 10
266.3620627164
 20
376.419764152
 40
20.273345626
100
AcDbArc
 50
251.3203535938
 51
253.1172563914
  0
ARC
  5
2A6
100
AcDbEntity
  8
0
100
AcDbCircle
 62
7
  6
CONTINUOUS
 10
244.5630675807
 20
384.9692383482
 40
10.6009324771
100
AcDbArc
 50
25.6991554207
 51
27.2098226553
  0
ARC
  5
2A7
100
AcDbEntity
  8
0
100
AcDbCircle
 62
7
  6
CONTINUOUS
 10
244.9714385449
 20
384.7381997671
 40
10.3068214856
100
AcDbArc
 50
12.6622727021
 51
14.8040367679
  0
ARC
  5
2A8
100
AcDbEntity
  8
0
100
AcDbCircle
 62
7
  6
CONTINUOUS
 10
245.2560763648
 20
384.8038436393
 40
10.0147170657
100
AcDbArc
 50
12.4712511058
 51
12.6528118417
  0
ARC
  5
2A9
100
AcDbEntity
  8
0
100
AcDbCircle
 62
7
  6
CONTINUOUS
 10
233.9281036719
 20
411.9665189618
 40
10.0
100
AcDbArc
 50
0.0
 51
180.0
  0
ARC
  5
2AA
100
AcDbEntity
  8
0
100
AcDbCircle
 62
7
  6
CONTINUOUS
 10
249.9281036719
 20
411.9665189618
 40
6.0
100
AcDbArc
 50
180.0
 51
251.2736238253
  0
ARC
  5
2AB
100
AcDbEntity
  8
0
100
AcDbCircle
 62
7
  6
CONTINUOUS
 10
233.9281036719
 20
411.9665189618
 40
6.0
100
AcDbArc
 50
318.1896250921
 51
221.8103867359
  0
CIRCLE
  5
2AC
100
AcDbEntity
  8
0
100
AcDbCircle
 62
7
  6
CONTINUOUS
 10
233.9281036719
 20
411.9665189618
 40
4.0
  0
ARC
  5
2AD
100
AcDbEntity
  8
0
100
AcDbCircle
 62
7
  6
CONTINUOUS
 10
231.9281036719
 20
390.4947752246
 40
3.0
100
AcDbArc
 50
91.0
 51
180.0
  0
ARC
  5
2AE
100
AcDbEntity
  8
0
100
AcDbCircle
 62
7
  6
CONTINUOUS
 10
231.9281036719
 20
379.438262699
 40
3.0
100
AcDbArc
 50
180.0
 51
269.0
  0
ARC
  5
2AF
100
AcDbEntity
  8
0
100
AcDbCircle
 62
7
  6
CONTINUOUS
 10
455.8297141241
 20
124.5496480799
 40
303.674751772
100
AcDbArc
 50
129.6919884492
 51
129.9372252387
  0
ARC
  5
2B0
100
AcDbEntity
  8
0
100
AcDbCircle
 62
7
  6
CONTINUOUS
 10
290.1679976485
 20
125.5591296295
 40
302.3605315619
100
AcDbArc
 50
50.0622417977
 51
50.3085445187
  0
ARC
  5
2B1
100
AcDbEntity
  8
0
100
AcDbCircle
 62
7
  6
CONTINUOUS
 10
347.5993182414
 20
387.3668965895
 40
147.8992537297
100
AcDbArc
 50
0.9490206181
 51
4.2424224258
  0
ARC
  5
2B2
100
AcDbEntity
  8
0
100
AcDbCircle
 62
7
  6
CONTINUOUS
 10
396.673409753
 20
387.4180276487
 40
147.01436371
100
AcDbArc
 50
172.5544739576
 51
177.4989355285
  0
ARC
  5
2B3
100
AcDbEntity
  8
0
100
AcDbCircle
 62
7
  6
CONTINUOUS
 10
396.1120573798
 20
388.8208454582
 40
146.4450092882
100
AcDbArc
 50
183.3960039526
 51
188.4576210383
  0
ARC
  5
2B4
100
AcDbEntity
  8
0
100
AcDbCircle
 62
7
  6
CONTINUOUS
 10
349.4451151194
 20
387.515862463
 40
146.0474948819
100
AcDbArc
 50
4.2377100361
 51
7.4563871053
  0
ARC
  5
2B5
100
AcDbEntity
  8
0
100
AcDbCircle
 62
7
  6
CONTINUOUS
 10
368.3281036719
 20
388.9665189618
 40
130.0
100
AcDbArc
 50
349.5915424486
 51
357.7957724504
  0
ARC
  5
2B6
100
AcDbEntity
  8
0
100
AcDbCircle
 62
7
  6
CONTINUOUS
 10
368.328102685
 20
386.9665189618
 40
127.5341522887
100
AcDbArc
 50
1.2804928153
 51
5.109959524
  0
ARC
  5
2B7
100
AcDbEntity
  8
0
100
AcDbCircle
 62
7
  6
CONTINUOUS
 10
462.944158117
 20
417.6124721173
 40
64.710522277
100
AcDbArc
 50
289.2857314507
 51
289.8628924273
  0
ARC
  5
2B8
100
AcDbEntity
  8
0
100
AcDbCircle
 62
7
  6
CONTINUOUS
 10
506.8207592448
 20
296.0759285266
 40
64.5036340292
100
AcDbArc
 50
109.632847578
 51
109.7830058452
  0
ARC
  5
2B9
100
AcDbEntity
  8
0
100
AcDbCircle
 62
7
  6
CONTINUOUS
 10
513.8629421788
 20
318.5329291847
 40
47.7988648841
100
AcDbArc
 50
125.2525456747
 51
126.2500878785
  0
ARC
  5
2BA
100
AcDbEntity
  8
0
100
AcDbCircle
 62
7
  6
CONTINUOUS
 10
509.840026808
 20
324.0177734172
 40
40.9968531851
100
AcDbArc
 50
126.2486810235
 51
126.6680782156
  0
ARC
  5
2BB
100
AcDbEntity
  8
0
100
AcDbCircle
 62
7
  6
CONTINUOUS
 10
472.6225066
 20
388.9900643068
 40
34.493042913
100
AcDbArc
 50
282.0176299904
 51
286.6601365109
  0
ARC
  5
2BC
100
AcDbEntity
  8
0
100
AcDbCircle
 62
7
  6
CONTINUOUS
 10
479.52110789
 20
374.0381050327
 40
17.7832520549
100
AcDbArc
 50
286.6595125597
 51
286.8706182514
  0
ARC
  5
2BD
100
AcDbEntity
  8
0
100
AcDbCircle
 62
7
  6
CONTINUOUS
 10
484.265924367
 20
368.3693598397
 40
11.3735513966
100
AcDbArc
 50
270.6067304432
 51
271.7806692893
  0
ARC
  5
2BE
100
AcDbEntity
  8
0
100
AcDbCircle
 62
7
  6
CONTINUOUS
 10
484.2739022724
 20
367.368816597
 40
10.3729801023
100
AcDbArc
 50
269.9777356411
 51
270.6211885856
  0
ARC
  5
2BF
100
AcDbEntity
  8
0
100
AcDbCircle
 62
7
  6
CONTINUOUS
 10
484.2865299537
 20
367.580984227
 40
10.189196029
100
AcDbArc
 50
269.9063266528
 51
281.2634586478
  0
SPLINE
  5
2C0
100
AcDbEntity
  8
0
100
AcDbSpline
 62
7
  6
CONTINUOUS
 70
0
 71
3
 72
11
 73
7
 74
0
 42
0.0000001
 43
0.0000001
 44
0.0000000001
 40
0.0
 40
0.0
 40
0.0
 40
0.0
 40
0.2546595504
 40
0.5027209148
 40
0.7484568748
 40
1.0
 40
1.0
 40
1.0
 40
1.0
 10
241.3281030513
 20
388.0629181209
 30
0.0
 10
240.9989466013
 20
388.0629178329
 30
0.0
 10
240.3428592459
 20
387.9521703685
 30
0.0
 10
239.4907801516
 20
387.439876141
 30
0.0
 10
238.9366043726
 20
386.6135182439
 30
0.0
 10
238.8282934081
 20
385.9611613134
 30
0.0
 10
238.8281036719
 20
385.6360330083
 30
0.0
  0
SPLINE
  5
2C1
100
AcDbEntity
  8
0
100
AcDbSpline
 62
7
  6
CONTINUOUS
 70
0
 71
3
 72
11
 73
7
 74
0
 42
0.0000001
 43
0.0000001
 44
0.0000000001
 40
0.0
 40
0.0
 40
0.0
 40
0.0
 40
0.2499889253
 40
0.4999751815
 40
0.749955119
 40
1.0
 40
1.0
 40
1.0
 40
1.0
 10
226.8757464526
 20
405.6910345505
 30
0.0
 10
226.5426933282
 20
405.6851604937
 30
0.0
 10
225.873214002
 20
405.5590421467
 30
0.0
 10
224.9924480039
 20
405.0493047175
 30
0.0
 10
224.3269780058
 20
404.2797892652
 30
0.0
 10
224.0736606435
 20
403.6482345164
 30
0.0
 10
224.0013830026
 20
403.3229892107
 30
0.0
  0
SPLINE
  5
2C2
100
AcDbEntity
  8
0
100
AcDbSpline
 62
7
  6
CONTINUOUS
 70
0
 71
3
 72
15
 73
11
 74
0
 42
0.0000001
 43
0.0000001
 44
0.0000000001
 40
0.0
 40
0.0
 40
0.0
 40
0.0
 40
0.1239190576
 40
0.2459197227
 40
0.370438232
 40
0.4988293627
 40
0.6275805708
 40
0.7529470531
 40
0.8757470669
 40
1.0
 40
1.0
 40
1.0
 40
1.0
 10
243.8281036719
 20
382.9460364064
 30
0.0
 10
243.8281036713
 20
382.6314708316
 30
0.0
 10
243.7104277454
 20
381.9974757523
 30
0.0
 10
243.1464575349
 20
381.2078472379
 30
0.0
 10
242.2997758326
 20
380.7195035372
 30
0.0
 10
241.3240761113
 20
380.5648279142
 30
0.0
 10
240.3496515624
 20
380.7390770225
 30
0.0
 10
239.5069255654
 20
381.2428137929
 30
0.0
 10
238.9462642966
 20
382.0396966244
 30
0.0
 10
238.8281036719
 20
382.6761899803
 30
0.0
 10
238.8281036719
 20
382.9916030899
 30
0.0
  0
SPLINE
  5
2C3
100
AcDbEntity
  8
0
100
AcDbSpline
 62
7
  6
CONTINUOUS
 70
0
 71
3
 72
15
 73
11
 74
0
 42
0.0000001
 43
0.0000001
 44
0.0000000001
 40
0.0
 40
0.0
 40
0.0
 40
0.0
 40
0.124257763
 40
0.2470642897
 40
0.372433016
 40
0.5011835638
 40
0.6295740654
 40
0.7540902149
 40
0.8760850222
 40
1.0
 40
1.0
 40
1.0
 40
1.0
 10
238.8281036719
 20
386.9414376941
 30
0.0
 10
238.8281036719
 20
387.2568629484
 30
0.0
 10
238.9462804876
 20
387.8933840997
 30
0.0
 10
239.5069796114
 20
388.6902874177
 30
0.0
 10
240.3497497964
 20
389.1939927343
 30
0.0
 10
241.3241793736
 20
389.3682109738
 30
0.0
 10
242.2998666413
 20
389.2135053206
 30
0.0
 10
243.1465049741
 20
388.7251357986
 30
0.0
 10
243.7104409235
 20
387.9355267638
 30
0.0
 10
243.8281036719
 20
387.3015566149
 30
0.0
 10
243.8281036719
 20
386.9870015122
 30
0.0
  0
LINE
  5
2C4
100
AcDbEntity
  8
0
100
AcDbLine
 62
7
  6
CONTINUOUS
 10
248.7804762761
 20
406.0772956378
 11
226.8757464526
 21
405.6910345505
  0
SPLINE
  5
2C5
100
AcDbEntity
  8
0
100
AcDbSpline
 62
7
  6
CONTINUOUS
 70
0
 71
3
 72
12
 73
8
 74
0
 42
0.0000001
 43
0.0000001
 44
0.0000000001
 40
0.0
 40
0.0
 40
0.0
 40
0.0
 40
0.252334453
 40
0.3753157295
 40
0.4971513858
 40
0.744301342
 40
1.0
 40
1.0
 40
1.0
 40
1.0
 10
226.8757459563
 20
387.7855125731
 30
0.0
 10
226.5387398294
 20
387.7780833473
 30
0.0
 10
226.0279501053
 20
387.657214624
 30
0.0
 10
225.4765665109
 20
387.276874995
 30
0.0
 10
225.0403019008
 20
386.7763326353
 30
0.0
 10
224.7242314325
 20
385.9819418731
 30
0.0
 10
224.6560463849
 20
385.3081011336
 30
0.0
 10
224.6560463849
 20
384.9665189618
 30
0.0
  0
SPLINE
  5
2C6
100
AcDbEntity
  8
0
100
AcDbSpline
 62
7
  6
CONTINUOUS
 70
0
 71
3
 72
8
 73
4
 74
0
 42
0.0000001
 43
0.0000001
 44
0.0000000001
 40
0.0
 40
0.0
 40
0.0
 40
0.0
 40
1.0
 40
1.0
 40
1.0
 40
1.0
 10
228.9281036719
 20
387.8302793527
 30
0.0
 10
228.2439808179
 20
387.8155237767
 30
0.0
 10
227.5598619714
 20
387.8005818878
 30
0.0
 10
226.8757459563
 20
387.7855125731
 30
0.0
  0
SPLINE
  5
2C7
100
AcDbEntity
  8
0
100
AcDbSpline
 62
7
  6
CONTINUOUS
 70
0
 71
3
 72
12
 73
8
 74
0
 42
0.0000001
 43
0.0000001
 44
0.0000000001
 40
0.0
 40
0.0
 40
0.0
 40
0.0
 40
0.255654687
 40
0.5027783579
 40
0.6246371684
 40
0.74764782
 40
1.0
 40
1.0
 40
1.0
 40
1.0
 10
224.6560463849
 20
384.9665189618
 30
0.0
 10
224.6560463849
 20
384.624999426
 30
0.0
 10
224.7239716165
 20
383.9511456682
 30
0.0
 10
225.0405426326
 20
383.1571989298
 30
0.0
 10
225.4762013356
 20
382.6560565765
 30
0.0
 10
226.0280754971
 20
382.2762140801
 30
0.0
 10
226.5387199834
 20
382.1549545167
 30
0.0
 10
226.8757459518
 20
382.1475253512
 30
0.0
  0
SPLINE
  5
2C8
100
AcDbEntity
  8
0
100
AcDbSpline
 62
7
  6
CONTINUOUS
 70
0
 71
3
 72
8
 73
4
 74
0
 42
0.0000001
 43
0.0000001
 44
0.0000000001
 40
0.0
 40
0.0
 40
0.0
 40
0.0
 40
1.0
 40
1.0
 40
1.0
 40
1.0
 10
226.8757459518
 20
382.1475253512
 30
0.0
 10
227.5598617611
 20
382.1324466281
 30
0.0
 10
228.2439810105
 20
382.1175231433
 30
0.0
 10
228.9281036719
 20
382.1027585709
 30
0.0
  0
SPLINE
  5
2C9
100
AcDbEntity
  8
0
100
AcDbSpline
 62
7
  6
CONTINUOUS
 70
0
 71
3
 72
15
 73
11
 74
0
 42
0.0000001
 43
0.0000001
 44
0.0000000001
 40
0.0
 40
0.0
 40
0.0
 40
0.0
 40
0.1257864081
 40
0.2486612722
 40
0.372690854
 40
0.5000123621
 40
0.6273331184
 40
0.7513601304
 40
0.874224429
 40
1.0
 40
1.0
 40
1.0
 40
1.0
 10
238.8281036719
 20
384.298710282
 30
0.0
 10
238.8281036719
 20
383.9734050376
 30
0.0
 10
238.9362720091
 20
383.32067597
 30
0.0
 10
239.4899485952
 20
382.49357625
 30
0.0
 10
240.3434141119
 20
381.9809195631
 30
0.0
 10
241.3282024406
 20
381.8140271346
 30
0.0
 10
242.3129768868
 20
381.9809794222
 30
0.0
 10
243.1663662348
 20
382.4936907595
 30
0.0
 10
243.7199619799
 20
383.3207603552
 30
0.0
 10
243.8281036713
 20
383.9734330872
 30
0.0
 10
243.8281036719
 20
384.298710305
 30
0.0
  0
SPLINE
  5
2CA
100
AcDbEntity
  8
0
100
AcDbSpline
 62
7
  6
CONTINUOUS
 70
0
 71
3
 72
11
 73
7
 74
0
 42
0.0000001
 43
0.0000001
 44
0.0000000001
 40
0.0
 40
0.0
 40
0.0
 40
0.0
 40
0.2515534066
 40
0.4972955269
 40
0.7453553928
 40
1.0
 40
1.0
 40
1.0
 40
1.0
 10
243.8281036719
 20
385.6352891963
 30
0.0
 10
243.8279960432
 20
385.9604920542
 30
0.0
 10
243.7197866093
 20
386.613010942
 30
0.0
 10
243.1657045602
 20
387.4396930899
 30
0.0
 10
242.3134895123
 20
387.9521415416
 30
0.0
 10
241.6573021651
 20
388.0629184089
 30
0.0
 10
241.3281030513
 20
388.0629181209
 30
0.0
  0
SPLINE
  5
2CB
100
AcDbEntity
  8
0
100
AcDbSpline
 62
7
  6
CONTINUOUS
 70
0
 71
3
 72
18
 73
14
 74
0
 42
0.0000001
 43
0.0000001
 44
0.0000000001
 40
0.0
 40
0.0
 40
0.0
 40
0.0
 40
0.2309221325
 40
0.4325712314
 40
0.604424829
 40
0.7459646435
 40
0.8567160217
 40
0.9004038992
 40
0.9362240991
 40
0.9641198402
 40
0.9840503317
 40
0.9960104743
 40
1.0
 40
1.0
 40
1.0
 40
1.0
 10
304.8954352876
 20
415.353421234
 30
0.0
 10
304.5812198874
 20
415.5140426406
 30
0.0
 10
303.9931655123
 20
415.8159924224
 30
0.0
 10
303.1728684243
 20
416.2405723343
 30
0.0
 10
302.4748154623
 20
416.6041928776
 30
0.0
 10
301.9002667757
 20
416.904169784
 30
0.0
 10
301.4995372745
 20
417.1140314822
 30
0.0
 10
301.2419060462
 20
417.2486333038
 30
0.0
 10
301.0966906836
 20
417.3254717858
 30
0.0
 10
300.9830706482
 20
417.3831615639
 30
0.0
 10
300.9030829182
 20
417.4293572163
 30
0.0
 10
300.8528875189
 20
417.4481943056
 30
0.0
 10
300.8329878983
 20
417.4663615455
 30
0.0
 10
300.8268912219
 20
417.4663709614
 30
0.0
  0
SPLINE
  5
2CC
100
AcDbEntity
  8
0
100
AcDbSpline
 62
7
  6
CONTINUOUS
 70
0
 71
3
 72
9
 73
5
 74
0
 42
0.0000001
 43
0.0000001
 44
0.0000000001
 40
0.0
 40
0.0
 40
0.0
 40
0.0
 40
0.2412409833
 40
1.0
 40
1.0
 40
1.0
 40
1.0
 10
254.1166491452
 20
389.5637279625
 30
0.0
 10
254.1979334625
 20
389.3938488957
 30
0.0
 10
254.521569786
 20
388.683528271
 30
0.0
 10
254.784875535
 20
387.9444220718
 30
0.0
 10
254.9361290986
 20
387.3717356611
 30
0.0
  0
SPLINE
  5
2CD
100
AcDbEntity
  8
0
100
AcDbSpline
 62
7
  6
CONTINUOUS
 70
0
 71
3
 72
9
 73
5
 74
0
 42
0.0000001
 43
0.0000001
 44
0.0000000001
 40
0.0
 40
0.0
 40
0.0
 40
0.0
 40
0.2842602649
 40
1.0
 40
1.0
 40
1.0
 40
1.0
 10
249.7990910996
 20
393.8334327952
 30
0.0
 10
249.7747631704
 20
393.8544486788
 30
0.0
 10
249.6856927017
 20
393.923437406
 30
0.0
 10
249.5721040075
 20
393.9665189618
 30
0.0
 10
249.4911576206
 20
393.9665189618
 30
0.0
  0
SPLINE
  5
2CE
100
AcDbEntity
  8
0
100
AcDbSpline
 62
7
  6
CONTINUOUS
 70
0
 71
3
 72
11
 73
7
 74
0
 42
0.0000001
 43
0.0000001
 44
0.0000000001
 40
0.0
 40
0.0
 40
0.0
 40
0.0
 40
0.3377055759
 40
0.6256627697
 40
0.8510329337
 40
1.0
 40
1.0
 40
1.0
 40
1.0
 10
252.1930730654
 20
389.8165189618
 30
0.0
 10
251.9954325488
 20
390.3073839465
 30
0.0
 10
251.585462359
 20
391.1993902905
 30
0.0
 10
250.9306325005
 20
392.3637340724
 30
0.0
 10
250.3490884343
 20
393.2217984209
 30
0.0
 10
249.9757291643
 20
393.6808414575
 30
0.0
 10
249.7990910996
 20
393.8334327952
 30
0.0
  0
SPLINE
  5
2CF
100
AcDbEntity
  8
0
100
AcDbSpline
 62
7
  6
CONTINUOUS
 70
0
 71
3
 72
11
 73
7
 74
0
 42
0.0000001
 43
0.0000001
 44
0.0000000001
 40
0.0
 40
0.0
 40
0.0
 40
0.0
 40
0.2405390864
 40
0.49847385
 40
0.757322815
 40
1.0
 40
1.0
 40
1.0
 40
1.0
 10
261.5543068462
 20
415.7114315663
 30
0.0
 10
260.3369001259
 20
415.6807888865
 30
0.0
 10
257.8061719714
 20
415.1812767801
 30
0.0
 10
254.4511573975
 20
413.1687469187
 30
0.0
 10
251.9804482355
 20
410.1225536196
 30
0.0
 10
251.112931761
 20
407.6787147634
 30
0.0
 10
250.8987896872
 20
406.4689036702
 30
0.0
  0
SPLINE
  5
2D0
100
AcDbEntity
  8
0
100
AcDbSpline
 62
7
  6
CONTINUOUS
 70
0
 71
3
 72
13
 73
9
 74
0
 42
0.0000001
 43
0.0000001
 44
0.0000000001
 40
0.0
 40
0.0
 40
0.0
 40
0.0
 40
0.0525164745
 40
0.1299695216
 40
0.2317958325
 40
0.3556932168
 40
0.6566767157
 40
1.0
 40
1.0
 40
1.0
 40
1.0
 10
261.5545926888
 20
415.7112246632
 30
0.0
 10
261.6271198819
 20
415.6517843143
 30
0.0
 10
261.8389643497
 20
415.547996441
 30
0.0
 10
262.232022465
 20
415.4204928692
 30
0.0
 10
262.7609359582
 20
415.3002690103
 30
0.0
 10
263.6888229821
 20
415.1462641896
 30
0.0
 10
265.0562278636
 20
415.0177008564
 30
0.0
 10
266.2068536167
 20
414.9833713022
 30
0.0
 10
266.819888017
 20
414.9833502644
 30
0.0
  0
SPLINE
  5
2D1
100
AcDbEntity
  8
0
100
AcDbSpline
 62
7
  6
CONTINUOUS
 70
0
 71
3
 72
9
 73
5
 74
0
 42
0.0000001
 43
0.0000001
 44
0.0000000001
 40
0.0
 40
0.0
 40
0.0
 40
0.0
 40
0.2493199783
 40
1.0
 40
1.0
 40
1.0
 40
1.0
 10
266.819897504
 20
405.3827400035
 30
0.0
 10
266.6712620389
 20
404.0946308681
 30
0.0
 10
266.1408498172
 20
398.9207506956
 30
0.0
 10
265.8715261535
 20
393.7202255463
 30
0.0
 10
265.8149277342
 20
389.8165202755
 30
0.0
  0
SPLINE
  5
2D2
100
AcDbEntity
  8
0
100
AcDbSpline
 62
7
  6
CONTINUOUS
 70
0
 71
3
 72
9
 73
5
 74
0
 42
0.0000001
 43
0.0000001
 44
0.0000000001
 40
0.0
 40
0.0
 40
0.0
 40
0.0
 40
0.2506165867
 40
1.0
 40
1.0
 40
1.0
 40
1.0
 10
479.3412782601
 20
389.81651899
 30
0.0
 10
479.3223751816
 20
391.119779824
 30
0.0
 10
479.1821792277
 20
396.31883769
 30
0.0
 10
478.7830999388
 20
401.5110641119
 30
0.0
 10
478.3363310028
 20
405.3827389359
 30
0.0
  0
SPLINE
  5
2D3
100
AcDbEntity
  8
0
100
AcDbSpline
 62
7
  6
CONTINUOUS
 70
0
 71
3
 72
13
 73
9
 74
0
 42
0.0000001
 43
0.0000001
 44
0.0000000001
 40
0.0
 40
0.0
 40
0.0
 40
0.0
 40
0.3434418715
 40
0.6462292573
 40
0.7712003392
 40
0.8736065745
 40
0.9505737235
 40
1.0
 40
1.0
 40
1.0
 40
1.0
 10
478.3363451618
 20
405.382716954
 30
0.0
 10
480.1575058984
 20
405.5296457363
 30
0.0
 10
483.5851123313
 20
405.7951662843
 30
0.0
 10
487.6767062279
 20
406.0979704307
 30
0.0
 10
490.4904797104
 20
406.2905060272
 30
0.0
 10
492.1065560009
 20
406.3921532875
 30
0.0
 10
493.3219713611
 20
406.4513713475
 30
0.0
 10
493.9945701821
 20
406.4757907264
 30
0.0
 10
494.2574234905
 20
406.4689197816
 30
0.0
  0
SPLINE
  5
2D4
100
AcDbEntity
  8
0
100
AcDbSpline
 62
7
  6
CONTINUOUS
 70
0
 71
3
 72
11
 73
7
 74
0
 42
0.0000001
 43
0.0000001
 44
0.0000000001
 40
0.0
 40
0.0
 40
0.0
 40
0.0
 40
0.2401169318
 40
0.4978894088
 40
0.756898427
 40
1.0
 40
1.0
 40
1.0
 40
1.0
 10
483.6016619154
 20
415.7114100137
 30
0.0
 10
484.8169770661
 20
415.6808477782
 30
0.0
 10
487.3447893453
 20
415.1827440418
 30
0.0
 10
490.699392731
 20
413.1736688335
 30
0.0
 10
493.1737071617
 20
410.127285985
 30
0.0
 10
494.0429968065
 20
407.6805507859
 30
0.0
 10
494.2574872316
 20
406.4685737932
 30
0.0
  0
SPLINE
  5
2D5
100
AcDbEntity
  8
0
100
AcDbSpline
 62
7
  6
CONTINUOUS
 70
0
 71
3
 72
13
 73
9
 74
0
 42
0.0000001
 43
0.0000001
 44
0.0000000001
 40
0.0
 40
0.0
 40
0.0
 40
0.0
 40
0.3433207587
 40
0.6443027087
 40
0.7682001468
 40
0.8700271792
 40
0.9474815979
 40
1.0
 40
1.0
 40
1.0
 40
1.0
 10
478.3363554681
 20
414.9833583756
 30
0.0
 10
478.9493730441
 20
414.9833800787
 30
0.0
 10
480.0999683834
 20
415.0177092681
 30
0.0
 10
481.467338599
 20
415.1462684753
 30
0.0
 10
482.3952060538
 20
415.300267734
 30
0.0
 10
482.9241129885
 20
415.4204876933
 30
0.0
 10
483.3171714636
 20
415.5479875256
 30
0.0
 10
483.5290180378
 20
415.651772045
 30
0.0
 10
483.6015491328
 20
415.7112100912
 30
0.0
  0
SPLINE
  5
2D6
100
AcDbEntity
  8
0
100
AcDbSpline
 62
7
  6
CONTINUOUS
 70
0
 71
3
 72
13
 73
9
 74
0
 42
0.0000001
 43
0.0000001
 44
0.0000000001
 40
0.0
 40
0.0
 40
0.0
 40
0.0
 40
0.0494264487
 40
0.1263939484
 40
0.228800545
 40
0.3537719168
 40
0.6565594344
 40
1.0
 40
1.0
 40
1.0
 40
1.0
 10
250.8987896872
 20
406.4689036702
 30
0.0
 10
251.1616438069
 20
406.475778292
 30
0.0
 10
251.8342456184
 20
406.4513612989
 30
0.0
 10
253.0496664294
 20
406.3921621212
 30
0.0
 10
254.6657493625
 20
406.2905351111
 30
0.0
 10
257.4795282125
 20
406.0980180861
 30
0.0
 10
261.5711167351
 20
405.7952091324
 30
0.0
 10
264.9987227772
 20
405.5297612063
 30
0.0
 10
266.8198699358
 20
405.3827513161
 30
0.0
  0
SPLINE
  5
2D7
100
AcDbEntity
  8
0
100
AcDbSpline
 62
7
  6
CONTINUOUS
 70
0
 71
3
 72
9
 73
5
 74
0
 42
0.0000001
 43
0.0000001
 44
0.0000000001
 40
0.0
 40
0.0
 40
0.0
 40
0.0
 40
0.252057429
 40
1.0
 40
1.0
 40
1.0
 40
1.0
 10
479.7568875354
 20
355.3165764759
 30
0.0
 10
479.1390434496
 20
355.1756002608
 30
0.0
 10
476.6730246614
 20
354.6835667128
 30
0.0
 10
474.1517471362
 20
354.4665189618
 30
0.0
 10
472.2712674998
 20
354.4665189618
 30
0.0
  0
SPLINE
  5
2D8
100
AcDbEntity
  8
0
100
AcDbSpline
 62
7
  6
CONTINUOUS
 70
0
 71
3
 72
9
 73
5
 74
0
 42
0.0000001
 43
0.0000001
 44
0.0000000001
 40
0.0
 40
0.0
 40
0.0
 40
0.0
 40
0.1822863257
 40
1.0
 40
1.0
 40
1.0
 40
1.0
 10
259.7986155558
 20
356.9016956422
 30
0.0
 10
259.8213028297
 20
356.89468922
 30
0.0
 10
259.9447913451
 20
356.85317366
 30
0.0
 10
260.0671926473
 20
356.8086052601
 30
0.0
 10
260.1674302608
 20
356.7725794701
 30
0.0
  0
LINE
  5
2D9
100
AcDbEntity
  8
0
100
AcDbLine
 62
7
  6
CONTINUOUS
 10
260.1674302608
 20
356.7725794701
 11
260.225303729
 21
356.7516951183
  0
LINE
  5
2DA
100
AcDbEntity
  8
0
100
AcDbLine
 62
7
  6
CONTINUOUS
 10
260.225303729
 20
356.7516951183
 11
260.3584432532
 21
356.7038174617
  0
SPLINE
  5
2DB
100
AcDbEntity
  8
0
100
AcDbSpline
 62
7
  6
CONTINUOUS
 70
0
 71
3
 72
9
 73
5
 74
0
 42
0.0000001
 43
0.0000001
 44
0.0000000001
 40
0.0
 40
0.0
 40
0.0
 40
0.0
 40
0.2457582655
 40
1.0
 40
1.0
 40
1.0
 40
1.0
 10
260.8363228146
 20
356.5344075589
 30
0.0
 10
260.9834090674
 20
356.4829631467
 30
0.0
 10
261.5827958946
 20
356.2761928541
 30
0.0
 10
262.1866870431
 20
356.0823664984
 30
0.0
 10
262.6447506023
 20
355.9449636632
 30
0.0
  0
SPLINE
  5
2DC
100
AcDbEntity
  8
0
100
AcDbSpline
 62
7
  6
CONTINUOUS
 70
0
 71
3
 72
9
 73
5
 74
0
 42
0.0000001
 43
0.0000001
 44
0.0000000001
 40
0.0
 40
0.0
 40
0.0
 40
0.0
 40
0.2487627114
 40
1.0
 40
1.0
 40
1.0
 40
1.0
 10
272.7666414933
 20
354.466731553
 30
0.0
 10
272.1509838328
 20
354.4689439989
 30
0.0
 10
269.6767471041
 20
354.5469195084
 30
0.0
 10
267.2119816822
 20
354.9029744702
 30
0.0
 10
265.3993363709
 20
355.3165761562
 30
0.0
  0
SPLINE
  5
2DD
100
AcDbEntity
  8
0
100
AcDbSpline
 62
7
  6
CONTINUOUS
 70
0
 71
3
 72
9
 73
5
 74
0
 42
0.0000001
 43
0.0000001
 44
0.0000000001
 40
0.0
 40
0.0
 40
0.0
 40
0.0
 40
0.2514072237
 40
1.0
 40
1.0
 40
1.0
 40
1.0
 10
265.3670169503
 20
355.3240405968
 30
0.0
 10
264.9439635907
 20
355.4210248474
 30
0.0
 10
263.2688946227
 20
355.8394442965
 30
0.0
 10
261.6264305162
 20
356.3890145734
 30
0.0
 10
260.4278277369
 20
356.8722951818
 30
0.0
  0
SPLINE
  5
2DE
100
AcDbEntity
  8
0
100
AcDbSpline
 62
7
  6
CONTINUOUS
 70
0
 71
3
 72
9
 73
5
 74
0
 42
0.0000001
 43
0.0000001
 44
0.0000000001
 40
0.0
 40
0.0
 40
0.0
 40
0.0
 40
0.533472313
 40
1.0
 40
1.0
 40
1.0
 40
1.0
 10
260.4271321432
 20
356.8724817077
 30
0.0
 10
260.1477712141
 20
356.9852968166
 30
0.0
 10
259.6282070915
 20
357.2064806377
 30
0.0
 10
259.114461431
 20
357.4424501983
 30
0.0
 10
258.8818799081
 20
357.5662398394
 30
0.0
  0
SPLINE
  5
2DF
100
AcDbEntity
  8
0
100
AcDbSpline
 62
7
  6
CONTINUOUS
 70
0
 71
3
 72
9
 73
5
 74
0
 42
0.0000001
 43
0.0000001
 44
0.0000000001
 40
0.0
 40
0.0
 40
0.0
 40
0.0
 40
0.2489401492
 40
1.0
 40
1.0
 40
1.0
 40
1.0
 10
472.2712674998
 20
354.4665189618
 30
0.0
 10
472.9004032133
 20
354.4665189618
 30
0.0
 10
475.4271450102
 20
354.5314742944
 30
0.0
 10
477.9479644199
 20
354.8573460714
 30
0.0
 10
479.804394759
 20
355.2529854192
 30
0.0
  0
SPLINE
  5
2E0
100
AcDbEntity
  8
0
100
AcDbSpline
 62
7
  6
CONTINUOUS
 70
0
 71
3
 72
9
 73
5
 74
0
 42
0.0000001
 43
0.0000001
 44
0.0000000001
 40
0.0
 40
0.0
 40
0.0
 40
0.0
 40
0.2525433827
 40
1.0
 40
1.0
 40
1.0
 40
1.0
 10
482.5114566378
 20
355.9449636632
 30
0.0
 10
482.6645596247
 20
355.9908901187
 30
0.0
 10
483.2696904369
 20
356.1764607731
 30
0.0
 10
483.8701310175
 20
356.3771424534
 30
0.0
 10
484.3167070117
 20
356.5332952474
 30
0.0
  0
LINE
  5
2E1
100
AcDbEntity
  8
0
100
AcDbLine
 62
7
  6
CONTINUOUS
 10
484.9308847494
 20
356.751683876
 11
484.9889343282
 21
356.7726353878
  0
SPLINE
  5
2E2
100
AcDbEntity
  8
0
100
AcDbSpline
 62
7
  6
CONTINUOUS
 70
0
 71
3
 72
9
 73
5
 74
0
 42
0.0000001
 43
0.0000001
 44
0.0000000001
 40
0.0
 40
0.0
 40
0.0
 40
0.0
 40
0.2487128925
 40
1.0
 40
1.0
 40
1.0
 40
1.0
 10
484.7284343276
 20
356.8721549767
 30
0.0
 10
484.330177247
 20
356.711664378
 30
0.0
 10
482.7161326395
 20
356.0984777075
 30
0.0
 10
481.0533979487
 20
355.6139517389
 30
0.0
 10
479.7892227047
 20
355.3238966771
 30
0.0
  0
SPLINE
  5
2E3
100
AcDbEntity
  8
0
100
AcDbSpline
 62
7
  6
CONTINUOUS
 70
0
 71
3
 72
9
 73
5
 74
0
 42
0.0000001
 43
0.0000001
 44
0.0000000001
 40
0.0
 40
0.0
 40
0.0
 40
0.0
 40
0.3138100991
 40
1.0
 40
1.0
 40
1.0
 40
1.0
 10
479.7892061851
 20
355.3239698866
 30
0.0
 10
479.7809239294
 20
355.3239065343
 30
0.0
 10
479.7664129808
 20
355.3545815063
 30
0.0
 10
479.7559740592
 20
355.3745284967
 30
0.0
 10
479.7492968738
 20
355.3913635183
 30
0.0
  0
SPLINE
  5
2E4
100
AcDbEntity
  8
0
100
AcDbSpline
 62
7
  6
CONTINUOUS
 70
0
 71
3
 72
8
 73
4
 74
0
 42
0.0000001
 43
0.0000001
 44
0.0000000001
 40
0.0
 40
0.0
 40
0.0
 40
0.0
 40
1.0
 40
1.0
 40
1.0
 40
1.0
 10
479.7492968738
 20
355.3913635183
 30
0.0
 10
479.739523482
 20
355.4160049282
 30
0.0
 10
479.7310388873
 20
355.4411665921
 30
0.0
 10
479.7232944923
 20
355.4665189611
 30
0.0
  0
SPLINE
  5
2E5
100
AcDbEntity
  8
0
100
AcDbSpline
 62
7
  6
CONTINUOUS
 70
0
 71
3
 72
11
 73
7
 74
0
 42
0.0000001
 43
0.0000001
 44
0.0000000001
 40
0.0
 40
0.0
 40
0.0
 40
0.0
 40
0.2403446107
 40
0.4979112491
 40
0.7566973106
 40
1.0
 40
1.0
 40
1.0
 40
1.0
 10
261.8847282377
 20
358.223988377
 30
0.0
 10
260.6828009801
 20
358.2539596466
 30
0.0
 10
258.1852604796
 20
358.740434594
 30
0.0
 10
254.8607907197
 20
360.7028270482
 30
0.0
 10
252.3859591928
 20
363.6840378389
 30
0.0
 10
251.4918139517
 20
366.0872793855
 30
0.0
 10
251.2596495595
 20
367.2820296434
 30
0.0
  0
SPLINE
  5
2E6
100
AcDbEntity
  8
0
100
AcDbSpline
 62
7
  6
CONTINUOUS
 70
0
 71
3
 72
13
 73
9
 74
0
 42
0.0000001
 43
0.0000001
 44
0.0000000001
 40
0.0
 40
0.0
 40
0.0
 40
0.0
 40
0.3438340658
 40
0.6449993792
 40
0.7688466365
 40
0.8705286984
 40
0.9477592607
 40
1.0
 40
1.0
 40
1.0
 40
1.0
 10
267.1400623098
 20
358.9504307356
 30
0.0
 10
266.5272442575
 20
358.9504290247
 30
0.0
 10
265.377503341
 20
358.9162518419
 30
0.0
 10
264.0114290559
 20
358.7881283201
 30
0.0
 10
263.0852781728
 20
358.634403493
 30
0.0
 10
262.5580714312
 20
358.5144024186
 30
0.0
 10
262.1669773252
 20
358.3871537892
 30
0.0
 10
261.9564478633
 20
358.2834492206
 30
0.0
 10
261.8847995285
 20
358.2239865099
 30
0.0
  0
SPLINE
  5
2E7
100
AcDbEntity
  8
0
100
AcDbSpline
 62
7
  6
CONTINUOUS
 70
0
 71
3
 72
14
 73
10
 74
0
 42
0.0000001
 43
0.0000001
 44
0.0000000001
 40
0.0
 40
0.0
 40
0.0
 40
0.0
 40
0.337094207
 40
0.4881064929
 40
0.6201441081
 40
0.7311338081
 40
0.8245406798
 40
0.9103130307
 40
1.0
 40
1.0
 40
1.0
 40
1.0
 10
282.3281036719
 20
358.9499388306
 30
0.0
 10
282.887704555
 20
358.9499388306
 30
0.0
 10
283.6990835798
 20
358.9727106526
 30
0.0
 10
284.7225906288
 20
359.0911635436
 30
0.0
 10
285.363245362
 20
359.2318054336
 30
0.0
 10
285.8847134262
 20
359.443099947
 30
0.0
 10
286.2710651655
 20
359.7473460419
 30
0.0
 10
286.4918341082
 20
360.1489593981
 30
0.0
 10
286.5281036719
 20
360.4439596235
 30
0.0
 10
286.5281036719
 20
360.5928465108
 30
0.0
  0
SPLINE
  5
2E8
100
AcDbEntity
  8
0
100
AcDbSpline
 62
7
  6
CONTINUOUS
 70
0
 71
3
 72
14
 73
10
 74
0
 42
0.0000001
 43
0.0000001
 44
0.0000000001
 40
0.0
 40
0.0
 40
0.0
 40
0.0
 40
0.0896733607
 40
0.175461895
 40
0.2689008591
 40
0.3799249598
 40
0.5119742097
 40
0.6629909103
 40
1.0
 40
1.0
 40
1.0
 40
1.0
 10
278.1281036719
 20
360.5928465108
 30
0.0
 10
278.1281036719
 20
360.4439835457
 30
0.0
 10
278.1643855418
 20
360.1489719438
 30
0.0
 10
278.3852629446
 20
359.747378054
 30
0.0
 10
278.7716184731
 20
359.4429122278
 30
0.0
 10
279.2933249755
 20
359.2318179577
 30
0.0
 10
279.9340104948
 20
359.0910568861
 30
0.0
 10
280.9574193906
 20
358.9726979718
 30
0.0
 10
281.7686490918
 20
358.9499639555
 30
0.0
 10
282.3281036719
 20
358.9499639555
 30
0.0
  0
SPLINE
  5
2E9
100
AcDbEntity
  8
0
100
AcDbSpline
 62
7
  6
CONTINUOUS
 70
0
 71
3
 72
9
 73
5
 74
0
 42
0.0000001
 43
0.0000001
 44
0.0000000001
 40
0.0
 40
0.0
 40
0.0
 40
0.0
 40
0.1420398345
 40
1.0
 40
1.0
 40
1.0
 40
1.0
 10
485.3575939919
 20
356.9016988971
 30
0.0
 10
485.3560943496
 20
356.9005855798
 30
0.0
 10
485.3440809095
 20
356.8949146838
 30
0.0
 10
485.3309499322
 20
356.8927466738
 30
0.0
 10
485.3198460933
 20
356.8907519305
 30
0.0
  0
SPLINE
  5
2EA
100
AcDbEntity
  8
0
100
AcDbSpline
 62
7
  6
CONTINUOUS
 70
0
 71
3
 72
9
 73
5
 74
0
 42
0.0000001
 43
0.0000001
 44
0.0000000001
 40
0.0
 40
0.0
 40
0.0
 40
0.0
 40
0.3372393261
 40
1.0
 40
1.0
 40
1.0
 40
1.0
 10
484.7284118143
 20
356.8722125175
 30
0.0
 10
484.7093704381
 20
356.8691796754
 30
0.0
 10
484.6656381135
 20
356.9269086325
 30
0.0
 10
484.6372159556
 20
356.967898068
 30
0.0
 10
484.6192850812
 20
357.0012799438
 30
0.0
  0
SPLINE
  5
2EB
100
AcDbEntity
  8
0
100
AcDbSpline
 62
7
  6
CONTINUOUS
 70
0
 71
3
 72
9
 73
5
 74
0
 42
0.0000001
 43
0.0000001
 44
0.0000000001
 40
0.0
 40
0.0
 40
0.0
 40
0.0
 40
0.5716184287
 40
1.0
 40
1.0
 40
1.0
 40
1.0
 10
486.2743227132
 20
357.566243281
 30
0.0
 10
486.2790475877
 20
357.5695842543
 30
0.0
 10
486.2921957596
 20
357.5772575986
 30
0.0
 10
486.2808919868
 20
357.5869223877
 30
0.0
 10
486.2766926919
 20
357.5880054008
 30
0.0
  0
SPLINE
  5
2EC
100
AcDbEntity
  8
0
100
AcDbSpline
 62
7
  6
CONTINUOUS
 70
0
 71
3
 72
10
 73
6
 74
0
 42
0.0000001
 43
0.0000001
 44
0.0000000001
 40
0.0
 40
0.0
 40
0.0
 40
0.0
 40
0.2110805811
 40
0.4654851891
 40
1.0
 40
1.0
 40
1.0
 40
1.0
 10
486.2766908632
 20
357.5880379511
 30
0.0
 10
486.1685724303
 20
357.5379558146
 30
0.0
 10
485.92371138
 20
357.4419045898
 30
0.0
 10
485.3943870896
 20
357.2460662234
 30
0.0
 10
484.9707598305
 20
357.1077620416
 30
0.0
 10
484.682012028
 20
357.0201991061
 30
0.0
  0
SPLINE
  5
2ED
100
AcDbEntity
  8
0
100
AcDbSpline
 62
7
  6
CONTINUOUS
 70
0
 71
3
 72
13
 73
9
 74
0
 42
0.0000001
 43
0.0000001
 44
0.0000000001
 40
0.0
 40
0.0
 40
0.0
 40
0.0
 40
0.3524221293
 40
0.6559225504
 40
0.7778081421
 40
0.8761851231
 40
0.9501230062
 40
1.0
 40
1.0
 40
1.0
 40
1.0
 10
478.0161450949
 20
358.9504433628
 30
0.0
 10
478.644282262
 20
358.9504322373
 30
0.0
 10
479.8135346764
 20
358.9148386547
 30
0.0
 10
481.1953348298
 20
358.7821827211
 30
0.0
 10
482.1157723203
 20
358.6255966582
 30
0.0
 10
482.6273790311
 20
358.5060961281
 30
0.0
 10
483.0026861492
 20
358.3814176023
 30
0.0
 10
483.2030720986
 20
358.2807612598
 30
0.0
 10
483.2714801372
 20
358.2239882018
 30
0.0
  0
SPLINE
  5
2EE
100
AcDbEntity
  8
0
100
AcDbSpline
 62
7
  6
CONTINUOUS
 70
0
 71
3
 72
11
 73
7
 74
0
 42
0.0000001
 43
0.0000001
 44
0.0000000001
 40
0.0
 40
0.0
 40
0.0
 40
0.0
 40
0.2407560119
 40
0.4984806001
 40
0.7571113617
 40
1.0
 40
1.0
 40
1.0
 40
1.0
 10
483.2714798603
 20
358.2239883925
 30
0.0
 10
484.4754400493
 20
358.2540104911
 30
0.0
 10
486.9758354721
 20
358.741782888
 30
0.0
 10
490.3008204963
 20
360.7074522909
 30
0.0
 10
492.7722723401
 20
363.6885253744
 30
0.0
 10
493.6647014181
 20
366.0890425613
 30
0.0
 10
493.896498903
 20
367.2817290162
 30
0.0
  0
SPLINE
  5
2EF
100
AcDbEntity
  8
0
100
AcDbSpline
 62
7
  6
CONTINUOUS
 70
0
 71
3
 72
13
 73
9
 74
0
 42
0.0000001
 43
0.0000001
 44
0.0000000001
 40
0.0
 40
0.0
 40
0.0
 40
0.0
 40
0.3443960871
 40
0.6475910491
 40
0.7723195237
 40
0.8743583622
 40
0.9508482492
 40
1.0
 40
1.0
 40
1.0
 40
1.0
 10
478.0161282428
 20
368.5510550469
 30
0.0
 10
479.8374569167
 20
368.3833193985
 30
0.0
 10
483.26313835
 20
368.077974321
 30
0.0
 10
487.3499794311
 20
367.7288972562
 30
0.0
 10
490.1555394386
 20
367.5045712576
 30
0.0
 10
491.7617622515
 20
367.3850751733
 30
0.0
 10
492.9684533469
 20
367.310262441
 30
0.0
 10
493.6354722112
 20
367.2808066562
 30
0.0
 10
493.8965081905
 20
367.2817290491
 30
0.0
  0
SPLINE
  5
2F0
100
AcDbEntity
  8
0
100
AcDbSpline
 62
7
  6
CONTINUOUS
 70
0
 71
3
 72
9
 73
5
 74
0
 42
0.0000001
 43
0.0000001
 44
0.0000000001
 40
0.0
 40
0.0
 40
0.0
 40
0.0
 40
0.2493080663
 40
1.0
 40
1.0
 40
1.0
 40
1.0
 10
478.0161279825
 20
368.5510538632
 30
0.0
 10
478.1847223977
 20
369.8255776847
 30
0.0
 10
478.7963216253
 20
374.9461824644
 30
0.0
 10
479.1511652264
 20
380.0973253305
 30
0.0
 10
479.2743348805
 20
383.9665169402
 30
0.0
  0
SPLINE
  5
2F1
100
AcDbEntity
  8
0
100
AcDbSpline
 62
7
  6
CONTINUOUS
 70
0
 71
3
 72
9
 73
5
 74
0
 42
0.0000001
 43
0.0000001
 44
0.0000000001
 40
0.0
 40
0.0
 40
0.0
 40
0.0
 40
0.31381036
 40
1.0
 40
1.0
 40
1.0
 40
1.0
 10
265.367001008
 20
355.3239698866
 30
0.0
 10
265.3752831273
 20
355.323906535
 30
0.0
 10
265.3897939493
 20
355.3545808544
 30
0.0
 10
265.4002327094
 20
355.374527524
 30
0.0
 10
265.4069098103
 20
355.3913622346
 30
0.0
  0
SPLINE
  5
2F2
100
AcDbEntity
  8
0
100
AcDbSpline
 62
7
  6
CONTINUOUS
 70
0
 71
3
 72
8
 73
4
 74
0
 42
0.0000001
 43
0.0000001
 44
0.0000000001
 40
0.0
 40
0.0
 40
0.0
 40
0.0
 40
1.0
 40
1.0
 40
1.0
 40
1.0
 10
265.4069098103
 20
355.3913622346
 30
0.0
 10
265.4166861116
 20
355.4160108371
 30
0.0
 10
265.4251728854
 20
355.441179991
 30
0.0
 10
265.4329191019
 20
355.4665399161
 30
0.0
  0
SPLINE
  5
2F3
100
AcDbEntity
  8
0
100
AcDbSpline
 62
7
  6
CONTINUOUS
 70
0
 71
3
 72
9
 73
5
 74
0
 42
0.0000001
 43
0.0000001
 44
0.0000000001
 40
0.0
 40
0.0
 40
0.0
 40
0.0
 40
0.2506436743
 40
1.0
 40
1.0
 40
1.0
 40
1.0
 10
265.8818215792
 20
383.9665193783
 30
0.0
 10
265.9229457908
 20
382.6746623602
 30
0.0
 10
266.1507273249
 20
377.5227484532
 30
0.0
 10
266.6332764424
 20
372.3819497447
 30
0.0
 10
267.1400268329
 20
368.551063794
 30
0.0
  0
SPLINE
  5
2F4
100
AcDbEntity
  8
0
100
AcDbSpline
 62
7
  6
CONTINUOUS
 70
0
 71
3
 72
9
 73
5
 74
0
 42
0.0000001
 43
0.0000001
 44
0.0000000001
 40
0.0
 40
0.0
 40
0.0
 40
0.0
 40
0.2481637612
 40
1.0
 40
1.0
 40
1.0
 40
1.0
 10
472.271269089
 20
354.4665189619
 30
0.0
 10
472.8942594255
 20
354.4665185281
 30
0.0
 10
475.4041769059
 20
354.550475011
 30
0.0
 10
477.9009216074
 20
354.9753254047
 30
0.0
 10
479.7232963141
 20
355.4665138919
 30
0.0
  0
SPLINE
  5
2F5
100
AcDbEntity
  8
0
100
AcDbSpline
 62
7
  6
CONTINUOUS
 70
0
 71
3
 72
9
 73
5
 74
0
 42
0.0000001
 43
0.0000001
 44
0.0000000001
 40
0.0
 40
0.0
 40
0.0
 40
0.0
 40
0.253037218
 40
1.0
 40
1.0
 40
1.0
 40
1.0
 10
265.4329107889
 20
355.4665136408
 30
0.0
 10
266.0268286329
 20
355.306433723
 30
0.0
 10
268.3926419686
 20
354.7455887078
 30
0.0
 10
270.8300245241
 20
354.4831497257
 30
0.0
 10
272.645763518
 20
354.4675465701
 30
0.0
  0
SPLINE
  5
2F6
100
AcDbEntity
  8
0
100
AcDbSpline
 62
7
  6
CONTINUOUS
 70
0
 71
3
 72
9
 73
5
 74
0
 42
0.0000001
 43
0.0000001
 44
0.0000000001
 40
0.0
 40
0.0
 40
0.0
 40
0.0
 40
0.2514056366
 40
1.0
 40
1.0
 40
1.0
 40
1.0
 10
479.723644264
 20
355.4665189618
 30
0.0
 10
480.1429525952
 20
355.5627360199
 30
0.0
 10
481.8032070003
 20
355.9777698053
 30
0.0
 10
483.4312221824
 20
356.5224202817
 30
0.0
 10
484.6193408625
 20
357.0013007199
 30
0.0
  0
SPLINE
  5
2F7
100
AcDbEntity
  8
0
100
AcDbSpline
 62
7
  6
CONTINUOUS
 70
0
 71
3
 72
9
 73
5
 74
0
 42
0.0000001
 43
0.0000001
 44
0.0000000001
 40
0.0
 40
0.0
 40
0.0
 40
0.0
 40
0.1536250376
 40
1.0
 40
1.0
 40
1.0
 40
1.0
 10
259.7986172011
 20
356.9016998033
 30
0.0
 10
259.799765846
 20
356.900847084
 30
0.0
 10
259.8081027933
 20
356.8965399939
 30
0.0
 10
259.8173365962
 20
356.8945953563
 30
0.0
 10
259.8250439822
 20
356.8929479108
 30
0.0
  0
SPLINE
  5
2F8
100
AcDbEntity
  8
0
100
AcDbSpline
 62
7
  6
CONTINUOUS
 70
0
 71
3
 72
9
 73
5
 74
0
 42
0.0000001
 43
0.0000001
 44
0.0000000001
 40
0.0
 40
0.0
 40
0.0
 40
0.0
 40
0.2486784445
 40
1.0
 40
1.0
 40
1.0
 40
1.0
 10
260.5372036
 20
357.0012919411
 30
0.0
 10
260.9318684464
 20
356.8421303439
 30
0.0
 10
262.5316232368
 20
356.2340059613
 30
0.0
 10
264.1798191571
 20
355.7538339487
 30
0.0
 10
265.4330006831
 20
355.4665189618
 30
0.0
  0
SPLINE
  5
2F9
100
AcDbEntity
  8
0
100
AcDbSpline
 62
7
  6
CONTINUOUS
 70
0
 71
3
 72
12
 73
8
 74
0
 42
0.0000001
 43
0.0000001
 44
0.0000000001
 40
0.0
 40
0.0
 40
0.0
 40
0.0
 40
0.0494610804
 40
0.1264515395
 40
0.3538241844
 40
0.6565722567
 40
1.0
 40
1.0
 40
1.0
 40
1.0
 10
251.2596945435
 20
367.2817311924
 30
0.0
 10
251.5223719926
 20
367.2827084454
 30
0.0
 10
252.193672212
 20
367.3095304049
 30
0.0
 10
254.0689354277
 20
367.4284165543
 30
0.0
 10
257.2831419836
 20
367.6856558356
 30
0.0
 10
261.9057020703
 20
368.0780961946
 30
0.0
 10
265.3237342982
 20
368.3848166406
 30
0.0
 10
267.140028316
 20
368.551052582
 30
0.0
  0
SPLINE
  5
2FA
100
AcDbEntity
  8
0
100
AcDbSpline
 62
7
  6
CONTINUOUS
 70
0
 71
3
 72
10
 73
6
 74
0
 42
0.0000001
 43
0.0000001
 44
0.0000000001
 40
0.0
 40
0.0
 40
0.0
 40
0.0
 40
0.1919822409
 40
0.4460025527
 40
1.0
 40
1.0
 40
1.0
 40
1.0
 10
258.8795044661
 20
357.5880067879
 30
0.0
 10
258.9397488613
 20
357.5571111628
 30
0.0
 10
259.0869806559
 20
357.5006341214
 30
0.0
 10
259.4148138577
 20
357.3713320502
 30
0.0
 10
259.6839196238
 20
357.2769522487
 30
0.0
 10
259.8689868197
 20
357.2143350168
 30
0.0
  0
SPLINE
  5
2FB
100
AcDbEntity
  8
0
100
AcDbSpline
 62
7
  6
CONTINUOUS
 70
0
 71
3
 72
9
 73
5
 74
0
 42
0.0000001
 43
0.0000001
 44
0.0000000001
 40
0.0
 40
0.0
 40
0.0
 40
0.0
 40
0.3372368093
 40
1.0
 40
1.0
 40
1.0
 40
1.0
 10
260.4277953782
 20
356.8722125214
 30
0.0
 10
260.4468389885
 20
356.8691793269
 30
0.0
 10
260.4905751582
 20
356.9269178737
 30
0.0
 10
260.5190000729
 20
356.9679123512
 30
0.0
 10
260.5369323459
 20
357.0012990054
 30
0.0
  0
SPLINE
  5
2FC
100
AcDbEntity
  8
0
100
AcDbSpline
 62
7
  6
CONTINUOUS
 70
0
 71
3
 72
14
 73
10
 74
0
 42
0.0000001
 43
0.0000001
 44
0.0000000001
 40
0.0
 40
0.0
 40
0.0
 40
0.0
 40
0.0896733607
 40
0.175461895
 40
0.2689008591
 40
0.3799249598
 40
0.5119742097
 40
0.6629909103
 40
1.0
 40
1.0
 40
1.0
 40
1.0
 10
458.1281036719
 20
360.5928465108
 30
0.0
 10
458.1281036719
 20
360.4439835457
 30
0.0
 10
458.1643855418
 20
360.1489719438
 30
0.0
 10
458.3852629446
 20
359.747378054
 30
0.0
 10
458.7716184731
 20
359.4429122278
 30
0.0
 10
459.2933249755
 20
359.2318179577
 30
0.0
 10
459.9340104948
 20
359.0910568861
 30
0.0
 10
460.9574193906
 20
358.9726979718
 30
0.0
 10
461.7686490918
 20
358.9499639555
 30
0.0
 10
462.3281036719
 20
358.9499639555
 30
0.0
  0
SPLINE
  5
2FD
100
AcDbEntity
  8
0
100
AcDbSpline
 62
7
  6
CONTINUOUS
 70
0
 71
3
 72
14
 73
10
 74
0
 42
0.0000001
 43
0.0000001
 44
0.0000000001
 40
0.0
 40
0.0
 40
0.0
 40
0.0
 40
0.337094207
 40
0.4881064929
 40
0.6201441081
 40
0.7311338081
 40
0.8245406798
 40
0.9103130307
 40
1.0
 40
1.0
 40
1.0
 40
1.0
 10
462.3281036719
 20
358.9499388306
 30
0.0
 10
462.887704555
 20
358.9499388306
 30
0.0
 10
463.6990835798
 20
358.9727106526
 30
0.0
 10
464.7225906288
 20
359.0911635436
 30
0.0
 10
465.363245362
 20
359.2318054336
 30
0.0
 10
465.8847134262
 20
359.443099947
 30
0.0
 10
466.2710651655
 20
359.7473460419
 30
0.0
 10
466.4918341082
 20
360.1489593981
 30
0.0
 10
466.5281036719
 20
360.4439596235
 30
0.0
 10
466.5281036719
 20
360.5928465108
 30
0.0
  0
SPLINE
  5
2FE
100
AcDbEntity
  8
0
100
AcDbSpline
 62
7
  6
CONTINUOUS
 70
0
 71
3
 72
9
 73
5
 74
0
 42
0.0000001
 43
0.0000001
 44
0.0000000001
 40
0.0
 40
0.0
 40
0.0
 40
0.0
 40
0.2715078458
 40
1.0
 40
1.0
 40
1.0
 40
1.0
 10
485.148080389
 20
356.8296427686
 30
0.0
 10
485.1608165325
 20
356.8341826194
 30
0.0
 10
485.2077353644
 20
356.8508749717
 30
0.0
 10
485.2547042218
 20
356.8674322312
 30
0.0
 10
485.289038292
 20
356.879150966
 30
0.0
  0
SPLINE
  5
2FF
100
AcDbEntity
  8
0
100
AcDbSpline
 62
7
  6
CONTINUOUS
 70
0
 71
3
 72
9
 73
5
 74
0
 42
0.0000001
 43
0.0000001
 44
0.0000000001
 40
0.0
 40
0.0
 40
0.0
 40
0.0
 40
0.2853608165
 40
1.0
 40
1.0
 40
1.0
 40
1.0
 10
485.289038292
 20
356.879150966
 30
0.0
 10
485.2955349957
 20
356.8813683888
 30
0.0
 10
485.3183191054
 20
356.8890863241
 30
0.0
 10
485.3411686638
 20
356.8966205162
 30
0.0
 10
485.3575935542
 20
356.9016970434
 30
0.0
  0
SPLINE
  5
300
100
AcDbEntity
  8
0
100
AcDbSpline
 62
7
  6
CONTINUOUS
 70
0
 71
3
 72
9
 73
5
 74
0
 42
0.0000001
 43
0.0000001
 44
0.0000000001
 40
0.0
 40
0.0
 40
0.0
 40
0.0
 40
0.2505791826
 40
1.0
 40
1.0
 40
1.0
 40
1.0
 10
495.4100440214
 20
383.9665050953
 30
0.0
 10
495.362921828
 20
382.5675603
 30
0.0
 10
495.0961936081
 20
376.987661175
 30
0.0
 10
494.5126788068
 20
371.422757825
 30
0.0
 10
493.8965547383
 20
367.2820724302
 30
0.0
  0
SPLINE
  5
301
100
AcDbEntity
  8
0
100
AcDbSpline
 62
7
  6
CONTINUOUS
 70
0
 71
3
 72
9
 73
5
 74
0
 42
0.0000001
 43
0.0000001
 44
0.0000000001
 40
0.0
 40
0.0
 40
0.0
 40
0.0
 40
0.5715343422
 40
1.0
 40
1.0
 40
1.0
 40
1.0
 10
258.8818776051
 20
357.5662332876
 30
0.0
 10
258.8771343819
 20
357.569621257
 30
0.0
 10
258.8636960338
 20
357.5773929412
 30
0.0
 10
258.8753232945
 20
357.586776045
 30
0.0
 10
258.8795162818
 20
357.5880065482
 30
0.0
  0
SPLINE
  5
302
100
AcDbEntity
  8
0
100
AcDbSpline
 62
7
  6
CONTINUOUS
 70
0
 71
3
 72
9
 73
5
 74
0
 42
0.0000001
 43
0.0000001
 44
0.0000000001
 40
0.0
 40
0.0
 40
0.0
 40
0.0
 40
0.4679613624
 40
1.0
 40
1.0
 40
1.0
 40
1.0
 10
486.2742811253
 20
357.566226654
 30
0.0
 10
486.0413707014
 20
357.4410499408
 30
0.0
 10
485.5264996577
 20
357.2066038583
 30
0.0
 10
485.0070849091
 20
356.9844572947
 30
0.0
 10
484.7282312994
 20
356.8721400746
 30
0.0
  0
ENDSEC
  0
SECTION
  2
OBJECTS
  0
DICTIONARY
  5
C
100
AcDbDictionary
280
0
281
1
  3
ACAD_GROUP
350
D
  3
ACAD_MLINESTYLE
350
17
  3
ACAD_LAYOUT
350
1A
  3
ACAD_PLOTSETTINGS
350
19
  3
ACAD_PLOTSTYLENAME
350
E
  0
DICTIONARY
  5
D
102
{ACAD_REACTORS
330
C
102
}
100
AcDbDictionary
280
0
281
1
  0
ACDBDICTIONARYWDFLT
  5
E
102
{ACAD_REACTORS
330
C
102
}
100
AcDbDictionary
281
1
  3
Normal
350
F
100
AcDbDictionaryWithDefault
340
F
  0
DICTIONARY
  5
17
102
{ACAD_REACTORS
330
C
102
}
100
AcDbDictionary
280
0
281
1
  3
Standard
350
18
  0
DICTIONARY
  5
19
102
{ACAD_REACTORS
330
C
102
}
100
AcDbDictionary
281
1
  0
DICTIONARY
  5
1A
102
{ACAD_REACTORS
330
C
102
}
100
AcDbDictionary
281
1
  3
Model
350
303
  3
Layout1
350
304
  0
ACDBPLACEHOLDER
  5
F
102
{ACAD_REACTORS
330
E
102
}
  0
MLINESTYLE
  5
18
102
{ACAD_REACTORS
330
17
102
}
100
AcDbMlineStyle
  2
STANDARD
 70
0
  3

 62
256
 51
90.0
 52
90.0
 71
2
 49
0.5
 62
256
  6
BYLAYER
 49
-0.5
 62
256
  6
BYLAYER
  0
LAYOUT
  5
303
102
{ACAD_REACTORS
330
1A
102
}
100
AcDbPlotSettings
  1

  2
none_device
  4

  6

 40
0.0
 41
0.0
 42
0.0
 43
0.0
 44
210.0
 45
297.0
 46
0.0
 47
0.0
 48
0.0
 49
0.0
140
0.0
141
0.0
142
1.0
143
1.0
 70
1024
 72
1
 73
0
 74
0
  7

 75
0
147
1.0
148
0.0
149
0.0
100
AcDbLayout
  1
Model
 70
0
 71
0
 10
0.0
 20
0.0
 11
210.0
 21
297.0
 12
0.0
 22
0.0
 32
0.0
 14
0.0
 24
0.0
 34
0.0
 15
0.0
 25
0.0
 35
0.0
146
0.0
 13
0.0
 23
0.0
 33
0.0
 16
1.0
 26
0.0
 36
0.0
 17
0.0
 27
1.0
 37
0.0
 76
0
330
210
345
0
346
0
  0
LAYOUT
  5
304
102
{ACAD_REACTORS
330
1A
102
}
100
AcDbPlotSettings
  1

  2
none_device
  4

  6

 40
0.0
 41
0.0
 42
0.0
 43
0.0
 44
210.0
 45
297.0
 46
0.0
 47
0.0
 48
0.0
 49
0.0
140
0.0
141
0.0
142
1.0
143
1.0
 70
0
 72
1
 73
0
 74
0
  7

 75
0
147
1.0
148
0.0
149
0.0
100
AcDbLayout
  1
Layout1
 70
0
 71
1
 10
0.0
 20
0.0
 11
210.0
 21
297.0
 12
0.0
 22
0.0
 32
0.0
 14
0.0
 24
0.0
 34
0.0
 15
0.0
 25
0.0
 35
0.0
146
0.0
 13
0.0
 23
0.0
 33
0.0
 16
1.0
 26
0.0
 36
0.0
 17
0.0
 27
1.0
 37
0.0
 76
0
330
211
345
0
346
0
  0
ENDSEC
  0
EOF
