999
DXF file: C:\Gen2D\CAD\LADN043_3D-CAD\drw0001_4.dxf
999
Pro/ENGINEER 2019471 by Parametric Technology Corporation
  0
SECTION
  2
HEADER
  9
$ACADVER
  1
AC1024
  9
$DWGCODEPAGE
  3
ANSI_1252
  9
$EXTMAX
 10
54.6551941832
 20
77.2980603448
 30
0.0
  9
$EXTMIN
 10
0.0
 20
0.0
 30
0.0
  9
$LIMMIN
 10
0.0
 20
0.0
  9
$LIMMAX
 10
54.6551941832
 20
77.2980603448
  9
$VIEWCTR
 10
27.3275970916
 20
38.6490301724
  9
$VIEWSIZE
 40
77.2980603448
  9
$CLAYER
  8
0
  9
$LTSCALE
 40
5.038688378
  9
$CELTYPE
  6
BYLAYER
  9
$DIMSCALE
 40
1.0
  9
$DIMASZ
 40
0.6506570736
  9
$DIMEXO
 40
1.0
  9
$DIMDLI
 40
3.4812756066
  9
$DIMEXE
 40
1.0
  9
$DIMCEN
 40
0.8245126437
  9
$DIMLFAC
 40
1.0
  9
$DIMBLK
  1
_FILLED
  9
$DIMALT
 70
0
  9
$DIMALTF
 40
0.0393700787
  9
$DIMTXT
 40
0.9109199031
  9
$DIMTOL
 70
1
  9
$DIMLIM
 70
0
  9
$DIMTFAC
 40
1.0
  9
$DIMTP
 40
0.01
  9
$DIMTM
 40
0.01
  9
$DIMGAP
 40
0.625
  9
$DIMDSEP
 70
46
  9
$AUNITS
 70
0
  9
$PDMODE
 70
3
  9
$PDSIZE
 40
0.3125
  9
$HANDSEED
  5
344
  9
$TILEMODE
 70
1
  9
$MEASUREMENT
 70
1
  9
$INSUNITS
 70
4
  0
ENDSEC
  0
SECTION
  2
CLASSES
  0
CLASS
  1
ACDBDICTIONARYWDFLT
  2
AcDbDictionaryWithDefault
  3
AutoCAD 2000
 90
0
 91
1
280
0
281
0
  0
CLASS
  1
ACDBPLACEHOLDER
  2
AcDbPlaceHolder
  3
AutoCAD 2000
 90
0
 91
1
280
0
281
0
  0
CLASS
  1
LAYOUT
  2
AcDbLayout
  3
AutoCAD 2000
 90
0
 91
0
280
0
281
0
  0
ENDSEC
  0
SECTION
  2
TABLES
  0
TABLE
  2
VPORT
  5
8
100
AcDbSymbolTable
 70
2
  0
VPORT
  5
1F4
100
AcDbSymbolTableRecord
100
AcDbViewportTableRecord
  2
*ACTIVE
 70
0
 10
0.0
 20
0.0
 11
1.0
 21
1.0
 12
27.3275970916
 22
38.6490301724
 13
0.0
 23
0.0
 14
1.0
 24
1.0
 15
0.0
 25
0.0
 16
0.0
 26
0.0
 36
1.0
 17
0.0
 27
0.0
 37
0.0
 40
77.2980603448
 41
0.7070707071
 42
50.0
 43
0.0
 44
0.0
 50
0.0
 51
0.0
 71
0
 72
100
 73
1
 74
1
 75
0
 76
0
 77
0
 78
0
  0
ENDTAB
  0
TABLE
  2
LTYPE
  5
5
100
AcDbSymbolTable
 70
6
  0
LTYPE
  5
14
100
AcDbSymbolTableRecord
100
AcDbLinetypeTableRecord
  2
BYBLOCK
 70
0
  3

 72
65
 73
0
 40
0.0
  0
LTYPE
  5
15
100
AcDbSymbolTableRecord
100
AcDbLinetypeTableRecord
  2
BYLAYER
 70
0
  3

 72
65
 73
0
 40
0.0
  0
LTYPE
  5
16
100
AcDbSymbolTableRecord
100
AcDbLinetypeTableRecord
  2
CONTINUOUS
 70
64
  3
Solid line
 72
65
 73
0
 40
0.0
  0
LTYPE
  5
1F5
100
AcDbSymbolTableRecord
100
AcDbLinetypeTableRecord
  2
CENTER
 70
64
  3
____ _ ____ _ ____ _ ____ _ ____ _ ____ _ ____
 72
65
 73
4
 40
0.6
 49
0.375
 74
0
 49
-0.075
 74
0
 49
0.075
 74
0
 49
-0.075
 74
0
  0
LTYPE
  5
1F6
100
AcDbSymbolTableRecord
100
AcDbLinetypeTableRecord
  2
HIDDEN
 70
64
  3
- - - - - - - - - - - - - - - - - - - -
 72
65
 73
2
 40
0.2
 49
0.1
 74
0
 49
-0.1
 74
0
  0
LTYPE
  5
1F7
100
AcDbSymbolTableRecord
100
AcDbLinetypeTableRecord
  2
PHANTOM
 70
64
  3
_____ _ _ _____ _ _ _____ _ _ _____
 72
65
 73
6
 40
0.8
 49
0.45
 74
0
 49
-0.05
 74
0
 49
0.1
 74
0
 49
-0.05
 74
0
 49
0.1
 74
0
 49
-0.05
 74
0
  0
LTYPE
  5
1F8
100
AcDbSymbolTableRecord
100
AcDbLinetypeTableRecord
  2
DOT
 70
64
  3
. . . . . . . . . . . . . . . . . . . .
 72
65
 73
2
 40
0.2
 49
0.1
 74
0
 49
-0.1
 74
0
  0
LTYPE
  5
1F9
100
AcDbSymbolTableRecord
100
AcDbLinetypeTableRecord
  2
DASHED
 70
64
  3
- - - - - - - - - - - - - - - - - - - -
 72
65
 73
2
 40
0.2
 49
0.1
 74
0
 49
-0.1
 74
0
  0
ENDTAB
  0
TABLE
  2
LAYER
  5
2
100
AcDbSymbolTable
 70
36
  0
LAYER
  5
10
100
AcDbSymbolTableRecord
100
AcDbLayerTableRecord
  2
0
 70
0
 62
7
  6
CONTINUOUS
370
-3
390
F
  0
LAYER
  5
1FA
100
AcDbSymbolTableRecord
100
AcDbLayerTableRecord
  2
DEFAULT_1
 70
0
 62
7
  6
CENTER
370
-3
390
F
  0
LAYER
  5
1FB
100
AcDbSymbolTableRecord
100
AcDbLayerTableRecord
  2
DEFAULT_2
 70
0
 62
8
  6
HIDDEN
370
-3
390
F
  0
LAYER
  5
1FC
100
AcDbSymbolTableRecord
100
AcDbLayerTableRecord
  2
DEFAULT_3
 70
0
 62
7
  6
PHANTOM
370
-3
390
F
  0
LAYER
  5
1FD
100
AcDbSymbolTableRecord
100
AcDbLayerTableRecord
  2
00_COMPONENTS
 70
0
 62
7
  6
CONTINUOUS
370
-3
390
F
  0
LAYER
  5
1FE
100
AcDbSymbolTableRecord
100
AcDbLayerTableRecord
  2
01_1_DEFAULT_DATUMS
 70
0
 62
7
  6
CONTINUOUS
370
-3
390
F
  0
LAYER
  5
1FF
100
AcDbSymbolTableRecord
100
AcDbLayerTableRecord
  2
01_PLANES
 70
0
 62
7
  6
CONTINUOUS
370
-3
390
F
  0
LAYER
  5
200
100
AcDbSymbolTableRecord
100
AcDbLayerTableRecord
  2
02_COORD_SYS
 70
0
 62
7
  6
CONTINUOUS
370
-3
390
F
  0
LAYER
  5
201
100
AcDbSymbolTableRecord
100
AcDbLayerTableRecord
  2
03_AXES
 70
0
 62
7
  6
CONTINUOUS
370
-3
390
F
  0
LAYER
  5
202
100
AcDbSymbolTableRecord
100
AcDbLayerTableRecord
  2
04_POINTS
 70
0
 62
7
  6
CONTINUOUS
370
-3
390
F
  0
LAYER
  5
203
100
AcDbSymbolTableRecord
100
AcDbLayerTableRecord
  2
05_CURVES
 70
0
 62
7
  6
CONTINUOUS
370
-3
390
F
  0
LAYER
  5
204
100
AcDbSymbolTableRecord
100
AcDbLayerTableRecord
  2
06_SURFS
 70
0
 62
7
  6
CONTINUOUS
370
-3
390
F
  0
LAYER
  5
205
100
AcDbSymbolTableRecord
100
AcDbLayerTableRecord
  2
07_COSMETICS
 70
0
 62
7
  6
CONTINUOUS
370
-3
390
F
  0
LAYER
  5
206
100
AcDbSymbolTableRecord
100
AcDbLayerTableRecord
  2
10_NOTES
 70
0
 62
7
  6
CONTINUOUS
370
-3
390
F
  0
LAYER
  5
207
100
AcDbSymbolTableRecord
100
AcDbLayerTableRecord
  2
11_NOTES_PUB
 70
0
 62
7
  6
CONTINUOUS
370
-3
390
F
  0
LAYER
  5
208
100
AcDbSymbolTableRecord
100
AcDbLayerTableRecord
  2
13_REF_GTOL
 70
0
 62
7
  6
CONTINUOUS
370
-3
390
F
  0
LAYER
  5
209
100
AcDbSymbolTableRecord
100
AcDbLayerTableRecord
  2
16_MISC
 70
0
 62
7
  6
CONTINUOUS
370
-3
390
F
  0
LAYER
  5
20A
100
AcDbSymbolTableRecord
100
AcDbLayerTableRecord
  2
17_NO_PRINT
 70
0
 62
7
  6
CONTINUOUS
370
-3
390
F
  0
LAYER
  5
20B
100
AcDbSymbolTableRecord
100
AcDbLayerTableRecord
  2
18_DATUM_CAMS_JOINTS
 70
0
 62
7
  6
CONTINUOUS
370
-3
390
F
  0
LAYER
  5
20C
100
AcDbSymbolTableRecord
100
AcDbLayerTableRecord
  2
19_DATUM_FUNCTIONAL
 70
0
 62
7
  6
CONTINUOUS
370
-3
390
F
  0
LAYER
  5
20D
100
AcDbSymbolTableRecord
100
AcDbLayerTableRecord
  2
20_DATUM_KINEMATIC_SCHEME
 70
0
 62
7
  6
CONTINUOUS
370
-3
390
F
  0
LAYER
  5
20E
100
AcDbSymbolTableRecord
100
AcDbLayerTableRecord
  2
INTFCLR_65
 70
0
 62
7
  6
CONTINUOUS
370
-3
390
F
  0
LAYER
  5
20F
100
AcDbSymbolTableRecord
100
AcDbLayerTableRecord
  2
INTFCLR_74
 70
0
 62
7
  6
CONTINUOUS
370
-3
390
F
  0
LAYER
  5
210
100
AcDbSymbolTableRecord
100
AcDbLayerTableRecord
  2
INTFCLR_76
 70
0
 62
7
  6
CONTINUOUS
370
-3
390
F
  0
ENDTAB
  0
TABLE
  2
STYLE
  5
3
100
AcDbSymbolTable
 70
1
  0
STYLE
  5
11
100
AcDbSymbolTableRecord
100
AcDbTextStyleTableRecord
  2
STANDARD
 70
0
 40
0.0
 41
0.8
 50
0.0
 71
0
 42
0.2
  3
txt
  4

  0
STYLE
  5
211
100
AcDbSymbolTableRecord
100
AcDbTextStyleTableRecord
  2
TEXTSTYLE_1
 70
0
 40
0.0
 41
0.8
 50
0.0
 71
0
 42
0.2
  3
gdt
  4

  0
ENDTAB
  0
TABLE
  2
VIEW
  5
6
100
AcDbSymbolTable
 70
0
  0
ENDTAB
  0
TABLE
  2
UCS
  5
7
100
AcDbSymbolTable
 70
0
  0
ENDTAB
  0
TABLE
  2
APPID
  5
9
100
AcDbSymbolTable
 70
1
  0
APPID
  5
212
100
AcDbSymbolTableRecord
100
AcDbRegAppTableRecord
  2
ACAD
 70
0
  0
ENDTAB
  0
TABLE
  2
BLOCK_RECORD
  5
1
100
AcDbSymbolTable
 70
0
  0
BLOCK_RECORD
  5
213
100
AcDbSymbolTableRecord
100
AcDbBlockTableRecord
  2
*Model_Space
  0
BLOCK_RECORD
  5
214
100
AcDbSymbolTableRecord
100
AcDbBlockTableRecord
  2
*Paper_Space
  0
BLOCK_RECORD
  5
215
100
AcDbSymbolTableRecord
100
AcDbBlockTableRecord
  2
_FILLED
  0
ENDTAB
  0
TABLE
  2
DIMSTYLE
  5
A
100
AcDbSymbolTable
 70
1
100
AcDbDimStyleTable
 71
0
  0
DIMSTYLE
105
216
100
AcDbSymbolTableRecord
100
AcDbDimStyleTableRecord
  2
STANDARD
 70
0
  3

  4

 40
1.0
 41
0.6506570736
 42
1.0
 43
0.38
 44
1.0
 45
0.0
 46
0.0
 47
0.01
 48
0.01
140
0.9109199031
141
0.09
142
0.0
143
25.4
144
1.0
145
0.0
146
1.0
147
0.625
 71
1
 72
0
 73
0
 74
0
 75
0
 76
0
 77
1
 78
8
 79
2
170
0
171
1
172
0
173
0
174
0
175
0
176
0
177
0
178
0
270
2
179
2
271
2
272
2
273
2
274
2
275
0
280
0
281
0
282
0
283
1
284
8
285
0
286
0
287
3
288
0
340
11
278
46
341
215
342
215
343
215
344
215
  0
ENDTAB
  0
ENDSEC
  0
SECTION
  2
BLOCKS
  0
BLOCK
  5
20
100
AcDbEntity
  8
0
100
AcDbBlockBegin
  2
*Model_Space
 70
0
 10
0.0
 20
0.0
 30
0.0
  3
*Model_Space
  1

  0
ENDBLK
  5
21
100
AcDbEntity
  8
0
100
AcDbBlockEnd
  0
BLOCK
  5
1C
100
AcDbEntity
  8
0
100
AcDbBlockBegin
  2
*Paper_Space
 70
0
 10
0.0
 20
0.0
 30
0.0
  3
*Paper_Space
  1

  0
ENDBLK
  5
1D
100
AcDbEntity
  8
0
100
AcDbBlockEnd
  0
BLOCK
  5
217
100
AcDbEntity
  8
0
100
AcDbBlockBegin
  2
_FILLED
 70
64
 10
0.0
 20
0.0
  3
_FILLED
  1

  0
SOLID
  5
218
100
AcDbEntity
  8
0
  6
BYBLOCK
 62
0
100
AcDbTrace
 10
0.0
 20
0.0
 11
-1.0
 21
0.25
 12
-1.0
 22
-0.25
 13
-1.0
 23
-0.25
  0
ENDBLK
  5
219
100
AcDbEntity
  8
0
  6
BYBLOCK
 62
0
100
AcDbBlockEnd
  0
ENDSEC
  0
SECTION
  2
ENTITIES
  0
LINE
  5
21A
100
AcDbEntity
  8
0
100
AcDbLine
 62
7
  6
CONTINUOUS
 10
49.9871876088
 20
14.9125
 11
6.0871876088
 21
14.9125
  0
LINE
  5
21B
100
AcDbEntity
  8
0
100
AcDbLine
 62
7
  6
CONTINUOUS
 10
6.0871876088
 20
61.9125
 11
6.0871876088
 21
14.9125
  0
LINE
  5
21C
100
AcDbEntity
  8
INTFCLR_74
100
AcDbLine
 62
7
420
48875
  6
CONTINUOUS
 10
6.0871876088
 20
14.9125
 11
6.0871876088
 21
61.9125
  0
LINE
  5
21D
100
AcDbEntity
  8
0
100
AcDbLine
 62
7
  6
CONTINUOUS
 10
6.0871876088
 20
15.4125
 11
49.9871876088
 21
15.4125
  0
LINE
  5
21E
100
AcDbEntity
  8
0
100
AcDbLine
 62
7
  6
CONTINUOUS
 10
9.5371876088
 20
16.0425
 11
10.6371876088
 21
16.0425
  0
LINE
  5
21F
100
AcDbEntity
  8
0
100
AcDbLine
 62
7
  6
CONTINUOUS
 10
13.6371876088
 20
16.0425
 11
14.7371876088
 21
16.0425
  0
LINE
  5
220
100
AcDbEntity
  8
0
100
AcDbLine
 62
7
  6
CONTINUOUS
 10
20.1371876088
 20
16.0425
 11
21.2371876088
 21
16.0425
  0
LINE
  5
221
100
AcDbEntity
  8
0
100
AcDbLine
 62
7
  6
CONTINUOUS
 10
24.2371876088
 20
16.0425
 11
25.3371876088
 21
16.0425
  0
LINE
  5
222
100
AcDbEntity
  8
0
100
AcDbLine
 62
7
  6
CONTINUOUS
 10
30.7371876088
 20
16.0425
 11
31.8371876088
 21
16.0425
  0
LINE
  5
223
100
AcDbEntity
  8
0
100
AcDbLine
 62
7
  6
CONTINUOUS
 10
34.8371876088
 20
16.0425
 11
35.9371876088
 21
16.0425
  0
LINE
  5
224
100
AcDbEntity
  8
0
100
AcDbLine
 62
7
  6
CONTINUOUS
 10
41.3371876088
 20
16.0425
 11
42.4371876088
 21
16.0425
  0
LINE
  5
225
100
AcDbEntity
  8
0
100
AcDbLine
 62
7
  6
CONTINUOUS
 10
45.4371876088
 20
16.0425
 11
46.5371876088
 21
16.0425
  0
LINE
  5
226
100
AcDbEntity
  8
0
100
AcDbLine
 62
7
  6
CONTINUOUS
 10
8.2371876088
 20
27.2125
 11
8.2371876088
 21
23.0225
  0
LINE
  5
227
100
AcDbEntity
  8
0
100
AcDbLine
 62
7
  6
CONTINUOUS
 10
8.2371876088
 20
49.6125
 11
8.2371876088
 21
53.8025
  0
LINE
  5
228
100
AcDbEntity
  8
0
100
AcDbLine
 62
7
  6
CONTINUOUS
 10
8.3371876088
 20
20.9125
 11
8.3371876088
 21
17.2825
  0
LINE
  5
229
100
AcDbEntity
  8
0
100
AcDbLine
 62
7
  6
CONTINUOUS
 10
8.3371876088
 20
55.9125
 11
8.3371876088
 21
59.5425
  0
LINE
  5
22A
100
AcDbEntity
  8
0
100
AcDbLine
 62
7
  6
CONTINUOUS
 10
14.6871876088
 20
18.4664108731
 11
13.1871876088
 21
18.4664108731
  0
LINE
  5
22B
100
AcDbEntity
  8
0
100
AcDbLine
 62
7
  6
CONTINUOUS
 10
46.4871876088
 20
18.469240322
 11
44.9871876088
 21
18.469240322
  0
LINE
  5
22C
100
AcDbEntity
  8
0
100
AcDbLine
 62
7
  6
CONTINUOUS
 10
35.8871876088
 20
18.469240322
 11
34.3871876088
 21
18.469240322
  0
LINE
  5
22D
100
AcDbEntity
  8
0
100
AcDbLine
 62
7
  6
CONTINUOUS
 10
25.2871876088
 20
18.469240322
 11
23.7871876088
 21
18.469240322
  0
LINE
  5
22E
100
AcDbEntity
  8
0
100
AcDbLine
 62
7
  6
CONTINUOUS
 10
43.3871876088
 20
18.8125
 11
40.8871876088
 21
18.8125
  0
LINE
  5
22F
100
AcDbEntity
  8
0
100
AcDbLine
 62
7
  6
CONTINUOUS
 10
32.7871876088
 20
18.8125
 11
30.2871876088
 21
18.8125
  0
LINE
  5
230
100
AcDbEntity
  8
0
100
AcDbLine
 62
7
  6
CONTINUOUS
 10
22.1871876088
 20
18.8125
 11
19.6871876088
 21
18.8125
  0
LINE
  5
231
100
AcDbEntity
  8
0
100
AcDbLine
 62
7
  6
CONTINUOUS
 10
11.5871876088
 20
18.8125
 11
9.0871876088
 21
18.8125
  0
LINE
  5
232
100
AcDbEntity
  8
0
100
AcDbLine
 62
7
  6
CONTINUOUS
 10
9.0871876088
 20
18.8125
 11
9.0871876088
 21
20.7625
  0
LINE
  5
233
100
AcDbEntity
  8
0
100
AcDbLine
 62
7
  6
CONTINUOUS
 10
9.0871876088
 20
55.9125
 11
9.0871876088
 21
57.8381215878
  0
LINE
  5
234
100
AcDbEntity
  8
0
100
AcDbLine
 62
7
  6
CONTINUOUS
 10
9.0871876088
 20
20.7625
 11
11.5871876088
 21
20.7625
  0
LINE
  5
235
100
AcDbEntity
  8
0
100
AcDbLine
 62
7
  6
CONTINUOUS
 10
19.6871876088
 20
20.7625
 11
22.1871876088
 21
20.7625
  0
LINE
  5
236
100
AcDbEntity
  8
0
100
AcDbLine
 62
7
  6
CONTINUOUS
 10
30.2871876088
 20
20.7625
 11
32.7871876088
 21
20.7625
  0
LINE
  5
237
100
AcDbEntity
  8
0
100
AcDbLine
 62
7
  6
CONTINUOUS
 10
40.8871876088
 20
20.7625
 11
43.3871876088
 21
20.7625
  0
LINE
  5
238
100
AcDbEntity
  8
0
100
AcDbLine
 62
7
  6
CONTINUOUS
 10
47.7371876088
 20
20.9125
 11
44.2371876088
 21
20.9125
  0
LINE
  5
239
100
AcDbEntity
  8
0
100
AcDbLine
 62
7
  6
CONTINUOUS
 10
43.6371876088
 20
20.9125
 11
40.1371876088
 21
20.9125
  0
LINE
  5
23A
100
AcDbEntity
  8
0
100
AcDbLine
 62
7
  6
CONTINUOUS
 10
37.1371876088
 20
20.9125
 11
33.6371876088
 21
20.9125
  0
LINE
  5
23B
100
AcDbEntity
  8
0
100
AcDbLine
 62
7
  6
CONTINUOUS
 10
33.0371876088
 20
20.9125
 11
29.5371876088
 21
20.9125
  0
LINE
  5
23C
100
AcDbEntity
  8
0
100
AcDbLine
 62
7
  6
CONTINUOUS
 10
26.5371876088
 20
20.9125
 11
23.0371876088
 21
20.9125
  0
LINE
  5
23D
100
AcDbEntity
  8
0
100
AcDbLine
 62
7
  6
CONTINUOUS
 10
22.4371876088
 20
20.9125
 11
18.9371876088
 21
20.9125
  0
LINE
  5
23E
100
AcDbEntity
  8
0
100
AcDbLine
 62
7
  6
CONTINUOUS
 10
15.9371876088
 20
20.9125
 11
12.4371876088
 21
20.9125
  0
LINE
  5
23F
100
AcDbEntity
  8
0
100
AcDbLine
 62
7
  6
CONTINUOUS
 10
11.8371876088
 20
20.9125
 11
8.3371876088
 21
20.9125
  0
LINE
  5
240
100
AcDbEntity
  8
0
100
AcDbLine
 62
7
  6
CONTINUOUS
 10
11.5871876088
 20
57.8381215878
 11
11.5871876088
 21
55.9125
  0
LINE
  5
241
100
AcDbEntity
  8
0
100
AcDbLine
 62
7
  6
CONTINUOUS
 10
11.5871876088
 20
20.7625
 11
11.5871876088
 21
18.8125
  0
LINE
  5
242
100
AcDbEntity
  8
0
100
AcDbLine
 62
7
  6
CONTINUOUS
 10
11.8371876088
 20
59.5425
 11
11.8371876088
 21
55.9125
  0
LINE
  5
243
100
AcDbEntity
  8
0
100
AcDbLine
 62
7
  6
CONTINUOUS
 10
11.8371876088
 20
53.8025
 11
11.8371876088
 21
49.6125
  0
LINE
  5
244
100
AcDbEntity
  8
0
100
AcDbLine
 62
7
  6
CONTINUOUS
 10
11.8371876088
 20
17.2825
 11
11.8371876088
 21
20.9125
  0
LINE
  5
245
100
AcDbEntity
  8
0
100
AcDbLine
 62
7
  6
CONTINUOUS
 10
11.8371876088
 20
23.0225
 11
11.8371876088
 21
27.2125
  0
LINE
  5
246
100
AcDbEntity
  8
0
100
AcDbLine
 62
7
  6
CONTINUOUS
 10
12.4371876088
 20
27.2125
 11
12.4371876088
 21
23.0225
  0
LINE
  5
247
100
AcDbEntity
  8
0
100
AcDbLine
 62
7
  6
CONTINUOUS
 10
12.4371876088
 20
20.9125
 11
12.4371876088
 21
17.2825
  0
LINE
  5
248
100
AcDbEntity
  8
0
100
AcDbLine
 62
7
  6
CONTINUOUS
 10
12.4371876088
 20
49.6125
 11
12.4371876088
 21
53.8025
  0
LINE
  5
249
100
AcDbEntity
  8
0
100
AcDbLine
 62
7
  6
CONTINUOUS
 10
12.4371876088
 20
55.9125
 11
12.4371876088
 21
59.5425
  0
LINE
  5
24A
100
AcDbEntity
  8
0
100
AcDbLine
 62
7
  6
CONTINUOUS
 10
12.6871876088
 20
18.9840489634
 11
12.6871876088
 21
20.9125
  0
LINE
  5
24B
100
AcDbEntity
  8
0
100
AcDbLine
 62
7
  6
CONTINUOUS
 10
12.6871876088
 20
56.0725
 11
12.6871876088
 21
58.0225
  0
LINE
  5
24C
100
AcDbEntity
  8
0
100
AcDbLine
 62
7
  6
CONTINUOUS
 10
8.2371876088
 20
23.0225
 11
11.8371876088
 21
23.0225
  0
LINE
  5
24D
100
AcDbEntity
  8
0
100
AcDbLine
 62
7
  6
CONTINUOUS
 10
12.4371876088
 20
23.0225
 11
16.0371876088
 21
23.0225
  0
LINE
  5
24E
100
AcDbEntity
  8
0
100
AcDbLine
 62
7
  6
CONTINUOUS
 10
18.8371876088
 20
23.0225
 11
22.4371876088
 21
23.0225
  0
LINE
  5
24F
100
AcDbEntity
  8
0
100
AcDbLine
 62
7
  6
CONTINUOUS
 10
23.0371876088
 20
23.0225
 11
26.6371876088
 21
23.0225
  0
LINE
  5
250
100
AcDbEntity
  8
0
100
AcDbLine
 62
7
  6
CONTINUOUS
 10
29.4371876088
 20
23.0225
 11
33.0371876088
 21
23.0225
  0
LINE
  5
251
100
AcDbEntity
  8
0
100
AcDbLine
 62
7
  6
CONTINUOUS
 10
33.6371876088
 20
23.0225
 11
37.2371876088
 21
23.0225
  0
LINE
  5
252
100
AcDbEntity
  8
0
100
AcDbLine
 62
7
  6
CONTINUOUS
 10
40.0371876088
 20
23.0225
 11
43.6371876088
 21
23.0225
  0
LINE
  5
253
100
AcDbEntity
  8
0
100
AcDbLine
 62
7
  6
CONTINUOUS
 10
44.2371876088
 20
23.0225
 11
47.8371876088
 21
23.0225
  0
LINE
  5
254
100
AcDbEntity
  8
0
100
AcDbLine
 62
7
  6
CONTINUOUS
 10
15.1871876088
 20
58.0225
 11
15.1871876088
 21
56.0725
  0
LINE
  5
255
100
AcDbEntity
  8
0
100
AcDbLine
 62
7
  6
CONTINUOUS
 10
15.1871876088
 20
20.9125
 11
15.1871876088
 21
18.9840489634
  0
LINE
  5
256
100
AcDbEntity
  8
0
100
AcDbLine
 62
7
  6
CONTINUOUS
 10
47.8371876088
 20
25.1725
 11
45.4171876089
 21
25.1725
  0
LINE
  5
257
100
AcDbEntity
  8
0
100
AcDbLine
 62
7
  6
CONTINUOUS
 10
37.2371876088
 20
25.1725
 11
34.8171876089
 21
25.1725
  0
LINE
  5
258
100
AcDbEntity
  8
0
100
AcDbLine
 62
7
  6
CONTINUOUS
 10
26.6371876088
 20
25.1725
 11
24.2171876089
 21
25.1725
  0
LINE
  5
259
100
AcDbEntity
  8
0
100
AcDbLine
 62
7
  6
CONTINUOUS
 10
16.0371876088
 20
25.1725
 11
13.6171876088
 21
25.1725
  0
LINE
  5
25A
100
AcDbEntity
  8
0
100
AcDbLine
 62
7
  6
CONTINUOUS
 10
43.6371876088
 20
25.2625
 11
40.0371876088
 21
25.2625
  0
LINE
  5
25B
100
AcDbEntity
  8
0
100
AcDbLine
 62
7
  6
CONTINUOUS
 10
33.0371876088
 20
25.2625
 11
29.4371876088
 21
25.2625
  0
LINE
  5
25C
100
AcDbEntity
  8
0
100
AcDbLine
 62
7
  6
CONTINUOUS
 10
22.4371876088
 20
25.2625
 11
18.8371876088
 21
25.2625
  0
LINE
  5
25D
100
AcDbEntity
  8
0
100
AcDbLine
 62
7
  6
CONTINUOUS
 10
11.8371876088
 20
25.2625
 11
8.2371876088
 21
25.2625
  0
LINE
  5
25E
100
AcDbEntity
  8
0
100
AcDbLine
 62
7
  6
CONTINUOUS
 10
15.7671876088
 20
51.5725
 11
15.7671876088
 21
49.6525
  0
LINE
  5
25F
100
AcDbEntity
  8
0
100
AcDbLine
 62
7
  6
CONTINUOUS
 10
15.9371876088
 20
59.5425
 11
15.9371876088
 21
55.9125
  0
LINE
  5
260
100
AcDbEntity
  8
0
100
AcDbLine
 62
7
  6
CONTINUOUS
 10
15.9371876088
 20
17.2825
 11
15.9371876088
 21
20.9125
  0
LINE
  5
261
100
AcDbEntity
  8
0
100
AcDbLine
 62
7
  6
CONTINUOUS
 10
16.0371876088
 20
53.8025
 11
16.0371876088
 21
49.6125
  0
LINE
  5
262
100
AcDbEntity
  8
0
100
AcDbLine
 62
7
  6
CONTINUOUS
 10
16.0371876088
 20
23.0225
 11
16.0371876088
 21
27.2125
  0
LINE
  5
263
100
AcDbEntity
  8
0
100
AcDbLine
 62
7
  6
CONTINUOUS
 10
47.8371876088
 20
27.2125
 11
44.2371876088
 21
27.2125
  0
LINE
  5
264
100
AcDbEntity
  8
0
100
AcDbLine
 62
7
  6
CONTINUOUS
 10
43.6371876088
 20
27.2125
 11
40.0371876088
 21
27.2125
  0
LINE
  5
265
100
AcDbEntity
  8
0
100
AcDbLine
 62
7
  6
CONTINUOUS
 10
37.2371876088
 20
27.2125
 11
33.6371876088
 21
27.2125
  0
LINE
  5
266
100
AcDbEntity
  8
0
100
AcDbLine
 62
7
  6
CONTINUOUS
 10
33.0371876088
 20
27.2125
 11
29.4371876088
 21
27.2125
  0
LINE
  5
267
100
AcDbEntity
  8
0
100
AcDbLine
 62
7
  6
CONTINUOUS
 10
26.6371876088
 20
27.2125
 11
23.0371876088
 21
27.2125
  0
LINE
  5
268
100
AcDbEntity
  8
0
100
AcDbLine
 62
7
  6
CONTINUOUS
 10
22.4371876088
 20
27.2125
 11
18.8371876088
 21
27.2125
  0
LINE
  5
269
100
AcDbEntity
  8
0
100
AcDbLine
 62
7
  6
CONTINUOUS
 10
16.0371876088
 20
27.2125
 11
12.4371876088
 21
27.2125
  0
LINE
  5
26A
100
AcDbEntity
  8
0
100
AcDbLine
 62
7
  6
CONTINUOUS
 10
11.8371876088
 20
27.2125
 11
8.2371876088
 21
27.2125
  0
LINE
  5
26B
100
AcDbEntity
  8
0
100
AcDbLine
 62
7
  6
CONTINUOUS
 10
18.7871876088
 20
34.3125
 11
18.7871876088
 21
42.5125
  0
LINE
  5
26C
100
AcDbEntity
  8
0
100
AcDbLine
 62
7
  6
CONTINUOUS
 10
18.8371876088
 20
27.2125
 11
18.8371876088
 21
23.0225
  0
LINE
  5
26D
100
AcDbEntity
  8
0
100
AcDbLine
 62
7
  6
CONTINUOUS
 10
18.8371876088
 20
49.6125
 11
18.8371876088
 21
53.8025
  0
LINE
  5
26E
100
AcDbEntity
  8
0
100
AcDbLine
 62
7
  6
CONTINUOUS
 10
18.9371876088
 20
20.9125
 11
18.9371876088
 21
17.2825
  0
LINE
  5
26F
100
AcDbEntity
  8
0
100
AcDbLine
 62
7
  6
CONTINUOUS
 10
18.9371876088
 20
55.9125
 11
18.9371876088
 21
59.5425
  0
LINE
  5
270
100
AcDbEntity
  8
0
100
AcDbLine
 62
7
  6
CONTINUOUS
 10
19.0371876088
 20
34.5625
 11
19.0371876088
 21
42.2625
  0
LINE
  5
271
100
AcDbEntity
  8
0
100
AcDbLine
 62
7
  6
CONTINUOUS
 10
19.6871876088
 20
18.8125
 11
19.6871876088
 21
20.7625
  0
LINE
  5
272
100
AcDbEntity
  8
0
100
AcDbLine
 62
7
  6
CONTINUOUS
 10
19.6871876088
 20
55.9125
 11
19.6871876088
 21
57.8381215878
  0
LINE
  5
273
100
AcDbEntity
  8
0
100
AcDbLine
 62
7
  6
CONTINUOUS
 10
22.1871876088
 20
57.8381215878
 11
22.1871876088
 21
55.9125
  0
LINE
  5
274
100
AcDbEntity
  8
0
100
AcDbLine
 62
7
  6
CONTINUOUS
 10
22.1871876088
 20
20.7625
 11
22.1871876088
 21
18.8125
  0
LINE
  5
275
100
AcDbEntity
  8
0
100
AcDbLine
 62
7
  6
CONTINUOUS
 10
22.4371876088
 20
59.5425
 11
22.4371876088
 21
55.9125
  0
LINE
  5
276
100
AcDbEntity
  8
0
100
AcDbLine
 62
7
  6
CONTINUOUS
 10
22.4371876088
 20
53.8025
 11
22.4371876088
 21
49.6125
  0
LINE
  5
277
100
AcDbEntity
  8
0
100
AcDbLine
 62
7
  6
CONTINUOUS
 10
22.4371876088
 20
17.2825
 11
22.4371876088
 21
20.9125
  0
LINE
  5
278
100
AcDbEntity
  8
0
100
AcDbLine
 62
7
  6
CONTINUOUS
 10
22.4371876088
 20
23.0225
 11
22.4371876088
 21
27.2125
  0
LINE
  5
279
100
AcDbEntity
  8
0
100
AcDbLine
 62
7
  6
CONTINUOUS
 10
23.0371876088
 20
27.2125
 11
23.0371876088
 21
23.0225
  0
LINE
  5
27A
100
AcDbEntity
  8
0
100
AcDbLine
 62
7
  6
CONTINUOUS
 10
23.0371876088
 20
20.9125
 11
23.0371876088
 21
17.2825
  0
LINE
  5
27B
100
AcDbEntity
  8
0
100
AcDbLine
 62
7
  6
CONTINUOUS
 10
23.0371876088
 20
49.6125
 11
23.0371876088
 21
53.8025
  0
LINE
  5
27C
100
AcDbEntity
  8
0
100
AcDbLine
 62
7
  6
CONTINUOUS
 10
23.0371876088
 20
55.9125
 11
23.0371876088
 21
59.5425
  0
LINE
  5
27D
100
AcDbEntity
  8
0
100
AcDbLine
 62
7
  6
CONTINUOUS
 10
23.2871876088
 20
18.9868784122
 11
23.2871876088
 21
20.9125
  0
LINE
  5
27E
100
AcDbEntity
  8
0
100
AcDbLine
 62
7
  6
CONTINUOUS
 10
23.2871876088
 20
56.0725
 11
23.2871876088
 21
58.0225
  0
LINE
  5
27F
100
AcDbEntity
  8
0
100
AcDbLine
 62
7
  6
CONTINUOUS
 10
46.4371876088
 20
34.1625
 11
41.9371876088
 21
34.1625
  0
LINE
  5
280
100
AcDbEntity
  8
0
100
AcDbLine
 62
7
  6
CONTINUOUS
 10
37.2871876088
 20
34.3125
 11
18.7871876088
 21
34.3125
  0
LINE
  5
281
100
AcDbEntity
  8
0
100
AcDbLine
 62
7
  6
CONTINUOUS
 10
36.8871876088
 20
34.4125
 11
19.1871876088
 21
34.4125
  0
LINE
  5
282
100
AcDbEntity
  8
0
100
AcDbLine
 62
7
  6
CONTINUOUS
 10
25.7871876088
 20
58.0225
 11
25.7871876088
 21
56.0725
  0
LINE
  5
283
100
AcDbEntity
  8
0
100
AcDbLine
 62
7
  6
CONTINUOUS
 10
25.7871876088
 20
20.9125
 11
25.7871876088
 21
18.9868784122
  0
LINE
  5
284
100
AcDbEntity
  8
0
100
AcDbLine
 62
7
  6
CONTINUOUS
 10
42.1886079532
 20
34.6625
 11
45.6871876088
 21
34.6625
  0
LINE
  5
285
100
AcDbEntity
  8
0
100
AcDbLine
 62
7
  6
CONTINUOUS
 10
26.3171876088
 20
51.5625
 11
26.3171876088
 21
49.6525
  0
LINE
  5
286
100
AcDbEntity
  8
0
100
AcDbLine
 62
7
  6
CONTINUOUS
 10
26.5371876088
 20
59.5425
 11
26.5371876088
 21
55.9125
  0
LINE
  5
287
100
AcDbEntity
  8
0
100
AcDbLine
 62
7
  6
CONTINUOUS
 10
26.5371876088
 20
17.2825
 11
26.5371876088
 21
20.9125
  0
LINE
  5
288
100
AcDbEntity
  8
0
100
AcDbLine
 62
7
  6
CONTINUOUS
 10
26.6371876088
 20
53.8025
 11
26.6371876088
 21
49.6125
  0
LINE
  5
289
100
AcDbEntity
  8
0
100
AcDbLine
 62
7
  6
CONTINUOUS
 10
26.6371876088
 20
23.0225
 11
26.6371876088
 21
27.2125
  0
LINE
  5
28A
100
AcDbEntity
  8
0
100
AcDbLine
 62
7
  6
CONTINUOUS
 10
29.4371876088
 20
27.2125
 11
29.4371876088
 21
23.0225
  0
LINE
  5
28B
100
AcDbEntity
  8
0
100
AcDbLine
 62
7
  6
CONTINUOUS
 10
29.4371876088
 20
49.6125
 11
29.4371876088
 21
53.8025
  0
LINE
  5
28C
100
AcDbEntity
  8
0
100
AcDbLine
 62
7
  6
CONTINUOUS
 10
29.5371876088
 20
20.9125
 11
29.5371876088
 21
17.2825
  0
LINE
  5
28D
100
AcDbEntity
  8
0
100
AcDbLine
 62
7
  6
CONTINUOUS
 10
29.5371876088
 20
55.9125
 11
29.5371876088
 21
59.5425
  0
LINE
  5
28E
100
AcDbEntity
  8
0
100
AcDbLine
 62
7
  6
CONTINUOUS
 10
30.2871876088
 20
18.8125
 11
30.2871876088
 21
20.7625
  0
LINE
  5
28F
100
AcDbEntity
  8
0
100
AcDbLine
 62
7
  6
CONTINUOUS
 10
30.2871876088
 20
55.9125
 11
30.2871876088
 21
57.8381215878
  0
LINE
  5
290
100
AcDbEntity
  8
0
100
AcDbLine
 62
7
  6
CONTINUOUS
 10
45.6871876088
 20
42.1625
 11
42.1871876088
 21
42.1625
  0
LINE
  5
291
100
AcDbEntity
  8
0
100
AcDbLine
 62
7
  6
CONTINUOUS
 10
19.1871876088
 20
42.4125
 11
36.8871876088
 21
42.4125
  0
LINE
  5
292
100
AcDbEntity
  8
0
100
AcDbLine
 62
7
  6
CONTINUOUS
 10
18.7871876088
 20
42.5125
 11
37.2871876088
 21
42.5125
  0
LINE
  5
293
100
AcDbEntity
  8
0
100
AcDbLine
 62
7
  6
CONTINUOUS
 10
41.9371876088
 20
42.6625
 11
46.4371876088
 21
42.6625
  0
LINE
  5
294
100
AcDbEntity
  8
0
100
AcDbLine
 62
7
  6
CONTINUOUS
 10
32.7871876088
 20
57.8381215878
 11
32.7871876088
 21
55.9125
  0
LINE
  5
295
100
AcDbEntity
  8
0
100
AcDbLine
 62
7
  6
CONTINUOUS
 10
32.7871876088
 20
20.7625
 11
32.7871876088
 21
18.8125
  0
LINE
  5
296
100
AcDbEntity
  8
0
100
AcDbLine
 62
7
  6
CONTINUOUS
 10
33.0371876088
 20
59.5425
 11
33.0371876088
 21
55.9125
  0
LINE
  5
297
100
AcDbEntity
  8
0
100
AcDbLine
 62
7
  6
CONTINUOUS
 10
33.0371876088
 20
53.8025
 11
33.0371876088
 21
49.6125
  0
LINE
  5
298
100
AcDbEntity
  8
0
100
AcDbLine
 62
7
  6
CONTINUOUS
 10
33.0371876088
 20
17.2825
 11
33.0371876088
 21
20.9125
  0
LINE
  5
299
100
AcDbEntity
  8
0
100
AcDbLine
 62
7
  6
CONTINUOUS
 10
33.0371876088
 20
23.0225
 11
33.0371876088
 21
27.2125
  0
LINE
  5
29A
100
AcDbEntity
  8
0
100
AcDbLine
 62
7
  6
CONTINUOUS
 10
33.6371876088
 20
27.2125
 11
33.6371876088
 21
23.0225
  0
LINE
  5
29B
100
AcDbEntity
  8
0
100
AcDbLine
 62
7
  6
CONTINUOUS
 10
33.6371876088
 20
20.9125
 11
33.6371876088
 21
17.2825
  0
LINE
  5
29C
100
AcDbEntity
  8
0
100
AcDbLine
 62
7
  6
CONTINUOUS
 10
33.6371876088
 20
49.6125
 11
33.6371876088
 21
53.8025
  0
LINE
  5
29D
100
AcDbEntity
  8
0
100
AcDbLine
 62
7
  6
CONTINUOUS
 10
33.6371876088
 20
55.9125
 11
33.6371876088
 21
59.5425
  0
LINE
  5
29E
100
AcDbEntity
  8
0
100
AcDbLine
 62
7
  6
CONTINUOUS
 10
33.8871876088
 20
18.9868784122
 11
33.8871876088
 21
20.9125
  0
LINE
  5
29F
100
AcDbEntity
  8
0
100
AcDbLine
 62
7
  6
CONTINUOUS
 10
33.8871876088
 20
56.0725
 11
33.8871876088
 21
58.0225
  0
LINE
  5
2A0
100
AcDbEntity
  8
0
100
AcDbLine
 62
7
  6
CONTINUOUS
 10
36.3871876088
 20
58.0225
 11
36.3871876088
 21
56.0725
  0
LINE
  5
2A1
100
AcDbEntity
  8
0
100
AcDbLine
 62
7
  6
CONTINUOUS
 10
36.3871876088
 20
20.9125
 11
36.3871876088
 21
18.9868784122
  0
LINE
  5
2A2
100
AcDbEntity
  8
0
100
AcDbLine
 62
7
  6
CONTINUOUS
 10
36.9671876088
 20
51.5725
 11
36.9671876088
 21
49.6525
  0
LINE
  5
2A3
100
AcDbEntity
  8
0
100
AcDbLine
 62
7
  6
CONTINUOUS
 10
37.0371876088
 20
42.2625
 11
37.0371876088
 21
34.5625
  0
LINE
  5
2A4
100
AcDbEntity
  8
0
100
AcDbLine
 62
7
  6
CONTINUOUS
 10
37.1371876088
 20
59.5425
 11
37.1371876088
 21
55.9125
  0
LINE
  5
2A5
100
AcDbEntity
  8
0
100
AcDbLine
 62
7
  6
CONTINUOUS
 10
37.1371876088
 20
17.2825
 11
37.1371876088
 21
20.9125
  0
LINE
  5
2A6
100
AcDbEntity
  8
0
100
AcDbLine
 62
7
  6
CONTINUOUS
 10
37.2371876088
 20
53.8025
 11
37.2371876088
 21
49.6125
  0
LINE
  5
2A7
100
AcDbEntity
  8
0
100
AcDbLine
 62
7
  6
CONTINUOUS
 10
37.2371876088
 20
23.0225
 11
37.2371876088
 21
27.2125
  0
LINE
  5
2A8
100
AcDbEntity
  8
0
100
AcDbLine
 62
7
  6
CONTINUOUS
 10
37.2871876088
 20
42.5125
 11
37.2871876088
 21
34.3125
  0
LINE
  5
2A9
100
AcDbEntity
  8
0
100
AcDbLine
 62
7
  6
CONTINUOUS
 10
40.0371876088
 20
27.2125
 11
40.0371876088
 21
23.0225
  0
LINE
  5
2AA
100
AcDbEntity
  8
0
100
AcDbLine
 62
7
  6
CONTINUOUS
 10
40.0371876088
 20
49.6125
 11
40.0371876088
 21
53.8025
  0
LINE
  5
2AB
100
AcDbEntity
  8
0
100
AcDbLine
 62
7
  6
CONTINUOUS
 10
40.1371876088
 20
20.9125
 11
40.1371876088
 21
17.2825
  0
LINE
  5
2AC
100
AcDbEntity
  8
0
100
AcDbLine
 62
7
  6
CONTINUOUS
 10
40.1371876088
 20
55.9125
 11
40.1371876088
 21
59.5425
  0
LINE
  5
2AD
100
AcDbEntity
  8
0
100
AcDbLine
 62
7
  6
CONTINUOUS
 10
40.8871876088
 20
18.8125
 11
40.8871876088
 21
20.7625
  0
LINE
  5
2AE
100
AcDbEntity
  8
0
100
AcDbLine
 62
7
  6
CONTINUOUS
 10
40.8871876088
 20
55.9125
 11
40.8871876088
 21
57.8381215878
  0
LINE
  5
2AF
100
AcDbEntity
  8
0
100
AcDbLine
 62
7
  6
CONTINUOUS
 10
47.8371876088
 20
49.6125
 11
44.2371876088
 21
49.6125
  0
LINE
  5
2B0
100
AcDbEntity
  8
0
100
AcDbLine
 62
7
  6
CONTINUOUS
 10
43.6371876088
 20
49.6125
 11
40.0371876088
 21
49.6125
  0
LINE
  5
2B1
100
AcDbEntity
  8
0
100
AcDbLine
 62
7
  6
CONTINUOUS
 10
37.2371876088
 20
49.6125
 11
33.6371876088
 21
49.6125
  0
LINE
  5
2B2
100
AcDbEntity
  8
0
100
AcDbLine
 62
7
  6
CONTINUOUS
 10
33.0371876088
 20
49.6125
 11
29.4371876088
 21
49.6125
  0
LINE
  5
2B3
100
AcDbEntity
  8
0
100
AcDbLine
 62
7
  6
CONTINUOUS
 10
26.6371876088
 20
49.6125
 11
23.0371876088
 21
49.6125
  0
LINE
  5
2B4
100
AcDbEntity
  8
0
100
AcDbLine
 62
7
  6
CONTINUOUS
 10
22.4371876088
 20
49.6125
 11
18.8371876088
 21
49.6125
  0
LINE
  5
2B5
100
AcDbEntity
  8
0
100
AcDbLine
 62
7
  6
CONTINUOUS
 10
16.0371876088
 20
49.6125
 11
12.4371876088
 21
49.6125
  0
LINE
  5
2B6
100
AcDbEntity
  8
0
100
AcDbLine
 62
7
  6
CONTINUOUS
 10
11.8371876088
 20
49.6125
 11
8.2371876088
 21
49.6125
  0
LINE
  5
2B7
100
AcDbEntity
  8
0
100
AcDbLine
 62
7
  6
CONTINUOUS
 10
47.5671876088
 20
49.6525
 11
44.2371876088
 21
49.6525
  0
LINE
  5
2B8
100
AcDbEntity
  8
0
100
AcDbLine
 62
7
  6
CONTINUOUS
 10
36.9671876088
 20
49.6525
 11
33.6371876088
 21
49.6525
  0
LINE
  5
2B9
100
AcDbEntity
  8
0
100
AcDbLine
 62
7
  6
CONTINUOUS
 10
26.3171876088
 20
49.6525
 11
23.0371876088
 21
49.6525
  0
LINE
  5
2BA
100
AcDbEntity
  8
0
100
AcDbLine
 62
7
  6
CONTINUOUS
 10
15.7671876088
 20
49.6525
 11
12.4371876088
 21
49.6525
  0
LINE
  5
2BB
100
AcDbEntity
  8
0
100
AcDbLine
 62
7
  6
CONTINUOUS
 10
23.0371876088
 20
51.5625
 11
26.3171876088
 21
51.5625
  0
LINE
  5
2BC
100
AcDbEntity
  8
0
100
AcDbLine
 62
7
  6
CONTINUOUS
 10
41.9371876088
 20
34.1625
 11
41.9371876088
 21
42.6625
  0
LINE
  5
2BD
100
AcDbEntity
  8
0
100
AcDbLine
 62
7
  6
CONTINUOUS
 10
42.1871876088
 20
34.6625
 11
42.1871876088
 21
42.1625
  0
LINE
  5
2BE
100
AcDbEntity
  8
0
100
AcDbLine
 62
7
  6
CONTINUOUS
 10
42.7477498246
 20
42.1625
 11
42.7477498246
 21
34.6625
  0
LINE
  5
2BF
100
AcDbEntity
  8
0
100
AcDbLine
 62
7
  6
CONTINUOUS
 10
43.2428265623
 20
42.1625
 11
43.2428265623
 21
34.6625
  0
LINE
  5
2C0
100
AcDbEntity
  8
0
100
AcDbLine
 62
7
  6
CONTINUOUS
 10
12.4371876088
 20
51.5725
 11
15.7671876088
 21
51.5725
  0
LINE
  5
2C1
100
AcDbEntity
  8
0
100
AcDbLine
 62
7
  6
CONTINUOUS
 10
33.6371876088
 20
51.5725
 11
36.9671876088
 21
51.5725
  0
LINE
  5
2C2
100
AcDbEntity
  8
0
100
AcDbLine
 62
7
  6
CONTINUOUS
 10
44.2371876088
 20
51.5725
 11
47.5671876088
 21
51.5725
  0
LINE
  5
2C3
100
AcDbEntity
  8
0
100
AcDbLine
 62
7
  6
CONTINUOUS
 10
8.2371876088
 20
51.6525
 11
10.6871876088
 21
51.6525
  0
LINE
  5
2C4
100
AcDbEntity
  8
0
100
AcDbLine
 62
7
  6
CONTINUOUS
 10
18.8371876088
 20
51.6525
 11
21.2371876088
 21
51.6525
  0
LINE
  5
2C5
100
AcDbEntity
  8
0
100
AcDbLine
 62
7
  6
CONTINUOUS
 10
29.4371876088
 20
51.6525
 11
31.8871876088
 21
51.6525
  0
LINE
  5
2C6
100
AcDbEntity
  8
0
100
AcDbLine
 62
7
  6
CONTINUOUS
 10
40.0371876088
 20
51.6525
 11
42.4871876088
 21
51.6525
  0
LINE
  5
2C7
100
AcDbEntity
  8
0
100
AcDbLine
 62
7
  6
CONTINUOUS
 10
43.3871876088
 20
57.8381215878
 11
43.3871876088
 21
55.9125
  0
LINE
  5
2C8
100
AcDbEntity
  8
0
100
AcDbLine
 62
7
  6
CONTINUOUS
 10
43.3871876088
 20
20.7625
 11
43.3871876088
 21
18.8125
  0
LINE
  5
2C9
100
AcDbEntity
  8
0
100
AcDbLine
 62
7
  6
CONTINUOUS
 10
43.6371876088
 20
59.5425
 11
43.6371876088
 21
55.9125
  0
LINE
  5
2CA
100
AcDbEntity
  8
0
100
AcDbLine
 62
7
  6
CONTINUOUS
 10
43.6371876088
 20
53.8025
 11
43.6371876088
 21
49.6125
  0
LINE
  5
2CB
100
AcDbEntity
  8
0
100
AcDbLine
 62
7
  6
CONTINUOUS
 10
43.6371876088
 20
17.2825
 11
43.6371876088
 21
20.9125
  0
LINE
  5
2CC
100
AcDbEntity
  8
0
100
AcDbLine
 62
7
  6
CONTINUOUS
 10
43.6371876088
 20
23.0225
 11
43.6371876088
 21
27.2125
  0
LINE
  5
2CD
100
AcDbEntity
  8
0
100
AcDbLine
 62
7
  6
CONTINUOUS
 10
43.9371876089
 20
42.1625
 11
43.9371876089
 21
34.6625
  0
LINE
  5
2CE
100
AcDbEntity
  8
0
100
AcDbLine
 62
7
  6
CONTINUOUS
 10
44.2371876088
 20
27.2125
 11
44.2371876088
 21
23.0225
  0
LINE
  5
2CF
100
AcDbEntity
  8
0
100
AcDbLine
 62
7
  6
CONTINUOUS
 10
44.2371876088
 20
20.9125
 11
44.2371876088
 21
17.2825
  0
LINE
  5
2D0
100
AcDbEntity
  8
0
100
AcDbLine
 62
7
  6
CONTINUOUS
 10
44.2371876088
 20
49.6125
 11
44.2371876088
 21
53.8025
  0
LINE
  5
2D1
100
AcDbEntity
  8
0
100
AcDbLine
 62
7
  6
CONTINUOUS
 10
44.2371876088
 20
55.9125
 11
44.2371876088
 21
59.5425
  0
LINE
  5
2D2
100
AcDbEntity
  8
0
100
AcDbLine
 62
7
  6
CONTINUOUS
 10
44.4702904194
 20
34.6625
 11
44.4702904194
 21
42.1625
  0
LINE
  5
2D3
100
AcDbEntity
  8
0
100
AcDbLine
 62
7
  6
CONTINUOUS
 10
44.4871876088
 20
18.9868784122
 11
44.4871876088
 21
20.9125
  0
LINE
  5
2D4
100
AcDbEntity
  8
0
100
AcDbLine
 62
7
  6
CONTINUOUS
 10
44.4871876088
 20
56.0725
 11
44.4871876088
 21
58.0225
  0
LINE
  5
2D5
100
AcDbEntity
  8
0
100
AcDbLine
 62
7
  6
CONTINUOUS
 10
45.2580846737
 20
42.1625
 11
45.2580846737
 21
34.6625
  0
LINE
  5
2D6
100
AcDbEntity
  8
0
100
AcDbLine
 62
7
  6
CONTINUOUS
 10
8.2371876088
 20
53.8025
 11
11.8371876088
 21
53.8025
  0
LINE
  5
2D7
100
AcDbEntity
  8
0
100
AcDbLine
 62
7
  6
CONTINUOUS
 10
12.4371876088
 20
53.8025
 11
16.0371876088
 21
53.8025
  0
LINE
  5
2D8
100
AcDbEntity
  8
0
100
AcDbLine
 62
7
  6
CONTINUOUS
 10
18.8371876088
 20
53.8025
 11
22.4371876088
 21
53.8025
  0
LINE
  5
2D9
100
AcDbEntity
  8
0
100
AcDbLine
 62
7
  6
CONTINUOUS
 10
23.0371876088
 20
53.8025
 11
26.6371876088
 21
53.8025
  0
LINE
  5
2DA
100
AcDbEntity
  8
0
100
AcDbLine
 62
7
  6
CONTINUOUS
 10
29.4371876088
 20
53.8025
 11
33.0371876088
 21
53.8025
  0
LINE
  5
2DB
100
AcDbEntity
  8
0
100
AcDbLine
 62
7
  6
CONTINUOUS
 10
33.6371876088
 20
53.8025
 11
37.2371876088
 21
53.8025
  0
LINE
  5
2DC
100
AcDbEntity
  8
0
100
AcDbLine
 62
7
  6
CONTINUOUS
 10
40.0371876088
 20
53.8025
 11
43.6371876088
 21
53.8025
  0
LINE
  5
2DD
100
AcDbEntity
  8
0
100
AcDbLine
 62
7
  6
CONTINUOUS
 10
44.2371876088
 20
53.8025
 11
47.8371876088
 21
53.8025
  0
LINE
  5
2DE
100
AcDbEntity
  8
0
100
AcDbLine
 62
7
  6
CONTINUOUS
 10
45.6871876088
 20
42.1625
 11
45.6871876088
 21
34.6625
  0
LINE
  5
2DF
100
AcDbEntity
  8
0
100
AcDbLine
 62
7
  6
CONTINUOUS
 10
46.4371876088
 20
42.6625
 11
46.4371876088
 21
34.1625
  0
LINE
  5
2E0
100
AcDbEntity
  8
0
100
AcDbLine
 62
7
  6
CONTINUOUS
 10
46.9871876088
 20
58.0225
 11
46.9871876088
 21
56.0725
  0
LINE
  5
2E1
100
AcDbEntity
  8
0
100
AcDbLine
 62
7
  6
CONTINUOUS
 10
46.9871876088
 20
20.9125
 11
46.9871876088
 21
18.9868784122
  0
LINE
  5
2E2
100
AcDbEntity
  8
0
100
AcDbLine
 62
7
  6
CONTINUOUS
 10
47.5671876088
 20
51.5725
 11
47.5671876088
 21
49.6525
  0
LINE
  5
2E3
100
AcDbEntity
  8
0
100
AcDbLine
 62
7
  6
CONTINUOUS
 10
47.7371876088
 20
55.9125
 11
44.2371876088
 21
55.9125
  0
LINE
  5
2E4
100
AcDbEntity
  8
0
100
AcDbLine
 62
7
  6
CONTINUOUS
 10
43.6371876088
 20
55.9125
 11
40.1371876088
 21
55.9125
  0
LINE
  5
2E5
100
AcDbEntity
  8
0
100
AcDbLine
 62
7
  6
CONTINUOUS
 10
37.1371876088
 20
55.9125
 11
33.6371876088
 21
55.9125
  0
LINE
  5
2E6
100
AcDbEntity
  8
0
100
AcDbLine
 62
7
  6
CONTINUOUS
 10
33.0371876088
 20
55.9125
 11
29.5371876088
 21
55.9125
  0
LINE
  5
2E7
100
AcDbEntity
  8
0
100
AcDbLine
 62
7
  6
CONTINUOUS
 10
26.5371876088
 20
55.9125
 11
23.0371876088
 21
55.9125
  0
LINE
  5
2E8
100
AcDbEntity
  8
0
100
AcDbLine
 62
7
  6
CONTINUOUS
 10
22.4371876088
 20
55.9125
 11
18.9371876088
 21
55.9125
  0
LINE
  5
2E9
100
AcDbEntity
  8
0
100
AcDbLine
 62
7
  6
CONTINUOUS
 10
15.9371876088
 20
55.9125
 11
12.4371876088
 21
55.9125
  0
LINE
  5
2EA
100
AcDbEntity
  8
0
100
AcDbLine
 62
7
  6
CONTINUOUS
 10
11.8371876088
 20
55.9125
 11
8.3371876088
 21
55.9125
  0
LINE
  5
2EB
100
AcDbEntity
  8
0
100
AcDbLine
 62
7
  6
CONTINUOUS
 10
46.9871876088
 20
56.0725
 11
44.4871876088
 21
56.0725
  0
LINE
  5
2EC
100
AcDbEntity
  8
0
100
AcDbLine
 62
7
  6
CONTINUOUS
 10
36.3871876088
 20
56.0725
 11
33.8871876088
 21
56.0725
  0
LINE
  5
2ED
100
AcDbEntity
  8
0
100
AcDbLine
 62
7
  6
CONTINUOUS
 10
25.7871876088
 20
56.0725
 11
23.2871876088
 21
56.0725
  0
LINE
  5
2EE
100
AcDbEntity
  8
0
100
AcDbLine
 62
7
  6
CONTINUOUS
 10
15.1871876088
 20
56.0725
 11
12.6871876088
 21
56.0725
  0
LINE
  5
2EF
100
AcDbEntity
  8
0
100
AcDbLine
 62
7
  6
CONTINUOUS
 10
47.7371876088
 20
59.5425
 11
47.7371876088
 21
55.9125
  0
LINE
  5
2F0
100
AcDbEntity
  8
0
100
AcDbLine
 62
7
  6
CONTINUOUS
 10
47.7371876088
 20
17.2825
 11
47.7371876088
 21
20.9125
  0
LINE
  5
2F1
100
AcDbEntity
  8
0
100
AcDbLine
 62
7
  6
CONTINUOUS
 10
47.8371876088
 20
53.8025
 11
47.8371876088
 21
49.6125
  0
LINE
  5
2F2
100
AcDbEntity
  8
0
100
AcDbLine
 62
7
  6
CONTINUOUS
 10
47.8371876088
 20
23.0225
 11
47.8371876088
 21
27.2125
  0
LINE
  5
2F3
100
AcDbEntity
  8
0
100
AcDbLine
 62
7
  6
CONTINUOUS
 10
12.6871876088
 20
58.0225
 11
15.1871876088
 21
58.0225
  0
LINE
  5
2F4
100
AcDbEntity
  8
0
100
AcDbLine
 62
7
  6
CONTINUOUS
 10
23.2871876088
 20
58.0225
 11
25.7871876088
 21
58.0225
  0
LINE
  5
2F5
100
AcDbEntity
  8
0
100
AcDbLine
 62
7
  6
CONTINUOUS
 10
33.8871876088
 20
58.0225
 11
36.3871876088
 21
58.0225
  0
LINE
  5
2F6
100
AcDbEntity
  8
0
100
AcDbLine
 62
7
  6
CONTINUOUS
 10
44.4871876088
 20
58.0225
 11
46.9871876088
 21
58.0225
  0
LINE
  5
2F7
100
AcDbEntity
  8
0
100
AcDbLine
 62
7
  6
CONTINUOUS
 10
9.5871876088
 20
58.355759678
 11
11.0871876088
 21
58.355759678
  0
LINE
  5
2F8
100
AcDbEntity
  8
0
100
AcDbLine
 62
7
  6
CONTINUOUS
 10
20.1871876088
 20
58.355759678
 11
21.6871876088
 21
58.355759678
  0
LINE
  5
2F9
100
AcDbEntity
  8
0
100
AcDbLine
 62
7
  6
CONTINUOUS
 10
30.7871876088
 20
58.355759678
 11
32.2871876088
 21
58.355759678
  0
LINE
  5
2FA
100
AcDbEntity
  8
0
100
AcDbLine
 62
7
  6
CONTINUOUS
 10
41.3871876088
 20
58.355759678
 11
42.8871876088
 21
58.355759678
  0
LINE
  5
2FB
100
AcDbEntity
  8
0
100
AcDbLine
 62
7
  6
CONTINUOUS
 10
49.9871876088
 20
14.9125
 11
49.9871876088
 21
61.9125
  0
LINE
  5
2FC
100
AcDbEntity
  8
0
100
AcDbLine
 62
7
  6
CONTINUOUS
 10
9.5371876088
 20
60.7825
 11
10.6371876088
 21
60.7825
  0
LINE
  5
2FD
100
AcDbEntity
  8
0
100
AcDbLine
 62
7
  6
CONTINUOUS
 10
13.6371876088
 20
60.7825
 11
14.7371876088
 21
60.7825
  0
LINE
  5
2FE
100
AcDbEntity
  8
0
100
AcDbLine
 62
7
  6
CONTINUOUS
 10
20.1371876088
 20
60.7825
 11
21.2371876088
 21
60.7825
  0
LINE
  5
2FF
100
AcDbEntity
  8
0
100
AcDbLine
 62
7
  6
CONTINUOUS
 10
24.2371876088
 20
60.7825
 11
25.3371876088
 21
60.7825
  0
LINE
  5
300
100
AcDbEntity
  8
0
100
AcDbLine
 62
7
  6
CONTINUOUS
 10
30.7371876088
 20
60.7825
 11
31.8371876088
 21
60.7825
  0
LINE
  5
301
100
AcDbEntity
  8
0
100
AcDbLine
 62
7
  6
CONTINUOUS
 10
34.8371876088
 20
60.7825
 11
35.9371876088
 21
60.7825
  0
LINE
  5
302
100
AcDbEntity
  8
0
100
AcDbLine
 62
7
  6
CONTINUOUS
 10
41.3371876088
 20
60.7825
 11
42.4371876088
 21
60.7825
  0
LINE
  5
303
100
AcDbEntity
  8
0
100
AcDbLine
 62
7
  6
CONTINUOUS
 10
45.4371876088
 20
60.7825
 11
46.5371876088
 21
60.7825
  0
LINE
  5
304
100
AcDbEntity
  8
0
100
AcDbLine
 62
7
  6
CONTINUOUS
 10
49.9871876088
 20
61.4125
 11
6.0871876088
 21
61.4125
  0
LINE
  5
305
100
AcDbEntity
  8
0
100
AcDbLine
 62
7
  6
CONTINUOUS
 10
6.0871876088
 20
61.9125
 11
49.9871876088
 21
61.9125
  0
ARC
  5
306
100
AcDbEntity
  8
0
100
AcDbCircle
 62
7
  6
CONTINUOUS
 10
12.1399372335
 20
24.9122475678
 40
1.5
100
AcDbArc
 50
9.9914735214
 51
78.5702142455
  0
ARC
  5
307
100
AcDbEntity
  8
0
100
AcDbCircle
 62
7
  6
CONTINUOUS
 10
22.7399372335
 20
24.9122475678
 40
1.5
100
AcDbArc
 50
9.9914735214
 51
78.5702142457
  0
ARC
  5
308
100
AcDbEntity
  8
0
100
AcDbCircle
 62
7
  6
CONTINUOUS
 10
33.3399372335
 20
24.9122475678
 40
1.5
100
AcDbArc
 50
9.9914735214
 51
78.5702142457
  0
ARC
  5
309
100
AcDbEntity
  8
0
100
AcDbCircle
 62
7
  6
CONTINUOUS
 10
43.9399372335
 20
24.9122475678
 40
1.5
100
AcDbArc
 50
9.9914735214
 51
78.5702142457
  0
ARC
  5
30A
100
AcDbEntity
  8
0
100
AcDbCircle
 62
7
  6
CONTINUOUS
 10
12.1637210873
 20
51.9167894001
 40
1.5
100
AcDbArc
 50
190.1480869313
 51
257.4266678329
  0
ARC
  5
30B
100
AcDbEntity
  8
0
100
AcDbCircle
 62
7
  6
CONTINUOUS
 10
22.7137210873
 20
51.9167894001
 40
1.5
100
AcDbArc
 50
190.1480869313
 51
259.3764321502
  0
ARC
  5
30C
100
AcDbEntity
  8
0
100
AcDbCircle
 62
7
  6
CONTINUOUS
 10
33.3637210873
 20
51.9167894001
 40
1.5
100
AcDbArc
 50
190.1480869313
 51
257.4266678329
  0
ARC
  5
30D
100
AcDbEntity
  8
0
100
AcDbCircle
 62
7
  6
CONTINUOUS
 10
43.9637210873
 20
51.9167894001
 40
1.5
100
AcDbArc
 50
190.1480869313
 51
257.4266678329
  0
ARC
  5
30E
100
AcDbEntity
  8
0
100
AcDbCircle
 62
7
  6
CONTINUOUS
 10
36.8871876088
 20
34.5625
 40
0.15
100
AcDbArc
 50
269.9999999998
 51
360.0
  0
ARC
  5
30F
100
AcDbEntity
  8
0
100
AcDbCircle
 62
7
  6
CONTINUOUS
 10
36.8871876088
 20
42.2625
 40
0.15
100
AcDbArc
 50
0.0
 51
90.0000000002
  0
ARC
  5
310
100
AcDbEntity
  8
0
100
AcDbCircle
 62
7
  6
CONTINUOUS
 10
19.1871876088
 20
42.2625
 40
0.15
100
AcDbArc
 50
89.9999999998
 51
180.0000000002
  0
ARC
  5
311
100
AcDbEntity
  8
0
100
AcDbCircle
 62
7
  6
CONTINUOUS
 10
19.1871876088
 20
34.5625
 40
0.15
100
AcDbArc
 50
179.9999999998
 51
270.0000000002
  0
ELLIPSE
  5
312
100
AcDbEntity
  8
0
100
AcDbEllipse
 62
7
  6
CONTINUOUS
 10
35.8871876088
 20
18.9868784122
 30
0.0
 11
0.0
 21
-0.5176380902
 31
0.0
 40
0.9659258263
 41
-0.0
 42
1.5707963268
  0
ELLIPSE
  5
313
100
AcDbEntity
  8
0
100
AcDbEllipse
 62
7
  6
CONTINUOUS
 10
34.3871876088
 20
18.9868784122
 30
0.0
 11
-0.0
 21
-0.5176380902
 31
0.0
 40
0.9659258263
 41
-1.5707963268
 42
0.0
  0
ELLIPSE
  5
314
100
AcDbEntity
  8
0
100
AcDbEllipse
 62
7
  6
CONTINUOUS
 10
25.2871876088
 20
18.9868784122
 30
0.0
 11
0.0
 21
-0.5176380902
 31
0.0
 40
0.9659258263
 41
-0.0
 42
1.5707963268
  0
ELLIPSE
  5
315
100
AcDbEntity
  8
0
100
AcDbEllipse
 62
7
  6
CONTINUOUS
 10
23.7871876088
 20
18.9868784122
 30
0.0
 11
-0.0
 21
-0.5176380902
 31
0.0
 40
0.9659258263
 41
-1.5707963268
 42
0.0
  0
ELLIPSE
  5
316
100
AcDbEntity
  8
0
100
AcDbEllipse
 62
7
  6
CONTINUOUS
 10
14.6871876088
 20
18.9840489634
 30
0.0
 11
0.0
 21
-0.5176380902
 31
0.0
 40
0.9659258263
 41
-0.0
 42
1.5707963268
  0
ELLIPSE
  5
317
100
AcDbEntity
  8
0
100
AcDbEllipse
 62
7
  6
CONTINUOUS
 10
13.1871876088
 20
18.9840489634
 30
0.0
 11
0.0
 21
-0.5176380902
 31
0.0
 40
0.9659258263
 41
-1.5707963268
 42
-0.0
  0
ELLIPSE
  5
318
100
AcDbEntity
  8
0
100
AcDbEllipse
 62
7
  6
CONTINUOUS
 10
41.3871876088
 20
57.8381215878
 30
0.0
 11
-0.0
 21
-0.5176380902
 31
0.0
 40
0.9659258263
 41
-3.1415926535
 42
-1.5707963268
  0
ELLIPSE
  5
319
100
AcDbEntity
  8
0
100
AcDbEllipse
 62
7
  6
CONTINUOUS
 10
42.8871876088
 20
57.8381215878
 30
0.0
 11
-0.0
 21
-0.5176380902
 31
0.0
 40
0.9659258263
 41
1.5707963268
 42
3.1415926536
  0
ELLIPSE
  5
31A
100
AcDbEntity
  8
0
100
AcDbEllipse
 62
7
  6
CONTINUOUS
 10
30.7871876088
 20
57.8381215878
 30
0.0
 11
-0.0
 21
-0.5176380902
 31
0.0
 40
0.9659258263
 41
-3.1415926536
 42
-1.5707963268
  0
ELLIPSE
  5
31B
100
AcDbEntity
  8
0
100
AcDbEllipse
 62
7
  6
CONTINUOUS
 10
32.2871876088
 20
57.8381215878
 30
0.0
 11
-0.0
 21
-0.5176380902
 31
0.0
 40
0.9659258263
 41
1.5707963268
 42
3.1415926536
  0
ELLIPSE
  5
31C
100
AcDbEntity
  8
0
100
AcDbEllipse
 62
7
  6
CONTINUOUS
 10
20.1871876088
 20
57.8381215878
 30
0.0
 11
-0.0
 21
-0.5176380902
 31
0.0
 40
0.9659258263
 41
-3.1415926536
 42
-1.5707963268
  0
ELLIPSE
  5
31D
100
AcDbEntity
  8
0
100
AcDbEllipse
 62
7
  6
CONTINUOUS
 10
21.6871876088
 20
57.8381215878
 30
0.0
 11
-0.0
 21
-0.5176380902
 31
0.0
 40
0.9659258263
 41
1.5707963268
 42
3.1415926536
  0
ELLIPSE
  5
31E
100
AcDbEntity
  8
0
100
AcDbEllipse
 62
7
  6
CONTINUOUS
 10
9.5871876088
 20
57.8381215878
 30
0.0
 11
-0.0
 21
-0.5176380902
 31
0.0
 40
0.9659258263
 41
-3.1415926536
 42
-1.5707963268
  0
ELLIPSE
  5
31F
100
AcDbEntity
  8
0
100
AcDbEllipse
 62
7
  6
CONTINUOUS
 10
11.0871876088
 20
57.8381215878
 30
0.0
 11
0.0
 21
-0.5176380902
 31
0.0
 40
0.9659258263
 41
1.5707963268
 42
3.1415926536
  0
ELLIPSE
  5
320
100
AcDbEntity
  8
0
100
AcDbEllipse
 62
7
  6
CONTINUOUS
 10
46.5371876088
 20
17.2825
 30
0.0
 11
0.0
 21
1.24
 31
0.0
 40
0.9677419355
 41
-3.1415926536
 42
-1.5707963268
  0
ELLIPSE
  5
321
100
AcDbEntity
  8
0
100
AcDbEllipse
 62
7
  6
CONTINUOUS
 10
45.4371876088
 20
17.2825
 30
0.0
 11
0.0
 21
1.24
 31
0.0
 40
0.9677419355
 41
1.5707963268
 42
3.1415926536
  0
ELLIPSE
  5
322
100
AcDbEntity
  8
0
100
AcDbEllipse
 62
7
  6
CONTINUOUS
 10
42.4371876088
 20
17.2825
 30
0.0
 11
0.0
 21
-1.24
 31
0.0
 40
0.9677419355
 41
0.0
 42
1.5707963268
  0
ELLIPSE
  5
323
100
AcDbEntity
  8
0
100
AcDbEllipse
 62
7
  6
CONTINUOUS
 10
41.3371876088
 20
17.2825
 30
0.0
 11
0.0
 21
-1.24
 31
0.0
 40
0.9677419355
 41
-1.5707963268
 42
0.0
  0
ELLIPSE
  5
324
100
AcDbEntity
  8
0
100
AcDbEllipse
 62
7
  6
CONTINUOUS
 10
35.9371876088
 20
17.2825
 30
0.0
 11
0.0
 21
1.24
 31
0.0
 40
0.9677419355
 41
-3.1415926536
 42
-1.5707963268
  0
ELLIPSE
  5
325
100
AcDbEntity
  8
0
100
AcDbEllipse
 62
7
  6
CONTINUOUS
 10
34.8371876088
 20
17.2825
 30
0.0
 11
0.0
 21
1.24
 31
0.0
 40
0.9677419355
 41
1.5707963268
 42
3.1415926536
  0
ELLIPSE
  5
326
100
AcDbEntity
  8
0
100
AcDbEllipse
 62
7
  6
CONTINUOUS
 10
30.7371876088
 20
17.2825
 30
0.0
 11
0.0
 21
-1.24
 31
0.0
 40
0.9677419355
 41
-1.5707963268
 42
0.0
  0
ELLIPSE
  5
327
100
AcDbEntity
  8
0
100
AcDbEllipse
 62
7
  6
CONTINUOUS
 10
31.8371876088
 20
17.2825
 30
0.0
 11
0.0
 21
-1.24
 31
0.0
 40
0.9677419355
 41
0.0
 42
1.5707963268
  0
ELLIPSE
  5
328
100
AcDbEntity
  8
0
100
AcDbEllipse
 62
7
  6
CONTINUOUS
 10
25.3371876088
 20
17.2825
 30
0.0
 11
0.0
 21
1.24
 31
0.0
 40
0.9677419355
 41
-3.1415926536
 42
-1.5707963268
  0
ELLIPSE
  5
329
100
AcDbEntity
  8
0
100
AcDbEllipse
 62
7
  6
CONTINUOUS
 10
24.2371876088
 20
17.2825
 30
0.0
 11
0.0
 21
1.24
 31
0.0
 40
0.9677419355
 41
1.5707963268
 42
3.1415926536
  0
ELLIPSE
  5
32A
100
AcDbEntity
  8
0
100
AcDbEllipse
 62
7
  6
CONTINUOUS
 10
21.2371876088
 20
17.2825
 30
0.0
 11
0.0
 21
-1.24
 31
0.0
 40
0.9677419355
 41
0.0
 42
1.5707963268
  0
ELLIPSE
  5
32B
100
AcDbEntity
  8
0
100
AcDbEllipse
 62
7
  6
CONTINUOUS
 10
20.1371876088
 20
17.2825
 30
0.0
 11
0.0
 21
-1.24
 31
0.0
 40
0.9677419355
 41
-1.5707963268
 42
0.0
  0
ELLIPSE
  5
32C
100
AcDbEntity
  8
0
100
AcDbEllipse
 62
7
  6
CONTINUOUS
 10
14.7371876088
 20
17.2825
 30
0.0
 11
0.0
 21
1.24
 31
0.0
 40
0.9677419355
 41
-3.1415926536
 42
-1.5707963268
  0
ELLIPSE
  5
32D
100
AcDbEntity
  8
0
100
AcDbEllipse
 62
7
  6
CONTINUOUS
 10
13.6371876088
 20
17.2825
 30
0.0
 11
0.0
 21
1.24
 31
0.0
 40
0.9677419355
 41
1.5707963268
 42
3.1415926536
  0
ELLIPSE
  5
32E
100
AcDbEntity
  8
0
100
AcDbEllipse
 62
7
  6
CONTINUOUS
 10
10.6371876088
 20
17.2825
 30
0.0
 11
0.0
 21
-1.24
 31
0.0
 40
0.9677419355
 41
0.0
 42
1.5707963268
  0
ELLIPSE
  5
32F
100
AcDbEntity
  8
0
100
AcDbEllipse
 62
7
  6
CONTINUOUS
 10
9.5371876088
 20
17.2825
 30
0.0
 11
0.0
 21
-1.24
 31
0.0
 40
0.9677419355
 41
-1.5707963268
 42
0.0
  0
ELLIPSE
  5
330
100
AcDbEntity
  8
0
100
AcDbEllipse
 62
7
  6
CONTINUOUS
 10
45.4371876088
 20
59.5425
 30
0.0
 11
0.0
 21
1.24
 31
0.0
 40
0.9677419355
 41
0.0
 42
1.5707963268
  0
ELLIPSE
  5
331
100
AcDbEntity
  8
0
100
AcDbEllipse
 62
7
  6
CONTINUOUS
 10
46.5371876088
 20
59.5425
 30
0.0
 11
0.0
 21
1.24
 31
0.0
 40
0.9677419355
 41
-1.5707963268
 42
0.0
  0
ELLIPSE
  5
332
100
AcDbEntity
  8
0
100
AcDbEllipse
 62
7
  6
CONTINUOUS
 10
42.4371876088
 20
59.5425
 30
0.0
 11
0.0
 21
-1.24
 31
0.0
 40
0.9677419355
 41
1.5707963268
 42
3.1415926536
  0
ELLIPSE
  5
333
100
AcDbEntity
  8
0
100
AcDbEllipse
 62
7
  6
CONTINUOUS
 10
41.3371876088
 20
59.5425
 30
0.0
 11
0.0
 21
-1.24
 31
0.0
 40
0.9677419355
 41
-3.1415926536
 42
-1.5707963268
  0
ELLIPSE
  5
334
100
AcDbEntity
  8
0
100
AcDbEllipse
 62
7
  6
CONTINUOUS
 10
34.8371876088
 20
59.5425
 30
0.0
 11
0.0
 21
1.24
 31
0.0
 40
0.9677419355
 41
0.0
 42
1.5707963268
  0
ELLIPSE
  5
335
100
AcDbEntity
  8
0
100
AcDbEllipse
 62
7
  6
CONTINUOUS
 10
35.9371876088
 20
59.5425
 30
0.0
 11
0.0
 21
1.24
 31
0.0
 40
0.9677419355
 41
-1.5707963268
 42
0.0
  0
ELLIPSE
  5
336
100
AcDbEntity
  8
0
100
AcDbEllipse
 62
7
  6
CONTINUOUS
 10
30.7371876088
 20
59.5425
 30
0.0
 11
0.0
 21
-1.24
 31
0.0
 40
0.9677419355
 41
-3.1415926536
 42
-1.5707963268
  0
ELLIPSE
  5
337
100
AcDbEntity
  8
0
100
AcDbEllipse
 62
7
  6
CONTINUOUS
 10
31.8371876088
 20
59.5425
 30
0.0
 11
0.0
 21
-1.24
 31
0.0
 40
0.9677419355
 41
1.5707963268
 42
3.1415926536
  0
ELLIPSE
  5
338
100
AcDbEntity
  8
0
100
AcDbEllipse
 62
7
  6
CONTINUOUS
 10
24.2371876088
 20
59.5425
 30
0.0
 11
0.0
 21
1.24
 31
0.0
 40
0.9677419355
 41
0.0
 42
1.5707963268
  0
ELLIPSE
  5
339
100
AcDbEntity
  8
0
100
AcDbEllipse
 62
7
  6
CONTINUOUS
 10
25.3371876088
 20
59.5425
 30
0.0
 11
0.0
 21
1.24
 31
0.0
 40
0.9677419355
 41
-1.5707963268
 42
0.0
  0
ELLIPSE
  5
33A
100
AcDbEntity
  8
0
100
AcDbEllipse
 62
7
  6
CONTINUOUS
 10
20.1371876088
 20
59.5425
 30
0.0
 11
0.0
 21
-1.24
 31
0.0
 40
0.9677419355
 41
-3.1415926536
 42
-1.5707963268
  0
ELLIPSE
  5
33B
100
AcDbEntity
  8
0
100
AcDbEllipse
 62
7
  6
CONTINUOUS
 10
21.2371876088
 20
59.5425
 30
0.0
 11
0.0
 21
-1.24
 31
0.0
 40
0.9677419355
 41
1.5707963268
 42
3.1415926536
  0
ELLIPSE
  5
33C
100
AcDbEntity
  8
0
100
AcDbEllipse
 62
7
  6
CONTINUOUS
 10
13.6371876088
 20
59.5425
 30
0.0
 11
0.0
 21
1.24
 31
0.0
 40
0.9677419355
 41
0.0
 42
1.5707963268
  0
ELLIPSE
  5
33D
100
AcDbEntity
  8
0
100
AcDbEllipse
 62
7
  6
CONTINUOUS
 10
14.7371876088
 20
59.5425
 30
0.0
 11
0.0
 21
1.24
 31
0.0
 40
0.9677419355
 41
-1.5707963268
 42
0.0
  0
ELLIPSE
  5
33E
100
AcDbEntity
  8
0
100
AcDbEllipse
 62
7
  6
CONTINUOUS
 10
9.5371876088
 20
59.5425
 30
0.0
 11
0.0
 21
-1.24
 31
0.0
 40
0.9677419355
 41
-3.1415926536
 42
-1.5707963268
  0
ELLIPSE
  5
33F
100
AcDbEntity
  8
0
100
AcDbEllipse
 62
7
  6
CONTINUOUS
 10
10.6371876088
 20
59.5425
 30
0.0
 11
0.0
 21
-1.24
 31
0.0
 40
0.9677419355
 41
1.5707963268
 42
3.1415926536
  0
ELLIPSE
  5
340
100
AcDbEntity
  8
0
100
AcDbEllipse
 62
7
  6
CONTINUOUS
 10
44.9871876088
 20
18.9868784122
 30
0.0
 11
-0.0
 21
-0.5176380902
 31
0.0
 40
0.9659258263
 41
-1.5707963268
 42
0.0
  0
ELLIPSE
  5
341
100
AcDbEntity
  8
0
100
AcDbEllipse
 62
7
  6
CONTINUOUS
 10
46.4871876088
 20
18.9868784122
 30
0.0
 11
-0.0
 21
-0.5176380902
 31
0.0
 40
0.9659258263
 41
0.0
 42
1.5707963268
  0
ENDSEC
  0
SECTION
  2
OBJECTS
  0
DICTIONARY
  5
C
100
AcDbDictionary
280
0
281
1
  3
ACAD_GROUP
350
D
  3
ACAD_MLINESTYLE
350
17
  3
ACAD_LAYOUT
350
1A
  3
ACAD_PLOTSETTINGS
350
19
  3
ACAD_PLOTSTYLENAME
350
E
  0
DICTIONARY
  5
D
102
{ACAD_REACTORS
330
C
102
}
100
AcDbDictionary
280
0
281
1
  0
ACDBDICTIONARYWDFLT
  5
E
102
{ACAD_REACTORS
330
C
102
}
100
AcDbDictionary
281
1
  3
Normal
350
F
100
AcDbDictionaryWithDefault
340
F
  0
DICTIONARY
  5
17
102
{ACAD_REACTORS
330
C
102
}
100
AcDbDictionary
280
0
281
1
  3
Standard
350
18
  0
DICTIONARY
  5
19
102
{ACAD_REACTORS
330
C
102
}
100
AcDbDictionary
281
1
  0
DICTIONARY
  5
1A
102
{ACAD_REACTORS
330
C
102
}
100
AcDbDictionary
281
1
  3
Model
350
342
  3
Layout1
350
343
  0
ACDBPLACEHOLDER
  5
F
102
{ACAD_REACTORS
330
E
102
}
  0
MLINESTYLE
  5
18
102
{ACAD_REACTORS
330
17
102
}
100
AcDbMlineStyle
  2
STANDARD
 70
0
  3

 62
256
 51
90.0
 52
90.0
 71
2
 49
0.5
 62
256
  6
BYLAYER
 49
-0.5
 62
256
  6
BYLAYER
  0
LAYOUT
  5
342
102
{ACAD_REACTORS
330
1A
102
}
100
AcDbPlotSettings
  1

  2
none_device
  4

  6

 40
0.0
 41
0.0
 42
0.0
 43
0.0
 44
210.0
 45
297.0
 46
0.0
 47
0.0
 48
0.0
 49
0.0
140
0.0
141
0.0
142
1.0
143
1.0
 70
1024
 72
1
 73
0
 74
0
  7

 75
0
147
1.0
148
0.0
149
0.0
100
AcDbLayout
  1
Model
 70
0
 71
0
 10
0.0
 20
0.0
 11
210.0
 21
297.0
 12
0.0
 22
0.0
 32
0.0
 14
0.0
 24
0.0
 34
0.0
 15
0.0
 25
0.0
 35
0.0
146
0.0
 13
0.0
 23
0.0
 33
0.0
 16
1.0
 26
0.0
 36
0.0
 17
0.0
 27
1.0
 37
0.0
 76
0
330
213
345
0
346
0
  0
LAYOUT
  5
343
102
{ACAD_REACTORS
330
1A
102
}
100
AcDbPlotSettings
  1

  2
none_device
  4

  6

 40
0.0
 41
0.0
 42
0.0
 43
0.0
 44
210.0
 45
297.0
 46
0.0
 47
0.0
 48
0.0
 49
0.0
140
0.0
141
0.0
142
1.0
143
1.0
 70
0
 72
1
 73
0
 74
0
  7

 75
0
147
1.0
148
0.0
149
0.0
100
AcDbLayout
  1
Layout1
 70
0
 71
1
 10
0.0
 20
0.0
 11
210.0
 21
297.0
 12
0.0
 22
0.0
 32
0.0
 14
0.0
 24
0.0
 34
0.0
 15
0.0
 25
0.0
 35
0.0
146
0.0
 13
0.0
 23
0.0
 33
0.0
 16
1.0
 26
0.0
 36
0.0
 17
0.0
 27
1.0
 37
0.0
 76
0
330
214
345
0
346
0
  0
ENDSEC
  0
EOF
