999
DXF file: C:\Users\sesa63760\Dev\_Creo\CAD\MCADUE0002064_3D-CAD\drw0001_4.dxf
999
Pro/ENGINEER 2019471 by Parametric Technology Corporation
  0
SECTION
  2
HEADER
  9
$ACADVER
  1
AC1024
  9
$DWGCODEPAGE
  3
ANSI_1252
  9
$EXTMAX
 10
616.2715517241
 20
871.5840517241
 30
0.0
  9
$EXTMIN
 10
0.0
 20
0.0
 30
0.0
  9
$LIMMIN
 10
0.0
 20
0.0
  9
$LIMMAX
 10
616.2715517241
 20
871.5840517241
  9
$VIEWCTR
 10
308.1357758621
 20
435.7920258621
  9
$VIEWSIZE
 40
871.5840517241
  9
$CLAYER
  8
0
  9
$LTSCALE
 40
56.8143678161
  9
$CELTYPE
  6
BYLAYER
  9
$DIMSCALE
 40
1.0
  9
$DIMASZ
 40
7.336566092
  9
$DIMEXO
 40
1.0
  9
$DIMDLI
 40
39.2535632184
  9
$DIMEXE
 40
1.0
  9
$DIMCEN
 40
9.2968965517
  9
$DIMLFAC
 40
1.0
  9
$DIMBLK
  1
_FILLED
  9
$DIMALT
 70
0
  9
$DIMALTF
 40
0.0393700787
  9
$DIMTXT
 40
10.2711925287
  9
$DIMTOL
 70
1
  9
$DIMLIM
 70
0
  9
$DIMTFAC
 40
1.0
  9
$DIMTP
 40
0.01
  9
$DIMTM
 40
0.01
  9
$DIMGAP
 40
0.625
  9
$DIMDSEP
 70
46
  9
$AUNITS
 70
0
  9
$PDMODE
 70
3
  9
$PDSIZE
 40
0.3125
  9
$HANDSEED
  5
2B0
  9
$TILEMODE
 70
1
  9
$MEASUREMENT
 70
1
  9
$INSUNITS
 70
4
  0
ENDSEC
  0
SECTION
  2
CLASSES
  0
CLASS
  1
ACDBDICTIONARYWDFLT
  2
AcDbDictionaryWithDefault
  3
AutoCAD 2000
 90
0
 91
1
280
0
281
0
  0
CLASS
  1
ACDBPLACEHOLDER
  2
AcDbPlaceHolder
  3
AutoCAD 2000
 90
0
 91
1
280
0
281
0
  0
CLASS
  1
LAYOUT
  2
AcDbLayout
  3
AutoCAD 2000
 90
0
 91
0
280
0
281
0
  0
ENDSEC
  0
SECTION
  2
TABLES
  0
TABLE
  2
VPORT
  5
8
100
AcDbSymbolTable
 70
2
  0
VPORT
  5
1F4
100
AcDbSymbolTableRecord
100
AcDbViewportTableRecord
  2
*ACTIVE
 70
0
 10
0.0
 20
0.0
 11
1.0
 21
1.0
 12
308.1357758621
 22
435.7920258621
 13
0.0
 23
0.0
 14
1.0
 24
1.0
 15
0.0
 25
0.0
 16
0.0
 26
0.0
 36
1.0
 17
0.0
 27
0.0
 37
0.0
 40
871.5840517241
 41
0.7070707071
 42
50.0
 43
0.0
 44
0.0
 50
0.0
 51
0.0
 71
0
 72
100
 73
1
 74
1
 75
0
 76
0
 77
0
 78
0
  0
ENDTAB
  0
TABLE
  2
LTYPE
  5
5
100
AcDbSymbolTable
 70
6
  0
LTYPE
  5
14
100
AcDbSymbolTableRecord
100
AcDbLinetypeTableRecord
  2
BYBLOCK
 70
0
  3

 72
65
 73
0
 40
0.0
  0
LTYPE
  5
15
100
AcDbSymbolTableRecord
100
AcDbLinetypeTableRecord
  2
BYLAYER
 70
0
  3

 72
65
 73
0
 40
0.0
  0
LTYPE
  5
16
100
AcDbSymbolTableRecord
100
AcDbLinetypeTableRecord
  2
CONTINUOUS
 70
64
  3
Solid line
 72
65
 73
0
 40
0.0
  0
LTYPE
  5
1F5
100
AcDbSymbolTableRecord
100
AcDbLinetypeTableRecord
  2
CENTER
 70
64
  3
____ _ ____ _ ____ _ ____ _ ____ _ ____ _ ____
 72
65
 73
4
 40
0.6
 49
0.375
 74
0
 49
-0.075
 74
0
 49
0.075
 74
0
 49
-0.075
 74
0
  0
LTYPE
  5
1F6
100
AcDbSymbolTableRecord
100
AcDbLinetypeTableRecord
  2
HIDDEN
 70
64
  3
- - - - - - - - - - - - - - - - - - - -
 72
65
 73
2
 40
0.2
 49
0.1
 74
0
 49
-0.1
 74
0
  0
LTYPE
  5
1F7
100
AcDbSymbolTableRecord
100
AcDbLinetypeTableRecord
  2
PHANTOM
 70
64
  3
_____ _ _ _____ _ _ _____ _ _ _____
 72
65
 73
6
 40
0.8
 49
0.45
 74
0
 49
-0.05
 74
0
 49
0.1
 74
0
 49
-0.05
 74
0
 49
0.1
 74
0
 49
-0.05
 74
0
  0
LTYPE
  5
1F8
100
AcDbSymbolTableRecord
100
AcDbLinetypeTableRecord
  2
DOT
 70
64
  3
. . . . . . . . . . . . . . . . . . . .
 72
65
 73
2
 40
0.2
 49
0.1
 74
0
 49
-0.1
 74
0
  0
LTYPE
  5
1F9
100
AcDbSymbolTableRecord
100
AcDbLinetypeTableRecord
  2
DASHED
 70
64
  3
- - - - - - - - - - - - - - - - - - - -
 72
65
 73
2
 40
0.2
 49
0.1
 74
0
 49
-0.1
 74
0
  0
ENDTAB
  0
TABLE
  2
LAYER
  5
2
100
AcDbSymbolTable
 70
36
  0
LAYER
  5
10
100
AcDbSymbolTableRecord
100
AcDbLayerTableRecord
  2
0
 70
0
 62
7
  6
CONTINUOUS
370
-3
390
F
  0
LAYER
  5
1FA
100
AcDbSymbolTableRecord
100
AcDbLayerTableRecord
  2
DEFAULT_1
 70
0
 62
7
  6
CENTER
370
-3
390
F
  0
LAYER
  5
1FB
100
AcDbSymbolTableRecord
100
AcDbLayerTableRecord
  2
DEFAULT_2
 70
0
 62
8
  6
HIDDEN
370
-3
390
F
  0
LAYER
  5
1FC
100
AcDbSymbolTableRecord
100
AcDbLayerTableRecord
  2
DEFAULT_3
 70
0
 62
7
  6
PHANTOM
370
-3
390
F
  0
LAYER
  5
1FD
100
AcDbSymbolTableRecord
100
AcDbLayerTableRecord
  2
00_COMPONENTS
 70
0
 62
7
  6
CONTINUOUS
370
-3
390
F
  0
LAYER
  5
1FE
100
AcDbSymbolTableRecord
100
AcDbLayerTableRecord
  2
01_1_DEFAULT_DATUMS
 70
0
 62
7
  6
CONTINUOUS
370
-3
390
F
  0
LAYER
  5
1FF
100
AcDbSymbolTableRecord
100
AcDbLayerTableRecord
  2
01_PLANES
 70
0
 62
7
  6
CONTINUOUS
370
-3
390
F
  0
LAYER
  5
200
100
AcDbSymbolTableRecord
100
AcDbLayerTableRecord
  2
02_COORD_SYS
 70
0
 62
7
  6
CONTINUOUS
370
-3
390
F
  0
LAYER
  5
201
100
AcDbSymbolTableRecord
100
AcDbLayerTableRecord
  2
03_AXES
 70
0
 62
7
  6
CONTINUOUS
370
-3
390
F
  0
LAYER
  5
202
100
AcDbSymbolTableRecord
100
AcDbLayerTableRecord
  2
04_POINTS
 70
0
 62
7
  6
CONTINUOUS
370
-3
390
F
  0
LAYER
  5
203
100
AcDbSymbolTableRecord
100
AcDbLayerTableRecord
  2
05_CURVES
 70
0
 62
7
  6
CONTINUOUS
370
-3
390
F
  0
LAYER
  5
204
100
AcDbSymbolTableRecord
100
AcDbLayerTableRecord
  2
06_SURFS
 70
0
 62
7
  6
CONTINUOUS
370
-3
390
F
  0
LAYER
  5
205
100
AcDbSymbolTableRecord
100
AcDbLayerTableRecord
  2
07_COSMETICS
 70
0
 62
7
  6
CONTINUOUS
370
-3
390
F
  0
LAYER
  5
206
100
AcDbSymbolTableRecord
100
AcDbLayerTableRecord
  2
10_NOTES
 70
0
 62
7
  6
CONTINUOUS
370
-3
390
F
  0
LAYER
  5
207
100
AcDbSymbolTableRecord
100
AcDbLayerTableRecord
  2
11_NOTES_PUB
 70
0
 62
7
  6
CONTINUOUS
370
-3
390
F
  0
LAYER
  5
208
100
AcDbSymbolTableRecord
100
AcDbLayerTableRecord
  2
13_REF_GTOL
 70
0
 62
7
  6
CONTINUOUS
370
-3
390
F
  0
LAYER
  5
209
100
AcDbSymbolTableRecord
100
AcDbLayerTableRecord
  2
16_MISC
 70
0
 62
7
  6
CONTINUOUS
370
-3
390
F
  0
LAYER
  5
20A
100
AcDbSymbolTableRecord
100
AcDbLayerTableRecord
  2
17_NO_PRINT
 70
0
 62
7
  6
CONTINUOUS
370
-3
390
F
  0
LAYER
  5
20B
100
AcDbSymbolTableRecord
100
AcDbLayerTableRecord
  2
18_DATUM_CAMS_JOINTS
 70
0
 62
7
  6
CONTINUOUS
370
-3
390
F
  0
LAYER
  5
20C
100
AcDbSymbolTableRecord
100
AcDbLayerTableRecord
  2
19_DATUM_FUNCTIONAL
 70
0
 62
7
  6
CONTINUOUS
370
-3
390
F
  0
LAYER
  5
20D
100
AcDbSymbolTableRecord
100
AcDbLayerTableRecord
  2
20_DATUM_KINEMATIC_SCHEME
 70
0
 62
7
  6
CONTINUOUS
370
-3
390
F
  0
ENDTAB
  0
TABLE
  2
STYLE
  5
3
100
AcDbSymbolTable
 70
1
  0
STYLE
  5
11
100
AcDbSymbolTableRecord
100
AcDbTextStyleTableRecord
  2
STANDARD
 70
0
 40
0.0
 41
0.8
 50
0.0
 71
0
 42
0.2
  3
txt
  4

  0
STYLE
  5
20E
100
AcDbSymbolTableRecord
100
AcDbTextStyleTableRecord
  2
TEXTSTYLE_1
 70
0
 40
0.0
 41
0.8
 50
0.0
 71
0
 42
0.2
  3
gdt
  4

  0
ENDTAB
  0
TABLE
  2
VIEW
  5
6
100
AcDbSymbolTable
 70
0
  0
ENDTAB
  0
TABLE
  2
UCS
  5
7
100
AcDbSymbolTable
 70
0
  0
ENDTAB
  0
TABLE
  2
APPID
  5
9
100
AcDbSymbolTable
 70
1
  0
APPID
  5
20F
100
AcDbSymbolTableRecord
100
AcDbRegAppTableRecord
  2
ACAD
 70
0
  0
ENDTAB
  0
TABLE
  2
BLOCK_RECORD
  5
1
100
AcDbSymbolTable
 70
0
  0
BLOCK_RECORD
  5
210
100
AcDbSymbolTableRecord
100
AcDbBlockTableRecord
  2
*Model_Space
  0
BLOCK_RECORD
  5
211
100
AcDbSymbolTableRecord
100
AcDbBlockTableRecord
  2
*Paper_Space
  0
BLOCK_RECORD
  5
212
100
AcDbSymbolTableRecord
100
AcDbBlockTableRecord
  2
_FILLED
  0
ENDTAB
  0
TABLE
  2
DIMSTYLE
  5
A
100
AcDbSymbolTable
 70
1
100
AcDbDimStyleTable
 71
0
  0
DIMSTYLE
105
213
100
AcDbSymbolTableRecord
100
AcDbDimStyleTableRecord
  2
STANDARD
 70
0
  3

  4

 40
1.0
 41
7.336566092
 42
1.0
 43
0.38
 44
1.0
 45
0.0
 46
0.0
 47
0.01
 48
0.01
140
10.2711925287
141
0.09
142
0.0
143
25.4
144
1.0
145
0.0
146
1.0
147
0.625
 71
1
 72
0
 73
0
 74
0
 75
0
 76
0
 77
1
 78
8
 79
2
170
0
171
1
172
0
173
0
174
0
175
0
176
0
177
0
178
0
270
2
179
2
271
2
272
2
273
2
274
2
275
0
280
0
281
0
282
0
283
1
284
8
285
0
286
0
287
3
288
0
340
11
278
46
341
212
342
212
343
212
344
212
  0
ENDTAB
  0
ENDSEC
  0
SECTION
  2
BLOCKS
  0
BLOCK
  5
20
100
AcDbEntity
  8
0
100
AcDbBlockBegin
  2
*Model_Space
 70
0
 10
0.0
 20
0.0
 30
0.0
  3
*Model_Space
  1

  0
ENDBLK
  5
21
100
AcDbEntity
  8
0
100
AcDbBlockEnd
  0
BLOCK
  5
1C
100
AcDbEntity
  8
0
100
AcDbBlockBegin
  2
*Paper_Space
 70
0
 10
0.0
 20
0.0
 30
0.0
  3
*Paper_Space
  1

  0
ENDBLK
  5
1D
100
AcDbEntity
  8
0
100
AcDbBlockEnd
  0
BLOCK
  5
214
100
AcDbEntity
  8
0
100
AcDbBlockBegin
  2
_FILLED
 70
64
 10
0.0
 20
0.0
  3
_FILLED
  1

  0
SOLID
  5
215
100
AcDbEntity
  8
0
  6
BYBLOCK
 62
0
100
AcDbTrace
 10
0.0
 20
0.0
 11
-1.0
 21
0.25
 12
-1.0
 22
-0.25
 13
-1.0
 23
-0.25
  0
ENDBLK
  5
216
100
AcDbEntity
  8
0
  6
BYBLOCK
 62
0
100
AcDbBlockEnd
  0
ENDSEC
  0
SECTION
  2
ENTITIES
  0
LINE
  5
217
100
AcDbEntity
  8
0
100
AcDbLine
 62
7
  6
CONTINUOUS
 10
68.6368534483
 20
423.875
 11
68.6368534483
 21
422.375
  0
LINE
  5
218
100
AcDbEntity
  8
0
100
AcDbLine
 62
7
  6
CONTINUOUS
 10
70.1368534483
 20
426.875
 11
70.1368534483
 21
423.875
  0
LINE
  5
219
100
AcDbEntity
  8
0
100
AcDbLine
 62
7
  6
CONTINUOUS
 10
83.6368534483
 20
430.875
 11
83.6368534483
 21
426.875
  0
LINE
  5
21A
100
AcDbEntity
  8
0
100
AcDbLine
 62
7
  6
CONTINUOUS
 10
87.6868534483
 20
434.675
 11
87.6868534483
 21
430.875
  0
LINE
  5
21B
100
AcDbEntity
  8
0
100
AcDbLine
 62
7
  6
CONTINUOUS
 10
87.7868534483
 20
430.875
 11
87.7868534483
 21
434.675
  0
LINE
  5
21C
100
AcDbEntity
  8
0
100
AcDbLine
 62
7
  6
CONTINUOUS
 10
89.1368534483
 20
435.775
 11
89.1368534483
 21
443.375
  0
LINE
  5
21D
100
AcDbEntity
  8
0
100
AcDbLine
 62
7
  6
CONTINUOUS
 10
91.0368534482
 20
434.675
 11
91.0368534483
 21
430.875
  0
LINE
  5
21E
100
AcDbEntity
  8
0
100
AcDbLine
 62
7
  6
CONTINUOUS
 10
91.2368534483
 20
430.875
 11
91.2368534483
 21
434.675
  0
LINE
  5
21F
100
AcDbEntity
  8
0
100
AcDbLine
 62
7
  6
CONTINUOUS
 10
93.1368534483
 20
443.375
 11
93.1368534483
 21
435.775
  0
LINE
  5
220
100
AcDbEntity
  8
0
100
AcDbLine
 62
7
  6
CONTINUOUS
 10
93.6368534483
 20
422.375
 11
93.6368534483
 21
430.875
  0
LINE
  5
221
100
AcDbEntity
  8
0
100
AcDbLine
 62
7
  6
CONTINUOUS
 10
94.4868534482
 20
434.675
 11
94.4868534483
 21
430.875
  0
LINE
  5
222
100
AcDbEntity
  8
0
100
AcDbLine
 62
7
  6
CONTINUOUS
 10
94.5868534483
 20
430.875
 11
94.5868534483
 21
434.675
  0
LINE
  5
223
100
AcDbEntity
  8
0
100
AcDbLine
 62
7
  6
CONTINUOUS
 10
125.1868534483
 20
434.675
 11
125.1868534483
 21
430.875
  0
LINE
  5
224
100
AcDbEntity
  8
0
100
AcDbLine
 62
7
  6
CONTINUOUS
 10
125.2868534483
 20
430.875
 11
125.2868534483
 21
434.675
  0
LINE
  5
225
100
AcDbEntity
  8
0
100
AcDbLine
 62
7
  6
CONTINUOUS
 10
126.6368534483
 20
435.775
 11
126.6368534483
 21
443.375
  0
LINE
  5
226
100
AcDbEntity
  8
0
100
AcDbLine
 62
7
  6
CONTINUOUS
 10
128.5368534482
 20
434.675
 11
128.5368534483
 21
430.875
  0
LINE
  5
227
100
AcDbEntity
  8
0
100
AcDbLine
 62
7
  6
CONTINUOUS
 10
128.7368534483
 20
430.875
 11
128.7368534483
 21
434.675
  0
LINE
  5
228
100
AcDbEntity
  8
0
100
AcDbLine
 62
7
  6
CONTINUOUS
 10
130.6368534483
 20
443.375
 11
130.6368534483
 21
435.775
  0
LINE
  5
229
100
AcDbEntity
  8
0
100
AcDbLine
 62
7
  6
CONTINUOUS
 10
131.9868534482
 20
434.675
 11
131.9868534483
 21
430.875
  0
LINE
  5
22A
100
AcDbEntity
  8
0
100
AcDbLine
 62
7
  6
CONTINUOUS
 10
132.0868534483
 20
430.875
 11
132.0868534483
 21
434.675
  0
LINE
  5
22B
100
AcDbEntity
  8
0
100
AcDbLine
 62
7
  6
CONTINUOUS
 10
89.1368534483
 20
443.375
 11
89.6368534483
 21
443.875
  0
LINE
  5
22C
100
AcDbEntity
  8
0
100
AcDbLine
 62
7
  6
CONTINUOUS
 10
92.6368534483
 20
443.875
 11
93.1368534483
 21
443.375
  0
LINE
  5
22D
100
AcDbEntity
  8
0
100
AcDbLine
 62
7
  6
CONTINUOUS
 10
126.6368534483
 20
443.375
 11
127.1368534483
 21
443.875
  0
LINE
  5
22E
100
AcDbEntity
  8
0
100
AcDbLine
 62
7
  6
CONTINUOUS
 10
130.1368534483
 20
443.875
 11
130.6368534483
 21
443.375
  0
LINE
  5
22F
100
AcDbEntity
  8
0
100
AcDbLine
 62
7
  6
CONTINUOUS
 10
250.1868534483
 20
434.675
 11
250.1868534483
 21
430.875
  0
LINE
  5
230
100
AcDbEntity
  8
0
100
AcDbLine
 62
7
  6
CONTINUOUS
 10
250.2868534483
 20
430.875
 11
250.2868534483
 21
434.675
  0
LINE
  5
231
100
AcDbEntity
  8
0
100
AcDbLine
 62
7
  6
CONTINUOUS
 10
251.6368534483
 20
435.775
 11
251.6368534483
 21
443.375
  0
LINE
  5
232
100
AcDbEntity
  8
0
100
AcDbLine
 62
7
  6
CONTINUOUS
 10
253.5368534482
 20
434.675
 11
253.5368534483
 21
430.875
  0
LINE
  5
233
100
AcDbEntity
  8
0
100
AcDbLine
 62
7
  6
CONTINUOUS
 10
253.7368534483
 20
430.875
 11
253.7368534483
 21
434.675
  0
LINE
  5
234
100
AcDbEntity
  8
0
100
AcDbLine
 62
7
  6
CONTINUOUS
 10
255.6368534483
 20
443.375
 11
255.6368534483
 21
435.775
  0
LINE
  5
235
100
AcDbEntity
  8
0
100
AcDbLine
 62
7
  6
CONTINUOUS
 10
256.9868534482
 20
434.675
 11
256.9868534483
 21
430.875
  0
LINE
  5
236
100
AcDbEntity
  8
0
100
AcDbLine
 62
7
  6
CONTINUOUS
 10
257.0868534483
 20
430.875
 11
257.0868534483
 21
434.675
  0
LINE
  5
237
100
AcDbEntity
  8
0
100
AcDbLine
 62
7
  6
CONTINUOUS
 10
251.6368534483
 20
443.375
 11
252.1368534483
 21
443.875
  0
LINE
  5
238
100
AcDbEntity
  8
0
100
AcDbLine
 62
7
  6
CONTINUOUS
 10
255.1368534483
 20
443.875
 11
255.6368534483
 21
443.375
  0
LINE
  5
239
100
AcDbEntity
  8
0
100
AcDbLine
 62
7
  6
CONTINUOUS
 10
563.6368534483
 20
422.375
 11
68.6368534483
 21
422.375
  0
LINE
  5
23A
100
AcDbEntity
  8
0
100
AcDbLine
 62
7
  6
CONTINUOUS
 10
68.6368534483
 20
423.875
 11
563.6368534483
 21
423.875
  0
LINE
  5
23B
100
AcDbEntity
  8
0
100
AcDbLine
 62
7
  6
CONTINUOUS
 10
70.1368534483
 20
426.875
 11
562.1368534483
 21
426.875
  0
LINE
  5
23C
100
AcDbEntity
  8
0
100
AcDbLine
 62
7
  6
CONTINUOUS
 10
548.6368534483
 20
428.875
 11
83.6368534483
 21
428.875
  0
LINE
  5
23D
100
AcDbEntity
  8
0
100
AcDbLine
 62
7
  6
CONTINUOUS
 10
83.6368534483
 20
430.875
 11
548.6368534483
 21
430.875
  0
LINE
  5
23E
100
AcDbEntity
  8
0
100
AcDbLine
 62
7
  6
CONTINUOUS
 10
87.6868534483
 20
434.675
 11
94.5868534483
 21
434.675
  0
LINE
  5
23F
100
AcDbEntity
  8
0
100
AcDbLine
 62
7
  6
CONTINUOUS
 10
125.1868534483
 20
434.675
 11
132.0868534483
 21
434.675
  0
LINE
  5
240
100
AcDbEntity
  8
0
100
AcDbLine
 62
7
  6
CONTINUOUS
 10
250.1868534483
 20
434.675
 11
257.0868534483
 21
434.675
  0
LINE
  5
241
100
AcDbEntity
  8
0
100
AcDbLine
 62
7
  6
CONTINUOUS
 10
375.1868534483
 20
434.675
 11
382.0868534483
 21
434.675
  0
LINE
  5
242
100
AcDbEntity
  8
0
100
AcDbLine
 62
7
  6
CONTINUOUS
 10
500.1868534483
 20
434.675
 11
507.0868534483
 21
434.675
  0
LINE
  5
243
100
AcDbEntity
  8
0
100
AcDbLine
 62
7
  6
CONTINUOUS
 10
537.6868534483
 20
434.675
 11
544.5868534483
 21
434.675
  0
LINE
  5
244
100
AcDbEntity
  8
0
100
AcDbLine
 62
7
  6
CONTINUOUS
 10
87.7868534549
 20
434.775
 11
94.4868534417
 21
434.775
  0
LINE
  5
245
100
AcDbEntity
  8
0
100
AcDbLine
 62
7
  6
CONTINUOUS
 10
125.2868534549
 20
434.775
 11
131.9868534417
 21
434.775
  0
LINE
  5
246
100
AcDbEntity
  8
0
100
AcDbLine
 62
7
  6
CONTINUOUS
 10
250.2868534549
 20
434.775
 11
256.9868534417
 21
434.775
  0
LINE
  5
247
100
AcDbEntity
  8
0
100
AcDbLine
 62
7
  6
CONTINUOUS
 10
375.2868534549
 20
434.775
 11
381.9868534417
 21
434.775
  0
LINE
  5
248
100
AcDbEntity
  8
0
100
AcDbLine
 62
7
  6
CONTINUOUS
 10
500.2868534549
 20
434.775
 11
506.9868534417
 21
434.775
  0
LINE
  5
249
100
AcDbEntity
  8
0
100
AcDbLine
 62
7
  6
CONTINUOUS
 10
537.7868534549
 20
434.775
 11
544.4868534417
 21
434.775
  0
LINE
  5
24A
100
AcDbEntity
  8
0
100
AcDbLine
 62
7
  6
CONTINUOUS
 10
543.4205703057
 20
435.775
 11
538.8531390666
 21
435.775
  0
LINE
  5
24B
100
AcDbEntity
  8
0
100
AcDbLine
 62
7
  6
CONTINUOUS
 10
505.9205703057
 20
435.775
 11
501.3531390666
 21
435.775
  0
LINE
  5
24C
100
AcDbEntity
  8
0
100
AcDbLine
 62
7
  6
CONTINUOUS
 10
380.9205703057
 20
435.775
 11
376.3531390666
 21
435.775
  0
LINE
  5
24D
100
AcDbEntity
  8
0
100
AcDbLine
 62
7
  6
CONTINUOUS
 10
255.9205703057
 20
435.775
 11
251.3531390666
 21
435.775
  0
LINE
  5
24E
100
AcDbEntity
  8
0
100
AcDbLine
 62
7
  6
CONTINUOUS
 10
130.9205703057
 20
435.775
 11
126.3531390666
 21
435.775
  0
LINE
  5
24F
100
AcDbEntity
  8
0
100
AcDbLine
 62
7
  6
CONTINUOUS
 10
93.4205703057
 20
435.775
 11
88.8531390666
 21
435.775
  0
LINE
  5
250
100
AcDbEntity
  8
0
100
AcDbLine
 62
7
  6
CONTINUOUS
 10
89.1368534483
 20
443.375
 11
93.1368534483
 21
443.375
  0
LINE
  5
251
100
AcDbEntity
  8
0
100
AcDbLine
 62
7
  6
CONTINUOUS
 10
126.6368534483
 20
443.375
 11
130.6368534483
 21
443.375
  0
LINE
  5
252
100
AcDbEntity
  8
0
100
AcDbLine
 62
7
  6
CONTINUOUS
 10
251.6368534483
 20
443.375
 11
255.6368534483
 21
443.375
  0
LINE
  5
253
100
AcDbEntity
  8
0
100
AcDbLine
 62
7
  6
CONTINUOUS
 10
376.6368534483
 20
443.375
 11
380.6368534483
 21
443.375
  0
LINE
  5
254
100
AcDbEntity
  8
0
100
AcDbLine
 62
7
  6
CONTINUOUS
 10
501.6368534483
 20
443.375
 11
505.6368534483
 21
443.375
  0
LINE
  5
255
100
AcDbEntity
  8
0
100
AcDbLine
 62
7
  6
CONTINUOUS
 10
539.1368534483
 20
443.375
 11
543.1368534483
 21
443.375
  0
LINE
  5
256
100
AcDbEntity
  8
0
100
AcDbLine
 62
7
  6
CONTINUOUS
 10
89.6368534483
 20
443.875
 11
92.6368534483
 21
443.875
  0
LINE
  5
257
100
AcDbEntity
  8
0
100
AcDbLine
 62
7
  6
CONTINUOUS
 10
127.1368534483
 20
443.875
 11
130.1368534483
 21
443.875
  0
LINE
  5
258
100
AcDbEntity
  8
0
100
AcDbLine
 62
7
  6
CONTINUOUS
 10
252.1368534483
 20
443.875
 11
255.1368534483
 21
443.875
  0
LINE
  5
259
100
AcDbEntity
  8
0
100
AcDbLine
 62
7
  6
CONTINUOUS
 10
377.1368534483
 20
443.875
 11
380.1368534483
 21
443.875
  0
LINE
  5
25A
100
AcDbEntity
  8
0
100
AcDbLine
 62
7
  6
CONTINUOUS
 10
502.1368534483
 20
443.875
 11
505.1368534483
 21
443.875
  0
LINE
  5
25B
100
AcDbEntity
  8
0
100
AcDbLine
 62
7
  6
CONTINUOUS
 10
539.6368534483
 20
443.875
 11
542.6368534483
 21
443.875
  0
LINE
  5
25C
100
AcDbEntity
  8
0
100
AcDbLine
 62
7
  6
CONTINUOUS
 10
376.6368534483
 20
443.375
 11
377.1368534483
 21
443.875
  0
LINE
  5
25D
100
AcDbEntity
  8
0
100
AcDbLine
 62
7
  6
CONTINUOUS
 10
375.1868534483
 20
434.675
 11
375.1868534483
 21
430.875
  0
LINE
  5
25E
100
AcDbEntity
  8
0
100
AcDbLine
 62
7
  6
CONTINUOUS
 10
375.2868534483
 20
430.875
 11
375.2868534483
 21
434.675
  0
LINE
  5
25F
100
AcDbEntity
  8
0
100
AcDbLine
 62
7
  6
CONTINUOUS
 10
376.6368534483
 20
435.775
 11
376.6368534483
 21
443.375
  0
LINE
  5
260
100
AcDbEntity
  8
0
100
AcDbLine
 62
7
  6
CONTINUOUS
 10
378.5368534482
 20
434.675
 11
378.5368534483
 21
430.875
  0
LINE
  5
261
100
AcDbEntity
  8
0
100
AcDbLine
 62
7
  6
CONTINUOUS
 10
378.7368534483
 20
430.875
 11
378.7368534483
 21
434.675
  0
LINE
  5
262
100
AcDbEntity
  8
0
100
AcDbLine
 62
7
  6
CONTINUOUS
 10
380.6368534483
 20
443.375
 11
380.6368534483
 21
435.775
  0
LINE
  5
263
100
AcDbEntity
  8
0
100
AcDbLine
 62
7
  6
CONTINUOUS
 10
381.9868534482
 20
434.675
 11
381.9868534483
 21
430.875
  0
LINE
  5
264
100
AcDbEntity
  8
0
100
AcDbLine
 62
7
  6
CONTINUOUS
 10
382.0868534483
 20
430.875
 11
382.0868534483
 21
434.675
  0
LINE
  5
265
100
AcDbEntity
  8
0
100
AcDbLine
 62
7
  6
CONTINUOUS
 10
380.1368534483
 20
443.875
 11
380.6368534483
 21
443.375
  0
LINE
  5
266
100
AcDbEntity
  8
0
100
AcDbLine
 62
7
  6
CONTINUOUS
 10
501.6368534483
 20
443.375
 11
502.1368534483
 21
443.875
  0
LINE
  5
267
100
AcDbEntity
  8
0
100
AcDbLine
 62
7
  6
CONTINUOUS
 10
539.1368534483
 20
443.375
 11
539.6368534483
 21
443.875
  0
LINE
  5
268
100
AcDbEntity
  8
0
100
AcDbLine
 62
7
  6
CONTINUOUS
 10
505.1368534483
 20
443.875
 11
505.6368534483
 21
443.375
  0
LINE
  5
269
100
AcDbEntity
  8
0
100
AcDbLine
 62
7
  6
CONTINUOUS
 10
542.6368534483
 20
443.875
 11
543.1368534483
 21
443.375
  0
LINE
  5
26A
100
AcDbEntity
  8
0
100
AcDbLine
 62
7
  6
CONTINUOUS
 10
500.1868534483
 20
434.675
 11
500.1868534483
 21
430.875
  0
LINE
  5
26B
100
AcDbEntity
  8
0
100
AcDbLine
 62
7
  6
CONTINUOUS
 10
500.2868534483
 20
430.875
 11
500.2868534483
 21
434.675
  0
LINE
  5
26C
100
AcDbEntity
  8
0
100
AcDbLine
 62
7
  6
CONTINUOUS
 10
501.6368534483
 20
435.775
 11
501.6368534483
 21
443.375
  0
LINE
  5
26D
100
AcDbEntity
  8
0
100
AcDbLine
 62
7
  6
CONTINUOUS
 10
503.5368534482
 20
434.675
 11
503.5368534483
 21
430.875
  0
LINE
  5
26E
100
AcDbEntity
  8
0
100
AcDbLine
 62
7
  6
CONTINUOUS
 10
503.7368534483
 20
430.875
 11
503.7368534483
 21
434.675
  0
LINE
  5
26F
100
AcDbEntity
  8
0
100
AcDbLine
 62
7
  6
CONTINUOUS
 10
505.6368534483
 20
443.375
 11
505.6368534483
 21
435.775
  0
LINE
  5
270
100
AcDbEntity
  8
0
100
AcDbLine
 62
7
  6
CONTINUOUS
 10
506.9868534482
 20
434.675
 11
506.9868534483
 21
430.875
  0
LINE
  5
271
100
AcDbEntity
  8
0
100
AcDbLine
 62
7
  6
CONTINUOUS
 10
507.0868534483
 20
430.875
 11
507.0868534483
 21
434.675
  0
LINE
  5
272
100
AcDbEntity
  8
0
100
AcDbLine
 62
7
  6
CONTINUOUS
 10
537.6868534483
 20
434.675
 11
537.6868534483
 21
430.875
  0
LINE
  5
273
100
AcDbEntity
  8
0
100
AcDbLine
 62
7
  6
CONTINUOUS
 10
537.7868534483
 20
430.875
 11
537.7868534483
 21
434.675
  0
LINE
  5
274
100
AcDbEntity
  8
0
100
AcDbLine
 62
7
  6
CONTINUOUS
 10
538.6368534483
 20
430.875
 11
538.6368534483
 21
422.375
  0
LINE
  5
275
100
AcDbEntity
  8
0
100
AcDbLine
 62
7
  6
CONTINUOUS
 10
539.1368534483
 20
435.775
 11
539.1368534483
 21
443.375
  0
LINE
  5
276
100
AcDbEntity
  8
0
100
AcDbLine
 62
7
  6
CONTINUOUS
 10
541.0368534482
 20
434.675
 11
541.0368534483
 21
430.875
  0
LINE
  5
277
100
AcDbEntity
  8
0
100
AcDbLine
 62
7
  6
CONTINUOUS
 10
541.2368534483
 20
430.875
 11
541.2368534483
 21
434.675
  0
LINE
  5
278
100
AcDbEntity
  8
0
100
AcDbLine
 62
7
  6
CONTINUOUS
 10
543.1368534483
 20
443.375
 11
543.1368534483
 21
435.775
  0
LINE
  5
279
100
AcDbEntity
  8
0
100
AcDbLine
 62
7
  6
CONTINUOUS
 10
544.4868534482
 20
434.675
 11
544.4868534483
 21
430.875
  0
LINE
  5
27A
100
AcDbEntity
  8
0
100
AcDbLine
 62
7
  6
CONTINUOUS
 10
544.5868534483
 20
430.875
 11
544.5868534483
 21
434.675
  0
LINE
  5
27B
100
AcDbEntity
  8
0
100
AcDbLine
 62
7
  6
CONTINUOUS
 10
548.6368534483
 20
426.875
 11
548.6368534483
 21
430.875
  0
LINE
  5
27C
100
AcDbEntity
  8
0
100
AcDbLine
 62
7
  6
CONTINUOUS
 10
562.1368534483
 20
423.875
 11
562.1368534483
 21
426.875
  0
LINE
  5
27D
100
AcDbEntity
  8
0
100
AcDbLine
 62
7
  6
CONTINUOUS
 10
563.6368534483
 20
422.375
 11
563.6368534483
 21
423.875
  0
ARC
  5
27E
100
AcDbEntity
  8
0
100
AcDbCircle
 62
7
  6
CONTINUOUS
 10
93.4205703057
 20
434.775
 40
1.0
100
AcDbArc
 50
0.0
 51
90.0
  0
ARC
  5
27F
100
AcDbEntity
  8
0
100
AcDbCircle
 62
7
  6
CONTINUOUS
 10
88.8531365909
 20
434.775
 40
1.0
100
AcDbArc
 50
90.0
 51
180.0
  0
ARC
  5
280
100
AcDbEntity
  8
0
100
AcDbCircle
 62
7
  6
CONTINUOUS
 10
543.4205703057
 20
434.775
 40
1.0
100
AcDbArc
 50
0.0
 51
90.0
  0
ARC
  5
281
100
AcDbEntity
  8
0
100
AcDbCircle
 62
7
  6
CONTINUOUS
 10
538.8531365909
 20
434.775
 40
1.0
100
AcDbArc
 50
90.0
 51
180.0
  0
ARC
  5
282
100
AcDbEntity
  8
0
100
AcDbCircle
 62
7
  6
CONTINUOUS
 10
255.9205703057
 20
434.775
 40
1.0
100
AcDbArc
 50
0.0
 51
90.0
  0
ARC
  5
283
100
AcDbEntity
  8
0
100
AcDbCircle
 62
7
  6
CONTINUOUS
 10
251.3531365909
 20
434.775
 40
1.0
100
AcDbArc
 50
90.0
 51
180.0
  0
ARC
  5
284
100
AcDbEntity
  8
0
100
AcDbCircle
 62
7
  6
CONTINUOUS
 10
505.9205703057
 20
434.775
 40
1.0
100
AcDbArc
 50
0.0
 51
90.0
  0
ARC
  5
285
100
AcDbEntity
  8
0
100
AcDbCircle
 62
7
  6
CONTINUOUS
 10
501.3531365909
 20
434.775
 40
1.0
100
AcDbArc
 50
90.0
 51
180.0
  0
ARC
  5
286
100
AcDbEntity
  8
0
100
AcDbCircle
 62
7
  6
CONTINUOUS
 10
380.9205703057
 20
434.775
 40
1.0
100
AcDbArc
 50
0.0
 51
90.0
  0
ARC
  5
287
100
AcDbEntity
  8
0
100
AcDbCircle
 62
7
  6
CONTINUOUS
 10
376.3531365909
 20
434.775
 40
1.0
100
AcDbArc
 50
90.0
 51
180.0
  0
ARC
  5
288
100
AcDbEntity
  8
0
100
AcDbCircle
 62
7
  6
CONTINUOUS
 10
130.9205703057
 20
434.775
 40
1.0
100
AcDbArc
 50
0.0
 51
90.0
  0
ARC
  5
289
100
AcDbEntity
  8
0
100
AcDbCircle
 62
7
  6
CONTINUOUS
 10
126.3531365909
 20
434.775
 40
1.0
100
AcDbArc
 50
90.0
 51
180.0
  0
ARC
  5
28A
100
AcDbEntity
  8
0
100
AcDbCircle
 62
7
  6
CONTINUOUS
 10
87.7868534483
 20
434.675
 40
0.1
100
AcDbArc
 50
89.9999962542
 51
180.0000000097
  0
ARC
  5
28B
100
AcDbEntity
  8
0
100
AcDbCircle
 62
7
  6
CONTINUOUS
 10
94.4868534483
 20
434.675
 40
0.1
100
AcDbArc
 50
0.0
 51
90.0000037993
  0
ARC
  5
28C
100
AcDbEntity
  8
0
100
AcDbCircle
 62
7
  6
CONTINUOUS
 10
537.7868534483
 20
434.675
 40
0.1
100
AcDbArc
 50
89.9999962539
 51
180.0000000098
  0
ARC
  5
28D
100
AcDbEntity
  8
0
100
AcDbCircle
 62
7
  6
CONTINUOUS
 10
544.4868534483
 20
434.675
 40
0.1
100
AcDbArc
 50
0.0
 51
90.0000037993
  0
ARC
  5
28E
100
AcDbEntity
  8
0
100
AcDbCircle
 62
7
  6
CONTINUOUS
 10
250.2868534483
 20
434.675
 40
0.1
100
AcDbArc
 50
89.9999962188
 51
179.9999999971
  0
ARC
  5
28F
100
AcDbEntity
  8
0
100
AcDbCircle
 62
7
  6
CONTINUOUS
 10
256.9868534483
 20
434.675
 40
0.1
100
AcDbArc
 50
0.0
 51
90.000003788
  0
ARC
  5
290
100
AcDbEntity
  8
0
100
AcDbCircle
 62
7
  6
CONTINUOUS
 10
500.2868534483
 20
434.675
 40
0.1
100
AcDbArc
 50
89.9999962537
 51
180.0000000099
  0
ARC
  5
291
100
AcDbEntity
  8
0
100
AcDbCircle
 62
7
  6
CONTINUOUS
 10
506.9868534483
 20
434.675
 40
0.1
100
AcDbArc
 50
0.0
 51
90.0000037993
  0
ARC
  5
292
100
AcDbEntity
  8
0
100
AcDbCircle
 62
7
  6
CONTINUOUS
 10
375.2868534483
 20
434.675
 40
0.1
100
AcDbArc
 50
89.9999962188
 51
179.9999999971
  0
ARC
  5
293
100
AcDbEntity
  8
0
100
AcDbCircle
 62
7
  6
CONTINUOUS
 10
381.9868534483
 20
434.675
 40
0.1
100
AcDbArc
 50
0.0
 51
90.0000037878
  0
ARC
  5
294
100
AcDbEntity
  8
0
100
AcDbCircle
 62
7
  6
CONTINUOUS
 10
125.2868534483
 20
434.675
 40
0.1
100
AcDbArc
 50
89.9999962538
 51
180.0000000098
  0
ARC
  5
295
100
AcDbEntity
  8
0
100
AcDbCircle
 62
7
  6
CONTINUOUS
 10
131.9868534483
 20
434.675
 40
0.1
100
AcDbArc
 50
0.0
 51
90.0000037993
  0
SPLINE
  5
296
100
AcDbEntity
  8
0
100
AcDbSpline
 62
7
  6
CONTINUOUS
 70
0
 71
3
 72
12
 73
8
 74
0
 42
0.0000001
 43
0.0000001
 44
0.0000000001
 40
0.0
 40
0.0
 40
0.0
 40
0.0
 40
0.3192603022
 40
0.603129612
 40
0.7240218035
 40
0.8290446669
 40
1.0
 40
1.0
 40
1.0
 40
1.0
 10
91.2368534483
 20
434.675
 30
0.0
 10
91.2368534483
 20
434.6878205365
 30
0.0
 10
91.2345633068
 20
434.7120880855
 30
0.0
 10
91.2258932167
 20
434.7401946412
 30
0.0
 10
91.2153473244
 20
434.7579000666
 30
0.0
 10
91.2047663977
 20
434.769815584
 30
0.0
 10
91.1937184986
 20
434.7750000009
 30
0.0
 10
91.186853445
 20
434.775
 30
0.0
  0
SPLINE
  5
297
100
AcDbEntity
  8
0
100
AcDbSpline
 62
7
  6
CONTINUOUS
 70
0
 71
3
 72
12
 73
8
 74
0
 42
0.0000001
 43
0.0000001
 44
0.0000000001
 40
0.0
 40
0.0
 40
0.0
 40
0.0
 40
0.1709553327
 40
0.2759781961
 40
0.3968703876
 40
0.6807396975
 40
1.0
 40
1.0
 40
1.0
 40
1.0
 10
91.0868534516
 20
434.775
 30
0.0
 10
91.079988398
 20
434.7750000009
 30
0.0
 10
91.0689404989
 20
434.769815584
 30
0.0
 10
91.0583595722
 20
434.7579000667
 30
0.0
 10
91.0478136799
 20
434.7401946413
 30
0.0
 10
91.0391435898
 20
434.7120880855
 30
0.0
 10
91.0368534483
 20
434.6878205365
 30
0.0
 10
91.0368534483
 20
434.675
 30
0.0
  0
SPLINE
  5
298
100
AcDbEntity
  8
0
100
AcDbSpline
 62
7
  6
CONTINUOUS
 70
0
 71
3
 72
12
 73
8
 74
0
 42
0.0000001
 43
0.0000001
 44
0.0000000001
 40
0.0
 40
0.0
 40
0.0
 40
0.0
 40
0.1709553327
 40
0.2759781961
 40
0.3968703876
 40
0.6807396976
 40
1.0
 40
1.0
 40
1.0
 40
1.0
 10
94.436853445
 20
434.775
 30
0.0
 10
94.4437184986
 20
434.7750000009
 30
0.0
 10
94.4547663977
 20
434.769815584
 30
0.0
 10
94.4653473244
 20
434.7579000667
 30
0.0
 10
94.4758932167
 20
434.7401946413
 30
0.0
 10
94.4845633068
 20
434.7120880855
 30
0.0
 10
94.4868534483
 20
434.6878205365
 30
0.0
 10
94.4868534483
 20
434.675
 30
0.0
  0
SPLINE
  5
299
100
AcDbEntity
  8
0
100
AcDbSpline
 62
7
  6
CONTINUOUS
 70
0
 71
3
 72
12
 73
8
 74
0
 42
0.0000001
 43
0.0000001
 44
0.0000000001
 40
0.0
 40
0.0
 40
0.0
 40
0.0
 40
0.3192603022
 40
0.603129612
 40
0.7240218035
 40
0.8290446669
 40
1.0
 40
1.0
 40
1.0
 40
1.0
 10
87.7868534483
 20
434.675
 30
0.0
 10
87.7868534483
 20
434.6878205365
 30
0.0
 10
87.7891435898
 20
434.7120880855
 30
0.0
 10
87.7978136799
 20
434.7401946412
 30
0.0
 10
87.8083595722
 20
434.7579000666
 30
0.0
 10
87.8189404988
 20
434.769815584
 30
0.0
 10
87.829988398
 20
434.7750000009
 30
0.0
 10
87.8368534516
 20
434.775
 30
0.0
  0
SPLINE
  5
29A
100
AcDbEntity
  8
0
100
AcDbSpline
 62
7
  6
CONTINUOUS
 70
0
 71
3
 72
12
 73
8
 74
0
 42
0.0000001
 43
0.0000001
 44
0.0000000001
 40
0.0
 40
0.0
 40
0.0
 40
0.0
 40
0.3192603022
 40
0.603129612
 40
0.7240218035
 40
0.8290446669
 40
1.0
 40
1.0
 40
1.0
 40
1.0
 10
541.2368534483
 20
434.675
 30
0.0
 10
541.2368534483
 20
434.6878205365
 30
0.0
 10
541.2345633068
 20
434.7120880855
 30
0.0
 10
541.2258932167
 20
434.7401946412
 30
0.0
 10
541.2153473244
 20
434.7579000666
 30
0.0
 10
541.2047663977
 20
434.769815584
 30
0.0
 10
541.1937184986
 20
434.7750000009
 30
0.0
 10
541.186853445
 20
434.775
 30
0.0
  0
SPLINE
  5
29B
100
AcDbEntity
  8
0
100
AcDbSpline
 62
7
  6
CONTINUOUS
 70
0
 71
3
 72
12
 73
8
 74
0
 42
0.0000001
 43
0.0000001
 44
0.0000000001
 40
0.0
 40
0.0
 40
0.0
 40
0.0
 40
0.1709553327
 40
0.2759781961
 40
0.3968703876
 40
0.6807396975
 40
1.0
 40
1.0
 40
1.0
 40
1.0
 10
541.0868534516
 20
434.775
 30
0.0
 10
541.079988398
 20
434.7750000009
 30
0.0
 10
541.0689404989
 20
434.769815584
 30
0.0
 10
541.0583595722
 20
434.7579000667
 30
0.0
 10
541.0478136799
 20
434.7401946413
 30
0.0
 10
541.0391435898
 20
434.7120880855
 30
0.0
 10
541.0368534483
 20
434.6878205365
 30
0.0
 10
541.0368534483
 20
434.675
 30
0.0
  0
SPLINE
  5
29C
100
AcDbEntity
  8
0
100
AcDbSpline
 62
7
  6
CONTINUOUS
 70
0
 71
3
 72
12
 73
8
 74
0
 42
0.0000001
 43
0.0000001
 44
0.0000000001
 40
0.0
 40
0.0
 40
0.0
 40
0.0
 40
0.1709553327
 40
0.2759781961
 40
0.3968703876
 40
0.6807396976
 40
1.0
 40
1.0
 40
1.0
 40
1.0
 10
544.436853445
 20
434.775
 30
0.0
 10
544.4437184986
 20
434.7750000009
 30
0.0
 10
544.4547663977
 20
434.769815584
 30
0.0
 10
544.4653473244
 20
434.7579000667
 30
0.0
 10
544.4758932167
 20
434.7401946413
 30
0.0
 10
544.4845633068
 20
434.7120880855
 30
0.0
 10
544.4868534483
 20
434.6878205365
 30
0.0
 10
544.4868534483
 20
434.675
 30
0.0
  0
SPLINE
  5
29D
100
AcDbEntity
  8
0
100
AcDbSpline
 62
7
  6
CONTINUOUS
 70
0
 71
3
 72
12
 73
8
 74
0
 42
0.0000001
 43
0.0000001
 44
0.0000000001
 40
0.0
 40
0.0
 40
0.0
 40
0.0
 40
0.3192603022
 40
0.603129612
 40
0.7240218035
 40
0.8290446669
 40
1.0
 40
1.0
 40
1.0
 40
1.0
 10
537.7868534483
 20
434.675
 30
0.0
 10
537.7868534483
 20
434.6878205365
 30
0.0
 10
537.7891435898
 20
434.7120880855
 30
0.0
 10
537.7978136799
 20
434.7401946412
 30
0.0
 10
537.8083595722
 20
434.7579000666
 30
0.0
 10
537.8189404988
 20
434.769815584
 30
0.0
 10
537.829988398
 20
434.7750000009
 30
0.0
 10
537.8368534516
 20
434.775
 30
0.0
  0
SPLINE
  5
29E
100
AcDbEntity
  8
0
100
AcDbSpline
 62
7
  6
CONTINUOUS
 70
0
 71
3
 72
12
 73
8
 74
0
 42
0.0000001
 43
0.0000001
 44
0.0000000001
 40
0.0
 40
0.0
 40
0.0
 40
0.0
 40
0.3192603022
 40
0.603129612
 40
0.7240218035
 40
0.8290446669
 40
1.0
 40
1.0
 40
1.0
 40
1.0
 10
253.7368534483
 20
434.675
 30
0.0
 10
253.7368534483
 20
434.6878205365
 30
0.0
 10
253.7345633068
 20
434.7120880855
 30
0.0
 10
253.7258932167
 20
434.7401946412
 30
0.0
 10
253.7153473244
 20
434.7579000666
 30
0.0
 10
253.7047663977
 20
434.769815584
 30
0.0
 10
253.6937184986
 20
434.7750000009
 30
0.0
 10
253.686853445
 20
434.775
 30
0.0
  0
SPLINE
  5
29F
100
AcDbEntity
  8
0
100
AcDbSpline
 62
7
  6
CONTINUOUS
 70
0
 71
3
 72
12
 73
8
 74
0
 42
0.0000001
 43
0.0000001
 44
0.0000000001
 40
0.0
 40
0.0
 40
0.0
 40
0.0
 40
0.1709553327
 40
0.2759781961
 40
0.3968703876
 40
0.6807396976
 40
1.0
 40
1.0
 40
1.0
 40
1.0
 10
253.5868534516
 20
434.775
 30
0.0
 10
253.579988398
 20
434.7750000009
 30
0.0
 10
253.5689404988
 20
434.769815584
 30
0.0
 10
253.5583595722
 20
434.7579000667
 30
0.0
 10
253.5478136799
 20
434.7401946413
 30
0.0
 10
253.5391435897
 20
434.7120880855
 30
0.0
 10
253.5368534483
 20
434.6878205365
 30
0.0
 10
253.5368534483
 20
434.675
 30
0.0
  0
SPLINE
  5
2A0
100
AcDbEntity
  8
0
100
AcDbSpline
 62
7
  6
CONTINUOUS
 70
0
 71
3
 72
12
 73
8
 74
0
 42
0.0000001
 43
0.0000001
 44
0.0000000001
 40
0.0
 40
0.0
 40
0.0
 40
0.0
 40
0.1709553327
 40
0.2759781961
 40
0.3968703876
 40
0.6807396976
 40
1.0
 40
1.0
 40
1.0
 40
1.0
 10
256.936853445
 20
434.775
 30
0.0
 10
256.9437184986
 20
434.7750000009
 30
0.0
 10
256.9547663977
 20
434.769815584
 30
0.0
 10
256.9653473244
 20
434.7579000667
 30
0.0
 10
256.9758932167
 20
434.7401946413
 30
0.0
 10
256.9845633068
 20
434.7120880855
 30
0.0
 10
256.9868534483
 20
434.6878205365
 30
0.0
 10
256.9868534483
 20
434.675
 30
0.0
  0
SPLINE
  5
2A1
100
AcDbEntity
  8
0
100
AcDbSpline
 62
7
  6
CONTINUOUS
 70
0
 71
3
 72
12
 73
8
 74
0
 42
0.0000001
 43
0.0000001
 44
0.0000000001
 40
0.0
 40
0.0
 40
0.0
 40
0.0
 40
0.3192603022
 40
0.603129612
 40
0.7240218035
 40
0.8290446669
 40
1.0
 40
1.0
 40
1.0
 40
1.0
 10
250.2868534483
 20
434.675
 30
0.0
 10
250.2868534483
 20
434.6878205365
 30
0.0
 10
250.2891435897
 20
434.7120880855
 30
0.0
 10
250.2978136799
 20
434.7401946412
 30
0.0
 10
250.3083595722
 20
434.7579000666
 30
0.0
 10
250.3189404988
 20
434.769815584
 30
0.0
 10
250.329988398
 20
434.7750000009
 30
0.0
 10
250.3368534516
 20
434.775
 30
0.0
  0
SPLINE
  5
2A2
100
AcDbEntity
  8
0
100
AcDbSpline
 62
7
  6
CONTINUOUS
 70
0
 71
3
 72
12
 73
8
 74
0
 42
0.0000001
 43
0.0000001
 44
0.0000000001
 40
0.0
 40
0.0
 40
0.0
 40
0.0
 40
0.3192603022
 40
0.603129612
 40
0.7240218035
 40
0.8290446669
 40
1.0
 40
1.0
 40
1.0
 40
1.0
 10
503.7368534483
 20
434.675
 30
0.0
 10
503.7368534483
 20
434.6878205365
 30
0.0
 10
503.7345633068
 20
434.7120880855
 30
0.0
 10
503.7258932167
 20
434.7401946412
 30
0.0
 10
503.7153473244
 20
434.7579000666
 30
0.0
 10
503.7047663977
 20
434.769815584
 30
0.0
 10
503.6937184986
 20
434.7750000009
 30
0.0
 10
503.686853445
 20
434.775
 30
0.0
  0
SPLINE
  5
2A3
100
AcDbEntity
  8
0
100
AcDbSpline
 62
7
  6
CONTINUOUS
 70
0
 71
3
 72
12
 73
8
 74
0
 42
0.0000001
 43
0.0000001
 44
0.0000000001
 40
0.0
 40
0.0
 40
0.0
 40
0.0
 40
0.1709553327
 40
0.2759781961
 40
0.3968703876
 40
0.6807396975
 40
1.0
 40
1.0
 40
1.0
 40
1.0
 10
503.5868534516
 20
434.775
 30
0.0
 10
503.579988398
 20
434.7750000009
 30
0.0
 10
503.5689404989
 20
434.769815584
 30
0.0
 10
503.5583595722
 20
434.7579000667
 30
0.0
 10
503.5478136799
 20
434.7401946413
 30
0.0
 10
503.5391435898
 20
434.7120880855
 30
0.0
 10
503.5368534483
 20
434.6878205365
 30
0.0
 10
503.5368534483
 20
434.675
 30
0.0
  0
SPLINE
  5
2A4
100
AcDbEntity
  8
0
100
AcDbSpline
 62
7
  6
CONTINUOUS
 70
0
 71
3
 72
12
 73
8
 74
0
 42
0.0000001
 43
0.0000001
 44
0.0000000001
 40
0.0
 40
0.0
 40
0.0
 40
0.0
 40
0.1709553327
 40
0.2759781961
 40
0.3968703876
 40
0.6807396976
 40
1.0
 40
1.0
 40
1.0
 40
1.0
 10
506.936853445
 20
434.775
 30
0.0
 10
506.9437184986
 20
434.7750000009
 30
0.0
 10
506.9547663977
 20
434.769815584
 30
0.0
 10
506.9653473244
 20
434.7579000667
 30
0.0
 10
506.9758932167
 20
434.7401946413
 30
0.0
 10
506.9845633068
 20
434.7120880855
 30
0.0
 10
506.9868534483
 20
434.6878205365
 30
0.0
 10
506.9868534483
 20
434.675
 30
0.0
  0
SPLINE
  5
2A5
100
AcDbEntity
  8
0
100
AcDbSpline
 62
7
  6
CONTINUOUS
 70
0
 71
3
 72
12
 73
8
 74
0
 42
0.0000001
 43
0.0000001
 44
0.0000000001
 40
0.0
 40
0.0
 40
0.0
 40
0.0
 40
0.3192603022
 40
0.603129612
 40
0.7240218035
 40
0.8290446669
 40
1.0
 40
1.0
 40
1.0
 40
1.0
 10
500.2868534483
 20
434.675
 30
0.0
 10
500.2868534483
 20
434.6878205365
 30
0.0
 10
500.2891435898
 20
434.7120880855
 30
0.0
 10
500.2978136799
 20
434.7401946412
 30
0.0
 10
500.3083595722
 20
434.7579000666
 30
0.0
 10
500.3189404988
 20
434.769815584
 30
0.0
 10
500.329988398
 20
434.7750000009
 30
0.0
 10
500.3368534516
 20
434.775
 30
0.0
  0
SPLINE
  5
2A6
100
AcDbEntity
  8
0
100
AcDbSpline
 62
7
  6
CONTINUOUS
 70
0
 71
3
 72
12
 73
8
 74
0
 42
0.0000001
 43
0.0000001
 44
0.0000000001
 40
0.0
 40
0.0
 40
0.0
 40
0.0
 40
0.3192603022
 40
0.603129612
 40
0.7240218035
 40
0.8290446669
 40
1.0
 40
1.0
 40
1.0
 40
1.0
 10
378.7368534483
 20
434.675
 30
0.0
 10
378.7368534483
 20
434.6878205365
 30
0.0
 10
378.7345633068
 20
434.7120880855
 30
0.0
 10
378.7258932167
 20
434.7401946412
 30
0.0
 10
378.7153473244
 20
434.7579000666
 30
0.0
 10
378.7047663977
 20
434.769815584
 30
0.0
 10
378.6937184986
 20
434.7750000009
 30
0.0
 10
378.686853445
 20
434.775
 30
0.0
  0
SPLINE
  5
2A7
100
AcDbEntity
  8
0
100
AcDbSpline
 62
7
  6
CONTINUOUS
 70
0
 71
3
 72
12
 73
8
 74
0
 42
0.0000001
 43
0.0000001
 44
0.0000000001
 40
0.0
 40
0.0
 40
0.0
 40
0.0
 40
0.1709553327
 40
0.2759781961
 40
0.3968703876
 40
0.6807396976
 40
1.0
 40
1.0
 40
1.0
 40
1.0
 10
378.5868534516
 20
434.775
 30
0.0
 10
378.579988398
 20
434.7750000009
 30
0.0
 10
378.5689404988
 20
434.769815584
 30
0.0
 10
378.5583595722
 20
434.7579000667
 30
0.0
 10
378.5478136799
 20
434.7401946413
 30
0.0
 10
378.5391435897
 20
434.7120880855
 30
0.0
 10
378.5368534483
 20
434.6878205365
 30
0.0
 10
378.5368534483
 20
434.675
 30
0.0
  0
SPLINE
  5
2A8
100
AcDbEntity
  8
0
100
AcDbSpline
 62
7
  6
CONTINUOUS
 70
0
 71
3
 72
12
 73
8
 74
0
 42
0.0000001
 43
0.0000001
 44
0.0000000001
 40
0.0
 40
0.0
 40
0.0
 40
0.0
 40
0.1709553327
 40
0.2759781961
 40
0.3968703876
 40
0.6807396976
 40
1.0
 40
1.0
 40
1.0
 40
1.0
 10
381.936853445
 20
434.775
 30
0.0
 10
381.9437184986
 20
434.7750000009
 30
0.0
 10
381.9547663977
 20
434.769815584
 30
0.0
 10
381.9653473244
 20
434.7579000667
 30
0.0
 10
381.9758932167
 20
434.7401946413
 30
0.0
 10
381.9845633068
 20
434.7120880855
 30
0.0
 10
381.9868534483
 20
434.6878205365
 30
0.0
 10
381.9868534483
 20
434.675
 30
0.0
  0
SPLINE
  5
2A9
100
AcDbEntity
  8
0
100
AcDbSpline
 62
7
  6
CONTINUOUS
 70
0
 71
3
 72
12
 73
8
 74
0
 42
0.0000001
 43
0.0000001
 44
0.0000000001
 40
0.0
 40
0.0
 40
0.0
 40
0.0
 40
0.3192603022
 40
0.603129612
 40
0.7240218035
 40
0.8290446669
 40
1.0
 40
1.0
 40
1.0
 40
1.0
 10
375.2868534483
 20
434.675
 30
0.0
 10
375.2868534483
 20
434.6878205365
 30
0.0
 10
375.2891435897
 20
434.7120880855
 30
0.0
 10
375.2978136799
 20
434.7401946412
 30
0.0
 10
375.3083595722
 20
434.7579000666
 30
0.0
 10
375.3189404988
 20
434.769815584
 30
0.0
 10
375.329988398
 20
434.7750000009
 30
0.0
 10
375.3368534516
 20
434.775
 30
0.0
  0
SPLINE
  5
2AA
100
AcDbEntity
  8
0
100
AcDbSpline
 62
7
  6
CONTINUOUS
 70
0
 71
3
 72
12
 73
8
 74
0
 42
0.0000001
 43
0.0000001
 44
0.0000000001
 40
0.0
 40
0.0
 40
0.0
 40
0.0
 40
0.3192603022
 40
0.603129612
 40
0.7240218035
 40
0.8290446669
 40
1.0
 40
1.0
 40
1.0
 40
1.0
 10
128.7368534483
 20
434.675
 30
0.0
 10
128.7368534483
 20
434.6878205365
 30
0.0
 10
128.7345633068
 20
434.7120880855
 30
0.0
 10
128.7258932167
 20
434.7401946412
 30
0.0
 10
128.7153473244
 20
434.7579000666
 30
0.0
 10
128.7047663977
 20
434.769815584
 30
0.0
 10
128.6937184986
 20
434.7750000009
 30
0.0
 10
128.686853445
 20
434.775
 30
0.0
  0
SPLINE
  5
2AB
100
AcDbEntity
  8
0
100
AcDbSpline
 62
7
  6
CONTINUOUS
 70
0
 71
3
 72
12
 73
8
 74
0
 42
0.0000001
 43
0.0000001
 44
0.0000000001
 40
0.0
 40
0.0
 40
0.0
 40
0.0
 40
0.1709553327
 40
0.2759781961
 40
0.3968703876
 40
0.6807396975
 40
1.0
 40
1.0
 40
1.0
 40
1.0
 10
128.5868534516
 20
434.775
 30
0.0
 10
128.579988398
 20
434.7750000009
 30
0.0
 10
128.5689404989
 20
434.769815584
 30
0.0
 10
128.5583595722
 20
434.7579000667
 30
0.0
 10
128.5478136799
 20
434.7401946413
 30
0.0
 10
128.5391435898
 20
434.7120880855
 30
0.0
 10
128.5368534483
 20
434.6878205365
 30
0.0
 10
128.5368534483
 20
434.675
 30
0.0
  0
SPLINE
  5
2AC
100
AcDbEntity
  8
0
100
AcDbSpline
 62
7
  6
CONTINUOUS
 70
0
 71
3
 72
12
 73
8
 74
0
 42
0.0000001
 43
0.0000001
 44
0.0000000001
 40
0.0
 40
0.0
 40
0.0
 40
0.0
 40
0.1709553327
 40
0.2759781961
 40
0.3968703876
 40
0.6807396976
 40
1.0
 40
1.0
 40
1.0
 40
1.0
 10
131.936853445
 20
434.775
 30
0.0
 10
131.9437184986
 20
434.7750000009
 30
0.0
 10
131.9547663977
 20
434.769815584
 30
0.0
 10
131.9653473244
 20
434.7579000667
 30
0.0
 10
131.9758932167
 20
434.7401946413
 30
0.0
 10
131.9845633068
 20
434.7120880855
 30
0.0
 10
131.9868534483
 20
434.6878205365
 30
0.0
 10
131.9868534483
 20
434.675
 30
0.0
  0
SPLINE
  5
2AD
100
AcDbEntity
  8
0
100
AcDbSpline
 62
7
  6
CONTINUOUS
 70
0
 71
3
 72
12
 73
8
 74
0
 42
0.0000001
 43
0.0000001
 44
0.0000000001
 40
0.0
 40
0.0
 40
0.0
 40
0.0
 40
0.3192603022
 40
0.603129612
 40
0.7240218035
 40
0.8290446669
 40
1.0
 40
1.0
 40
1.0
 40
1.0
 10
125.2868534483
 20
434.675
 30
0.0
 10
125.2868534483
 20
434.6878205365
 30
0.0
 10
125.2891435898
 20
434.7120880855
 30
0.0
 10
125.2978136799
 20
434.7401946412
 30
0.0
 10
125.3083595722
 20
434.7579000666
 30
0.0
 10
125.3189404988
 20
434.769815584
 30
0.0
 10
125.329988398
 20
434.7750000009
 30
0.0
 10
125.3368534516
 20
434.775
 30
0.0
  0
ENDSEC
  0
SECTION
  2
OBJECTS
  0
DICTIONARY
  5
C
100
AcDbDictionary
280
0
281
1
  3
ACAD_GROUP
350
D
  3
ACAD_MLINESTYLE
350
17
  3
ACAD_LAYOUT
350
1A
  3
ACAD_PLOTSETTINGS
350
19
  3
ACAD_PLOTSTYLENAME
350
E
  0
DICTIONARY
  5
D
102
{ACAD_REACTORS
330
C
102
}
100
AcDbDictionary
280
0
281
1
  0
ACDBDICTIONARYWDFLT
  5
E
102
{ACAD_REACTORS
330
C
102
}
100
AcDbDictionary
281
1
  3
Normal
350
F
100
AcDbDictionaryWithDefault
340
F
  0
DICTIONARY
  5
17
102
{ACAD_REACTORS
330
C
102
}
100
AcDbDictionary
280
0
281
1
  3
Standard
350
18
  0
DICTIONARY
  5
19
102
{ACAD_REACTORS
330
C
102
}
100
AcDbDictionary
281
1
  0
DICTIONARY
  5
1A
102
{ACAD_REACTORS
330
C
102
}
100
AcDbDictionary
281
1
  3
Model
350
2AE
  3
Layout1
350
2AF
  0
ACDBPLACEHOLDER
  5
F
102
{ACAD_REACTORS
330
E
102
}
  0
MLINESTYLE
  5
18
102
{ACAD_REACTORS
330
17
102
}
100
AcDbMlineStyle
  2
STANDARD
 70
0
  3

 62
256
 51
90.0
 52
90.0
 71
2
 49
0.5
 62
256
  6
BYLAYER
 49
-0.5
 62
256
  6
BYLAYER
  0
LAYOUT
  5
2AE
102
{ACAD_REACTORS
330
1A
102
}
100
AcDbPlotSettings
  1

  2
none_device
  4

  6

 40
0.0
 41
0.0
 42
0.0
 43
0.0
 44
210.0
 45
297.0
 46
0.0
 47
0.0
 48
0.0
 49
0.0
140
0.0
141
0.0
142
1.0
143
1.0
 70
1024
 72
1
 73
0
 74
0
  7

 75
0
147
1.0
148
0.0
149
0.0
100
AcDbLayout
  1
Model
 70
0
 71
0
 10
0.0
 20
0.0
 11
210.0
 21
297.0
 12
0.0
 22
0.0
 32
0.0
 14
0.0
 24
0.0
 34
0.0
 15
0.0
 25
0.0
 35
0.0
146
0.0
 13
0.0
 23
0.0
 33
0.0
 16
1.0
 26
0.0
 36
0.0
 17
0.0
 27
1.0
 37
0.0
 76
0
330
210
345
0
346
0
  0
LAYOUT
  5
2AF
102
{ACAD_REACTORS
330
1A
102
}
100
AcDbPlotSettings
  1

  2
none_device
  4

  6

 40
0.0
 41
0.0
 42
0.0
 43
0.0
 44
210.0
 45
297.0
 46
0.0
 47
0.0
 48
0.0
 49
0.0
140
0.0
141
0.0
142
1.0
143
1.0
 70
0
 72
1
 73
0
 74
0
  7

 75
0
147
1.0
148
0.0
149
0.0
100
AcDbLayout
  1
Layout1
 70
0
 71
1
 10
0.0
 20
0.0
 11
210.0
 21
297.0
 12
0.0
 22
0.0
 32
0.0
 14
0.0
 24
0.0
 34
0.0
 15
0.0
 25
0.0
 35
0.0
146
0.0
 13
0.0
 23
0.0
 33
0.0
 16
1.0
 26
0.0
 36
0.0
 17
0.0
 27
1.0
 37
0.0
 76
0
330
211
345
0
346
0
  0
ENDSEC
  0
EOF
