999
DXF file: C:\Users\sesa63760\Dev\_Creo\CAD\MCADPE0010599_3D-CAD\drw0001_1.dxf
999
Pro/ENGINEER 2019471 by Parametric Technology Corporation
  0
SECTION
  2
HEADER
  9
$ACADVER
  1
AC1024
  9
$DWGCODEPAGE
  3
ANSI_1252
  9
$EXTMAX
 10
70.0353660605
 20
99.0500177142
 30
0.0
  9
$EXTMIN
 10
0.0
 20
0.0
 30
0.0
  9
$LIMMIN
 10
0.0
 20
0.0
  9
$LIMMAX
 10
70.0353660605
 20
99.0500177142
  9
$VIEWCTR
 10
35.0176830303
 20
49.5250088571
  9
$VIEWSIZE
 40
99.0500177142
  9
$CLAYER
  8
0
  9
$LTSCALE
 40
6.4565937473
  9
$CELTYPE
  6
BYLAYER
  9
$DIMSCALE
 40
1.0
  9
$DIMASZ
 40
0.8337543579
  9
$DIMEXO
 40
1.0
  9
$DIMDLI
 40
4.4609193163
  9
$DIMEXE
 40
1.0
  9
$DIMCEN
 40
1.0565335223
  9
$DIMLFAC
 40
1.0
  9
$DIMBLK
  1
_FILLED
  9
$DIMALT
 70
0
  9
$DIMALTF
 40
0.0393700787
  9
$DIMTXT
 40
1.167256101
  9
$DIMTOL
 70
1
  9
$DIMLIM
 70
0
  9
$DIMTFAC
 40
1.0
  9
$DIMTP
 40
0.01
  9
$DIMTM
 40
0.01
  9
$DIMGAP
 40
0.625
  9
$DIMDSEP
 70
46
  9
$AUNITS
 70
0
  9
$PDMODE
 70
3
  9
$PDSIZE
 40
0.3125
  9
$HANDSEED
  5
369
  9
$TILEMODE
 70
1
  9
$MEASUREMENT
 70
1
  9
$INSUNITS
 70
4
  0
ENDSEC
  0
SECTION
  2
CLASSES
  0
CLASS
  1
ACDBDICTIONARYWDFLT
  2
AcDbDictionaryWithDefault
  3
AutoCAD 2000
 90
0
 91
1
280
0
281
0
  0
CLASS
  1
ACDBPLACEHOLDER
  2
AcDbPlaceHolder
  3
AutoCAD 2000
 90
0
 91
1
280
0
281
0
  0
CLASS
  1
LAYOUT
  2
AcDbLayout
  3
AutoCAD 2000
 90
0
 91
0
280
0
281
0
  0
ENDSEC
  0
SECTION
  2
TABLES
  0
TABLE
  2
VPORT
  5
8
100
AcDbSymbolTable
 70
2
  0
VPORT
  5
1F4
100
AcDbSymbolTableRecord
100
AcDbViewportTableRecord
  2
*ACTIVE
 70
0
 10
0.0
 20
0.0
 11
1.0
 21
1.0
 12
35.0176830303
 22
49.5250088571
 13
0.0
 23
0.0
 14
1.0
 24
1.0
 15
0.0
 25
0.0
 16
0.0
 26
0.0
 36
1.0
 17
0.0
 27
0.0
 37
0.0
 40
99.0500177142
 41
0.7070707071
 42
50.0
 43
0.0
 44
0.0
 50
0.0
 51
0.0
 71
0
 72
100
 73
1
 74
1
 75
0
 76
0
 77
0
 78
0
  0
ENDTAB
  0
TABLE
  2
LTYPE
  5
5
100
AcDbSymbolTable
 70
6
  0
LTYPE
  5
14
100
AcDbSymbolTableRecord
100
AcDbLinetypeTableRecord
  2
BYBLOCK
 70
0
  3

 72
65
 73
0
 40
0.0
  0
LTYPE
  5
15
100
AcDbSymbolTableRecord
100
AcDbLinetypeTableRecord
  2
BYLAYER
 70
0
  3

 72
65
 73
0
 40
0.0
  0
LTYPE
  5
16
100
AcDbSymbolTableRecord
100
AcDbLinetypeTableRecord
  2
CONTINUOUS
 70
64
  3
Solid line
 72
65
 73
0
 40
0.0
  0
LTYPE
  5
1F5
100
AcDbSymbolTableRecord
100
AcDbLinetypeTableRecord
  2
CENTER
 70
64
  3
____ _ ____ _ ____ _ ____ _ ____ _ ____ _ ____
 72
65
 73
4
 40
0.6
 49
0.375
 74
0
 49
-0.075
 74
0
 49
0.075
 74
0
 49
-0.075
 74
0
  0
LTYPE
  5
1F6
100
AcDbSymbolTableRecord
100
AcDbLinetypeTableRecord
  2
HIDDEN
 70
64
  3
- - - - - - - - - - - - - - - - - - - -
 72
65
 73
2
 40
0.2
 49
0.1
 74
0
 49
-0.1
 74
0
  0
LTYPE
  5
1F7
100
AcDbSymbolTableRecord
100
AcDbLinetypeTableRecord
  2
PHANTOM
 70
64
  3
_____ _ _ _____ _ _ _____ _ _ _____
 72
65
 73
6
 40
0.8
 49
0.45
 74
0
 49
-0.05
 74
0
 49
0.1
 74
0
 49
-0.05
 74
0
 49
0.1
 74
0
 49
-0.05
 74
0
  0
LTYPE
  5
1F8
100
AcDbSymbolTableRecord
100
AcDbLinetypeTableRecord
  2
DOT
 70
64
  3
. . . . . . . . . . . . . . . . . . . .
 72
65
 73
2
 40
0.2
 49
0.1
 74
0
 49
-0.1
 74
0
  0
LTYPE
  5
1F9
100
AcDbSymbolTableRecord
100
AcDbLinetypeTableRecord
  2
DASHED
 70
64
  3
- - - - - - - - - - - - - - - - - - - -
 72
65
 73
2
 40
0.2
 49
0.1
 74
0
 49
-0.1
 74
0
  0
ENDTAB
  0
TABLE
  2
LAYER
  5
2
100
AcDbSymbolTable
 70
36
  0
LAYER
  5
10
100
AcDbSymbolTableRecord
100
AcDbLayerTableRecord
  2
0
 70
0
 62
7
  6
CONTINUOUS
370
-3
390
F
  0
LAYER
  5
1FA
100
AcDbSymbolTableRecord
100
AcDbLayerTableRecord
  2
DEFAULT_1
 70
0
 62
7
  6
CENTER
370
-3
390
F
  0
LAYER
  5
1FB
100
AcDbSymbolTableRecord
100
AcDbLayerTableRecord
  2
DEFAULT_2
 70
0
 62
7
  6
HIDDEN
370
-3
390
F
  0
LAYER
  5
1FC
100
AcDbSymbolTableRecord
100
AcDbLayerTableRecord
  2
DEFAULT_3
 70
0
 62
7
  6
PHANTOM
370
-3
390
F
  0
LAYER
  5
1FD
100
AcDbSymbolTableRecord
100
AcDbLayerTableRecord
  2
00_COMPONENTS
 70
0
 62
7
  6
CONTINUOUS
370
-3
390
F
  0
LAYER
  5
1FE
100
AcDbSymbolTableRecord
100
AcDbLayerTableRecord
  2
01_1_DEFAULT_DATUMS
 70
0
 62
7
  6
CONTINUOUS
370
-3
390
F
  0
LAYER
  5
1FF
100
AcDbSymbolTableRecord
100
AcDbLayerTableRecord
  2
01_PLANES
 70
0
 62
7
  6
CONTINUOUS
370
-3
390
F
  0
LAYER
  5
200
100
AcDbSymbolTableRecord
100
AcDbLayerTableRecord
  2
02_COORD_SYS
 70
0
 62
7
  6
CONTINUOUS
370
-3
390
F
  0
LAYER
  5
201
100
AcDbSymbolTableRecord
100
AcDbLayerTableRecord
  2
03_AXES
 70
0
 62
7
  6
CONTINUOUS
370
-3
390
F
  0
LAYER
  5
202
100
AcDbSymbolTableRecord
100
AcDbLayerTableRecord
  2
04_POINTS
 70
0
 62
7
  6
CONTINUOUS
370
-3
390
F
  0
LAYER
  5
203
100
AcDbSymbolTableRecord
100
AcDbLayerTableRecord
  2
05_CURVES
 70
0
 62
7
  6
CONTINUOUS
370
-3
390
F
  0
LAYER
  5
204
100
AcDbSymbolTableRecord
100
AcDbLayerTableRecord
  2
06_SURFS
 70
0
 62
7
  6
CONTINUOUS
370
-3
390
F
  0
LAYER
  5
205
100
AcDbSymbolTableRecord
100
AcDbLayerTableRecord
  2
07_COSMETICS
 70
0
 62
7
  6
CONTINUOUS
370
-3
390
F
  0
LAYER
  5
206
100
AcDbSymbolTableRecord
100
AcDbLayerTableRecord
  2
10_NOTES
 70
0
 62
7
  6
CONTINUOUS
370
-3
390
F
  0
LAYER
  5
207
100
AcDbSymbolTableRecord
100
AcDbLayerTableRecord
  2
11_NOTES_PUB
 70
0
 62
7
  6
CONTINUOUS
370
-3
390
F
  0
LAYER
  5
208
100
AcDbSymbolTableRecord
100
AcDbLayerTableRecord
  2
13_REF_GTOL
 70
0
 62
7
  6
CONTINUOUS
370
-3
390
F
  0
LAYER
  5
209
100
AcDbSymbolTableRecord
100
AcDbLayerTableRecord
  2
16_MISC
 70
0
 62
7
  6
CONTINUOUS
370
-3
390
F
  0
LAYER
  5
20A
100
AcDbSymbolTableRecord
100
AcDbLayerTableRecord
  2
17_NO_PRINT
 70
0
 62
7
  6
CONTINUOUS
370
-3
390
F
  0
LAYER
  5
20B
100
AcDbSymbolTableRecord
100
AcDbLayerTableRecord
  2
18_DATUM_CAMS_JOINTS
 70
0
 62
7
  6
CONTINUOUS
370
-3
390
F
  0
LAYER
  5
20C
100
AcDbSymbolTableRecord
100
AcDbLayerTableRecord
  2
19_DATUM_FUNCTIONAL
 70
0
 62
7
  6
CONTINUOUS
370
-3
390
F
  0
LAYER
  5
20D
100
AcDbSymbolTableRecord
100
AcDbLayerTableRecord
  2
20_DATUM_KINEMATIC_SCHEME
 70
0
 62
7
  6
CONTINUOUS
370
-3
390
F
  0
ENDTAB
  0
TABLE
  2
STYLE
  5
3
100
AcDbSymbolTable
 70
1
  0
STYLE
  5
11
100
AcDbSymbolTableRecord
100
AcDbTextStyleTableRecord
  2
STANDARD
 70
0
 40
0.0
 41
1.0
 50
0.0
 71
0
 42
0.2
  3
ARIAL.TTF
  4

  0
STYLE
  5
20E
100
AcDbSymbolTableRecord
100
AcDbTextStyleTableRecord
  2
TEXTSTYLE_1
 70
0
 40
0.0
 41
0.8
 50
0.0
 71
0
 42
0.2
  3
gdt
  4

  0
ENDTAB
  0
TABLE
  2
VIEW
  5
6
100
AcDbSymbolTable
 70
0
  0
ENDTAB
  0
TABLE
  2
UCS
  5
7
100
AcDbSymbolTable
 70
0
  0
ENDTAB
  0
TABLE
  2
APPID
  5
9
100
AcDbSymbolTable
 70
1
  0
APPID
  5
20F
100
AcDbSymbolTableRecord
100
AcDbRegAppTableRecord
  2
ACAD
 70
0
  0
ENDTAB
  0
TABLE
  2
BLOCK_RECORD
  5
1
100
AcDbSymbolTable
 70
0
  0
BLOCK_RECORD
  5
210
100
AcDbSymbolTableRecord
100
AcDbBlockTableRecord
  2
*Model_Space
  0
BLOCK_RECORD
  5
211
100
AcDbSymbolTableRecord
100
AcDbBlockTableRecord
  2
*Paper_Space
  0
BLOCK_RECORD
  5
212
100
AcDbSymbolTableRecord
100
AcDbBlockTableRecord
  2
_FILLED
  0
ENDTAB
  0
TABLE
  2
DIMSTYLE
  5
A
100
AcDbSymbolTable
 70
1
100
AcDbDimStyleTable
 71
0
  0
DIMSTYLE
105
213
100
AcDbSymbolTableRecord
100
AcDbDimStyleTableRecord
  2
STANDARD
 70
0
  3

  4

 40
1.0
 41
0.8337543579
 42
1.0
 43
0.38
 44
1.0
 45
0.0
 46
0.0
 47
0.01
 48
0.01
140
1.167256101
141
0.09
142
0.0
143
25.4
144
1.0
145
0.0
146
1.0
147
0.625
 71
1
 72
0
 73
0
 74
0
 75
0
 76
0
 77
1
 78
8
 79
2
170
0
171
1
172
0
173
0
174
0
175
0
176
0
177
0
178
0
270
2
179
2
271
2
272
2
273
2
274
2
275
0
280
0
281
0
282
0
283
1
284
8
285
0
286
0
287
3
288
0
340
11
278
46
341
212
342
212
343
212
344
212
  0
ENDTAB
  0
ENDSEC
  0
SECTION
  2
BLOCKS
  0
BLOCK
  5
20
100
AcDbEntity
  8
0
100
AcDbBlockBegin
  2
*Model_Space
 70
0
 10
0.0
 20
0.0
 30
0.0
  3
*Model_Space
  1

  0
ENDBLK
  5
21
100
AcDbEntity
  8
0
100
AcDbBlockEnd
  0
BLOCK
  5
1C
100
AcDbEntity
  8
0
100
AcDbBlockBegin
  2
*Paper_Space
 70
0
 10
0.0
 20
0.0
 30
0.0
  3
*Paper_Space
  1

  0
ENDBLK
  5
1D
100
AcDbEntity
  8
0
100
AcDbBlockEnd
  0
BLOCK
  5
214
100
AcDbEntity
  8
0
100
AcDbBlockBegin
  2
_FILLED
 70
64
 10
0.0
 20
0.0
  3
_FILLED
  1

  0
SOLID
  5
215
100
AcDbEntity
  8
0
  6
BYBLOCK
 62
0
100
AcDbTrace
 10
0.0
 20
0.0
 11
-1.0
 21
0.25
 12
-1.0
 22
-0.25
 13
-1.0
 23
-0.25
  0
ENDBLK
  5
216
100
AcDbEntity
  8
0
  6
BYBLOCK
 62
0
100
AcDbBlockEnd
  0
ENDSEC
  0
SECTION
  2
ENTITIES
  0
LINE
  5
217
100
AcDbEntity
  8
0
100
AcDbLine
 62
7
  6
BYLAYER
 10
10.5022454286
 20
18.279602856
 11
14.8509702383
 21
15.7689222157
  0
LINE
  5
218
100
AcDbEntity
  8
0
100
AcDbLine
 62
7
  6
BYLAYER
 10
14.6491285623
 20
16.1302447401
 11
10.3004037526
 21
18.6409253804
  0
LINE
  5
219
100
AcDbEntity
  8
0
100
AcDbLine
 62
7
  6
BYLAYER
 10
14.8510115391
 20
15.7689938118
 11
15.1324546523
 21
15.7322581916
  0
LINE
  5
21A
100
AcDbEntity
  8
0
100
AcDbLine
 62
7
  6
BYLAYER
 10
17.0748846854
 20
18.0491339946
 11
17.2249961374
 21
17.962469068
  0
LINE
  5
21B
100
AcDbEntity
  8
0
100
AcDbLine
 62
7
  6
BYLAYER
 10
17.0794283693
 20
18.0679048151
 11
17.2728484878
 21
17.9562361839
  0
LINE
  5
21C
100
AcDbEntity
  8
0
100
AcDbLine
 62
7
  6
BYLAYER
 10
21.2633175463
 20
17.0652271559
 11
17.886467286
 21
19.0148084572
  0
LINE
  5
21D
100
AcDbEntity
  8
0
100
AcDbLine
 62
7
  6
BYLAYER
 10
21.059730105
 20
17.4436227571
 11
18.2211160653
 21
19.0824602616
  0
LINE
  5
21E
100
AcDbEntity
  8
0
100
AcDbLine
 62
7
  6
BYLAYER
 10
13.4410135038
 20
21.9817329731
 11
10.9307739795
 21
23.4309876516
  0
LINE
  5
21F
100
AcDbEntity
  8
0
100
AcDbLine
 62
7
  6
BYLAYER
 10
21.2633648213
 20
17.0653090926
 11
21.5448019603
 21
17.0285631318
  0
LINE
  5
220
100
AcDbEntity
  8
0
100
AcDbLine
 62
7
  6
BYLAYER
 10
17.2728221555
 20
17.9561901682
 11
17.2249961374
 21
17.962469068
  0
LINE
  5
221
100
AcDbEntity
  8
0
100
AcDbLine
 62
7
  6
BYLAYER
 10
19.5209497609
 20
19.3452315621
 11
20.9619916801
 21
18.5132644438
  0
LINE
  5
222
100
AcDbEntity
  8
0
100
AcDbLine
 62
7
  6
BYLAYER
 10
11.632607172
 20
23.9356954289
 11
13.3307183656
 21
22.9553126534
  0
LINE
  5
223
100
AcDbEntity
  8
0
100
AcDbLine
 62
7
  6
BYLAYER
 10
21.1187463103
 20
18.7496203782
 11
19.9402677586
 21
19.4299998951
  0
LINE
  5
224
100
AcDbEntity
  8
0
100
AcDbLine
 62
7
  6
BYLAYER
 10
20.1201603615
 20
19.4663665575
 11
21.2986389133
 21
18.7859870407
  0
LINE
  5
225
100
AcDbEntity
  8
0
100
AcDbLine
 62
7
  6
BYLAYER
 10
8.7823960845
 20
27.8833584081
 11
12.2118782515
 21
25.9033907486
  0
LINE
  5
226
100
AcDbEntity
  8
0
100
AcDbLine
 62
7
  6
BYLAYER
 10
9.142023158
 20
28.354819079
 11
11.6876181685
 21
26.8851523628
  0
LINE
  5
227
100
AcDbEntity
  8
0
100
AcDbLine
 62
7
  6
BYLAYER
 10
35.1364033289
 20
17.9882597704
 11
35.8829742626
 21
18.1391847817
  0
LINE
  5
228
100
AcDbEntity
  8
0
100
AcDbLine
 62
7
  6
BYLAYER
 10
41.5487506369
 20
19.2845647107
 11
42.1764519055
 21
19.411459312
  0
LINE
  5
229
100
AcDbEntity
  8
0
100
AcDbLine
 62
7
  6
BYLAYER
 10
15.1324546523
 20
15.7322581916
 11
15.879025586
 21
15.8831832029
  0
LINE
  5
22A
100
AcDbEntity
  8
0
100
AcDbLine
 62
7
  6
BYLAYER
 10
21.5448019603
 20
17.0285631318
 11
22.1725032289
 21
17.1554577332
  0
LINE
  5
22B
100
AcDbEntity
  8
0
100
AcDbLine
 62
7
  6
BYLAYER
 10
41.3025875899
 20
21.0419886195
 11
41.122694987
 21
21.0056219571
  0
LINE
  5
22C
100
AcDbEntity
  8
0
100
AcDbLine
 62
7
  6
BYLAYER
 10
37.228944814
 20
20.2184706468
 11
37.049052211
 21
20.1821039844
  0
LINE
  5
22D
100
AcDbEntity
  8
0
100
AcDbLine
 62
7
  6
BYLAYER
 10
34.8549602158
 20
18.0249953907
 11
35.1364033289
 21
17.9882597704
  0
LINE
  5
22E
100
AcDbEntity
  8
0
100
AcDbLine
 62
7
  6
BYLAYER
 10
41.2673134979
 20
19.3213106715
 11
41.5487506369
 21
19.2845647107
  0
LINE
  5
22F
100
AcDbEntity
  8
0
100
AcDbLine
 62
7
  6
BYLAYER
 10
37.2767708321
 20
20.212191747
 11
37.228944814
 21
20.2184706468
  0
LINE
  5
230
100
AcDbEntity
  8
0
100
AcDbLine
 62
7
  6
BYLAYER
 10
9.0206216631
 20
29.4264350218
 11
11.5662166737
 21
27.9567683056
  0
LINE
  5
231
100
AcDbEntity
  8
0
100
AcDbLine
 62
7
  6
BYLAYER
 10
8.5345470527
 20
30.0711319134
 11
11.9640292197
 21
28.0911642539
  0
LINE
  5
232
100
AcDbEntity
  8
0
100
AcDbLine
 62
7
  6
BYLAYER
 10
12.3211161477
 20
28.755269594
 11
8.8916339807
 21
30.7352372534
  0
LINE
  5
233
100
AcDbEntity
  8
0
100
AcDbLine
 62
7
  6
BYLAYER
 10
13.0520630837
 20
29.2067538148
 11
12.5924417641
 21
29.4721103042
  0
LINE
  5
234
100
AcDbEntity
  8
0
100
AcDbLine
 62
7
  6
BYLAYER
 10
10.0822022399
 20
30.9213649828
 11
9.6225809168
 21
31.1867214742
  0
LINE
  5
235
100
AcDbEntity
  8
0
100
AcDbLine
 62
7
  6
BYLAYER
 10
8.7823960845
 20
27.8833584081
 11
8.5345470527
 21
30.0711319134
  0
LINE
  5
236
100
AcDbEntity
  8
0
100
AcDbLine
 62
7
  6
BYLAYER
 10
37.2828548107
 20
21.147986913
 11
41.5363901896
 21
22.0078715481
  0
LINE
  5
237
100
AcDbEntity
  8
0
100
AcDbLine
 62
7
  6
BYLAYER
 10
21.2986389133
 20
18.7859870407
 11
21.1187463103
 21
18.7496203782
  0
LINE
  5
238
100
AcDbEntity
  8
0
100
AcDbLine
 62
7
  6
BYLAYER
 10
17.2249961374
 20
17.962469068
 11
17.0451035344
 21
17.9261024056
  0
LINE
  5
239
100
AcDbEntity
  8
0
100
AcDbLine
 62
7
  6
BYLAYER
 10
17.2789061341
 20
18.8919853341
 11
21.532441513
 21
19.7518699692
  0
LINE
  5
23A
100
AcDbEntity
  8
0
100
AcDbLine
 62
7
  6
BYLAYER
 10
9.9999105974
 20
31.6477566645
 11
12.5101501217
 21
30.198501986
  0
LINE
  5
23B
100
AcDbEntity
  8
0
100
AcDbLine
 62
7
  6
BYLAYER
 10
30.5061941052
 20
20.5356044348
 11
34.8549189149
 21
18.0249237945
  0
LINE
  5
23C
100
AcDbEntity
  8
0
100
AcDbLine
 62
7
  6
BYLAYER
 10
34.6530772389
 20
18.3862463189
 11
30.3043524293
 21
20.8969269592
  0
LINE
  5
23D
100
AcDbEntity
  8
0
100
AcDbLine
 62
7
  6
BYLAYER
 10
9.0206216631
 20
29.4264350218
 11
9.1420231579
 21
28.354819079
  0
LINE
  5
23E
100
AcDbEntity
  8
0
100
AcDbLine
 62
7
  6
BYLAYER
 10
10.3004037527
 20
18.6409253803
 11
9.2863029829
 21
27.5924342062
  0
LINE
  5
23F
100
AcDbEntity
  8
0
100
AcDbLine
 62
7
  6
BYLAYER
 10
8.9277342191
 20
30.7575352989
 11
8.124908239
 21
37.8441129455
  0
LINE
  5
240
100
AcDbEntity
  8
0
100
AcDbLine
 62
7
  6
BYLAYER
 10
9.9999105974
 20
31.6477566645
 11
10.0822022399
 21
30.9213649828
  0
LINE
  5
241
100
AcDbEntity
  8
0
100
AcDbLine
 62
7
  6
BYLAYER
 10
10.5414227451
 20
26.8678068669
 11
10.9307739795
 21
23.4309876516
  0
LINE
  5
242
100
AcDbEntity
  8
0
100
AcDbLine
 62
7
  6
BYLAYER
 10
11.632607172
 20
23.9356954289
 11
11.3535510757
 21
26.3989349639
  0
LINE
  5
243
100
AcDbEntity
  8
0
100
AcDbLine
 62
7
  6
BYLAYER
 10
11.6876181685
 20
26.8851523628
 11
11.5662166736
 21
27.9567683056
  0
LINE
  5
244
100
AcDbEntity
  8
0
100
AcDbLine
 62
7
  6
BYLAYER
 10
11.9640292197
 20
28.0911642539
 11
12.2118782515
 21
25.9033907486
  0
LINE
  5
245
100
AcDbEntity
  8
0
100
AcDbLine
 62
7
  6
BYLAYER
 10
37.3391254643
 20
25.6630472762
 11
33.7110974516
 21
25.4146446925
  0
LINE
  5
246
100
AcDbEntity
  8
0
100
AcDbLine
 62
7
  6
BYLAYER
 10
37.078833362
 20
20.3051355734
 11
37.228944814
 21
20.2184706468
  0
LINE
  5
247
100
AcDbEntity
  8
0
100
AcDbLine
 62
7
  6
BYLAYER
 10
37.0833770459
 20
20.3239063939
 11
37.2767971644
 21
20.2122377627
  0
LINE
  5
248
100
AcDbEntity
  8
0
100
AcDbLine
 62
7
  6
BYLAYER
 10
8.1249082391
 20
37.8441129455
 11
12.4736330487
 21
35.3334323052
  0
LINE
  5
249
100
AcDbEntity
  8
0
100
AcDbLine
 62
7
  6
BYLAYER
 10
32.2723394071
 20
24.379993749
 11
34.0931469493
 21
23.3287738062
  0
LINE
  5
24A
100
AcDbEntity
  8
0
100
AcDbLine
 62
7
  6
BYLAYER
 10
41.2672662229
 20
19.3212287348
 11
37.8904159627
 21
21.2708100361
  0
LINE
  5
24B
100
AcDbEntity
  8
0
100
AcDbLine
 62
7
  6
BYLAYER
 10
41.0636787816
 20
19.699624336
 11
38.2250647419
 21
21.3384618405
  0
LINE
  5
24C
100
AcDbEntity
  8
0
100
AcDbLine
 62
7
  6
BYLAYER
 10
12.800758296
 20
36.3142369612
 11
8.4520334863
 21
38.8249176015
  0
LINE
  5
24D
100
AcDbEntity
  8
0
100
AcDbLine
 62
7
  6
BYLAYER
 10
15.2858072251
 20
36.4851506365
 11
14.8848697238
 21
36.9945742967
  0
LINE
  5
24E
100
AcDbEntity
  8
0
100
AcDbLine
 62
7
  6
BYLAYER
 10
13.4410135038
 20
21.9817329731
 11
12.9469769252
 21
26.3426139879
  0
LINE
  5
24F
100
AcDbEntity
  8
0
100
AcDbLine
 62
7
  6
BYLAYER
 10
12.5924417641
 20
29.4721103042
 11
12.5101501217
 21
30.198501986
  0
LINE
  5
250
100
AcDbEntity
  8
0
100
AcDbLine
 62
7
  6
BYLAYER
 10
13.3493030177
 20
26.5830048033
 11
13.0520630837
 21
29.2067538148
  0
LINE
  5
251
100
AcDbEntity
  8
0
100
AcDbLine
 62
7
  6
BYLAYER
 10
12.4736330487
 20
35.3334323052
 11
14.6491285623
 21
16.1302447401
  0
LINE
  5
252
100
AcDbEntity
  8
0
100
AcDbLine
 62
7
  6
BYLAYER
 10
31.9564855901
 20
75.1635607305
 11
43.4370365945
 21
83.4195444062
  0
LINE
  5
253
100
AcDbEntity
  8
0
100
AcDbLine
 62
7
  6
BYLAYER
 10
44.1331339143
 20
82.3441911777
 11
35.5263936139
 21
76.1548447436
  0
LINE
  5
254
100
AcDbEntity
  8
0
100
AcDbLine
 62
7
  6
BYLAYER
 10
59.2657518945
 20
31.7888140468
 11
59.5001821909
 21
31.8308985865
  0
LINE
  5
255
100
AcDbEntity
  8
0
100
AcDbLine
 62
7
  6
BYLAYER
 10
39.5248984375
 20
21.6012331409
 11
40.9659403567
 21
20.7692660226
  0
LINE
  5
256
100
AcDbEntity
  8
0
100
AcDbLine
 62
7
  6
BYLAYER
 10
41.122694987
 20
21.0056219571
 11
39.9442164352
 21
21.6860014739
  0
LINE
  5
257
100
AcDbEntity
  8
0
100
AcDbLine
 62
7
  6
BYLAYER
 10
41.3025875899
 20
21.0419886195
 11
40.1241090382
 21
21.7223681364
  0
LINE
  5
258
100
AcDbEntity
  8
0
100
AcDbLine
 62
7
  6
BYLAYER
 10
9.1177437235
 20
39.6896032772
 11
13.4664685332
 21
37.1789226369
  0
LINE
  5
259
100
AcDbEntity
  8
0
100
AcDbLine
 62
7
  6
BYLAYER
 10
14.239908529
 20
37.6073386688
 11
9.8911837194
 21
40.1180193092
  0
LINE
  5
25A
100
AcDbEntity
  8
0
100
AcDbLine
 62
7
  6
BYLAYER
 10
10.7005527992
 20
39.948329721
 11
15.0665764627
 21
37.4310892699
  0
LINE
  5
25B
100
AcDbEntity
  8
0
100
AcDbLine
 62
7
  6
BYLAYER
 10
13.9859176519
 20
44.2156637188
 11
13.8448318621
 21
45.2541331091
  0
LINE
  5
25C
100
AcDbEntity
  8
0
100
AcDbLine
 62
7
  6
BYLAYER
 10
20.9619916801
 20
18.5132644438
 11
21.059730105
 21
17.4436227571
  0
LINE
  5
25D
100
AcDbEntity
  8
0
100
AcDbLine
 62
7
  6
BYLAYER
 10
25.5346740588
 20
66.86742488
 11
26.2003842959
 21
67.7321105557
  0
LINE
  5
25E
100
AcDbEntity
  8
0
100
AcDbLine
 62
7
  6
BYLAYER
 10
31.2525034761
 20
74.2942675474
 11
31.8122187578
 21
75.0212772274
  0
LINE
  5
25F
100
AcDbEntity
  8
0
100
AcDbLine
 62
7
  6
BYLAYER
 10
37.9524447304
 20
74.7541951653
 11
46.5591850308
 21
80.9435415995
  0
LINE
  5
260
100
AcDbEntity
  8
0
100
AcDbLine
 62
7
  6
BYLAYER
 10
47.7857614041
 20
80.9088637659
 11
36.3052103998
 21
72.6528800902
  0
LINE
  5
261
100
AcDbEntity
  8
0
100
AcDbLine
 62
7
  6
BYLAYER
 10
14.0200986937
 20
44.1574835619
 11
14.002931409
 21
44.1719123902
  0
LINE
  5
262
100
AcDbEntity
  8
0
100
AcDbLine
 62
7
  6
BYLAYER
 10
18.3516562186
 20
41.6612317499
 11
18.36882165
 21
41.6467997315
  0
LINE
  5
263
100
AcDbEntity
  8
0
100
AcDbLine
 62
7
  6
BYLAYER
 10
18.6777069718
 20
41.9210601094
 11
19.0786444732
 21
41.4116364492
  0
LINE
  5
264
100
AcDbEntity
  8
0
100
AcDbLine
 62
7
  6
BYLAYER
 10
18.1935566717
 20
42.7434524688
 11
18.3346424616
 21
41.7049830785
  0
LINE
  5
265
100
AcDbEntity
  8
0
100
AcDbLine
 62
7
  6
BYLAYER
 10
28.4564332631
 20
67.6055780214
 11
31.7192061077
 21
71.8435674413
  0
LINE
  5
266
100
AcDbEntity
  8
0
100
AcDbLine
 62
7
  6
BYLAYER
 10
8.4520334863
 20
38.8249176015
 11
9.1177437235
 21
39.6896032772
  0
LINE
  5
267
100
AcDbEntity
  8
0
100
AcDbLine
 62
7
  6
BYLAYER
 10
14.1698629037
 20
46.2517602688
 11
14.7295781854
 21
46.978769949
  0
LINE
  5
268
100
AcDbEntity
  8
0
100
AcDbLine
 62
7
  6
BYLAYER
 10
15.0492776089
 20
37.4376490807
 11
14.2409293562
 21
37.6071246457
  0
LINE
  5
269
100
AcDbEntity
  8
0
100
AcDbLine
 62
7
  6
BYLAYER
 10
9.8911863212
 20
40.1180187637
 11
10.7005527992
 21
39.948329721
  0
LINE
  5
26A
100
AcDbEntity
  8
0
100
AcDbLine
 62
7
  6
BYLAYER
 10
14.0198747218
 20
44.1570987153
 11
18.3685995315
 21
41.646418075
  0
LINE
  5
26B
100
AcDbEntity
  8
0
100
AcDbLine
 62
7
  6
BYLAYER
 10
18.3346424616
 20
41.7049830785
 11
13.9859176519
 21
44.2156637188
  0
LINE
  5
26C
100
AcDbEntity
  8
0
100
AcDbLine
 62
7
  6
BYLAYER
 10
19.0786444731
 20
41.4116364492
 11
18.5272643934
 21
41.729968685
  0
LINE
  5
26D
100
AcDbEntity
  8
0
100
AcDbLine
 62
7
  6
BYLAYER
 10
13.8448318621
 20
45.2541331091
 11
18.1935566717
 21
42.7434524688
  0
LINE
  5
26E
100
AcDbEntity
  8
0
100
AcDbLine
 62
7
  6
BYLAYER
 10
36.1609435674
 20
72.5105965871
 11
35.6012282858
 21
71.7835869071
  0
LINE
  5
26F
100
AcDbEntity
  8
0
100
AcDbLine
 62
7
  6
BYLAYER
 10
30.5502017977
 20
65.2228492044
 11
29.8833988684
 21
64.3567442397
  0
LINE
  5
270
100
AcDbEntity
  8
0
100
AcDbLine
 62
7
  6
BYLAYER
 10
11.3737926907
 20
39.5630707429
 11
14.6365655353
 21
43.8010601628
  0
LINE
  5
271
100
AcDbEntity
  8
0
100
AcDbLine
 62
7
  6
BYLAYER
 10
31.9675102962
 20
65.0370815752
 11
32.127918828
 21
65.2454349278
  0
LINE
  5
272
100
AcDbEntity
  8
0
100
AcDbLine
 62
7
  6
BYLAYER
 10
35.5999390124
 20
69.7552140354
 11
35.7603475442
 21
69.963567388
  0
LINE
  5
273
100
AcDbEntity
  8
0
100
AcDbLine
 62
7
  6
BYLAYER
 10
36.1612850455
 20
69.4541437277
 11
32.3684477975
 21
64.527657915
  0
LINE
  5
274
100
AcDbEntity
  8
0
100
AcDbLine
 62
7
  6
BYLAYER
 10
18.5185877134
 20
43.7410796286
 11
14.1698629037
 21
46.2517602689
  0
LINE
  5
275
100
AcDbEntity
  8
0
100
AcDbLine
 62
7
  6
BYLAYER
 10
14.7295781853
 20
46.9787699489
 11
19.078302995
 21
44.4680893086
  0
LINE
  5
276
100
AcDbEntity
  8
0
100
AcDbLine
 62
7
  6
BYLAYER
 10
19.2225698274
 20
44.6103728117
 11
14.8738450177
 21
47.121053452
  0
LINE
  5
277
100
AcDbEntity
  8
0
100
AcDbLine
 62
7
  6
BYLAYER
 10
25.975421376
 20
50.383279293
 11
26.2355599547
 21
53.4580927384
  0
LINE
  5
278
100
AcDbEntity
  8
0
100
AcDbLine
 62
7
  6
BYLAYER
 10
17.0451035344
 20
17.9261024056
 11
17.2789061341
 21
18.8919853341
  0
LINE
  5
279
100
AcDbEntity
  8
0
100
AcDbLine
 62
7
  6
BYLAYER
 10
19.078302995
 20
44.4680893086
 11
18.5185877134
 21
43.7410796286
  0
LINE
  5
27A
100
AcDbEntity
  8
0
100
AcDbLine
 62
7
  6
BYLAYER
 10
13.4675612253
 20
37.1803419259
 11
12.800758296
 21
36.3142369612
  0
LINE
  5
27B
100
AcDbEntity
  8
0
100
AcDbLine
 62
7
  6
BYLAYER
 10
14.8848697238
 20
36.9945742967
 11
15.0452782556
 21
37.2029276493
  0
LINE
  5
27C
100
AcDbEntity
  8
0
100
AcDbLine
 62
7
  6
BYLAYER
 10
18.51729844
 20
41.7127067569
 11
18.6777069718
 21
41.9210601094
  0
LINE
  5
27D
100
AcDbEntity
  8
0
100
AcDbLine
 62
7
  6
BYLAYER
 10
14.8738450177
 20
47.121053452
 11
26.1197319104
 21
55.2082836355
  0
LINE
  5
27E
100
AcDbEntity
  8
0
100
AcDbLine
 62
7
  6
BYLAYER
 10
32.6917599052
 20
58.969351345
 11
34.8159985101
 21
60.4969504331
  0
LINE
  5
27F
100
AcDbEntity
  8
0
100
AcDbLine
 62
7
  6
BYLAYER
 10
26.2355599547
 20
53.4580927384
 11
18.6424085238
 21
47.9976462636
  0
LINE
  5
280
100
AcDbEntity
  8
0
100
AcDbLine
 62
7
  6
BYLAYER
 10
30.1506736228
 20
58.1291465424
 11
32.4465218711
 21
58.842604764
  0
LINE
  5
281
100
AcDbEntity
  8
0
100
AcDbLine
 62
7
  6
BYLAYER
 10
20.869804158
 20
46.7116878868
 11
18.6424085238
 21
47.9976462636
  0
LINE
  5
282
100
AcDbEntity
  8
0
100
AcDbLine
 62
7
  6
BYLAYER
 10
30.3043524293
 20
20.8969269592
 11
30.0877385515
 21
22.8089864869
  0
LINE
  5
283
100
AcDbEntity
  8
0
100
AcDbLine
 62
7
  6
BYLAYER
 10
25.8019488132
 20
60.6398271827
 11
25.2075488115
 21
65.886620224
  0
LINE
  5
284
100
AcDbEntity
  8
0
100
AcDbLine
 62
7
  6
BYLAYER
 10
21.532441513
 20
19.7518699692
 11
21.2986389133
 21
18.7859870407
  0
LINE
  5
285
100
AcDbEntity
  8
0
100
AcDbLine
 62
7
  6
BYLAYER
 10
19.0786444732
 20
41.4116364492
 11
15.2858072251
 21
36.4851506365
  0
LINE
  5
286
100
AcDbEntity
  8
0
100
AcDbLine
 62
7
  6
BYLAYER
 10
29.7520686373
 20
55.4186530249
 11
31.2083725116
 21
56.4659216629
  0
LINE
  5
287
100
AcDbEntity
  8
0
100
AcDbLine
 62
7
  6
BYLAYER
 10
31.6679938329
 20
56.2005651724
 11
33.7242937955
 21
57.6793076925
  0
LINE
  5
288
100
AcDbEntity
  8
0
100
AcDbLine
 62
7
  6
BYLAYER
 10
53.4859236655
 20
70.4679494338
 11
54.5134349393
 21
71.2068613815
  0
LINE
  5
289
100
AcDbEntity
  8
0
100
AcDbLine
 62
7
  6
BYLAYER
 10
20.869804158
 20
46.7116878868
 11
28.462955589
 21
52.1721343616
  0
LINE
  5
28A
100
AcDbEntity
  8
0
100
AcDbLine
 62
7
  6
BYLAYER
 10
30.6088233586
 20
52.7985445506
 11
19.2225698274
 21
44.6103728117
  0
LINE
  5
28B
100
AcDbEntity
  8
0
100
AcDbLine
 62
7
  6
BYLAYER
 10
56.150450942
 20
70.2041044887
 11
56.720546985
 21
70.6140764163
  0
LINE
  5
28C
100
AcDbEntity
  8
0
100
AcDbLine
 62
7
  6
BYLAYER
 10
35.5570973212
 20
53.9552410226
 11
34.2411600854
 21
53.0089139401
  0
LINE
  5
28D
100
AcDbEntity
  8
0
100
AcDbLine
 62
7
  6
BYLAYER
 10
54.2033537209
 20
43.2321671426
 11
54.079488244
 21
43.2533573798
  0
LINE
  5
28E
100
AcDbEntity
  8
0
100
AcDbLine
 62
7
  6
BYLAYER
 10
18.6424085238
 20
47.9976462636
 11
21.8810174364
 21
47.4388794925
  0
LINE
  5
28F
100
AcDbEntity
  8
0
100
AcDbLine
 62
7
  6
BYLAYER
 10
59.2657158722
 20
31.7887520198
 11
56.8674504721
 21
33.1733598701
  0
LINE
  5
290
100
AcDbEntity
  8
0
100
AcDbLine
 62
7
  6
BYLAYER
 10
59.2428303077
 20
32.2075594603
 11
57.2572261014
 21
33.3539226491
  0
LINE
  5
291
100
AcDbEntity
  8
0
100
AcDbLine
 62
7
  6
BYLAYER
 10
33.7110974516
 20
25.4146446925
 11
30.6088233586
 21
52.7985445506
  0
LINE
  5
292
100
AcDbEntity
  8
0
100
AcDbLine
 62
7
  6
BYLAYER
 10
29.5562736211
 20
63.3759395837
 11
30.1506736228
 21
58.1291465424
  0
LINE
  5
293
100
AcDbEntity
  8
0
100
AcDbLine
 62
7
  6
BYLAYER
 10
34.0931469493
 20
23.3287738062
 11
34.6530772389
 21
18.3862463189
  0
LINE
  5
294
100
AcDbEntity
  8
0
100
AcDbLine
 62
7
  6
BYLAYER
 10
31.2083725116
 20
56.4659216629
 11
30.9903861938
 21
58.3900957746
  0
LINE
  5
295
100
AcDbEntity
  8
0
100
AcDbLine
 62
7
  6
BYLAYER
 10
31.4053371946
 20
58.5190460235
 11
31.6679938329
 21
56.2005651724
  0
LINE
  5
296
100
AcDbEntity
  8
0
100
AcDbLine
 62
7
  6
BYLAYER
 10
42.913345331
 20
78.3217168252
 11
44.1331339143
 21
82.3441911777
  0
LINE
  5
297
100
AcDbEntity
  8
0
100
AcDbLine
 62
7
  6
BYLAYER
 10
16.6256954307
 20
16.5479228712
 11
17.2775689855
 21
17.7684302806
  0
LINE
  5
298
100
AcDbEntity
  8
0
100
AcDbLine
 62
7
  6
BYLAYER
 10
28.462955589
 20
52.1721343617
 11
26.2355599547
 21
53.4580927384
  0
LINE
  5
299
100
AcDbEntity
  8
0
100
AcDbLine
 62
7
  6
BYLAYER
 10
59.2320182361
 20
34.4336910981
 11
60.0860450885
 21
33.9406296195
  0
LINE
  5
29A
100
AcDbEntity
  8
0
100
AcDbLine
 62
7
  6
BYLAYER
 10
26.401520494
 20
55.22757704
 11
30.6088233586
 21
52.7985445506
  0
LINE
  5
29B
100
AcDbEntity
  8
0
100
AcDbLine
 62
7
  6
BYLAYER
 10
31.0685582243
 20
72.2581709973
 11
30.9274724345
 21
73.2966403876
  0
LINE
  5
29C
100
AcDbEntity
  8
0
100
AcDbLine
 62
7
  6
BYLAYER
 10
34.2411600854
 20
53.0089139401
 11
37.3391254643
 21
25.6630472762
  0
LINE
  5
29D
100
AcDbEntity
  8
0
100
AcDbLine
 62
7
  6
BYLAYER
 10
35.0974759999
 20
54.220597513
 11
34.7743224485
 21
57.0730870815
  0
LINE
  5
29E
100
AcDbEntity
  8
0
100
AcDbLine
 62
7
  6
BYLAYER
 10
34.6278261719
 20
58.3662156859
 11
34.4187983546
 21
60.2113127491
  0
LINE
  5
29F
100
AcDbEntity
  8
0
100
AcDbLine
 62
7
  6
BYLAYER
 10
40.9659403567
 20
20.7692660226
 11
41.0636787816
 21
19.699624336
  0
LINE
  5
2A0
100
AcDbEntity
  8
0
100
AcDbLine
 62
7
  6
BYLAYER
 10
8.8916339807
 20
30.7352372534
 11
9.6225809168
 21
31.1867214742
  0
LINE
  5
2A1
100
AcDbEntity
  8
0
100
AcDbLine
 62
7
  6
BYLAYER
 10
10.0822022399
 20
30.9213649828
 11
10.6503004687
 21
31.2722623921
  0
LINE
  5
2A2
100
AcDbEntity
  8
0
100
AcDbLine
 62
7
  6
BYLAYER
 10
35.2761972441
 20
70.7859597473
 11
35.417283034
 21
69.747490357
  0
LINE
  5
2A3
100
AcDbEntity
  8
0
100
AcDbLine
 62
7
  6
BYLAYER
 10
34.8159985101
 20
60.4969504331
 11
35.5570973212
 21
53.9552410226
  0
LINE
  5
2A4
100
AcDbEntity
  8
0
100
AcDbLine
 62
7
  6
BYLAYER
 10
13.0520630837
 20
29.2067538148
 11
12.3211161477
 21
28.755269594
  0
LINE
  5
2A5
100
AcDbEntity
  8
0
100
AcDbLine
 62
7
  6
BYLAYER
 10
9.1420231579
 20
28.354819079
 11
9.9945023522
 21
28.8641774638
  0
LINE
  5
2A6
100
AcDbEntity
  8
0
100
AcDbLine
 62
7
  6
BYLAYER
 10
30.6131320726
 20
52.7605113564
 11
34.2411600854
 21
53.0089139401
  0
LINE
  5
2A7
100
AcDbEntity
  8
0
100
AcDbLine
 62
7
  6
BYLAYER
 10
26.4608700031
 20
55.1933123601
 11
29.7520686373
 21
55.4186530249
  0
LINE
  5
2A8
100
AcDbEntity
  8
0
100
AcDbLine
 62
7
  6
BYLAYER
 10
26.1197319104
 20
55.2082836355
 11
26.401520494
 21
55.22757704
  0
LINE
  5
2A9
100
AcDbEntity
  8
0
100
AcDbLine
 62
7
  6
BYLAYER
 10
61.3858233016
 20
46.8968728108
 11
61.0596054707
 21
46.9896353355
  0
LINE
  5
2AA
100
AcDbEntity
  8
0
100
AcDbLine
 62
7
  6
BYLAYER
 10
56.7108806612
 20
49.5003159758
 11
57.037098492
 21
49.4075534511
  0
LINE
  5
2AB
100
AcDbEntity
  8
0
100
AcDbLine
 62
7
  6
BYLAYER
 10
35.5570973212
 20
53.9552410226
 11
35.0974759999
 21
54.220597513
  0
LINE
  5
2AC
100
AcDbEntity
  8
0
100
AcDbLine
 62
7
  6
BYLAYER
 10
31.6679938329
 20
56.2005651724
 11
31.2083725116
 21
56.4659216629
  0
LINE
  5
2AD
100
AcDbEntity
  8
0
100
AcDbLine
 62
7
  6
BYLAYER
 10
54.0494800728
 20
43.321004125
 11
54.2033537209
 21
43.2321671426
  0
LINE
  5
2AE
100
AcDbEntity
  8
0
100
AcDbLine
 62
7
  6
BYLAYER
 10
25.8019488132
 20
60.6398271827
 11
30.1506736228
 21
58.1291465424
  0
LINE
  5
2AF
100
AcDbEntity
  8
0
100
AcDbLine
 62
7
  6
BYLAYER
 10
34.7743224485
 20
57.0730870815
 11
31.9673043884
 21
58.6936830514
  0
LINE
  5
2B0
100
AcDbEntity
  8
0
100
AcDbLine
 62
7
  6
BYLAYER
 10
37.049052211
 20
20.1821039844
 11
37.2828548107
 21
21.147986913
  0
LINE
  5
2B1
100
AcDbEntity
  8
0
100
AcDbLine
 62
7
  6
BYLAYER
 10
57.494488063
 20
71.4681824101
 11
58.4291573803
 21
72.9795946804
  0
LINE
  5
2B2
100
AcDbEntity
  8
0
100
AcDbLine
 62
7
  6
BYLAYER
 10
10.9307739795
 20
23.4309876516
 11
11.632607172
 21
23.9356954289
  0
LINE
  5
2B3
100
AcDbEntity
  8
0
100
AcDbLine
 62
7
  6
BYLAYER
 10
12.2118782515
 20
25.9033907486
 11
13.3493030177
 21
26.5830048033
  0
LINE
  5
2B4
100
AcDbEntity
  8
0
100
AcDbLine
 62
7
  6
BYLAYER
 10
57.0123992331
 20
44.4585291297
 11
56.3337349561
 21
44.8503472686
  0
LINE
  5
2B5
100
AcDbEntity
  8
0
100
AcDbLine
 62
7
  6
BYLAYER
 10
56.6723143942
 20
45.4378236687
 11
57.6163113229
 21
44.8928191174
  0
LINE
  5
2B6
100
AcDbEntity
  8
0
100
AcDbLine
 62
7
  6
BYLAYER
 10
33.0887065415
 20
59.2548067162
 11
34.6278261719
 21
58.3662156859
  0
LINE
  5
2B7
100
AcDbEntity
  8
0
100
AcDbLine
 62
7
  6
BYLAYER
 10
57.7374068512
 20
45.158768582
 11
56.6331421241
 21
45.7963016965
  0
LINE
  5
2B8
100
AcDbEntity
  8
0
100
AcDbLine
 62
7
  6
BYLAYER
 10
56.5933878844
 20
46.1472139907
 11
57.6607414064
 21
45.5309910883
  0
LINE
  5
2B9
100
AcDbEntity
  8
0
100
AcDbLine
 62
7
  6
BYLAYER
 10
57.7515630526
 20
45.7304531867
 11
56.5628538401
 21
46.4167392446
  0
LINE
  5
2BA
100
AcDbEntity
  8
0
100
AcDbLine
 62
7
  6
BYLAYER
 10
56.5195332493
 20
46.7991318645
 11
58.0272218801
 21
45.9286871198
  0
LINE
  5
2BB
100
AcDbEntity
  8
0
100
AcDbLine
 62
7
  6
BYLAYER
 10
25.2075488115
 20
65.886620224
 11
29.5562736211
 21
63.3759395837
  0
LINE
  5
2BC
100
AcDbEntity
  8
0
100
AcDbLine
 62
7
  6
BYLAYER
 10
32.3684477975
 20
64.527657915
 11
31.9675102962
 21
65.0370815752
  0
LINE
  5
2BD
100
AcDbEntity
  8
0
100
AcDbLine
 62
7
  6
BYLAYER
 10
29.8833988684
 20
64.3567442397
 11
25.5346740588
 21
66.86742488
  0
LINE
  5
2BE
100
AcDbEntity
  8
0
100
AcDbLine
 62
7
  6
BYLAYER
 10
56.4406482749
 20
49.5043572358
 11
60.7893730845
 21
46.9936765955
  0
LINE
  5
2BF
100
AcDbEntity
  8
0
100
AcDbLine
 62
7
  6
BYLAYER
 10
56.7108806612
 20
49.5003159758
 11
61.0596054708
 21
46.9896353355
  0
LINE
  5
2C0
100
AcDbEntity
  8
0
100
AcDbLine
 62
7
  6
BYLAYER
 10
57.0371351678
 20
49.4076168935
 11
61.3858599774
 21
46.8969362532
  0
LINE
  5
2C1
100
AcDbEntity
  8
0
100
AcDbLine
 62
7
  6
BYLAYER
 10
26.2003842959
 20
67.7321105557
 11
30.5491091055
 21
65.2214299154
  0
LINE
  5
2C2
100
AcDbEntity
  8
0
100
AcDbLine
 62
7
  6
BYLAYER
 10
31.3225491014
 20
65.6498459474
 11
26.9738242918
 21
68.1605265877
  0
LINE
  5
2C3
100
AcDbEntity
  8
0
100
AcDbLine
 62
7
  6
BYLAYER
 10
27.7831933716
 20
67.9908369995
 11
32.1492170351
 21
65.4735965484
  0
LINE
  5
2C4
100
AcDbEntity
  8
0
100
AcDbLine
 62
7
  6
BYLAYER
 10
41.5363901896
 20
22.0078715481
 11
41.3025875899
 21
21.0419886195
  0
LINE
  5
2C5
100
AcDbEntity
  8
0
100
AcDbLine
 62
7
  6
BYLAYER
 10
32.1319181812
 20
65.4801563592
 11
31.3235699285
 21
65.6496319242
  0
LINE
  5
2C6
100
AcDbEntity
  8
0
100
AcDbLine
 62
7
  6
BYLAYER
 10
31.1027392661
 20
72.1999908404
 11
31.0855719814
 21
72.2144196687
  0
LINE
  5
2C7
100
AcDbEntity
  8
0
100
AcDbLine
 62
7
  6
BYLAYER
 10
35.7603475442
 20
69.963567388
 11
36.1612850455
 21
69.4541437277
  0
LINE
  5
2C8
100
AcDbEntity
  8
0
100
AcDbLine
 62
7
  6
BYLAYER
 10
59.1828709439
 20
31.971866479
 11
59.2657518945
 21
31.7888140468
  0
LINE
  5
2C9
100
AcDbEntity
  8
0
100
AcDbLine
 62
7
  6
BYLAYER
 10
36.6296441073
 20
18.80392445
 11
37.2815176621
 21
20.0244318595
  0
LINE
  5
2CA
100
AcDbEntity
  8
0
100
AcDbLine
 62
7
  6
BYLAYER
 10
58.0272218801
 20
45.9286871198
 11
57.7515630526
 21
45.7304531867
  0
LINE
  5
2CB
100
AcDbEntity
  8
0
100
AcDbLine
 62
7
  6
BYLAYER
 10
57.6163113229
 20
44.8928191174
 11
57.0123992332
 21
44.4585291297
  0
LINE
  5
2CC
100
AcDbEntity
  8
0
100
AcDbLine
 62
7
  6
BYLAYER
 10
26.9738268936
 20
68.1605260422
 11
27.7831933716
 21
67.9908369995
  0
LINE
  5
2CD
100
AcDbEntity
  8
0
100
AcDbLine
 62
7
  6
BYLAYER
 10
31.1025152943
 20
72.1996059938
 11
35.4512401039
 21
69.6889253535
  0
LINE
  5
2CE
100
AcDbEntity
  8
0
100
AcDbLine
 62
7
  6
BYLAYER
 10
35.417283034
 20
69.747490357
 11
31.0685582243
 21
72.2581709973
  0
LINE
  5
2CF
100
AcDbEntity
  8
0
100
AcDbLine
 62
7
  6
BYLAYER
 10
36.1612850455
 20
69.4541437277
 11
35.6099049658
 21
69.7724759636
  0
LINE
  5
2D0
100
AcDbEntity
  8
0
100
AcDbLine
 62
7
  6
BYLAYER
 10
35.434296791
 20
69.7037390284
 11
35.4514622224
 21
69.6893070101
  0
LINE
  5
2D1
100
AcDbEntity
  8
0
100
AcDbLine
 62
7
  6
BYLAYER
 10
54.0579672439
 20
28.3285674912
 11
53.771480359
 21
30.8573989006
  0
LINE
  5
2D2
100
AcDbEntity
  8
0
100
AcDbLine
 62
7
  6
BYLAYER
 10
22.3248439202
 20
17.2264729535
 11
33.7110974516
 21
25.4146446925
  0
LINE
  5
2D3
100
AcDbEntity
  8
0
100
AcDbLine
 62
7
  6
BYLAYER
 10
37.3391254643
 20
25.6630472762
 11
34.0931469493
 21
23.3287738062
  0
LINE
  5
2D4
100
AcDbEntity
  8
0
100
AcDbLine
 62
7
  6
BYLAYER
 10
30.9274724345
 20
73.2966403876
 11
35.2761972441
 21
70.7859597473
  0
LINE
  5
2D5
100
AcDbEntity
  8
0
100
AcDbLine
 62
7
  6
BYLAYER
 10
35.6012282858
 20
71.7835869071
 11
31.2525034761
 21
74.2942675474
  0
LINE
  5
2D6
100
AcDbEntity
  8
0
100
AcDbLine
 62
7
  6
BYLAYER
 10
31.8122187578
 20
75.0212772274
 11
36.1609435674
 21
72.5105965871
  0
LINE
  5
2D7
100
AcDbEntity
  8
0
100
AcDbLine
 62
7
  6
BYLAYER
 10
36.3052103998
 20
72.6528800902
 11
31.9564855902
 21
75.1635607305
  0
LINE
  5
2D8
100
AcDbEntity
  8
0
100
AcDbLine
 62
7
  6
BYLAYER
 10
53.5198927724
 20
70.1681027426
 11
53.4859236655
 21
70.4679494338
  0
LINE
  5
2D9
100
AcDbEntity
  8
0
100
AcDbLine
 62
7
  6
BYLAYER
 10
56.6685184645
 20
45.4840332978
 11
53.9284273272
 21
69.6709294449
  0
LINE
  5
2DA
100
AcDbEntity
  8
0
100
AcDbLine
 62
7
  6
BYLAYER
 10
35.5263936139
 20
76.1548447436
 11
37.9524447304
 21
74.7541951653
  0
LINE
  5
2DB
100
AcDbEntity
  8
0
100
AcDbLine
 62
7
  6
BYLAYER
 10
57.6607414064
 20
45.5309910883
 11
57.7374068512
 21
45.158768582
  0
LINE
  5
2DC
100
AcDbEntity
  8
0
100
AcDbLine
 62
7
  6
BYLAYER
 10
35.5263936139
 20
76.1548447436
 11
39.053845427
 21
75.5462430529
  0
LINE
  5
2DD
100
AcDbEntity
  8
0
100
AcDbLine
 62
7
  6
BYLAYER
 10
55.0141444128
 20
70.4214515184
 11
55.889695506
 21
70.1370599897
  0
LINE
  5
2DE
100
AcDbEntity
  8
0
100
AcDbLine
 62
7
  6
BYLAYER
 10
54.6722507612
 20
71.0551907025
 11
54.9040050779
 21
70.5266356714
  0
LINE
  5
2DF
100
AcDbEntity
  8
0
100
AcDbLine
 62
7
  6
BYLAYER
 10
58.6462362427
 20
73.9203909697
 11
58.6578457533
 21
73.8179133458
  0
LINE
  5
2E0
100
AcDbEntity
  8
0
100
AcDbLine
 62
7
  6
BYLAYER
 10
62.9903494863
 20
35.5747263148
 11
61.7895433293
 21
46.1742912045
  0
LINE
  5
2E1
100
AcDbEntity
  8
0
100
AcDbLine
 62
7
  6
BYLAYER
 10
60.0860450885
 20
33.9406296196
 11
59.2428303077
 21
32.2075594603
  0
LINE
  5
2E2
100
AcDbEntity
  8
0
100
AcDbLine
 62
7
  6
BYLAYER
 10
42.3287925969
 20
19.4824745325
 11
53.7501377878
 21
27.6958816602
  0
LINE
  5
2E3
100
AcDbEntity
  8
0
100
AcDbLine
 62
7
  6
BYLAYER
 10
59.5001821909
 20
31.8308985865
 11
62.0668611182
 21
33.6766688215
  0
LINE
  5
2E4
100
AcDbEntity
  8
0
100
AcDbLine
 62
7
  6
BYLAYER
 10
54.9818193573
 20
70.4358169799
 11
55.0141444128
 21
70.4214515184
  0
LINE
  5
2E5
100
AcDbEntity
  8
0
100
AcDbLine
 62
7
  6
BYLAYER
 10
54.9818169504
 20
70.4358128091
 11
54.127281671
 21
70.9291678215
  0
LINE
  5
2E6
100
AcDbEntity
  8
0
100
AcDbLine
 62
7
  6
BYLAYER
 10
54.9040050779
 20
70.5266356714
 11
54.1626849961
 21
70.9546273377
  0
LINE
  5
2E7
100
AcDbEntity
  8
0
100
AcDbLine
 62
7
  6
BYLAYER
 10
54.6722507612
 20
71.0551907025
 11
54.4671703705
 21
71.1735912427
  0
LINE
  5
2E8
100
AcDbEntity
  8
0
100
AcDbLine
 62
7
  6
BYLAYER
 10
53.8586271733
 20
69.8284616914
 11
53.5343534084
 21
70.1321774305
  0
LINE
  5
2E9
100
AcDbEntity
  8
0
100
AcDbLine
 62
7
  6
BYLAYER
 10
54.5134349393
 20
71.2068613815
 11
54.6722507612
 21
71.0551907025
  0
LINE
  5
2EA
100
AcDbEntity
  8
0
100
AcDbLine
 62
7
  6
BYLAYER
 10
58.3797396419
 20
74.3104360755
 11
53.5563844429
 21
75.8771308913
  0
LINE
  5
2EB
100
AcDbEntity
  8
0
100
AcDbLine
 62
7
  6
BYLAYER
 10
51.9151540831
 20
77.508378576
 11
54.0310148323
 21
76.8211167158
  0
LINE
  5
2EC
100
AcDbEntity
  8
0
100
AcDbLine
 62
7
  6
BYLAYER
 10
58.4443353948
 20
74.2816108672
 11
58.3797396419
 21
74.3104360755
  0
LINE
  5
2ED
100
AcDbEntity
  8
0
100
AcDbLine
 62
7
  6
BYLAYER
 10
54.0310148323
 20
76.8211167158
 11
54.0956105852
 21
76.7922915075
  0
LINE
  5
2EE
100
AcDbEntity
  8
0
100
AcDbLine
 62
7
  6
BYLAYER
 10
53.5563844429
 20
75.8771308913
 11
48.4417232512
 21
80.9606824945
  0
LINE
  5
2EF
100
AcDbEntity
  8
0
100
AcDbLine
 62
7
  6
BYLAYER
 10
46.5591850308
 20
80.9435415995
 11
44.1331339143
 21
82.3441911777
  0
LINE
  5
2F0
100
AcDbEntity
  8
0
100
AcDbLine
 62
7
  6
BYLAYER
 10
54.0310148322
 20
76.8211167158
 11
58.3797396419
 21
74.3104360755
  0
LINE
  5
2F1
100
AcDbEntity
  8
0
100
AcDbLine
 62
7
  6
BYLAYER
 10
58.4443945667
 20
74.2817134941
 11
54.0956697571
 21
76.7923941344
  0
LINE
  5
2F2
100
AcDbEntity
  8
0
100
AcDbLine
 62
7
  6
BYLAYER
 10
43.4370365945
 20
83.4195444062
 11
47.7857614041
 21
80.9088637659
  0
LINE
  5
2F3
100
AcDbEntity
  8
0
100
AcDbLine
 62
7
  6
BYLAYER
 10
44.0232023913
 20
83.5249108229
 11
48.3719272009
 21
81.0142301826
  0
LINE
  5
2F4
100
AcDbEntity
  8
0
100
AcDbLine
 62
7
  6
BYLAYER
 10
48.4417232512
 20
80.9606824945
 11
48.3718121521
 21
81.014031376
  0
ARC
  5
2F5
100
AcDbEntity
  8
0
100
AcDbCircle
 62
7
  6
BYLAYER
 10
56.5141496297
 20
45.3822540433
 40
4.122758443
100
AcDbArc
 50
87.264904048
 51
91.0215346353
  0
ARC
  5
2F6
100
AcDbEntity
  8
0
100
AcDbCircle
 62
7
  6
BYLAYER
 10
60.8635550485
 20
42.9170846172
 40
4.0772668691
100
AcDbArc
 50
87.2439393534
 51
91.0424993305
  0
ARC
  5
2F7
100
AcDbEntity
  8
0
100
AcDbCircle
 62
7
  6
BYLAYER
 10
56.5004415515
 20
46.2461060331
 40
3.2587997998
100
AcDbArc
 50
91.0513363388
 51
94.8749506781
  0
SPLINE
  5
2F8
100
AcDbEntity
  8
0
100
AcDbSpline
 62
7
  6
BYLAYER
 70
0
 71
3
 72
19
 73
15
 74
0
 42
0.0000001
 43
0.0000001
 44
0.0000000001
 40
0.0
 40
0.0
 40
0.0
 40
0.0
 40
0.0642860271
 40
0.1329458865
 40
0.2792141307
 40
0.4304920119
 40
0.5775162866
 40
0.7116975382
 40
0.7719316073
 40
0.8268559681
 40
0.8763971052
 40
0.9209602016
 40
0.9615858316
 40
1.0
 40
1.0
 40
1.0
 40
1.0
 10
12.3218067686
 20
21.506650484
 30
0.0
 10
12.3983199826
 20
21.4624765586
 30
0.0
 10
12.5514969421
 20
21.3621933329
 30
0.0
 10
12.8520724799
 20
21.123001735
 30
0.0
 10
13.2048297288
 20
20.7609108875
 30
0.0
 10
13.5656191458
 20
20.2653862683
 30
0.0
 10
13.8444250908
 20
19.7381714213
 30
0.0
 10
13.9961531007
 20
19.2909887296
 30
0.0
 10
14.0534564057
 20
18.952439861
 30
0.0
 10
14.0632841275
 20
18.7256015276
 30
0.0
 10
14.0413320291
 20
18.5210222084
 30
0.0
 10
13.9872298749
 20
18.342524094
 30
0.0
 10
13.9011600016
 20
18.1940590907
 30
0.0
 10
13.8219285937
 20
18.1172353342
 30
0.0
 10
13.7790750156
 20
18.0864019817
 30
0.0
  0
SPLINE
  5
2F9
100
AcDbEntity
  8
0
100
AcDbSpline
 62
7
  6
BYLAYER
 70
0
 71
3
 72
19
 73
15
 74
0
 42
0.0000001
 43
0.0000001
 44
0.0000000001
 40
0.0
 40
0.0
 40
0.0
 40
0.0
 40
0.0642860271
 40
0.1329458865
 40
0.2792141307
 40
0.4304920119
 40
0.5775162866
 40
0.7116975382
 40
0.7719316073
 40
0.8268559681
 40
0.8763971052
 40
0.9209602016
 40
0.9615858316
 40
1.0
 40
1.0
 40
1.0
 40
1.0
 10
10.749126152
 20
35.3887663843
 30
0.0
 10
10.8256393661
 20
35.3445924589
 30
0.0
 10
10.9788163256
 20
35.2443092332
 30
0.0
 10
11.2793918633
 20
35.0051176353
 30
0.0
 10
11.6321491122
 20
34.6430267878
 30
0.0
 10
11.9929385293
 20
34.1475021685
 30
0.0
 10
12.2717444742
 20
33.6202873216
 30
0.0
 10
12.4234724842
 20
33.1731046298
 30
0.0
 10
12.4807757892
 20
32.8345557612
 30
0.0
 10
12.4906035109
 20
32.6077174279
 30
0.0
 10
12.4686514125
 20
32.4031381086
 30
0.0
 10
12.4145492583
 20
32.2246399943
 30
0.0
 10
12.328479385
 20
32.076174991
 30
0.0
 10
12.2492479771
 20
31.9993512344
 30
0.0
 10
12.2063943991
 20
31.9685178819
 30
0.0
  0
SPLINE
  5
2FA
100
AcDbEntity
  8
0
100
AcDbSpline
 62
7
  6
BYLAYER
 70
0
 71
3
 72
11
 73
7
 74
0
 42
0.0000001
 43
0.0000001
 44
0.0000000001
 40
0.0
 40
0.0
 40
0.0
 40
0.0
 40
0.2207751317
 40
0.4686059362
 40
0.7328716111
 40
1.0
 40
1.0
 40
1.0
 40
1.0
 10
8.124908239
 20
37.8441129455
 30
0.0
 10
8.116163231
 20
37.9213054884
 30
0.0
 10
8.1216720058
 20
38.0880322979
 30
0.0
 10
8.1830042841
 20
38.3398539713
 30
0.0
 10
8.2930103329
 20
38.5923498198
 30
0.0
 10
8.3946917463
 20
38.7504368763
 30
0.0
 10
8.4520334863
 20
38.8249176015
 30
0.0
  0
SPLINE
  5
2FB
100
AcDbEntity
  8
0
100
AcDbSpline
 62
7
  6
BYLAYER
 70
0
 71
3
 72
9
 73
5
 74
0
 42
0.0000001
 43
0.0000001
 44
0.0000000001
 40
0.0
 40
0.0
 40
0.0
 40
0.0
 40
0.2615112972
 40
1.0
 40
1.0
 40
1.0
 40
1.0
 10
14.7295781854
 20
46.978769949
 30
0.0
 10
14.7403736757
 20
46.9927921245
 30
0.0
 10
14.7833608601
 20
47.045039372
 30
0.0
 10
14.8332730745
 20
47.0918770387
 30
0.0
 10
14.8738450177
 20
47.121053452
 30
0.0
  0
SPLINE
  5
2FC
100
AcDbEntity
  8
0
100
AcDbSpline
 62
7
  6
BYLAYER
 70
0
 71
3
 72
11
 73
7
 74
0
 42
0.0000001
 43
0.0000001
 44
0.0000000001
 40
0.0
 40
0.0
 40
0.0
 40
0.0
 40
0.2194218704
 40
0.4670006954
 40
0.7318929639
 40
1.0
 40
1.0
 40
1.0
 40
1.0
 10
13.8448318621
 20
45.2541331091
 30
0.0
 10
13.8342719095
 20
45.3318601967
 30
0.0
 10
13.837246617
 20
45.5008897493
 30
0.0
 10
13.8972559139
 20
45.7569799658
 30
0.0
 10
14.0080186173
 20
46.0145233846
 30
0.0
 10
14.111393502
 20
46.1758148331
 30
0.0
 10
14.1698629037
 20
46.2517602688
 30
0.0
  0
SPLINE
  5
2FD
100
AcDbEntity
  8
0
100
AcDbSpline
 62
7
  6
BYLAYER
 70
0
 71
3
 72
9
 73
5
 74
0
 42
0.0000001
 43
0.0000001
 44
0.0000000001
 40
0.0
 40
0.0
 40
0.0
 40
0.0
 40
0.2374418302
 40
1.0
 40
1.0
 40
1.0
 40
1.0
 10
14.002931409
 20
44.1719123902
 30
0.0
 10
14.0014453767
 20
44.1738005148
 30
0.0
 10
13.9956248317
 20
44.1820969049
 30
0.0
 10
13.9916057985
 20
44.1915800934
 30
0.0
 10
13.9894295308
 20
44.1989834939
 30
0.0
  0
SPLINE
  5
2FE
100
AcDbEntity
  8
0
100
AcDbSpline
 62
7
  6
BYLAYER
 70
0
 71
3
 72
9
 73
5
 74
0
 42
0.0000001
 43
0.0000001
 44
0.0000000001
 40
0.0
 40
0.0
 40
0.0
 40
0.0
 40
0.2427676304
 40
1.0
 40
1.0
 40
1.0
 40
1.0
 10
13.9894295308
 20
44.1989834939
 30
0.0
 10
13.9890402978
 20
44.2003076178
 30
0.0
 10
13.9875496524
 20
44.205794746
 30
0.0
 10
13.9864971898
 20
44.2113979994
 30
0.0
 10
13.9859176519
 20
44.2156637188
 30
0.0
  0
SPLINE
  5
2FF
100
AcDbEntity
  8
0
100
AcDbSpline
 62
7
  6
BYLAYER
 70
0
 71
3
 72
8
 73
4
 74
0
 42
0.0000001
 43
0.0000001
 44
0.0000000001
 40
0.0
 40
0.0
 40
0.0
 40
0.0
 40
1.0
 40
1.0
 40
1.0
 40
1.0
 10
10.7005527992
 20
39.948329721
 30
0.0
 10
10.7065885309
 20
39.9470642899
 30
0.0
 10
10.7125109363
 20
39.9448534339
 30
0.0
 10
10.7178517286
 20
39.9417700412
 30
0.0
  0
SPLINE
  5
300
100
AcDbEntity
  8
0
100
AcDbSpline
 62
7
  6
BYLAYER
 70
0
 71
3
 72
9
 73
5
 74
0
 42
0.0000001
 43
0.0000001
 44
0.0000000001
 40
0.0
 40
0.0
 40
0.0
 40
0.0
 40
0.5341693446
 40
1.0
 40
1.0
 40
1.0
 40
1.0
 10
9.5656314803
 20
40.0679462393
 30
0.0
 10
9.6196687095
 20
40.0925862179
 30
0.0
 10
9.7264667047
 20
40.1282267848
 30
0.0
 10
9.8405113246
 20
40.1287162673
 30
0.0
 10
9.8911863212
 20
40.1180187637
 30
0.0
  0
SPLINE
  5
301
100
AcDbEntity
  8
0
100
AcDbSpline
 62
7
  6
BYLAYER
 70
0
 71
3
 72
10
 73
6
 74
0
 42
0.0000001
 43
0.0000001
 44
0.0000000001
 40
0.0
 40
0.0
 40
0.0
 40
0.0
 40
0.5297131418
 40
0.7739823704
 40
1.0
 40
1.0
 40
1.0
 40
1.0
 10
9.1177437235
 20
39.6896032772
 30
0.0
 10
9.1814086833
 20
39.7722971818
 30
0.0
 10
9.2863004315
 20
39.8851436087
 30
0.0
 10
9.4440056834
 20
40.003821891
 30
0.0
 10
9.5251154712
 20
40.0494716873
 30
0.0
 10
9.5656314803
 20
40.0679462393
 30
0.0
  0
SPLINE
  5
302
100
AcDbEntity
  8
0
100
AcDbSpline
 62
7
  6
BYLAYER
 70
0
 71
3
 72
9
 73
5
 74
0
 42
0.0000001
 43
0.0000001
 44
0.0000000001
 40
0.0
 40
0.0
 40
0.0
 40
0.0
 40
0.2286092667
 40
1.0
 40
1.0
 40
1.0
 40
1.0
 10
22.1725032289
 20
17.1554577332
 30
0.0
 10
22.1851124523
 20
17.1580067839
 30
0.0
 10
22.2395006113
 20
17.1729774916
 30
0.0
 10
22.2896025186
 20
17.201129881
 30
0.0
 10
22.3248439202
 20
17.2264729535
 30
0.0
  0
SPLINE
  5
303
100
AcDbEntity
  8
0
100
AcDbSpline
 62
7
  6
BYLAYER
 70
0
 71
3
 72
11
 73
7
 74
0
 42
0.0000001
 43
0.0000001
 44
0.0000000001
 40
0.0
 40
0.0
 40
0.0
 40
0.0
 40
0.3025699016
 40
0.5700940461
 40
0.7979867331
 40
1.0
 40
1.0
 40
1.0
 40
1.0
 10
17.302174201
 20
17.8321225564
 30
0.0
 10
17.3053923363
 20
17.8454172843
 30
0.0
 10
17.3092261952
 20
17.8710934493
 30
0.0
 10
17.3068172419
 20
17.9074594149
 30
0.0
 10
17.2952363169
 20
17.937489988
 30
0.0
 10
17.2807643088
 20
17.9516813163
 30
0.0
 10
17.2728325857
 20
17.9562083033
 30
0.0
  0
SPLINE
  5
304
100
AcDbEntity
  8
0
100
AcDbSpline
 62
7
  6
BYLAYER
 70
0
 71
3
 72
9
 73
5
 74
0
 42
0.0000001
 43
0.0000001
 44
0.0000000001
 40
0.0
 40
0.0
 40
0.0
 40
0.0
 40
0.2561960418
 40
1.0
 40
1.0
 40
1.0
 40
1.0
 10
17.2775689855
 20
17.7684302806
 30
0.0
 10
17.2803200507
 20
17.7735811192
 30
0.0
 10
17.2904527969
 20
17.793998909
 30
0.0
 10
17.2981856028
 20
17.8156448999
 30
0.0
 10
17.302174201
 20
17.8321225564
 30
0.0
  0
SPLINE
  5
305
100
AcDbEntity
  8
0
100
AcDbSpline
 62
7
  6
BYLAYER
 70
0
 71
3
 72
9
 73
5
 74
0
 42
0.0000001
 43
0.0000001
 44
0.0000000001
 40
0.0
 40
0.0
 40
0.0
 40
0.0
 40
0.2432403513
 40
1.0
 40
1.0
 40
1.0
 40
1.0
 10
16.3386991002
 20
16.1574928039
 30
0.0
 10
16.3665703978
 20
16.1852979963
 30
0.0
 10
16.4764439852
 20
16.3042667963
 30
0.0
 10
16.5680447099
 20
16.439854678
 30
0.0
 10
16.6256954307
 20
16.5479228712
 30
0.0
  0
SPLINE
  5
306
100
AcDbEntity
  8
0
100
AcDbSpline
 62
7
  6
BYLAYER
 70
0
 71
3
 72
10
 73
6
 74
0
 42
0.0000001
 43
0.0000001
 44
0.0000000001
 40
0.0
 40
0.0
 40
0.0
 40
0.0
 40
0.4593309219
 40
0.7208750931
 40
1.0
 40
1.0
 40
1.0
 40
1.0
 10
15.879025586
 20
15.8831832029
 30
0.0
 10
15.9602546651
 20
15.899604281
 30
0.0
 10
16.0823084851
 20
15.9531877076
 30
0.0
 10
16.2301080289
 20
16.0566448732
 30
0.0
 10
16.3030472366
 20
16.1219254993
 30
0.0
 10
16.3386991002
 20
16.1574928039
 30
0.0
  0
SPLINE
  5
307
100
AcDbEntity
  8
0
100
AcDbSpline
 62
7
  6
BYLAYER
 70
0
 71
3
 72
9
 73
5
 74
0
 42
0.0000001
 43
0.0000001
 44
0.0000000001
 40
0.0
 40
0.0
 40
0.0
 40
0.0
 40
0.255846189
 40
1.0
 40
1.0
 40
1.0
 40
1.0
 10
15.0835197756
 20
37.416275595
 30
0.0
 10
15.0823286895
 20
37.4177889667
 30
0.0
 10
15.0774179544
 20
37.4234971647
 30
0.0
 10
15.0714276994
 20
37.4282886862
 30
0.0
 10
15.0665765382
 20
37.4310894009
 30
0.0
  0
SPLINE
  5
308
100
AcDbEntity
  8
0
100
AcDbSpline
 62
7
  6
BYLAYER
 70
0
 71
3
 72
11
 73
7
 74
0
 42
0.0000001
 43
0.0000001
 44
0.0000000001
 40
0.0
 40
0.0
 40
0.0
 40
0.0
 40
0.2891862054
 40
0.5667096469
 40
0.8067667098
 40
1.0
 40
1.0
 40
1.0
 40
1.0
 10
15.0452782556
 20
37.2029276493
 30
0.0
 10
15.0587471787
 20
37.2204223251
 30
0.0
 10
15.0811722875
 20
37.2579082372
 30
0.0
 10
15.1007515435
 20
37.3169255486
 30
0.0
 10
15.103932493
 20
37.3717852042
 30
0.0
 10
15.0926440162
 20
37.4046825063
 30
0.0
 10
15.0835197756
 20
37.416275595
 30
0.0
  0
SPLINE
  5
309
100
AcDbEntity
  8
0
100
AcDbSpline
 62
7
  6
BYLAYER
 70
0
 71
3
 72
12
 73
8
 74
0
 42
0.0000001
 43
0.0000001
 44
0.0000000001
 40
0.0
 40
0.0
 40
0.0
 40
0.0
 40
0.1005462217
 40
0.2042687849
 40
0.4308084131
 40
0.6948961325
 40
1.0
 40
1.0
 40
1.0
 40
1.0
 10
11.2393966412
 20
21.6180110868
 30
0.0
 10
11.2705504742
 20
21.6404264173
 30
0.0
 10
11.3389027202
 20
21.6793235477
 30
0.0
 10
11.496285774
 20
21.7302702555
 30
0.0
 10
11.7276705499
 20
21.7363669363
 30
0.0
 10
12.0241972088
 20
21.6600903733
 30
0.0
 10
12.2209470738
 20
21.5648805386
 30
0.0
 10
12.3218067686
 20
21.506650484
 30
0.0
  0
SPLINE
  5
30A
100
AcDbEntity
  8
0
100
AcDbSpline
 62
7
  6
BYLAYER
 70
0
 71
3
 72
11
 73
7
 74
0
 42
0.0000001
 43
0.0000001
 44
0.0000000001
 40
0.0
 40
0.0
 40
0.0
 40
0.0
 40
0.1929792822
 40
0.4197812578
 40
0.6926413259
 40
1.0
 40
1.0
 40
1.0
 40
1.0
 10
18.3686424643
 20
41.6464887356
 30
0.0
 10
18.378409995
 20
41.6408838257
 30
0.0
 10
18.4037643525
 20
41.6353727737
 30
0.0
 10
18.4435667168
 20
41.646989695
 30
0.0
 10
18.4830042628
 20
41.6735710847
 30
0.0
 10
18.5063567466
 20
41.6984946793
 30
0.0
 10
18.51729844
 20
41.7127067569
 30
0.0
  0
SPLINE
  5
30B
100
AcDbEntity
  8
0
100
AcDbSpline
 62
7
  6
BYLAYER
 70
0
 71
3
 72
12
 73
8
 74
0
 42
0.0000001
 43
0.0000001
 44
0.0000000001
 40
0.0
 40
0.0
 40
0.0
 40
0.0
 40
0.1005462217
 40
0.2042687849
 40
0.4308084131
 40
0.6948961325
 40
1.0
 40
1.0
 40
1.0
 40
1.0
 10
26.749356597
 20
63.5426342656
 30
0.0
 10
26.78051043
 20
63.5650495961
 30
0.0
 10
26.848862676
 20
63.6039467265
 30
0.0
 10
27.0062457298
 20
63.6548934342
 30
0.0
 10
27.2376305057
 20
63.660990115
 30
0.0
 10
27.5341571646
 20
63.5847135521
 30
0.0
 10
27.7309070296
 20
63.4895037174
 30
0.0
 10
27.8317667245
 20
63.4312736628
 30
0.0
  0
SPLINE
  5
30C
100
AcDbEntity
  8
0
100
AcDbSpline
 62
7
  6
BYLAYER
 70
0
 71
3
 72
12
 73
8
 74
0
 42
0.0000001
 43
0.0000001
 44
0.0000000001
 40
0.0
 40
0.0
 40
0.0
 40
0.0
 40
0.1005462217
 40
0.2042687849
 40
0.4308084131
 40
0.6948961325
 40
1.0
 40
1.0
 40
1.0
 40
1.0
 10
31.27781503
 20
23.5697471117
 30
0.0
 10
31.308968863
 20
23.5921624421
 30
0.0
 10
31.3773211089
 20
23.6310595726
 30
0.0
 10
31.5347041628
 20
23.6820062803
 30
0.0
 10
31.7660889387
 20
23.6881029611
 30
0.0
 10
32.0626155976
 20
23.6118263982
 30
0.0
 10
32.2593654626
 20
23.5166165635
 30
0.0
 10
32.3602251574
 20
23.4583865088
 30
0.0
  0
SPLINE
  5
30D
100
AcDbEntity
  8
0
100
AcDbSpline
 62
7
  6
BYLAYER
 70
0
 71
3
 72
11
 73
7
 74
0
 42
0.0000001
 43
0.0000001
 44
0.0000000001
 40
0.0
 40
0.0
 40
0.0
 40
0.0
 40
0.2894788929
 40
0.5489619927
 40
0.7820587915
 40
1.0
 40
1.0
 40
1.0
 40
1.0
 10
43.5232108748
 20
83.4753829383
 30
0.0
 10
43.5670545005
 20
83.5006959163
 30
0.0
 10
43.6543439939
 20
83.5421558243
 30
0.0
 10
43.7884406632
 20
83.5746480524
 30
0.0
 10
43.9143901108
 20
83.5715265219
 30
0.0
 10
43.9901547388
 20
83.5439014075
 30
0.0
 10
44.023169658
 20
83.5248546289
 30
0.0
  0
SPLINE
  5
30E
100
AcDbEntity
  8
0
100
AcDbSpline
 62
7
  6
BYLAYER
 70
0
 71
3
 72
9
 73
5
 74
0
 42
0.0000001
 43
0.0000001
 44
0.0000000001
 40
0.0
 40
0.0
 40
0.0
 40
0.0
 40
0.2553530868
 40
1.0
 40
1.0
 40
1.0
 40
1.0
 10
43.4370365945
 20
83.4195444062
 30
0.0
 10
43.4441341342
 20
83.4246484445
 30
0.0
 10
43.4721618986
 20
83.4443097022
 30
0.0
 10
43.5011327637
 20
83.462636211
 30
0.0
 10
43.5232108748
 20
83.4753829383
 30
0.0
  0
SPLINE
  5
30F
100
AcDbEntity
  8
0
100
AcDbSpline
 62
7
  6
BYLAYER
 70
0
 71
3
 72
9
 73
5
 74
0
 42
0.0000001
 43
0.0000001
 44
0.0000000001
 40
0.0
 40
0.0
 40
0.0
 40
0.0
 40
0.2615112972
 40
1.0
 40
1.0
 40
1.0
 40
1.0
 10
31.8122187578
 20
75.0212772274
 30
0.0
 10
31.8230142481
 20
75.035299403
 30
0.0
 10
31.8660014325
 20
75.0875466505
 30
0.0
 10
31.9159136469
 20
75.1343843172
 30
0.0
 10
31.9564855901
 20
75.1635607305
 30
0.0
  0
SPLINE
  5
310
100
AcDbEntity
  8
0
100
AcDbSpline
 62
7
  6
BYLAYER
 70
0
 71
3
 72
11
 73
7
 74
0
 42
0.0000001
 43
0.0000001
 44
0.0000000001
 40
0.0
 40
0.0
 40
0.0
 40
0.0
 40
0.2194218704
 40
0.4670006954
 40
0.7318929639
 40
1.0
 40
1.0
 40
1.0
 40
1.0
 10
30.9274724345
 20
73.2966403876
 30
0.0
 10
30.9169124819
 20
73.3743674753
 30
0.0
 10
30.9198871894
 20
73.5433970278
 30
0.0
 10
30.9798964863
 20
73.7994872443
 30
0.0
 10
31.0906591898
 20
74.0570306631
 30
0.0
 10
31.1940340745
 20
74.2183221116
 30
0.0
 10
31.2525034761
 20
74.2942675474
 30
0.0
  0
SPLINE
  5
311
100
AcDbEntity
  8
0
100
AcDbSpline
 62
7
  6
BYLAYER
 70
0
 71
3
 72
9
 73
5
 74
0
 42
0.0000001
 43
0.0000001
 44
0.0000000001
 40
0.0
 40
0.0
 40
0.0
 40
0.0
 40
0.2374418302
 40
1.0
 40
1.0
 40
1.0
 40
1.0
 10
31.0855719814
 20
72.2144196687
 30
0.0
 10
31.0840859492
 20
72.2163077933
 30
0.0
 10
31.0782654041
 20
72.2246041834
 30
0.0
 10
31.0742463709
 20
72.2340873719
 30
0.0
 10
31.0720701032
 20
72.2414907724
 30
0.0
  0
SPLINE
  5
312
100
AcDbEntity
  8
0
100
AcDbSpline
 62
7
  6
BYLAYER
 70
0
 71
3
 72
9
 73
5
 74
0
 42
0.0000001
 43
0.0000001
 44
0.0000000001
 40
0.0
 40
0.0
 40
0.0
 40
0.0
 40
0.2427676304
 40
1.0
 40
1.0
 40
1.0
 40
1.0
 10
31.0720701032
 20
72.2414907724
 30
0.0
 10
31.0716808702
 20
72.2428148963
 30
0.0
 10
31.0701902248
 20
72.2483020245
 30
0.0
 10
31.0691377622
 20
72.2539052779
 30
0.0
 10
31.0685582243
 20
72.2581709973
 30
0.0
  0
SPLINE
  5
313
100
AcDbEntity
  8
0
100
AcDbSpline
 62
7
  6
BYLAYER
 70
0
 71
3
 72
11
 73
7
 74
0
 42
0.0000001
 43
0.0000001
 44
0.0000000001
 40
0.0
 40
0.0
 40
0.0
 40
0.0
 40
0.224562057
 40
0.46081046
 40
0.717887711
 40
1.0
 40
1.0
 40
1.0
 40
1.0
 10
30.5062004074
 20
20.5356154068
 30
0.0
 10
30.4784178318
 20
20.5516527611
 30
0.0
 10
30.4260048122
 20
20.5932043396
 30
0.0
 10
30.3654920031
 20
20.6773521908
 30
0.0
 10
30.3235550894
 20
20.7807970312
 30
0.0
 10
30.3088889552
 20
20.8568828599
 30
0.0
 10
30.3043524293
 20
20.8969269592
 30
0.0
  0
SPLINE
  5
314
100
AcDbEntity
  8
0
100
AcDbSpline
 62
7
  6
BYLAYER
 70
0
 71
3
 72
8
 73
4
 74
0
 42
0.0000001
 43
0.0000001
 44
0.0000000001
 40
0.0
 40
0.0
 40
0.0
 40
0.0
 40
1.0
 40
1.0
 40
1.0
 40
1.0
 10
27.7831933716
 20
67.9908369995
 30
0.0
 10
27.7892291033
 20
67.9895715684
 30
0.0
 10
27.7951515087
 20
67.9873607124
 30
0.0
 10
27.800492301
 20
67.9842773197
 30
0.0
  0
SPLINE
  5
315
100
AcDbEntity
  8
0
100
AcDbSpline
 62
7
  6
BYLAYER
 70
0
 71
3
 72
9
 73
5
 74
0
 42
0.0000001
 43
0.0000001
 44
0.0000000001
 40
0.0
 40
0.0
 40
0.0
 40
0.0
 40
0.5341693446
 40
1.0
 40
1.0
 40
1.0
 40
1.0
 10
26.6482720527
 20
68.1104535178
 30
0.0
 10
26.702309282
 20
68.1350934964
 30
0.0
 10
26.8091072771
 20
68.1707340633
 30
0.0
 10
26.923151897
 20
68.1712235459
 30
0.0
 10
26.9738268936
 20
68.1605260422
 30
0.0
  0
SPLINE
  5
316
100
AcDbEntity
  8
0
100
AcDbSpline
 62
7
  6
BYLAYER
 70
0
 71
3
 72
10
 73
6
 74
0
 42
0.0000001
 43
0.0000001
 44
0.0000000001
 40
0.0
 40
0.0
 40
0.0
 40
0.0
 40
0.5297131418
 40
0.7739823704
 40
1.0
 40
1.0
 40
1.0
 40
1.0
 10
26.2003842959
 20
67.7321105557
 30
0.0
 10
26.2640492558
 20
67.8148044603
 30
0.0
 10
26.3689410039
 20
67.9276508872
 30
0.0
 10
26.5266462558
 20
68.0463291695
 30
0.0
 10
26.6077560436
 20
68.0919789658
 30
0.0
 10
26.6482720527
 20
68.1104535178
 30
0.0
  0
SPLINE
  5
317
100
AcDbEntity
  8
0
100
AcDbSpline
 62
7
  6
BYLAYER
 70
0
 71
3
 72
11
 73
7
 74
0
 42
0.0000001
 43
0.0000001
 44
0.0000000001
 40
0.0
 40
0.0
 40
0.0
 40
0.0
 40
0.2207751317
 40
0.4686059362
 40
0.7328716111
 40
1.0
 40
1.0
 40
1.0
 40
1.0
 10
25.2075488115
 20
65.886620224
 30
0.0
 10
25.1988038034
 20
65.9638127669
 30
0.0
 10
25.2043125782
 20
66.1305395763
 30
0.0
 10
25.2656448565
 20
66.3823612498
 30
0.0
 10
25.3756509054
 20
66.6348570983
 30
0.0
 10
25.4773323187
 20
66.7929441548
 30
0.0
 10
25.5346740588
 20
66.86742488
 30
0.0
  0
SPLINE
  5
318
100
AcDbEntity
  8
0
100
AcDbSpline
 62
7
  6
BYLAYER
 70
0
 71
3
 72
15
 73
11
 74
0
 42
0.0000001
 43
0.0000001
 44
0.0000000001
 40
0.0
 40
0.0
 40
0.0
 40
0.0
 40
0.0867320313
 40
0.1848951186
 40
0.2998712838
 40
0.4309820709
 40
0.5736041964
 40
0.7208759387
 40
0.8655107652
 40
1.0
 40
1.0
 40
1.0
 40
1.0
 10
54.0794890083
 20
43.2533587039
 30
0.0
 10
54.0558436799
 20
43.2670011536
 30
0.0
 10
54.0126847654
 20
43.3097232166
 30
0.0
 10
53.9789097794
 20
43.3999683693
 30
0.0
 10
53.9723380682
 20
43.5092657739
 30
0.0
 10
53.9923377623
 20
43.6307825994
 30
0.0
 10
54.0371305966
 20
43.7561457547
 30
0.0
 10
54.1034175594
 20
43.8764510185
 30
0.0
 10
54.1863831492
 20
43.9826318907
 30
0.0
 10
54.2520324829
 20
44.0419943012
 30
0.0
 10
54.2863990497
 20
44.0667082557
 30
0.0
  0
SPLINE
  5
319
100
AcDbEntity
  8
0
100
AcDbSpline
 62
7
  6
BYLAYER
 70
0
 71
3
 72
11
 73
7
 74
0
 42
0.0000001
 43
0.0000001
 44
0.0000000001
 40
0.0
 40
0.0
 40
0.0
 40
0.0
 40
0.1929792822
 40
0.4197812578
 40
0.6926413259
 40
1.0
 40
1.0
 40
1.0
 40
1.0
 10
35.4512830367
 20
69.6889960141
 30
0.0
 10
35.4610505674
 20
69.6833911043
 30
0.0
 10
35.4864049249
 20
69.6778800522
 30
0.0
 10
35.5262072892
 20
69.6894969735
 30
0.0
 10
35.5656448352
 20
69.7160783632
 30
0.0
 10
35.588997319
 20
69.7410019578
 30
0.0
 10
35.5999390124
 20
69.7552140354
 30
0.0
  0
SPLINE
  5
31A
100
AcDbEntity
  8
0
100
AcDbSpline
 62
7
  6
BYLAYER
 70
0
 71
3
 72
19
 73
15
 74
0
 42
0.0000001
 43
0.0000001
 44
0.0000000001
 40
0.0
 40
0.0
 40
0.0
 40
0.0
 40
0.0642860271
 40
0.1329458865
 40
0.2792141307
 40
0.4304920119
 40
0.5775162866
 40
0.7116975382
 40
0.7719316073
 40
0.8268559681
 40
0.8763971052
 40
0.9209602016
 40
0.9615858316
 40
1.0
 40
1.0
 40
1.0
 40
1.0
 10
32.3602251574
 20
23.4583865088
 30
0.0
 10
32.4367383714
 20
23.4142125835
 30
0.0
 10
32.5899153309
 20
23.3139293578
 30
0.0
 10
32.8904908686
 20
23.0747377599
 30
0.0
 10
33.2432481175
 20
22.7126469124
 30
0.0
 10
33.6040375346
 20
22.2171222931
 30
0.0
 10
33.8828434796
 20
21.6899074461
 30
0.0
 10
34.0345714895
 20
21.2427247544
 30
0.0
 10
34.0918747945
 20
20.9041758858
 30
0.0
 10
34.1017025162
 20
20.6773375524
 30
0.0
 10
34.0797504179
 20
20.4727582332
 30
0.0
 10
34.0256482636
 20
20.2942601189
 30
0.0
 10
33.9395783903
 20
20.1457951156
 30
0.0
 10
33.8603469824
 20
20.068971359
 30
0.0
 10
33.8174934044
 20
20.0381380065
 30
0.0
  0
SPLINE
  5
31B
100
AcDbEntity
  8
0
100
AcDbSpline
 62
7
  6
BYLAYER
 70
0
 71
3
 72
9
 73
5
 74
0
 42
0.0000001
 43
0.0000001
 44
0.0000000001
 40
0.0
 40
0.0
 40
0.0
 40
0.0
 40
0.2331722077
 40
1.0
 40
1.0
 40
1.0
 40
1.0
 10
32.4465218711
 20
58.842604764
 30
0.0
 10
32.4670628915
 20
58.8489880952
 30
0.0
 10
32.5537937011
 20
58.8807412119
 30
0.0
 10
32.6343286765
 20
58.9280509504
 30
0.0
 10
32.6917599052
 20
58.969351345
 30
0.0
  0
SPLINE
  5
31C
100
AcDbEntity
  8
0
100
AcDbSpline
 62
7
  6
BYLAYER
 70
0
 71
3
 72
9
 73
5
 74
0
 42
0.0000001
 43
0.0000001
 44
0.0000000001
 40
0.0
 40
0.0
 40
0.0
 40
0.0
 40
0.255846189
 40
1.0
 40
1.0
 40
1.0
 40
1.0
 10
32.166160348
 20
65.4587828735
 30
0.0
 10
32.1649692619
 20
65.4602962453
 30
0.0
 10
32.1600585267
 20
65.4660044432
 30
0.0
 10
32.1540682718
 20
65.4707959647
 30
0.0
 10
32.1492171106
 20
65.4735966794
 30
0.0
  0
SPLINE
  5
31D
100
AcDbEntity
  8
0
100
AcDbSpline
 62
7
  6
BYLAYER
 70
0
 71
3
 72
11
 73
7
 74
0
 42
0.0000001
 43
0.0000001
 44
0.0000000001
 40
0.0
 40
0.0
 40
0.0
 40
0.0
 40
0.2891862054
 40
0.5667096469
 40
0.8067667098
 40
1.0
 40
1.0
 40
1.0
 40
1.0
 10
32.127918828
 20
65.2454349278
 30
0.0
 10
32.1413877511
 20
65.2629296036
 30
0.0
 10
32.1638128598
 20
65.3004155157
 30
0.0
 10
32.1833921159
 20
65.3594328271
 30
0.0
 10
32.1865730654
 20
65.4142924827
 30
0.0
 10
32.1752845886
 20
65.4471897848
 30
0.0
 10
32.166160348
 20
65.4587828735
 30
0.0
  0
SPLINE
  5
31E
100
AcDbEntity
  8
0
100
AcDbSpline
 62
7
  6
BYLAYER
 70
0
 71
3
 72
11
 73
7
 74
0
 42
0.0000001
 43
0.0000001
 44
0.0000000001
 40
0.0
 40
0.0
 40
0.0
 40
0.0
 40
0.2821217159
 40
0.5390437393
 40
0.7752313692
 40
1.0
 40
1.0
 40
1.0
 40
1.0
 10
58.6462362427
 20
73.9203909697
 30
0.0
 10
58.6416995277
 20
73.9604367378
 30
0.0
 10
58.6270457352
 20
74.0365060794
 30
0.0
 10
58.5851177188
 20
74.1399172736
 30
0.0
 10
58.5246462602
 20
74.2241026172
 30
0.0
 10
58.4721822192
 20
74.2656252352
 30
0.0
 10
58.4443788278
 20
74.2816860831
 30
0.0
  0
SPLINE
  5
31F
100
AcDbEntity
  8
0
100
AcDbSpline
 62
7
  6
BYLAYER
 70
0
 71
3
 72
11
 73
7
 74
0
 42
0.0000001
 43
0.0000001
 44
0.0000000001
 40
0.0
 40
0.0
 40
0.0
 40
0.0
 40
0.2706044802
 40
0.5334474597
 40
0.7789334274
 40
1.0
 40
1.0
 40
1.0
 40
1.0
 10
58.4291573803
 20
72.9795946804
 30
0.0
 10
58.4710477828
 20
73.0473337911
 30
0.0
 10
58.5444994751
 20
73.1867513558
 30
0.0
 10
58.6225714656
 20
73.4031630284
 30
0.0
 10
58.6636719089
 20
73.6147606868
 30
0.0
 10
58.6651700274
 20
73.7532616802
 30
0.0
 10
58.6578457533
 20
73.8179133458
 30
0.0
  0
SPLINE
  5
320
100
AcDbEntity
  8
0
100
AcDbSpline
 62
7
  6
BYLAYER
 70
0
 71
3
 72
9
 73
5
 74
0
 42
0.0000001
 43
0.0000001
 44
0.0000000001
 40
0.0
 40
0.0
 40
0.0
 40
0.0
 40
0.4818404919
 40
1.0
 40
1.0
 40
1.0
 40
1.0
 10
56.720546985
 20
70.6140764163
 30
0.0
 10
56.8715457959
 20
70.7226638627
 30
0.0
 10
57.1577463257
 20
70.986541775
 30
0.0
 10
57.389291645
 20
71.2980739514
 30
0.0
 10
57.494488063
 20
71.4681824101
 30
0.0
  0
SPLINE
  5
321
100
AcDbEntity
  8
0
100
AcDbSpline
 62
7
  6
BYLAYER
 70
0
 71
3
 72
11
 73
7
 74
0
 42
0.0000001
 43
0.0000001
 44
0.0000000001
 40
0.0
 40
0.0
 40
0.0
 40
0.0
 40
0.2127249694
 40
0.446997135
 40
0.7091784494
 40
1.0
 40
1.0
 40
1.0
 40
1.0
 10
55.889695506
 20
70.1370599897
 30
0.0
 10
55.9084689821
 20
70.1309620959
 30
0.0
 10
55.9503250041
 20
70.125007917
 30
0.0
 10
56.0161005868
 20
70.1346034869
 30
0.0
 10
56.0846217714
 20
70.1613120378
 30
0.0
 10
56.1285420954
 20
70.1883492275
 30
0.0
 10
56.150450942
 20
70.2041044887
 30
0.0
  0
SPLINE
  5
322
100
AcDbEntity
  8
0
100
AcDbSpline
 62
7
  6
BYLAYER
 70
0
 71
3
 72
9
 73
5
 74
0
 42
0.0000001
 43
0.0000001
 44
0.0000000001
 40
0.0
 40
0.0
 40
0.0
 40
0.0
 40
0.4605421533
 40
1.0
 40
1.0
 40
1.0
 40
1.0
 10
53.5343534084
 20
70.1321774305
 30
0.0
 10
53.5299372991
 20
70.1363135712
 30
0.0
 10
53.5225902977
 20
70.1478764271
 30
0.0
 10
53.5206905867
 20
70.1610604039
 30
0.0
 10
53.5198927724
 20
70.1681027426
 30
0.0
  0
SPLINE
  5
323
100
AcDbEntity
  8
0
100
AcDbSpline
 62
7
  6
BYLAYER
 70
0
 71
3
 72
9
 73
5
 74
0
 42
0.0000001
 43
0.0000001
 44
0.0000000001
 40
0.0
 40
0.0
 40
0.0
 40
0.0
 40
0.5354750547
 40
1.0
 40
1.0
 40
1.0
 40
1.0
 10
53.9284273272
 20
69.6709294449
 30
0.0
 10
53.9249110953
 20
69.7019673669
 30
0.0
 10
53.9115560196
 20
69.7596969692
 30
0.0
 10
53.8784047676
 20
69.8099379398
 30
0.0
 10
53.8586271733
 20
69.8284616914
 30
0.0
  0
SPLINE
  5
324
100
AcDbEntity
  8
0
100
AcDbSpline
 62
7
  6
BYLAYER
 70
0
 71
3
 72
9
 73
5
 74
0
 42
0.0000001
 43
0.0000001
 44
0.0000000001
 40
0.0
 40
0.0
 40
0.0
 40
0.0
 40
0.2560790457
 40
1.0
 40
1.0
 40
1.0
 40
1.0
 10
56.6711535812
 20
45.435813036
 30
0.0
 10
56.6711535812
 20
45.4399364514
 30
0.0
 10
56.6709421095
 20
45.4560373989
 30
0.0
 10
56.6698668856
 20
45.4721307302
 30
0.0
 10
56.6685184645
 20
45.4840332978
 30
0.0
  0
SPLINE
  5
325
100
AcDbEntity
  8
0
100
AcDbSpline
 62
7
  6
BYLAYER
 70
0
 71
3
 72
11
 73
7
 74
0
 42
0.0000001
 43
0.0000001
 44
0.0000000001
 40
0.0
 40
0.0
 40
0.0
 40
0.0
 40
0.2374186374
 40
0.5001685407
 40
0.7628364718
 40
1.0
 40
1.0
 40
1.0
 40
1.0
 10
56.318458508
 20
44.8238870859
 30
0.0
 10
56.3685463941
 20
44.8529880601
 30
0.0
 10
56.4633086199
 20
44.9329798627
 30
0.0
 10
56.5739196791
 20
45.0843813174
 30
0.0
 10
56.6494796901
 20
45.2559138294
 30
0.0
 10
56.6711535812
 20
45.3779471954
 30
0.0
 10
56.6711535812
 20
45.435813036
 30
0.0
  0
SPLINE
  5
326
100
AcDbEntity
  8
0
100
AcDbSpline
 62
7
  6
BYLAYER
 70
0
 71
3
 72
9
 73
5
 74
0
 42
0.0000001
 43
0.0000001
 44
0.0000000001
 40
0.0
 40
0.0
 40
0.0
 40
0.0
 40
0.4739802979
 40
1.0
 40
1.0
 40
1.0
 40
1.0
 10
54.4556186591
 20
44.1405854838
 30
0.0
 10
54.7677042458
 20
44.1831465538
 30
0.0
 10
55.4156732966
 20
44.3558710611
 30
0.0
 10
56.0163666324
 20
44.6480178151
 30
0.0
 10
56.318458508
 20
44.8238870859
 30
0.0
  0
SPLINE
  5
327
100
AcDbEntity
  8
0
100
AcDbSpline
 62
7
  6
BYLAYER
 70
0
 71
3
 72
9
 73
5
 74
0
 42
0.0000001
 43
0.0000001
 44
0.0000000001
 40
0.0
 40
0.0
 40
0.0
 40
0.0
 40
0.2756707175
 40
1.0
 40
1.0
 40
1.0
 40
1.0
 10
54.2863990497
 20
44.0667082557
 30
0.0
 10
54.3002441111
 20
44.0766646245
 30
0.0
 10
54.3519561484
 20
44.1104020916
 30
0.0
 10
54.4112217948
 20
44.1345308048
 30
0.0
 10
54.4556186591
 20
44.1405854838
 30
0.0
  0
SPLINE
  5
328
100
AcDbEntity
  8
0
100
AcDbSpline
 62
7
  6
BYLAYER
 70
0
 71
3
 72
11
 73
7
 74
0
 42
0.0000001
 43
0.0000001
 44
0.0000000001
 40
0.0
 40
0.0
 40
0.0
 40
0.0
 40
0.2822370362
 40
0.5391586532
 40
0.7753682675
 40
1.0
 40
1.0
 40
1.0
 40
1.0
 10
61.7895433293
 20
46.1742912045
 30
0.0
 10
61.7804661246
 20
46.2544160601
 30
0.0
 10
61.7512024309
 20
46.4066016255
 30
0.0
 10
61.6672253514
 20
46.6134284415
 30
0.0
 10
61.5462802745
 20
46.7817353137
 30
0.0
 10
61.4414356209
 20
46.8648379918
 30
0.0
 10
61.3858583683
 20
46.896933544
 30
0.0
  0
SPLINE
  5
329
100
AcDbEntity
  8
0
100
AcDbSpline
 62
7
  6
BYLAYER
 70
0
 71
3
 72
9
 73
5
 74
0
 42
0.0000001
 43
0.0000001
 44
0.0000000001
 40
0.0
 40
0.0
 40
0.0
 40
0.0
 40
0.2560788064
 40
1.0
 40
1.0
 40
1.0
 40
1.0
 10
62.9982554535
 20
35.4300308797
 30
0.0
 10
62.9982554535
 20
35.4424040712
 30
0.0
 10
62.997621338
 20
35.490718455
 30
0.0
 10
62.9943957177
 20
35.5390100658
 30
0.0
 10
62.9903494863
 20
35.5747263148
 30
0.0
  0
SPLINE
  5
32A
100
AcDbEntity
  8
0
100
AcDbSpline
 62
7
  6
BYLAYER
 70
0
 71
3
 72
13
 73
9
 74
0
 42
0.0000001
 43
0.0000001
 44
0.0000000001
 40
0.0
 40
0.0
 40
0.0
 40
0.0
 40
0.1186915141
 40
0.2446319716
 40
0.507122096
 40
0.7657734141
 40
0.8871726084
 40
1.0
 40
1.0
 40
1.0
 40
1.0
 10
62.0668611182
 20
33.6766688215
 30
0.0
 10
62.1326489753
 20
33.7239787001
 30
0.0
 10
62.2613038398
 20
33.8313707367
 30
0.0
 10
62.4990259067
 20
34.0839402648
 30
0.0
 10
62.7465731986
 20
34.4539357917
 30
0.0
 10
62.9141863982
 20
34.8633115157
 30
0.0
 10
62.9852267508
 20
35.1929513164
 30
0.0
 10
62.9982554535
 20
35.3530019012
 30
0.0
 10
62.9982554535
 20
35.4300308797
 30
0.0
  0
SPLINE
  5
32B
100
AcDbEntity
  8
0
100
AcDbSpline
 62
7
  6
BYLAYER
 70
0
 71
3
 72
11
 73
7
 74
0
 42
0.0000001
 43
0.0000001
 44
0.0000000001
 40
0.0
 40
0.0
 40
0.0
 40
0.0
 40
0.2913495436
 40
0.5516190385
 40
0.7840195476
 40
1.0
 40
1.0
 40
1.0
 40
1.0
 10
59.6510518174
 20
34.6785632402
 30
0.0
 10
59.6852455958
 20
34.6995778973
 30
0.0
 10
59.7534302902
 20
34.7342542319
 30
0.0
 10
59.8586926082
 20
34.7624984632
 30
0.0
 10
59.9577422115
 20
34.7619247724
 30
0.0
 10
60.0173430122
 20
34.7407262531
 30
0.0
 10
60.043112279
 20
34.7258547231
 30
0.0
  0
SPLINE
  5
32C
100
AcDbEntity
  8
0
100
AcDbSpline
 62
7
  6
BYLAYER
 70
0
 71
3
 72
9
 73
5
 74
0
 42
0.0000001
 43
0.0000001
 44
0.0000000001
 40
0.0
 40
0.0
 40
0.0
 40
0.0
 40
0.242376542
 40
1.0
 40
1.0
 40
1.0
 40
1.0
 10
56.0979631876
 20
32.8168964281
 30
0.0
 10
56.3955390578
 20
32.9456510183
 30
0.0
 10
57.6128281596
 20
33.5008916029
 30
0.0
 10
58.7875831395
 20
34.1478965785
 30
0.0
 10
59.6510518174
 20
34.6785632402
 30
0.0
  0
SPLINE
  5
32D
100
AcDbEntity
  8
0
100
AcDbSpline
 62
7
  6
BYLAYER
 70
0
 71
3
 72
9
 73
5
 74
0
 42
0.0000001
 43
0.0000001
 44
0.0000000001
 40
0.0
 40
0.0
 40
0.0
 40
0.0
 40
0.2616081531
 40
1.0
 40
1.0
 40
1.0
 40
1.0
 10
54.7923871933
 20
32.0649827227
 30
0.0
 10
54.8991630975
 20
32.1417682464
 30
0.0
 10
55.3140732275
 20
32.425581204
 30
0.0
 10
55.7572738468
 20
32.6694875792
 30
0.0
 10
56.0979631876
 20
32.8168964281
 30
0.0
  0
SPLINE
  5
32E
100
AcDbEntity
  8
0
100
AcDbSpline
 62
7
  6
BYLAYER
 70
0
 71
3
 72
9
 73
5
 74
0
 42
0.0000001
 43
0.0000001
 44
0.0000000001
 40
0.0
 40
0.0
 40
0.0
 40
0.0
 40
0.255309186
 40
1.0
 40
1.0
 40
1.0
 40
1.0
 10
54.0283757165
 20
31.4490205899
 30
0.0
 10
54.0905982949
 20
31.50476543
 30
0.0
 10
54.3370460314
 20
31.7200259868
 30
0.0
 10
54.5945550391
 20
31.9227161159
 30
0.0
 10
54.7923871933
 20
32.0649827227
 30
0.0
  0
SPLINE
  5
32F
100
AcDbEntity
  8
0
100
AcDbSpline
 62
7
  6
BYLAYER
 70
0
 71
3
 72
11
 73
7
 74
0
 42
0.0000001
 43
0.0000001
 44
0.0000000001
 40
0.0
 40
0.0
 40
0.0
 40
0.0
 40
0.2308541165
 40
0.485742036
 40
0.7481781372
 40
1.0
 40
1.0
 40
1.0
 40
1.0
 10
53.7688450366
 20
30.9056307127
 30
0.0
 10
53.7688450366
 20
30.9531133495
 30
0.0
 10
53.7835696925
 20
31.0531264817
 30
0.0
 10
53.8373572095
 20
31.198218434
 30
0.0
 10
53.919001011
 20
31.3347070508
 30
0.0
 10
53.9897978864
 20
31.41445894
 30
0.0
 10
54.0283757165
 20
31.4490205899
 30
0.0
  0
SPLINE
  5
330
100
AcDbEntity
  8
0
100
AcDbSpline
 62
7
  6
BYLAYER
 70
0
 71
3
 72
9
 73
5
 74
0
 42
0.0000001
 43
0.0000001
 44
0.0000000001
 40
0.0
 40
0.0
 40
0.0
 40
0.0
 40
0.2439823325
 40
1.0
 40
1.0
 40
1.0
 40
1.0
 10
53.771480359
 20
30.8573989006
 30
0.0
 10
53.77103801
 20
30.8613035335
 30
0.0
 10
53.76946786
 20
30.8773343202
 30
0.0
 10
53.7688450366
 20
30.8934541989
 30
0.0
 10
53.7688450366
 20
30.9056307127
 30
0.0
  0
SPLINE
  5
331
100
AcDbEntity
  8
0
100
AcDbSpline
 62
7
  6
BYLAYER
 70
0
 71
3
 72
9
 73
5
 74
0
 42
0.0000001
 43
0.0000001
 44
0.0000000001
 40
0.0
 40
0.0
 40
0.0
 40
0.0
 40
0.2560788118
 40
1.0
 40
1.0
 40
1.0
 40
1.0
 10
54.0606025663
 20
28.2803356797
 30
0.0
 10
54.0606025663
 20
28.2844600769
 30
0.0
 10
54.0603911956
 20
28.3005648715
 30
0.0
 10
54.0593159877
 20
28.316662075
 30
0.0
 10
54.0579672439
 20
28.3285674912
 30
0.0
  0
SPLINE
  5
332
100
AcDbEntity
  8
0
100
AcDbSpline
 62
7
  6
BYLAYER
 70
0
 71
3
 72
11
 73
7
 74
0
 42
0.0000001
 43
0.0000001
 44
0.0000000001
 40
0.0
 40
0.0
 40
0.0
 40
0.0
 40
0.2444035662
 40
0.5071617566
 40
0.7660749412
 40
1.0
 40
1.0
 40
1.0
 40
1.0
 10
53.7501377878
 20
27.6958816602
 30
0.0
 10
53.795249492
 20
27.728322742
 30
0.0
 10
53.8792262221
 20
27.8093138918
 30
0.0
 10
53.9767263019
 20
27.9549839835
 30
0.0
 10
54.0422090598
 20
28.1150086649
 30
0.0
 10
54.0606025663
 20
28.2271527861
 30
0.0
 10
54.0606025663
 20
28.2803356797
 30
0.0
  0
SPLINE
  5
333
100
AcDbEntity
  8
0
100
AcDbSpline
 62
7
  6
BYLAYER
 70
0
 71
3
 72
9
 73
5
 74
0
 42
0.0000001
 43
0.0000001
 44
0.0000000001
 40
0.0
 40
0.0
 40
0.0
 40
0.0
 40
0.2286092667
 40
1.0
 40
1.0
 40
1.0
 40
1.0
 10
42.1764519055
 20
19.411459312
 30
0.0
 10
42.1890611289
 20
19.4140083628
 30
0.0
 10
42.243449288
 20
19.4289790705
 30
0.0
 10
42.2935511953
 20
19.4571314599
 30
0.0
 10
42.3287925969
 20
19.4824745325
 30
0.0
  0
SPLINE
  5
334
100
AcDbEntity
  8
0
100
AcDbSpline
 62
7
  6
BYLAYER
 70
0
 71
3
 72
11
 73
7
 74
0
 42
0.0000001
 43
0.0000001
 44
0.0000000001
 40
0.0
 40
0.0
 40
0.0
 40
0.0
 40
0.3025699016
 40
0.5700940461
 40
0.7979867331
 40
1.0
 40
1.0
 40
1.0
 40
1.0
 10
37.3061228776
 20
20.0881241352
 30
0.0
 10
37.3093410129
 20
20.1014188631
 30
0.0
 10
37.3131748718
 20
20.1270950281
 30
0.0
 10
37.3107659185
 20
20.1634609937
 30
0.0
 10
37.2991849935
 20
20.1934915668
 30
0.0
 10
37.2847129854
 20
20.2076828951
 30
0.0
 10
37.2767812623
 20
20.2122098822
 30
0.0
  0
SPLINE
  5
335
100
AcDbEntity
  8
0
100
AcDbSpline
 62
7
  6
BYLAYER
 70
0
 71
3
 72
9
 73
5
 74
0
 42
0.0000001
 43
0.0000001
 44
0.0000000001
 40
0.0
 40
0.0
 40
0.0
 40
0.0
 40
0.2561960418
 40
1.0
 40
1.0
 40
1.0
 40
1.0
 10
37.2815176621
 20
20.0244318595
 30
0.0
 10
37.2842687273
 20
20.0295826981
 30
0.0
 10
37.2944014736
 20
20.0500004879
 30
0.0
 10
37.3021342794
 20
20.0716464788
 30
0.0
 10
37.3061228776
 20
20.0881241352
 30
0.0
  0
SPLINE
  5
336
100
AcDbEntity
  8
0
100
AcDbSpline
 62
7
  6
BYLAYER
 70
0
 71
3
 72
9
 73
5
 74
0
 42
0.0000001
 43
0.0000001
 44
0.0000000001
 40
0.0
 40
0.0
 40
0.0
 40
0.0
 40
0.2432403513
 40
1.0
 40
1.0
 40
1.0
 40
1.0
 10
36.3426477769
 20
18.4134943827
 30
0.0
 10
36.3705190744
 20
18.4412995752
 30
0.0
 10
36.4803926618
 20
18.5602683752
 30
0.0
 10
36.5719933865
 20
18.6958562568
 30
0.0
 10
36.6296441073
 20
18.80392445
 30
0.0
  0
SPLINE
  5
337
100
AcDbEntity
  8
0
100
AcDbSpline
 62
7
  6
BYLAYER
 70
0
 71
3
 72
10
 73
6
 74
0
 42
0.0000001
 43
0.0000001
 44
0.0000000001
 40
0.0
 40
0.0
 40
0.0
 40
0.0
 40
0.4593309218
 40
0.7208750931
 40
1.0
 40
1.0
 40
1.0
 40
1.0
 10
35.8829742626
 20
18.1391847817
 30
0.0
 10
35.9642033417
 20
18.1556058599
 30
0.0
 10
36.0862571617
 20
18.2091892864
 30
0.0
 10
36.2340567055
 20
18.312646452
 30
0.0
 10
36.3069959133
 20
18.3779270781
 30
0.0
 10
36.3426477769
 20
18.4134943827
 30
0.0
  0
SPLINE
  5
338
100
AcDbEntity
  8
0
100
AcDbSpline
 62
7
  6
BYLAYER
 70
0
 71
3
 72
11
 73
7
 74
0
 42
0.0000001
 43
0.0000001
 44
0.0000000001
 40
0.0
 40
0.0
 40
0.0
 40
0.0
 40
0.224562057
 40
0.46081046
 40
0.717887711
 40
1.0
 40
1.0
 40
1.0
 40
1.0
 10
10.5022517308
 20
18.279613828
 30
0.0
 10
10.4744691552
 20
18.2956511823
 30
0.0
 10
10.4220561356
 20
18.3372027607
 30
0.0
 10
10.3615433265
 20
18.4213506119
 30
0.0
 10
10.3196064128
 20
18.5247954523
 30
0.0
 10
10.3049402786
 20
18.6008812811
 30
0.0
 10
10.3004037527
 20
18.6409253803
 30
0.0
  0
SPLINE
  5
339
100
AcDbEntity
  8
0
100
AcDbSpline
 62
7
  6
BYLAYER
 70
0
 71
3
 72
12
 73
8
 74
0
 42
0.0000001
 43
0.0000001
 44
0.0000000001
 40
0.0
 40
0.0
 40
0.0
 40
0.0
 40
0.1005462217
 40
0.2042687849
 40
0.4308084131
 40
0.6948961325
 40
1.0
 40
1.0
 40
1.0
 40
1.0
 10
9.6667160246
 20
35.5001269871
 30
0.0
 10
9.6978698576
 20
35.5225423176
 30
0.0
 10
9.7662221036
 20
35.561439448
 30
0.0
 10
9.9236051574
 20
35.6123861557
 30
0.0
 10
10.1549899333
 20
35.6184828365
 30
0.0
 10
10.4515165922
 20
35.5422062736
 30
0.0
 10
10.6482664572
 20
35.4469964389
 30
0.0
 10
10.749126152
 20
35.3887663843
 30
0.0
  0
SPLINE
  5
33A
100
AcDbEntity
  8
0
100
AcDbSpline
 62
7
  6
BYLAYER
 70
0
 71
3
 72
19
 73
15
 74
0
 42
0.0000001
 43
0.0000001
 44
0.0000000001
 40
0.0
 40
0.0
 40
0.0
 40
0.0
 40
0.0642860271
 40
0.1329458865
 40
0.2792141307
 40
0.4304920119
 40
0.5775162866
 40
0.7116975382
 40
0.7719316073
 40
0.8268559681
 40
0.8763971052
 40
0.9209602016
 40
0.9615858316
 40
1.0
 40
1.0
 40
1.0
 40
1.0
 10
27.8317667245
 20
63.4312736628
 30
0.0
 10
27.9082799385
 20
63.3870997374
 30
0.0
 10
28.061456898
 20
63.2868165117
 30
0.0
 10
28.3620324357
 20
63.0476249138
 30
0.0
 10
28.7147896846
 20
62.6855340663
 30
0.0
 10
29.0755791017
 20
62.1900094471
 30
0.0
 10
29.3543850466
 20
61.6627946001
 30
0.0
 10
29.5061130566
 20
61.2156119083
 30
0.0
 10
29.5634163616
 20
60.8770630398
 30
0.0
 10
29.5732440833
 20
60.6502247064
 30
0.0
 10
29.5512919849
 20
60.4456453871
 30
0.0
 10
29.4971898307
 20
60.2671472728
 30
0.0
 10
29.4111199574
 20
60.1186822695
 30
0.0
 10
29.3318885495
 20
60.0418585129
 30
0.0
 10
29.2890349715
 20
60.0110251604
 30
0.0
  0
SPLINE
  5
33B
100
AcDbEntity
  8
0
100
AcDbSpline
 62
7
  6
BYLAYER
 70
0
 71
3
 72
11
 73
7
 74
0
 42
0.0000001
 43
0.0000001
 44
0.0000000001
 40
0.0
 40
0.0
 40
0.0
 40
0.0
 40
0.2261989747
 40
0.484592261
 40
0.7513785785
 40
1.0
 40
1.0
 40
1.0
 40
1.0
 10
8.5345470527
 20
30.0711319134
 30
0.0
 10
8.5283524198
 20
30.1258121902
 30
0.0
 10
8.5390474132
 20
30.245619145
 30
0.0
 10
8.6014722159
 20
30.4188954483
 30
0.0
 10
8.7028398044
 20
30.5791927891
 30
0.0
 10
8.7932705401
 20
30.6685042761
 30
0.0
 10
8.8423765087
 20
30.7038177445
 30
0.0
  0
SPLINE
  5
33C
100
AcDbEntity
  8
0
100
AcDbSpline
 62
7
  6
BYLAYER
 70
0
 71
3
 72
9
 73
5
 74
0
 42
0.0000001
 43
0.0000001
 44
0.0000000001
 40
0.0
 40
0.0
 40
0.0
 40
0.0
 40
0.2561816538
 40
1.0
 40
1.0
 40
1.0
 40
1.0
 10
8.8423765087
 20
30.7038177445
 30
0.0
 10
8.8464282762
 20
30.7067314832
 30
0.0
 10
8.862395276
 20
30.7178926598
 30
0.0
 10
8.8789759929
 20
30.7281843337
 30
0.0
 10
8.8916339807
 20
30.7352372534
 30
0.0
  0
SPLINE
  5
33D
100
AcDbEntity
  8
0
100
AcDbSpline
 62
7
  6
BYLAYER
 70
0
 71
3
 72
11
 73
7
 74
0
 42
0.0000001
 43
0.0000001
 44
0.0000000001
 40
0.0
 40
0.0
 40
0.0
 40
0.0
 40
0.220295488
 40
0.4780928167
 40
0.7479661309
 40
1.0
 40
1.0
 40
1.0
 40
1.0
 10
57.7374068512
 20
45.158768582
 30
0.0
 10
57.741921789
 20
45.1368478656
 30
0.0
 10
57.7402755488
 20
45.087025574
 30
0.0
 10
57.7165166755
 20
45.0141822592
 30
0.0
 10
57.6750716883
 20
44.9459048516
 30
0.0
 10
57.6370994982
 20
44.9077684727
 30
0.0
 10
57.6163113229
 20
44.8928191174
 30
0.0
  0
SPLINE
  5
33E
100
AcDbEntity
  8
0
100
AcDbSpline
 62
7
  6
BYLAYER
 70
0
 71
3
 72
11
 73
7
 74
0
 42
0.0000001
 43
0.0000001
 44
0.0000000001
 40
0.0
 40
0.0
 40
0.0
 40
0.0
 40
0.2520338691
 40
0.5219071833
 40
0.779704512
 40
1.0
 40
1.0
 40
1.0
 40
1.0
 10
57.7515630526
 20
45.7304531867
 30
0.0
 10
57.7359719211
 20
45.7192411702
 30
0.0
 10
57.7074927786
 20
45.6906388861
 30
0.0
 10
57.6764090381
 20
45.6394308304
 30
0.0
 10
57.6585898832
 20
45.5847983443
 30
0.0
 10
57.657355203
 20
45.5474316256
 30
0.0
 10
57.6607414064
 20
45.5309910883
 30
0.0
  0
SPLINE
  5
33F
100
AcDbEntity
  8
0
100
AcDbSpline
 62
7
  6
BYLAYER
 70
0
 71
3
 72
10
 73
6
 74
0
 42
0.0000001
 43
0.0000001
 44
0.0000000001
 40
0.0
 40
0.0
 40
0.0
 40
0.0
 40
0.4596505859
 40
0.720011741
 40
1.0
 40
1.0
 40
1.0
 40
1.0
 10
60.7893730845
 20
46.9936765955
 30
0.0
 10
60.3303203018
 20
46.9855757458
 30
0.0
 10
59.6121174049
 20
46.8144016355
 30
0.0
 10
58.710341968
 20
46.384198432
 30
0.0
 10
58.2542756503
 20
46.0919678037
 30
0.0
 10
58.0272218801
 20
45.9286871198
 30
0.0
  0
SPLINE
  5
340
100
AcDbEntity
  8
0
100
AcDbSpline
 62
7
  6
BYLAYER
 70
0
 71
3
 72
9
 73
5
 74
0
 42
0.0000001
 43
0.0000001
 44
0.0000000001
 40
0.0
 40
0.0
 40
0.0
 40
0.0
 40
0.5249018114
 40
1.0
 40
1.0
 40
1.0
 40
1.0
 10
59.2428303077
 20
32.2075594603
 30
0.0
 10
59.2240992078
 20
32.1690611903
 30
0.0
 10
59.1951064441
 20
32.0922453987
 30
0.0
 10
59.1828709439
 20
32.0106174944
 30
0.0
 10
59.1828709439
 20
31.971866479
 30
0.0
  0
SPLINE
  5
341
100
AcDbEntity
  8
0
100
AcDbSpline
 62
7
  6
BYLAYER
 70
0
 71
3
 72
9
 73
5
 74
0
 42
0.0000001
 43
0.0000001
 44
0.0000000001
 40
0.0
 40
0.0
 40
0.0
 40
0.0
 40
0.4750981886
 40
1.0
 40
1.0
 40
1.0
 40
1.0
 10
60.1984688957
 20
34.3825539595
 30
0.0
 10
60.1984688957
 20
34.3098958056
 30
0.0
 10
60.1755273328
 20
34.156843485
 30
0.0
 10
60.1211659008
 20
34.0128138757
 30
0.0
 10
60.0860450885
 20
33.9406296196
 30
0.0
  0
SPLINE
  5
342
100
AcDbEntity
  8
0
100
AcDbSpline
 62
7
  6
BYLAYER
 70
0
 71
3
 72
11
 73
7
 74
0
 42
0.0000001
 43
0.0000001
 44
0.0000000001
 40
0.0
 40
0.0
 40
0.0
 40
0.0
 40
0.2835337094
 40
0.5410522453
 40
0.7767031306
 40
1.0
 40
1.0
 40
1.0
 40
1.0
 10
21.059730105
 20
17.4436227571
 30
0.0
 10
21.0635625819
 20
17.4016804291
 30
0.0
 10
21.0771831843
 20
17.3219744122
 30
0.0
 10
21.1188512035
 20
17.213407863
 30
0.0
 10
21.1804804285
 20
17.1251773986
 30
0.0
 10
21.2345982936
 20
17.0818225523
 30
0.0
 10
21.2633245087
 20
17.0652392656
 30
0.0
  0
SPLINE
  5
343
100
AcDbEntity
  8
0
100
AcDbSpline
 62
7
  6
BYLAYER
 70
0
 71
3
 72
12
 73
8
 74
0
 42
0.0000001
 43
0.0000001
 44
0.0000000001
 40
0.0
 40
0.0
 40
0.0
 40
0.0
 40
0.1005462217
 40
0.2042687849
 40
0.4308084131
 40
0.6948961325
 40
1.0
 40
1.0
 40
1.0
 40
1.0
 10
33.8174934044
 20
20.0381380065
 30
0.0
 10
33.7863395714
 20
20.015722676
 30
0.0
 10
33.7179873254
 20
19.9768255456
 30
0.0
 10
33.5606042716
 20
19.9258788379
 30
0.0
 10
33.3292194957
 20
19.9197821571
 30
0.0
 10
33.0326928368
 20
19.99605872
 30
0.0
 10
32.8359429718
 20
20.0912685547
 30
0.0
 10
32.735083277
 20
20.1494986093
 30
0.0
  0
SPLINE
  5
344
100
AcDbEntity
  8
0
100
AcDbSpline
 62
7
  6
BYLAYER
 70
0
 71
3
 72
9
 73
5
 74
0
 42
0.0000001
 43
0.0000001
 44
0.0000000001
 40
0.0
 40
0.0
 40
0.0
 40
0.0
 40
0.2669273205
 40
1.0
 40
1.0
 40
1.0
 40
1.0
 10
20.9672758319
 20
18.5730508191
 30
0.0
 10
20.9660164639
 20
18.567848131
 30
0.0
 10
20.9619678698
 20
18.5482168266
 30
0.0
 10
20.9606539518
 20
18.5279044375
 30
0.0
 10
20.9619916801
 20
18.5132644438
 30
0.0
  0
SPLINE
  5
345
100
AcDbEntity
  8
0
100
AcDbSpline
 62
7
  6
BYLAYER
 70
0
 71
3
 72
11
 73
7
 74
0
 42
0.0000001
 43
0.0000001
 44
0.0000000001
 40
0.0
 40
0.0
 40
0.0
 40
0.0
 40
0.2098356471
 40
0.4608182779
 40
0.7334286445
 40
1.0
 40
1.0
 40
1.0
 40
1.0
 10
21.1187463103
 20
18.7496203782
 30
0.0
 10
21.1021272933
 20
18.7462607171
 30
0.0
 10
21.0676973161
 20
18.7293695119
 30
0.0
 10
21.0239907657
 20
18.6886138958
 30
0.0
 10
20.9883485361
 20
18.6350138954
 30
0.0
 10
20.972343376
 20
18.593985806
 30
0.0
 10
20.9672758319
 20
18.5730508191
 30
0.0
  0
SPLINE
  5
346
100
AcDbEntity
  8
0
100
AcDbSpline
 62
7
  6
BYLAYER
 70
0
 71
3
 72
11
 73
7
 74
0
 42
0.0000001
 43
0.0000001
 44
0.0000000001
 40
0.0
 40
0.0
 40
0.0
 40
0.0
 40
0.2835337094
 40
0.5410522453
 40
0.7767031306
 40
1.0
 40
1.0
 40
1.0
 40
1.0
 10
41.0636787816
 20
19.699624336
 30
0.0
 10
41.0675112585
 20
19.6576820079
 30
0.0
 10
41.0811318609
 20
19.5779759911
 30
0.0
 10
41.1227998801
 20
19.4694094418
 30
0.0
 10
41.1844291051
 20
19.3811789774
 30
0.0
 10
41.2385469702
 20
19.3378241311
 30
0.0
 10
41.2672731853
 20
19.3212408444
 30
0.0
  0
SPLINE
  5
347
100
AcDbEntity
  8
0
100
AcDbSpline
 62
7
  6
BYLAYER
 70
0
 71
3
 72
9
 73
5
 74
0
 42
0.0000001
 43
0.0000001
 44
0.0000000001
 40
0.0
 40
0.0
 40
0.0
 40
0.0
 40
0.2669273205
 40
1.0
 40
1.0
 40
1.0
 40
1.0
 10
40.9712245085
 20
20.8290523979
 30
0.0
 10
40.9699651405
 20
20.8238497099
 30
0.0
 10
40.9659165464
 20
20.8042184054
 30
0.0
 10
40.9646026284
 20
20.7839060164
 30
0.0
 10
40.9659403567
 20
20.7692660226
 30
0.0
  0
SPLINE
  5
348
100
AcDbEntity
  8
0
100
AcDbSpline
 62
7
  6
BYLAYER
 70
0
 71
3
 72
11
 73
7
 74
0
 42
0.0000001
 43
0.0000001
 44
0.0000000001
 40
0.0
 40
0.0
 40
0.0
 40
0.0
 40
0.2098356471
 40
0.4608182779
 40
0.7334286445
 40
1.0
 40
1.0
 40
1.0
 40
1.0
 10
41.122694987
 20
21.0056219571
 30
0.0
 10
41.1060759699
 20
21.002262296
 30
0.0
 10
41.0716459927
 20
20.9853710907
 30
0.0
 10
41.0279394424
 20
20.9446154746
 30
0.0
 10
40.9922972127
 20
20.8910154742
 30
0.0
 10
40.9762920526
 20
20.8499873848
 30
0.0
 10
40.9712245085
 20
20.8290523979
 30
0.0
  0
SPLINE
  5
349
100
AcDbEntity
  8
0
100
AcDbSpline
 62
7
  6
BYLAYER
 70
0
 71
3
 72
11
 73
7
 74
0
 42
0.0000001
 43
0.0000001
 44
0.0000000001
 40
0.0
 40
0.0
 40
0.0
 40
0.0
 40
0.282112289
 40
0.53918954
 40
0.775437943
 40
1.0
 40
1.0
 40
1.0
 40
1.0
 10
34.6530772389
 20
18.3862463189
 30
0.0
 10
34.6576137649
 20
18.3462022196
 30
0.0
 10
34.672279899
 20
18.2701163909
 30
0.0
 10
34.7142168127
 20
18.1666715505
 30
0.0
 10
34.7747296219
 20
18.0825236993
 30
0.0
 10
34.8271426415
 20
18.0409721208
 30
0.0
 10
34.8549252171
 20
18.0249347665
 30
0.0
  0
SPLINE
  5
34A
100
AcDbEntity
  8
0
100
AcDbSpline
 62
7
  6
BYLAYER
 70
0
 71
3
 72
8
 73
4
 74
0
 42
0.0000001
 43
0.0000001
 44
0.0000000001
 40
0.0
 40
0.0
 40
0.0
 40
0.0
 40
1.0
 40
1.0
 40
1.0
 40
1.0
 10
32.1492171106
 20
65.4735966794
 30
0.0
 10
32.1438763183
 20
65.4766800721
 30
0.0
 10
32.1379539129
 20
65.4788909281
 30
0.0
 10
32.1319181812
 20
65.4801563592
 30
0.0
  0
SPLINE
  5
34B
100
AcDbEntity
  8
0
100
AcDbSpline
 62
7
  6
BYLAYER
 70
0
 71
3
 72
11
 73
7
 74
0
 42
0.0000001
 43
0.0000001
 44
0.0000000001
 40
0.0
 40
0.0
 40
0.0
 40
0.0
 40
0.282112289
 40
0.53918954
 40
0.775437943
 40
1.0
 40
1.0
 40
1.0
 40
1.0
 10
14.6491285623
 20
16.1302447401
 30
0.0
 10
14.6536650882
 20
16.0902006408
 30
0.0
 10
14.6683312224
 20
16.014114812
 30
0.0
 10
14.7102681361
 20
15.9106699716
 30
0.0
 10
14.7707809452
 20
15.8265221204
 30
0.0
 10
14.8231939649
 20
15.784970542
 30
0.0
 10
14.8509765405
 20
15.7689331877
 30
0.0
  0
SPLINE
  5
34C
100
AcDbEntity
  8
0
100
AcDbSpline
 62
7
  6
BYLAYER
 70
0
 71
3
 72
11
 73
7
 74
0
 42
0.0000001
 43
0.0000001
 44
0.0000000001
 40
0.0
 40
0.0
 40
0.0
 40
0.0
 40
0.2177354089
 40
0.4508788885
 40
0.7104833147
 40
1.0
 40
1.0
 40
1.0
 40
1.0
 10
60.043112279
 20
34.7258547231
 30
0.0
 10
60.0678488589
 20
34.7115791601
 30
0.0
 10
60.1141732166
 20
34.6727195581
 30
0.0
 10
60.1634585195
 20
34.5921088873
 30
0.0
 10
60.1926637656
 20
34.492796354
 30
0.0
 10
60.1984688957
 20
34.4205297766
 30
0.0
 10
60.1984688957
 20
34.3825539595
 30
0.0
  0
SPLINE
  5
34D
100
AcDbEntity
  8
0
100
AcDbSpline
 62
7
  6
BYLAYER
 70
0
 71
3
 72
12
 73
8
 74
0
 42
0.0000001
 43
0.0000001
 44
0.0000000001
 40
0.0
 40
0.0
 40
0.0
 40
0.0
 40
0.1005462217
 40
0.2042687849
 40
0.4308084131
 40
0.6948961325
 40
1.0
 40
1.0
 40
1.0
 40
1.0
 10
12.2063943991
 20
31.9685178819
 30
0.0
 10
12.1752405661
 20
31.9461025515
 30
0.0
 10
12.1068883201
 20
31.907205421
 30
0.0
 10
11.9495052662
 20
31.8562587133
 30
0.0
 10
11.7181204903
 20
31.8501620325
 30
0.0
 10
11.4215938314
 20
31.9264385954
 30
0.0
 10
11.2248439664
 20
32.0216484301
 30
0.0
 10
11.1239842716
 20
32.0798784848
 30
0.0
  0
SPLINE
  5
34E
100
AcDbEntity
  8
0
100
AcDbSpline
 62
7
  6
BYLAYER
 70
0
 71
3
 72
11
 73
7
 74
0
 42
0.0000001
 43
0.0000001
 44
0.0000000001
 40
0.0
 40
0.0
 40
0.0
 40
0.0
 40
0.2671283889
 40
0.5313940638
 40
0.7792248683
 40
1.0
 40
1.0
 40
1.0
 40
1.0
 10
12.800758296
 20
36.3142369612
 30
0.0
 10
12.7434165559
 20
36.239756236
 30
0.0
 10
12.6417351426
 20
36.0816691795
 30
0.0
 10
12.5317290937
 20
35.829173331
 30
0.0
 10
12.4703968154
 20
35.5773516575
 30
0.0
 10
12.4648880406
 20
35.4106248481
 30
0.0
 10
12.4736330487
 20
35.3334323052
 30
0.0
  0
SPLINE
  5
34F
100
AcDbEntity
  8
0
100
AcDbSpline
 62
7
  6
BYLAYER
 70
0
 71
3
 72
12
 73
8
 74
0
 42
0.0000001
 43
0.0000001
 44
0.0000000001
 40
0.0
 40
0.0
 40
0.0
 40
0.0
 40
0.1005462217
 40
0.2042687849
 40
0.4308084131
 40
0.6948961325
 40
1.0
 40
1.0
 40
1.0
 40
1.0
 10
29.2890349715
 20
60.0110251604
 30
0.0
 10
29.2578811385
 20
59.98860983
 30
0.0
 10
29.1895288925
 20
59.9497126995
 30
0.0
 10
29.0321458386
 20
59.8987659918
 30
0.0
 10
28.8007610627
 20
59.892669311
 30
0.0
 10
28.5042344038
 20
59.9689458739
 30
0.0
 10
28.3074845388
 20
60.0641557086
 30
0.0
 10
28.206624844
 20
60.1223857633
 30
0.0
  0
SPLINE
  5
350
100
AcDbEntity
  8
0
100
AcDbSpline
 62
7
  6
BYLAYER
 70
0
 71
3
 72
9
 73
5
 74
0
 42
0.0000001
 43
0.0000001
 44
0.0000000001
 40
0.0
 40
0.0
 40
0.0
 40
0.0
 40
0.4696235898
 40
1.0
 40
1.0
 40
1.0
 40
1.0
 10
13.9150889558
 20
37.5575284237
 30
0.0
 10
13.8311398602
 20
37.5192491864
 30
0.0
 10
13.6660765629
 20
37.4075900214
 30
0.0
 10
13.531127344
 20
37.2629074466
 30
0.0
 10
13.4675612253
 20
37.1803419259
 30
0.0
  0
SPLINE
  5
351
100
AcDbEntity
  8
0
100
AcDbSpline
 62
7
  6
BYLAYER
 70
0
 71
3
 72
9
 73
5
 74
0
 42
0.0000001
 43
0.0000001
 44
0.0000000001
 40
0.0
 40
0.0
 40
0.0
 40
0.0
 40
0.4657514618
 40
1.0
 40
1.0
 40
1.0
 40
1.0
 10
14.2409293562
 20
37.6071246457
 30
0.0
 10
14.1902247449
 20
37.617828401
 30
0.0
 10
14.0761255887
 20
37.617848812
 30
0.0
 10
13.9691749754
 20
37.5821906499
 30
0.0
 10
13.9150889558
 20
37.5575284237
 30
0.0
  0
SPLINE
  5
352
100
AcDbEntity
  8
0
100
AcDbSpline
 62
7
  6
BYLAYER
 70
0
 71
3
 72
19
 73
15
 74
0
 42
0.0000001
 43
0.0000001
 44
0.0000000001
 40
0.0
 40
0.0
 40
0.0
 40
0.0
 40
0.0642860271
 40
0.1329458865
 40
0.2792141307
 40
0.4304920119
 40
0.5775162866
 40
0.7116975382
 40
0.7719316073
 40
0.8268559681
 40
0.8763971052
 40
0.9209602016
 40
0.9615858316
 40
1.0
 40
1.0
 40
1.0
 40
1.0
 10
28.206624844
 20
60.1223857633
 30
0.0
 10
28.13011163
 20
60.1665596886
 30
0.0
 10
27.9769346705
 20
60.2668429143
 30
0.0
 10
27.6763591328
 20
60.5060345122
 30
0.0
 10
27.3236018839
 20
60.8681253597
 30
0.0
 10
26.9628124668
 20
61.363649979
 30
0.0
 10
26.6840065218
 20
61.890864826
 30
0.0
 10
26.5322785119
 20
62.3380475177
 30
0.0
 10
26.4749752069
 20
62.6765963863
 30
0.0
 10
26.4651474852
 20
62.9034347197
 30
0.0
 10
26.4870995835
 20
63.1080140389
 30
0.0
 10
26.5412017378
 20
63.2865121532
 30
0.0
 10
26.6272716111
 20
63.4349771565
 30
0.0
 10
26.706503019
 20
63.5118009131
 30
0.0
 10
26.749356597
 20
63.5426342656
 30
0.0
  0
SPLINE
  5
353
100
AcDbEntity
  8
0
100
AcDbSpline
 62
7
  6
BYLAYER
 70
0
 71
3
 72
19
 73
15
 74
0
 42
0.0000001
 43
0.0000001
 44
0.0000000001
 40
0.0
 40
0.0
 40
0.0
 40
0.0
 40
0.0642860271
 40
0.1329458865
 40
0.2792141307
 40
0.4304920119
 40
0.5775162866
 40
0.7116975382
 40
0.7719316073
 40
0.8268559681
 40
0.8763971052
 40
0.9209602016
 40
0.9615858316
 40
1.0
 40
1.0
 40
1.0
 40
1.0
 10
12.6966648882
 20
18.1977625845
 30
0.0
 10
12.6201516742
 20
18.2419365098
 30
0.0
 10
12.4669747147
 20
18.3422197356
 30
0.0
 10
12.166399177
 20
18.5814113334
 30
0.0
 10
11.8136419281
 20
18.943502181
 30
0.0
 10
11.452852511
 20
19.4390268002
 30
0.0
 10
11.174046566
 20
19.9662416472
 30
0.0
 10
11.0223185561
 20
20.4134243389
 30
0.0
 10
10.9650152511
 20
20.7519732075
 30
0.0
 10
10.9551875294
 20
20.9788115409
 30
0.0
 10
10.9771396277
 20
21.1833908601
 30
0.0
 10
11.031241782
 20
21.3618889745
 30
0.0
 10
11.1173116552
 20
21.5103539777
 30
0.0
 10
11.1965430632
 20
21.5871777343
 30
0.0
 10
11.2393966412
 20
21.6180110868
 30
0.0
  0
SPLINE
  5
354
100
AcDbEntity
  8
0
100
AcDbSpline
 62
7
  6
BYLAYER
 70
0
 71
3
 72
11
 73
7
 74
0
 42
0.0000001
 43
0.0000001
 44
0.0000000001
 40
0.0
 40
0.0
 40
0.0
 40
0.0
 40
0.2179412085
 40
0.4510380073
 40
0.7105211071
 40
1.0
 40
1.0
 40
1.0
 40
1.0
 10
48.3718944676
 20
81.0141739886
 30
0.0
 10
48.3388795484
 20
81.0332207672
 30
0.0
 10
48.2631149205
 20
81.0608458817
 30
0.0
 10
48.1371654728
 20
81.0639674121
 30
0.0
 10
48.0030688036
 20
81.031475184
 30
0.0
 10
47.9157793101
 20
80.9900152761
 30
0.0
 10
47.8719356844
 20
80.9647022981
 30
0.0
  0
SPLINE
  5
355
100
AcDbEntity
  8
0
100
AcDbSpline
 62
7
  6
BYLAYER
 70
0
 71
3
 72
19
 73
15
 74
0
 42
0.0000001
 43
0.0000001
 44
0.0000000001
 40
0.0
 40
0.0
 40
0.0
 40
0.0
 40
0.0642860271
 40
0.1329458865
 40
0.2792141307
 40
0.4304920119
 40
0.5775162866
 40
0.7116975382
 40
0.7719316073
 40
0.8268559681
 40
0.8763971052
 40
0.9209602016
 40
0.9615858316
 40
1.0
 40
1.0
 40
1.0
 40
1.0
 10
32.735083277
 20
20.1494986093
 30
0.0
 10
32.658570063
 20
20.1936725347
 30
0.0
 10
32.5053931035
 20
20.2939557604
 30
0.0
 10
32.2048175657
 20
20.5331473583
 30
0.0
 10
31.8520603168
 20
20.8952382058
 30
0.0
 10
31.4912708997
 20
21.3907628251
 30
0.0
 10
31.2124649548
 20
21.917977672
 30
0.0
 10
31.0607369449
 20
22.3651603638
 30
0.0
 10
31.0034336398
 20
22.7037092324
 30
0.0
 10
30.9936059181
 20
22.9305475657
 30
0.0
 10
31.0155580165
 20
23.135126885
 30
0.0
 10
31.0696601707
 20
23.3136249993
 30
0.0
 10
31.155730044
 20
23.4620900026
 30
0.0
 10
31.2349614519
 20
23.5389137592
 30
0.0
 10
31.27781503
 20
23.5697471117
 30
0.0
  0
SPLINE
  5
356
100
AcDbEntity
  8
0
100
AcDbSpline
 62
7
  6
BYLAYER
 70
0
 71
3
 72
9
 73
5
 74
0
 42
0.0000001
 43
0.0000001
 44
0.0000000001
 40
0.0
 40
0.0
 40
0.0
 40
0.0
 40
0.2438190967
 40
1.0
 40
1.0
 40
1.0
 40
1.0
 10
12.3211161477
 20
28.755269594
 30
0.0
 10
12.3169668945
 20
28.7529576665
 30
0.0
 10
12.3000968532
 20
28.7432116587
 30
0.0
 10
12.2838185506
 20
28.7324507639
 30
0.0
 10
12.2718586757
 20
28.7238500851
 30
0.0
  0
SPLINE
  5
357
100
AcDbEntity
  8
0
100
AcDbSpline
 62
7
  6
BYLAYER
 70
0
 71
3
 72
11
 73
7
 74
0
 42
0.0000001
 43
0.0000001
 44
0.0000000001
 40
0.0
 40
0.0
 40
0.0
 40
0.0
 40
0.2486214215
 40
0.515407739
 40
0.7738010253
 40
1.0
 40
1.0
 40
1.0
 40
1.0
 10
12.2718586757
 20
28.7238500851
 30
0.0
 10
12.2227527071
 20
28.6885366167
 30
0.0
 10
12.1323219714
 20
28.5992251297
 30
0.0
 10
12.0309543828
 20
28.4389277888
 30
0.0
 10
11.9685295802
 20
28.2656514856
 30
0.0
 10
11.9578345868
 20
28.1458445308
 30
0.0
 10
11.9640292197
 20
28.0911642539
 30
0.0
  0
SPLINE
  5
358
100
AcDbEntity
  8
0
100
AcDbSpline
 62
7
  6
BYLAYER
 70
0
 71
3
 72
9
 73
5
 74
0
 42
0.0000001
 43
0.0000001
 44
0.0000000001
 40
0.0
 40
0.0
 40
0.0
 40
0.0
 40
0.2734081983
 40
1.0
 40
1.0
 40
1.0
 40
1.0
 10
18.3346424616
 20
41.7049830785
 30
0.0
 10
18.3352219995
 20
41.700717359
 30
0.0
 10
18.3381053493
 20
41.6852641844
 30
0.0
 10
18.3445806935
 20
41.6702217793
 30
0.0
 10
18.3516562186
 20
41.6612317499
 30
0.0
  0
SPLINE
  5
359
100
AcDbEntity
  8
0
100
AcDbSpline
 62
7
  6
BYLAYER
 70
0
 71
3
 72
11
 73
7
 74
0
 42
0.0000001
 43
0.0000001
 44
0.0000000001
 40
0.0
 40
0.0
 40
0.0
 40
0.0
 40
0.2671283889
 40
0.5313940638
 40
0.7792248683
 40
1.0
 40
1.0
 40
1.0
 40
1.0
 10
29.8833988684
 20
64.3567442397
 30
0.0
 10
29.8260571283
 20
64.2822635145
 30
0.0
 10
29.724375715
 20
64.124176458
 30
0.0
 10
29.6143696661
 20
63.8716806095
 30
0.0
 10
29.5530373878
 20
63.6198589361
 30
0.0
 10
29.547528613
 20
63.4531321266
 30
0.0
 10
29.5562736211
 20
63.3759395837
 30
0.0
  0
SPLINE
  5
35A
100
AcDbEntity
  8
0
100
AcDbSpline
 62
7
  6
BYLAYER
 70
0
 71
3
 72
9
 73
5
 74
0
 42
0.0000001
 43
0.0000001
 44
0.0000000001
 40
0.0
 40
0.0
 40
0.0
 40
0.0
 40
0.4696235898
 40
1.0
 40
1.0
 40
1.0
 40
1.0
 10
30.9977295282
 20
65.6000357022
 30
0.0
 10
30.9137804326
 20
65.5617564649
 30
0.0
 10
30.7487171353
 20
65.4500973
 30
0.0
 10
30.6137679164
 20
65.3054147251
 30
0.0
 10
30.5502017977
 20
65.2228492044
 30
0.0
  0
SPLINE
  5
35B
100
AcDbEntity
  8
0
100
AcDbSpline
 62
7
  6
BYLAYER
 70
0
 71
3
 72
9
 73
5
 74
0
 42
0.0000001
 43
0.0000001
 44
0.0000000001
 40
0.0
 40
0.0
 40
0.0
 40
0.0
 40
0.4657514618
 40
1.0
 40
1.0
 40
1.0
 40
1.0
 10
31.3235699285
 20
65.6496319242
 30
0.0
 10
31.2728653173
 20
65.6603356795
 30
0.0
 10
31.1587661611
 20
65.6603560905
 30
0.0
 10
31.0518155478
 20
65.6246979284
 30
0.0
 10
30.9977295282
 20
65.6000357022
 30
0.0
  0
SPLINE
  5
35C
100
AcDbEntity
  8
0
100
AcDbSpline
 62
7
  6
BYLAYER
 70
0
 71
3
 72
11
 73
7
 74
0
 42
0.0000001
 43
0.0000001
 44
0.0000000001
 40
0.0
 40
0.0
 40
0.0
 40
0.0
 40
0.2681070361
 40
0.5329993046
 40
0.7805781296
 40
1.0
 40
1.0
 40
1.0
 40
1.0
 10
18.5185877134
 20
43.7410796286
 30
0.0
 10
18.4601183117
 20
43.6651341928
 30
0.0
 10
18.356743427
 20
43.5038427443
 30
0.0
 10
18.2459807236
 20
43.2462993255
 30
0.0
 10
18.1859714266
 20
42.990209109
 30
0.0
 10
18.1829967191
 20
42.8211795565
 30
0.0
 10
18.1935566717
 20
42.7434524688
 30
0.0
  0
SPLINE
  5
35D
100
AcDbEntity
  8
0
100
AcDbSpline
 62
7
  6
BYLAYER
 70
0
 71
3
 72
9
 73
5
 74
0
 42
0.0000001
 43
0.0000001
 44
0.0000000001
 40
0.0
 40
0.0
 40
0.0
 40
0.0
 40
0.237419858
 40
1.0
 40
1.0
 40
1.0
 40
1.0
 10
19.2225698274
 20
44.6103728117
 30
0.0
 10
19.2095245309
 20
44.600991576
 30
0.0
 10
19.1562902629
 20
44.5591138741
 30
0.0
 10
19.1097871737
 20
44.5089838552
 30
0.0
 10
19.078302995
 20
44.4680893086
 30
0.0
  0
SPLINE
  5
35E
100
AcDbEntity
  8
0
100
AcDbSpline
 62
7
  6
BYLAYER
 70
0
 71
3
 72
9
 73
5
 74
0
 42
0.0000001
 43
0.0000001
 44
0.0000000001
 40
0.0
 40
0.0
 40
0.0
 40
0.0
 40
0.2734081983
 40
1.0
 40
1.0
 40
1.0
 40
1.0
 10
35.417283034
 20
69.747490357
 30
0.0
 10
35.4178625719
 20
69.7432246376
 30
0.0
 10
35.4207459217
 20
69.7277714629
 30
0.0
 10
35.4272212658
 20
69.7127290578
 30
0.0
 10
35.434296791
 20
69.7037390284
 30
0.0
  0
SPLINE
  5
35F
100
AcDbEntity
  8
0
100
AcDbSpline
 62
7
  6
BYLAYER
 70
0
 71
3
 72
11
 73
7
 74
0
 42
0.0000001
 43
0.0000001
 44
0.0000000001
 40
0.0
 40
0.0
 40
0.0
 40
0.0
 40
0.2681070361
 40
0.5329993046
 40
0.7805781296
 40
1.0
 40
1.0
 40
1.0
 40
1.0
 10
35.6012282858
 20
71.7835869071
 30
0.0
 10
35.5427588842
 20
71.7076414714
 30
0.0
 10
35.4393839994
 20
71.5463500228
 30
0.0
 10
35.328621296
 20
71.288806604
 30
0.0
 10
35.268611999
 20
71.0327163875
 30
0.0
 10
35.2656372915
 20
70.863686835
 30
0.0
 10
35.2761972441
 20
70.7859597473
 30
0.0
  0
SPLINE
  5
360
100
AcDbEntity
  8
0
100
AcDbSpline
 62
7
  6
BYLAYER
 70
0
 71
3
 72
9
 73
5
 74
0
 42
0.0000001
 43
0.0000001
 44
0.0000000001
 40
0.0
 40
0.0
 40
0.0
 40
0.0
 40
0.237419858
 40
1.0
 40
1.0
 40
1.0
 40
1.0
 10
36.3052103998
 20
72.6528800902
 30
0.0
 10
36.2921651033
 20
72.6434988545
 30
0.0
 10
36.2389308353
 20
72.6016211526
 30
0.0
 10
36.1924277461
 20
72.5514911337
 30
0.0
 10
36.1609435674
 20
72.5105965871
 30
0.0
  0
SPLINE
  5
361
100
AcDbEntity
  8
0
100
AcDbSpline
 62
7
  6
BYLAYER
 70
0
 71
3
 72
9
 73
5
 74
0
 42
0.0000001
 43
0.0000001
 44
0.0000000001
 40
0.0
 40
0.0
 40
0.0
 40
0.0
 40
0.2446435573
 40
1.0
 40
1.0
 40
1.0
 40
1.0
 10
47.8719356844
 20
80.9647022981
 30
0.0
 10
47.8646821747
 20
80.9605145072
 30
0.0
 10
47.8352617762
 20
80.9430018341
 30
0.0
 10
47.8067566785
 20
80.9239620519
 30
0.0
 10
47.7857614041
 20
80.9088637659
 30
0.0
  0
SPLINE
  5
362
100
AcDbEntity
  8
0
100
AcDbSpline
 62
7
  6
BYLAYER
 70
0
 71
3
 72
19
 73
15
 74
0
 42
0.0000001
 43
0.0000001
 44
0.0000000001
 40
0.0
 40
0.0
 40
0.0
 40
0.0
 40
0.0642860271
 40
0.1329458865
 40
0.2792141307
 40
0.4304920119
 40
0.5775162866
 40
0.7116975382
 40
0.7719316073
 40
0.8268559681
 40
0.8763971052
 40
0.9209602016
 40
0.9615858316
 40
1.0
 40
1.0
 40
1.0
 40
1.0
 10
11.1239842716
 20
32.0798784848
 30
0.0
 10
11.0474710576
 20
32.1240524101
 30
0.0
 10
10.8942940981
 20
32.2243356358
 30
0.0
 10
10.5937185604
 20
32.4635272337
 30
0.0
 10
10.2409613115
 20
32.8256180812
 30
0.0
 10
9.8801718944
 20
33.3211427005
 30
0.0
 10
9.6013659494
 20
33.8483575475
 30
0.0
 10
9.4496379395
 20
34.2955402392
 30
0.0
 10
9.3923346345
 20
34.6340891078
 30
0.0
 10
9.3825069128
 20
34.8609274412
 30
0.0
 10
9.4044590111
 20
35.0655067604
 30
0.0
 10
9.4585611654
 20
35.2440048747
 30
0.0
 10
9.5446310387
 20
35.392469878
 30
0.0
 10
9.6238624466
 20
35.4692936346
 30
0.0
 10
9.6667160246
 20
35.5001269871
 30
0.0
  0
SPLINE
  5
363
100
AcDbEntity
  8
0
100
AcDbSpline
 62
7
  6
BYLAYER
 70
0
 71
3
 72
9
 73
5
 74
0
 42
0.0000001
 43
0.0000001
 44
0.0000000001
 40
0.0
 40
0.0
 40
0.0
 40
0.0
 40
0.517747626
 40
1.0
 40
1.0
 40
1.0
 40
1.0
 10
54.9040050779
 20
70.5266356714
 30
0.0
 10
54.912401082
 20
70.5074871599
 30
0.0
 10
54.9334329434
 20
70.4722424914
 30
0.0
 10
54.9649513402
 20
70.4455505548
 30
0.0
 10
54.9818183687
 20
70.4358152675
 30
0.0
  0
SPLINE
  5
364
100
AcDbEntity
  8
0
100
AcDbSpline
 62
7
  6
BYLAYER
 70
0
 71
3
 72
12
 73
8
 74
0
 42
0.0000001
 43
0.0000001
 44
0.0000000001
 40
0.0
 40
0.0
 40
0.0
 40
0.0
 40
0.1005462217
 40
0.2042687849
 40
0.4308084131
 40
0.6948961325
 40
1.0
 40
1.0
 40
1.0
 40
1.0
 10
13.7790750156
 20
18.0864019817
 30
0.0
 10
13.7479211826
 20
18.0639866512
 30
0.0
 10
13.6795689366
 20
18.0250895207
 30
0.0
 10
13.5221858828
 20
17.974142813
 30
0.0
 10
13.2908011069
 20
17.9680461322
 30
0.0
 10
12.994274448
 20
18.0443226952
 30
0.0
 10
12.797524583
 20
18.1395325299
 30
0.0
 10
12.6966648882
 20
18.1977625845
 30
0.0
  0
SPLINE
  5
365
100
AcDbEntity
  8
0
100
AcDbSpline
 62
7
  6
BYLAYER
 70
0
 71
3
 72
8
 73
4
 74
0
 42
0.0000001
 43
0.0000001
 44
0.0000000001
 40
0.0
 40
0.0
 40
0.0
 40
0.0
 40
1.0
 40
1.0
 40
1.0
 40
1.0
 10
15.0665765382
 20
37.4310894009
 30
0.0
 10
15.061235746
 20
37.4341727936
 30
0.0
 10
15.0553133406
 20
37.4363836496
 30
0.0
 10
15.0492776089
 20
37.4376490807
 30
0.0
  0
SPLINE
  5
366
100
AcDbEntity
  8
0
100
AcDbSpline
 62
7
  6
BYLAYER
 70
0
 71
3
 72
10
 73
6
 74
0
 42
0.0000001
 43
0.0000001
 44
0.0000000001
 40
0.0
 40
0.0
 40
0.0
 40
0.0
 40
0.2748740513
 40
0.5336071825
 40
1.0
 40
1.0
 40
1.0
 40
1.0
 10
57.0123992332
 20
44.4585291297
 30
0.0
 10
56.7825712148
 20
44.2932534067
 30
0.0
 10
56.3211022097
 20
43.9923798871
 30
0.0
 10
55.404146428
 20
43.5226152608
 30
0.0
 10
54.6792727716
 20
43.2970712101
 30
0.0
 10
54.2033537209
 20
43.2321671426
 30
0.0
  0
ENDSEC
  0
SECTION
  2
OBJECTS
  0
DICTIONARY
  5
C
100
AcDbDictionary
280
0
281
1
  3
ACAD_GROUP
350
D
  3
ACAD_MLINESTYLE
350
17
  3
ACAD_LAYOUT
350
1A
  3
ACAD_PLOTSETTINGS
350
19
  3
ACAD_PLOTSTYLENAME
350
E
  0
DICTIONARY
  5
D
102
{ACAD_REACTORS
330
C
102
}
100
AcDbDictionary
280
0
281
1
  0
ACDBDICTIONARYWDFLT
  5
E
102
{ACAD_REACTORS
330
C
102
}
100
AcDbDictionary
281
1
  3
Normal
350
F
100
AcDbDictionaryWithDefault
340
F
  0
DICTIONARY
  5
17
102
{ACAD_REACTORS
330
C
102
}
100
AcDbDictionary
280
0
281
1
  3
Standard
350
18
  0
DICTIONARY
  5
19
102
{ACAD_REACTORS
330
C
102
}
100
AcDbDictionary
281
1
  0
DICTIONARY
  5
1A
102
{ACAD_REACTORS
330
C
102
}
100
AcDbDictionary
281
1
  3
Model
350
367
  3
Layout1
350
368
  0
ACDBPLACEHOLDER
  5
F
102
{ACAD_REACTORS
330
E
102
}
  0
MLINESTYLE
  5
18
102
{ACAD_REACTORS
330
17
102
}
100
AcDbMlineStyle
  2
STANDARD
 70
0
  3

 62
256
 51
90.0
 52
90.0
 71
2
 49
0.5
 62
256
  6
BYLAYER
 49
-0.5
 62
256
  6
BYLAYER
  0
LAYOUT
  5
367
102
{ACAD_REACTORS
330
1A
102
}
100
AcDbPlotSettings
  1

  2
none_device
  4

  6

 40
0.0
 41
0.0
 42
0.0
 43
0.0
 44
210.0
 45
297.0
 46
0.0
 47
0.0
 48
0.0
 49
0.0
140
0.0
141
0.0
142
1.0
143
1.0
 70
1024
 72
1
 73
0
 74
0
  7

 75
0
147
1.0
148
0.0
149
0.0
100
AcDbLayout
  1
Model
 70
0
 71
0
 10
0.0
 20
0.0
 11
210.0
 21
297.0
 12
0.0
 22
0.0
 32
0.0
 14
0.0
 24
0.0
 34
0.0
 15
0.0
 25
0.0
 35
0.0
146
0.0
 13
0.0
 23
0.0
 33
0.0
 16
1.0
 26
0.0
 36
0.0
 17
0.0
 27
1.0
 37
0.0
 76
0
330
210
345
0
346
0
  0
LAYOUT
  5
368
102
{ACAD_REACTORS
330
1A
102
}
100
AcDbPlotSettings
  1

  2
none_device
  4

  6

 40
0.0
 41
0.0
 42
0.0
 43
0.0
 44
210.0
 45
297.0
 46
0.0
 47
0.0
 48
0.0
 49
0.0
140
0.0
141
0.0
142
1.0
143
1.0
 70
0
 72
1
 73
0
 74
0
  7

 75
0
147
1.0
148
0.0
149
0.0
100
AcDbLayout
  1
Layout1
 70
0
 71
1
 10
0.0
 20
0.0
 11
210.0
 21
297.0
 12
0.0
 22
0.0
 32
0.0
 14
0.0
 24
0.0
 34
0.0
 15
0.0
 25
0.0
 35
0.0
146
0.0
 13
0.0
 23
0.0
 33
0.0
 16
1.0
 26
0.0
 36
0.0
 17
0.0
 27
1.0
 37
0.0
 76
0
330
211
345
0
346
0
  0
ENDSEC
  0
EOF
