999
DXF file: C:\Users\sesa63760\OneDrive - Schneider Electric\Documents\7-Dev\_Creo\CAD\MCADUE0000023_3D-CAD\drw0001_1.dxf
999
Pro/ENGINEER 2019471 by Parametric Technology Corporation
  0
SECTION
  2
HEADER
  9
$ACADVER
  1
AC1024
  9
$DWGCODEPAGE
  3
ANSI_1252
  9
$EXTMAX
 10
1699.898699281
 20
2404.1424461259
 30
0.0
  9
$EXTMIN
 10
-0.0
 20
0.0
 30
0.0
  9
$LIMMIN
 10
-0.0
 20
0.0
  9
$LIMMAX
 10
1699.898699281
 20
2404.1424461259
  9
$VIEWCTR
 10
849.9493496405
 20
1202.071223063
  9
$VIEWSIZE
 40
2404.1424461259
  9
$CLAYER
  8
0
  9
$LTSCALE
 40
156.7144705623
  9
$CELTYPE
  6
BYLAYER
  9
$DIMSCALE
 40
1.0
  9
$DIMASZ
 40
20.2368892772
  9
$DIMEXO
 40
1.0
  9
$DIMDLI
 40
108.2754523885
  9
$DIMEXE
 40
1.0
  9
$DIMCEN
 40
25.644186092
  9
$DIMLFAC
 40
1.0
  9
$DIMBLK
  1
_FILLED
  9
$DIMALT
 70
0
  9
$DIMALTF
 40
0.0393700787
  9
$DIMTXT
 40
28.331644988
  9
$DIMTOL
 70
1
  9
$DIMLIM
 70
0
  9
$DIMTFAC
 40
1.0
  9
$DIMTP
 40
0.01
  9
$DIMTM
 40
0.01
  9
$DIMGAP
 40
0.625
  9
$DIMDSEP
 70
46
  9
$AUNITS
 70
0
  9
$PDMODE
 70
3
  9
$PDSIZE
 40
0.3125
  9
$HANDSEED
  5
3BB
  9
$TILEMODE
 70
1
  9
$MEASUREMENT
 70
1
  9
$INSUNITS
 70
4
  0
ENDSEC
  0
SECTION
  2
CLASSES
  0
CLASS
  1
ACDBDICTIONARYWDFLT
  2
AcDbDictionaryWithDefault
  3
AutoCAD 2000
 90
0
 91
1
280
0
281
0
  0
CLASS
  1
ACDBPLACEHOLDER
  2
AcDbPlaceHolder
  3
AutoCAD 2000
 90
0
 91
1
280
0
281
0
  0
CLASS
  1
LAYOUT
  2
AcDbLayout
  3
AutoCAD 2000
 90
0
 91
0
280
0
281
0
  0
ENDSEC
  0
SECTION
  2
TABLES
  0
TABLE
  2
VPORT
  5
8
100
AcDbSymbolTable
 70
2
  0
VPORT
  5
1F4
100
AcDbSymbolTableRecord
100
AcDbViewportTableRecord
  2
*ACTIVE
 70
0
 10
0.0
 20
0.0
 11
1.0
 21
1.0
 12
849.9493496405
 22
1202.071223063
 13
0.0
 23
0.0
 14
1.0
 24
1.0
 15
0.0
 25
0.0
 16
0.0
 26
0.0
 36
1.0
 17
0.0
 27
0.0
 37
0.0
 40
2404.1424461259
 41
0.7070707071
 42
50.0
 43
0.0
 44
0.0
 50
0.0
 51
0.0
 71
0
 72
100
 73
1
 74
1
 75
0
 76
0
 77
0
 78
0
  0
ENDTAB
  0
TABLE
  2
LTYPE
  5
5
100
AcDbSymbolTable
 70
6
  0
LTYPE
  5
14
100
AcDbSymbolTableRecord
100
AcDbLinetypeTableRecord
  2
BYBLOCK
 70
0
  3

 72
65
 73
0
 40
0.0
  0
LTYPE
  5
15
100
AcDbSymbolTableRecord
100
AcDbLinetypeTableRecord
  2
BYLAYER
 70
0
  3

 72
65
 73
0
 40
0.0
  0
LTYPE
  5
16
100
AcDbSymbolTableRecord
100
AcDbLinetypeTableRecord
  2
CONTINUOUS
 70
64
  3
Solid line
 72
65
 73
0
 40
0.0
  0
LTYPE
  5
1F5
100
AcDbSymbolTableRecord
100
AcDbLinetypeTableRecord
  2
CENTER
 70
64
  3
____ _ ____ _ ____ _ ____ _ ____ _ ____ _ ____
 72
65
 73
4
 40
0.6
 49
0.375
 74
0
 49
-0.075
 74
0
 49
0.075
 74
0
 49
-0.075
 74
0
  0
LTYPE
  5
1F6
100
AcDbSymbolTableRecord
100
AcDbLinetypeTableRecord
  2
HIDDEN
 70
64
  3
- - - - - - - - - - - - - - - - - - - -
 72
65
 73
2
 40
0.2
 49
0.1
 74
0
 49
-0.1
 74
0
  0
LTYPE
  5
1F7
100
AcDbSymbolTableRecord
100
AcDbLinetypeTableRecord
  2
PHANTOM
 70
64
  3
_____ _ _ _____ _ _ _____ _ _ _____
 72
65
 73
6
 40
0.8
 49
0.45
 74
0
 49
-0.05
 74
0
 49
0.1
 74
0
 49
-0.05
 74
0
 49
0.1
 74
0
 49
-0.05
 74
0
  0
LTYPE
  5
1F8
100
AcDbSymbolTableRecord
100
AcDbLinetypeTableRecord
  2
DOT
 70
64
  3
. . . . . . . . . . . . . . . . . . . .
 72
65
 73
2
 40
0.2
 49
0.1
 74
0
 49
-0.1
 74
0
  0
LTYPE
  5
1F9
100
AcDbSymbolTableRecord
100
AcDbLinetypeTableRecord
  2
DASHED
 70
64
  3
- - - - - - - - - - - - - - - - - - - -
 72
65
 73
2
 40
0.2
 49
0.1
 74
0
 49
-0.1
 74
0
  0
ENDTAB
  0
TABLE
  2
LAYER
  5
2
100
AcDbSymbolTable
 70
36
  0
LAYER
  5
10
100
AcDbSymbolTableRecord
100
AcDbLayerTableRecord
  2
0
 70
0
 62
7
  6
CONTINUOUS
370
-3
390
F
  0
LAYER
  5
1FA
100
AcDbSymbolTableRecord
100
AcDbLayerTableRecord
  2
DEFAULT_1
 70
0
 62
7
  6
CENTER
370
-3
390
F
  0
LAYER
  5
1FB
100
AcDbSymbolTableRecord
100
AcDbLayerTableRecord
  2
DEFAULT_2
 70
0
 62
8
  6
HIDDEN
370
-3
390
F
  0
LAYER
  5
1FC
100
AcDbSymbolTableRecord
100
AcDbLayerTableRecord
  2
DEFAULT_3
 70
0
 62
7
  6
PHANTOM
370
-3
390
F
  0
LAYER
  5
1FD
100
AcDbSymbolTableRecord
100
AcDbLayerTableRecord
  2
00_COMPONENTS
 70
0
 62
7
  6
CONTINUOUS
370
-3
390
F
  0
LAYER
  5
1FE
100
AcDbSymbolTableRecord
100
AcDbLayerTableRecord
  2
01_1_DEFAULT_DATUMS
 70
0
 62
7
  6
CONTINUOUS
370
-3
390
F
  0
LAYER
  5
1FF
100
AcDbSymbolTableRecord
100
AcDbLayerTableRecord
  2
01_PLANES
 70
0
 62
7
  6
CONTINUOUS
370
-3
390
F
  0
LAYER
  5
200
100
AcDbSymbolTableRecord
100
AcDbLayerTableRecord
  2
02_COORD_SYS
 70
0
 62
7
  6
CONTINUOUS
370
-3
390
F
  0
LAYER
  5
201
100
AcDbSymbolTableRecord
100
AcDbLayerTableRecord
  2
03_AXES
 70
0
 62
7
  6
CONTINUOUS
370
-3
390
F
  0
LAYER
  5
202
100
AcDbSymbolTableRecord
100
AcDbLayerTableRecord
  2
04_POINTS
 70
0
 62
7
  6
CONTINUOUS
370
-3
390
F
  0
LAYER
  5
203
100
AcDbSymbolTableRecord
100
AcDbLayerTableRecord
  2
05_CURVES
 70
0
 62
7
  6
CONTINUOUS
370
-3
390
F
  0
LAYER
  5
204
100
AcDbSymbolTableRecord
100
AcDbLayerTableRecord
  2
06_SURFS
 70
0
 62
7
  6
CONTINUOUS
370
-3
390
F
  0
LAYER
  5
205
100
AcDbSymbolTableRecord
100
AcDbLayerTableRecord
  2
07_COSMETICS
 70
0
 62
7
  6
CONTINUOUS
370
-3
390
F
  0
LAYER
  5
206
100
AcDbSymbolTableRecord
100
AcDbLayerTableRecord
  2
10_NOTES
 70
0
 62
7
  6
CONTINUOUS
370
-3
390
F
  0
LAYER
  5
207
100
AcDbSymbolTableRecord
100
AcDbLayerTableRecord
  2
11_NOTES_PUB
 70
0
 62
7
  6
CONTINUOUS
370
-3
390
F
  0
LAYER
  5
208
100
AcDbSymbolTableRecord
100
AcDbLayerTableRecord
  2
13_REF_GTOL
 70
0
 62
7
  6
CONTINUOUS
370
-3
390
F
  0
LAYER
  5
209
100
AcDbSymbolTableRecord
100
AcDbLayerTableRecord
  2
16_MISC
 70
0
 62
7
  6
CONTINUOUS
370
-3
390
F
  0
LAYER
  5
20A
100
AcDbSymbolTableRecord
100
AcDbLayerTableRecord
  2
17_NO_PRINT
 70
0
 62
7
  6
CONTINUOUS
370
-3
390
F
  0
LAYER
  5
20B
100
AcDbSymbolTableRecord
100
AcDbLayerTableRecord
  2
18_DATUM_CAMS_JOINTS
 70
0
 62
7
  6
CONTINUOUS
370
-3
390
F
  0
LAYER
  5
20C
100
AcDbSymbolTableRecord
100
AcDbLayerTableRecord
  2
19_DATUM_FUNCTIONAL
 70
0
 62
7
  6
CONTINUOUS
370
-3
390
F
  0
LAYER
  5
20D
100
AcDbSymbolTableRecord
100
AcDbLayerTableRecord
  2
20_DATUM_KINEMATIC_SCHEME
 70
0
 62
7
  6
CONTINUOUS
370
-3
390
F
  0
ENDTAB
  0
TABLE
  2
STYLE
  5
3
100
AcDbSymbolTable
 70
1
  0
STYLE
  5
11
100
AcDbSymbolTableRecord
100
AcDbTextStyleTableRecord
  2
STANDARD
 70
0
 40
0.0
 41
0.8
 50
0.0
 71
0
 42
0.2
  3
txt
  4

  0
STYLE
  5
20E
100
AcDbSymbolTableRecord
100
AcDbTextStyleTableRecord
  2
TEXTSTYLE_1
 70
0
 40
0.0
 41
0.8
 50
0.0
 71
0
 42
0.2
  3
gdt
  4

  0
ENDTAB
  0
TABLE
  2
VIEW
  5
6
100
AcDbSymbolTable
 70
0
  0
ENDTAB
  0
TABLE
  2
UCS
  5
7
100
AcDbSymbolTable
 70
0
  0
ENDTAB
  0
TABLE
  2
APPID
  5
9
100
AcDbSymbolTable
 70
1
  0
APPID
  5
20F
100
AcDbSymbolTableRecord
100
AcDbRegAppTableRecord
  2
ACAD
 70
0
  0
ENDTAB
  0
TABLE
  2
BLOCK_RECORD
  5
1
100
AcDbSymbolTable
 70
0
  0
BLOCK_RECORD
  5
210
100
AcDbSymbolTableRecord
100
AcDbBlockTableRecord
  2
*Model_Space
  0
BLOCK_RECORD
  5
211
100
AcDbSymbolTableRecord
100
AcDbBlockTableRecord
  2
*Paper_Space
  0
BLOCK_RECORD
  5
212
100
AcDbSymbolTableRecord
100
AcDbBlockTableRecord
  2
_FILLED
  0
ENDTAB
  0
TABLE
  2
DIMSTYLE
  5
A
100
AcDbSymbolTable
 70
1
100
AcDbDimStyleTable
 71
0
  0
DIMSTYLE
105
213
100
AcDbSymbolTableRecord
100
AcDbDimStyleTableRecord
  2
STANDARD
 70
0
  3

  4

 40
1.0
 41
20.2368892772
 42
1.0
 43
0.38
 44
1.0
 45
0.0
 46
0.0
 47
0.01
 48
0.01
140
28.331644988
141
0.09
142
0.0
143
25.4
144
1.0
145
0.0
146
1.0
147
0.625
 71
1
 72
0
 73
0
 74
0
 75
0
 76
0
 77
1
 78
8
 79
2
170
0
171
1
172
0
173
0
174
0
175
0
176
0
177
0
178
0
270
2
179
2
271
2
272
2
273
2
274
2
275
0
280
0
281
0
282
0
283
1
284
8
285
0
286
0
287
3
288
0
340
11
278
46
341
212
342
212
343
212
344
212
  0
ENDTAB
  0
ENDSEC
  0
SECTION
  2
BLOCKS
  0
BLOCK
  5
20
100
AcDbEntity
  8
0
100
AcDbBlockBegin
  2
*Model_Space
 70
0
 10
0.0
 20
0.0
 30
0.0
  3
*Model_Space
  1

  0
ENDBLK
  5
21
100
AcDbEntity
  8
0
100
AcDbBlockEnd
  0
BLOCK
  5
1C
100
AcDbEntity
  8
0
100
AcDbBlockBegin
  2
*Paper_Space
 70
0
 10
0.0
 20
0.0
 30
0.0
  3
*Paper_Space
  1

  0
ENDBLK
  5
1D
100
AcDbEntity
  8
0
100
AcDbBlockEnd
  0
BLOCK
  5
214
100
AcDbEntity
  8
0
100
AcDbBlockBegin
  2
_FILLED
 70
64
 10
0.0
 20
0.0
  3
_FILLED
  1

  0
SOLID
  5
215
100
AcDbEntity
  8
0
  6
BYBLOCK
 62
0
100
AcDbTrace
 10
0.0
 20
0.0
 11
-1.0
 21
0.25
 12
-1.0
 22
-0.25
 13
-1.0
 23
-0.25
  0
ENDBLK
  5
216
100
AcDbEntity
  8
0
  6
BYBLOCK
 62
0
100
AcDbBlockEnd
  0
ENDSEC
  0
SECTION
  2
ENTITIES
  0
LINE
  5
217
100
AcDbEntity
  8
0
100
AcDbLine
 62
7
  6
CONTINUOUS
 10
1089.3144102968
 20
222.9456865893
 11
1096.1216228108
 21
223.9288987099
  0
LINE
  5
218
100
AcDbEntity
  8
0
100
AcDbLine
 62
7
  6
CONTINUOUS
 10
692.0149099178
 20
2181.1898661859
 11
689.3430939457
 21
2179.647301723
  0
LINE
  5
219
100
AcDbEntity
  8
0
100
AcDbLine
 62
7
  6
CONTINUOUS
 10
699.5760464042
 20
2173.7394375203
 11
698.5861009794
 21
2173.1678956744
  0
LINE
  5
21A
100
AcDbEntity
  8
0
100
AcDbLine
 62
7
  6
CONTINUOUS
 10
1046.7637304953
 20
245.2954387795
 11
1052.3478796389
 21
245.2536004587
  0
LINE
  5
21B
100
AcDbEntity
  8
0
100
AcDbLine
 62
7
  6
CONTINUOUS
 10
1046.5632307378
 20
244.8020387188
 11
1052.8456396578
 21
243.9280474072
  0
LINE
  5
21C
100
AcDbEntity
  8
0
100
AcDbLine
 62
7
  6
CONTINUOUS
 10
1052.3478796389
 20
245.2536004587
 11
1052.9772482716
 21
245.1659610392
  0
LINE
  5
21D
100
AcDbEntity
  8
0
100
AcDbLine
 62
7
  6
CONTINUOUS
 10
691.4343131125
 20
2182.1957780113
 11
689.223221779
 21
2180.1554671043
  0
LINE
  5
21E
100
AcDbEntity
  8
0
100
AcDbLine
 62
7
  6
CONTINUOUS
 10
691.4343131125
 20
2218.499140889
 11
695.6933859445
 21
2223.9050134541
  0
LINE
  5
21F
100
AcDbEntity
  8
0
100
AcDbLine
 62
7
  6
CONTINUOUS
 10
692.3844814401
 20
2181.553041597
 11
692.0149099178
 21
2181.1898661859
  0
LINE
  5
220
100
AcDbEntity
  8
0
100
AcDbLine
 62
7
  6
CONTINUOUS
 10
628.7648149664
 20
416.504053616
 11
1028.0860551512
 21
185.9610436819
  0
LINE
  5
221
100
AcDbEntity
  8
0
100
AcDbLine
 62
7
  6
CONTINUOUS
 10
1025.9479666276
 20
188.1829651422
 11
629.6433776265
 21
416.9843501041
  0
LINE
  5
222
100
AcDbEntity
  8
0
100
AcDbLine
 62
7
  6
CONTINUOUS
 10
1080.9350112119
 20
229.0799161662
 11
1081.4834809354
 21
228.7668419932
  0
LINE
  5
223
100
AcDbEntity
  8
0
100
AcDbLine
 62
7
  6
CONTINUOUS
 10
1037.4583804404
 20
250.0586075695
 11
1046.5632307378
 21
244.8020387188
  0
LINE
  5
224
100
AcDbEntity
  8
0
100
AcDbLine
 62
7
  6
CONTINUOUS
 10
1037.4583804404
 20
250.6677636004
 11
1046.7637304953
 21
245.2954387795
  0
LINE
  5
225
100
AcDbEntity
  8
0
100
AcDbLine
 62
7
  6
CONTINUOUS
 10
1052.8456396578
 20
243.9280474072
 11
1080.8942343057
 21
227.7345500826
  0
LINE
  5
226
100
AcDbEntity
  8
0
100
AcDbLine
 62
7
  6
CONTINUOUS
 10
1080.975788118
 20
227.759883433
 11
1089.3144102968
 21
222.9456865851
  0
LINE
  5
227
100
AcDbEntity
  8
0
100
AcDbLine
 62
7
  6
CONTINUOUS
 10
1052.3478796389
 20
245.2536004587
 11
1037.4583804404
 21
253.8498623556
  0
LINE
  5
228
100
AcDbEntity
  8
0
100
AcDbLine
 62
7
  6
CONTINUOUS
 10
1052.8864165639
 20
245.2734134907
 11
1081.4810587879
 21
228.7654368638
  0
LINE
  5
229
100
AcDbEntity
  8
0
100
AcDbLine
 62
7
  6
CONTINUOUS
 10
1037.5945741124
 20
256.2588540521
 11
1039.0087935627
 21
255.4423725431
  0
LINE
  5
22A
100
AcDbEntity
  8
0
100
AcDbLine
 62
7
  6
CONTINUOUS
 10
1039.0087935627
 20
257.8232143694
 11
1037.5945741124
 21
258.6396958785
  0
LINE
  5
22B
100
AcDbEntity
  8
0
100
AcDbLine
 62
7
  6
CONTINUOUS
 10
1037.4583804404
 20
262.3924923436
 11
1088.1434155888
 21
233.1301356598
  0
LINE
  5
22C
100
AcDbEntity
  8
0
100
AcDbLine
 62
7
  6
CONTINUOUS
 10
1073.6773763096
 20
263.3780019148
 11
1082.6878894523
 21
258.1758974744
  0
LINE
  5
22D
100
AcDbEntity
  8
0
100
AcDbLine
 62
7
  6
CONTINUOUS
 10
1037.7417554728
 20
254.0640742847
 11
1052.8864165639
 21
245.2734134907
  0
LINE
  5
22E
100
AcDbEntity
  8
0
100
AcDbLine
 62
7
  6
CONTINUOUS
 10
1085.7804560329
 20
1951.2082206375
 11
1089.3144102968
 21
1952.4847935535
  0
LINE
  5
22F
100
AcDbEntity
  8
0
100
AcDbLine
 62
7
  6
CONTINUOUS
 10
1087.8296569988
 20
1952.9686935004
 11
1088.1272084645
 21
1953.0760404601
  0
LINE
  5
230
100
AcDbEntity
  8
0
100
AcDbLine
 62
7
  6
CONTINUOUS
 10
1096.1216228108
 20
1992.7228931466
 11
1089.3144102968
 21
1988.7881564313
  0
LINE
  5
231
100
AcDbEntity
  8
0
100
AcDbLine
 62
7
  6
CONTINUOUS
 10
1034.867414863
 20
1957.3533566014
 11
1030.6083420309
 21
1954.899008631
  0
LINE
  5
232
100
AcDbEntity
  8
0
100
AcDbLine
 62
7
  6
CONTINUOUS
 10
1073.6773763096
 20
1956.6137460013
 11
1074.6673217344
 21
1957.1852878472
  0
LINE
  5
233
100
AcDbEntity
  8
0
100
AcDbLine
 62
7
  6
CONTINUOUS
 10
1034.867414863
 20
1922.39111127
 11
1036.9586340298
 21
1923.5984700119
  0
LINE
  5
234
100
AcDbEntity
  8
0
100
AcDbLine
 62
7
  6
CONTINUOUS
 10
1084.9002741929
 20
1951.2774236444
 11
1087.8296569988
 21
1952.9686935005
  0
LINE
  5
235
100
AcDbEntity
  8
0
100
AcDbLine
 62
7
  6
CONTINUOUS
 10
1034.867414863
 20
1921.0499937237
 11
1037.0785061965
 21
1923.0903046307
  0
LINE
  5
236
100
AcDbEntity
  8
0
100
AcDbLine
 62
7
  6
CONTINUOUS
 10
628.7652562747
 20
416.5029176263
 11
628.7652562747
 21
2183.9293068808
  0
LINE
  5
237
100
AcDbEntity
  8
0
100
AcDbLine
 62
7
  6
CONTINUOUS
 10
629.6433776265
 20
416.9843501041
 11
629.6433776265
 21
2181.0026471191
  0
LINE
  5
238
100
AcDbEntity
  8
0
100
AcDbLine
 62
7
  6
CONTINUOUS
 10
638.174519511
 20
2125.0463646003
 11
638.174519511
 21
2116.8229140069
  0
LINE
  5
239
100
AcDbEntity
  8
0
100
AcDbLine
 62
7
  6
CONTINUOUS
 10
638.174519511
 20
1512.6700893161
 11
638.174519511
 21
1504.4394371098
  0
LINE
  5
23A
100
AcDbEntity
  8
0
100
AcDbLine
 62
7
  6
CONTINUOUS
 10
638.174519511
 20
1084.0063203231
 11
638.174519511
 21
1075.7756681168
  0
LINE
  5
23B
100
AcDbEntity
  8
0
100
AcDbLine
 62
7
  6
CONTINUOUS
 10
638.174519511
 20
471.6289699129
 11
638.174519511
 21
463.4055193195
  0
LINE
  5
23C
100
AcDbEntity
  8
0
100
AcDbLine
 62
7
  6
CONTINUOUS
 10
638.4720709766
 20
2124.604485815
 11
638.4720709766
 21
2116.9218165676
  0
LINE
  5
23D
100
AcDbEntity
  8
0
100
AcDbLine
 62
7
  6
CONTINUOUS
 10
638.4720709766
 20
1512.2276936441
 11
638.4720709766
 21
1504.5455922316
  0
LINE
  5
23E
100
AcDbEntity
  8
0
100
AcDbLine
 62
7
  6
CONTINUOUS
 10
638.4720709766
 20
1083.5639246511
 11
638.4720709766
 21
1075.8818232385
  0
LINE
  5
23F
100
AcDbEntity
  8
0
100
AcDbLine
 62
7
  6
CONTINUOUS
 10
638.4720709766
 20
471.1870911276
 11
638.4720709766
 21
463.5044218802
  0
LINE
  5
240
100
AcDbEntity
  8
0
100
AcDbLine
 62
7
  6
CONTINUOUS
 10
688.843347535
 20
2153.7511735963
 11
688.843347535
 21
2155.9459533637
  0
LINE
  5
241
100
AcDbEntity
  8
0
100
AcDbLine
 62
7
  6
CONTINUOUS
 10
688.843347535
 20
2159.951420079
 11
688.843347535
 21
2179.3906105603
  0
LINE
  5
242
100
AcDbEntity
  8
0
100
AcDbLine
 62
7
  6
CONTINUOUS
 10
689.575587942
 20
2153.4742801854
 11
689.575587942
 21
2155.9459533637
  0
LINE
  5
243
100
AcDbEntity
  8
0
100
AcDbLine
 62
7
  6
CONTINUOUS
 10
689.575587942
 20
2159.5286704468
 11
689.575587942
 21
2178.3700001756
  0
LINE
  5
244
100
AcDbEntity
  8
0
100
AcDbLine
 62
7
  6
CONTINUOUS
 10
691.4343131125
 20
2182.1957780113
 11
691.4343131125
 21
2218.499140889
  0
LINE
  5
245
100
AcDbEntity
  8
0
100
AcDbLine
 62
7
  6
CONTINUOUS
 10
692.0149099178
 20
2158.1203591076
 11
692.0149099178
 21
2160.1949170742
  0
LINE
  5
246
100
AcDbEntity
  8
0
100
AcDbLine
 62
7
  6
CONTINUOUS
 10
692.0149099178
 20
2178.1047629492
 11
692.0149099178
 21
2181.1898661859
  0
LINE
  5
247
100
AcDbEntity
  8
0
100
AcDbLine
 62
7
  6
CONTINUOUS
 10
692.5549946749
 20
2160.3758517004
 11
692.5549946749
 21
2157.8085480819
  0
LINE
  5
248
100
AcDbEntity
  8
0
100
AcDbLine
 62
7
  6
CONTINUOUS
 10
692.9497651104
 20
2155.45276651
 11
692.9497651104
 21
2156.3248568076
  0
LINE
  5
249
100
AcDbEntity
  8
0
100
AcDbLine
 62
7
  6
CONTINUOUS
 10
694.3639845607
 20
2155.5083752986
 11
694.3639845607
 21
2154.6362850009
  0
LINE
  5
24A
100
AcDbEntity
  8
0
100
AcDbLine
 62
7
  6
CONTINUOUS
 10
698.5861009794
 20
2173.1678956744
 11
698.5861009794
 21
2154.3265660064
  0
LINE
  5
24B
100
AcDbEntity
  8
0
100
AcDbLine
 62
7
  6
CONTINUOUS
 10
699.5760464042
 20
2173.7394375203
 11
699.5760464042
 21
2153.7550336787
  0
LINE
  5
24C
100
AcDbEntity
  8
0
100
AcDbLine
 62
7
  6
CONTINUOUS
 10
699.666809969
 20
2212.3178264777
 11
699.666809969
 21
2173.7394375203
  0
LINE
  5
24D
100
AcDbEntity
  8
0
100
AcDbLine
 62
7
  6
CONTINUOUS
 10
699.7729352913
 20
2212.3413688949
 11
699.7729352913
 21
2213.6849440453
  0
LINE
  5
24E
100
AcDbEntity
  8
0
100
AcDbLine
 62
7
  6
CONTINUOUS
 10
692.595771581
 20
2216.4850125533
 11
692.5558021957
 21
2182.1944707928
  0
LINE
  5
24F
100
AcDbEntity
  8
0
100
AcDbLine
 62
7
  6
CONTINUOUS
 10
692.5558021957
 20
2182.1944707928
 11
692.5549946749
 21
2177.7929519234
  0
LINE
  5
250
100
AcDbEntity
  8
0
100
AcDbLine
 62
7
  6
CONTINUOUS
 10
727.8189534801
 20
2192.5894454218
 11
727.8215570934
 21
2192.9685907723
  0
LINE
  5
251
100
AcDbEntity
  8
0
100
AcDbLine
 62
7
  6
CONTINUOUS
 10
727.8215570934
 20
2192.9685907723
 11
727.7399761269
 21
2197.4226104022
  0
LINE
  5
252
100
AcDbEntity
  8
0
100
AcDbLine
 62
7
  6
CONTINUOUS
 10
749.5180720875
 20
2188.1122988197
 11
749.5180720875
 21
2190.493140646
  0
LINE
  5
253
100
AcDbEntity
  8
0
100
AcDbLine
 62
7
  6
CONTINUOUS
 10
750.9322915378
 20
2189.676659137
 11
750.9322915378
 21
2187.2958173106
  0
LINE
  5
254
100
AcDbEntity
  8
0
100
AcDbLine
 62
7
  6
CONTINUOUS
 10
981.0262671353
 20
1989.1354831184
 11
981.0262671353
 21
1990.007573416
  0
LINE
  5
255
100
AcDbEntity
  8
0
100
AcDbLine
 62
7
  6
CONTINUOUS
 10
982.4404865856
 20
1989.191091907
 11
982.4404865856
 21
1988.3190016093
  0
LINE
  5
256
100
AcDbEntity
  8
0
100
AcDbLine
 62
7
  6
CONTINUOUS
 10
998.480170882
 20
1981.18656097
 11
998.5617518486
 21
1978.3863841284
  0
LINE
  5
257
100
AcDbEntity
  8
0
100
AcDbLine
 62
7
  6
CONTINUOUS
 10
1025.9479666276
 20
1952.2012621572
 11
1025.9479666276
 21
188.1829651422
  0
LINE
  5
258
100
AcDbEntity
  8
0
100
AcDbLine
 62
7
  6
CONTINUOUS
 10
1030.6083420309
 20
186.1050141943
 11
1030.6083420309
 21
1954.899008631
  0
LINE
  5
259
100
AcDbEntity
  8
0
100
AcDbLine
 62
7
  6
CONTINUOUS
 10
1034.867414863
 20
191.5108867595
 11
1034.867414863
 21
227.8142496372
  0
LINE
  5
25A
100
AcDbEntity
  8
0
100
AcDbLine
 62
7
  6
CONTINUOUS
 10
1034.867414863
 20
1921.0499937237
 11
1034.867414863
 21
1957.3533566014
  0
LINE
  5
25B
100
AcDbEntity
  8
0
100
AcDbLine
 62
7
  6
CONTINUOUS
 10
1037.0785061965
 20
1923.0903046307
 11
1037.0785061965
 21
229.8545605442
  0
LINE
  5
25C
100
AcDbEntity
  8
0
100
AcDbLine
 62
7
  6
CONTINUOUS
 10
1037.4583804404
 20
230.6194170881
 11
1037.4583804404
 21
1923.8551611746
  0
LINE
  5
25D
100
AcDbEntity
  8
0
100
AcDbLine
 62
7
  6
CONTINUOUS
 10
1037.5945741124
 20
2021.7950154281
 11
1037.5945741124
 21
2024.1758572544
  0
LINE
  5
25E
100
AcDbEntity
  8
0
100
AcDbLine
 62
7
  6
CONTINUOUS
 10
1039.0087935627
 20
2023.3593757454
 11
1039.0087935627
 21
2020.9785339191
  0
LINE
  5
25F
100
AcDbEntity
  8
0
100
AcDbLine
 62
7
  6
CONTINUOUS
 10
1039.0087935627
 20
257.8232143694
 11
1039.0087935627
 21
255.4423725431
  0
LINE
  5
260
100
AcDbEntity
  8
0
100
AcDbLine
 62
7
  6
CONTINUOUS
 10
1052.8456396578
 20
2009.7270142894
 11
1052.8456396578
 21
2008.4051906231
  0
LINE
  5
261
100
AcDbEntity
  8
0
100
AcDbLine
 62
7
  6
CONTINUOUS
 10
1052.8456396578
 20
245.2498710735
 11
1052.8456396578
 21
243.9280474072
  0
LINE
  5
262
100
AcDbEntity
  8
0
100
AcDbLine
 62
7
  6
CONTINUOUS
 10
1073.6773763096
 20
1956.6137460013
 11
1073.6773763096
 21
263.3780019148
  0
LINE
  5
263
100
AcDbEntity
  8
0
100
AcDbLine
 62
7
  6
CONTINUOUS
 10
1080.975788118
 20
1993.6023532834
 11
1080.975788118
 21
1992.258778133
  0
LINE
  5
264
100
AcDbEntity
  8
0
100
AcDbLine
 62
7
  6
CONTINUOUS
 10
1080.975788118
 20
229.1034585834
 11
1080.975788118
 21
227.759883433
  0
LINE
  5
265
100
AcDbEntity
  8
0
100
AcDbLine
 62
7
  6
CONTINUOUS
 10
1088.1529518283
 20
224.959814925
 11
1088.1134364569
 21
258.8152207973
  0
LINE
  5
266
100
AcDbEntity
  8
0
100
AcDbLine
 62
7
  6
CONTINUOUS
 10
1082.6878894523
 20
1951.411641561
 11
1082.6878894523
 21
258.1758974744
  0
LINE
  5
267
100
AcDbEntity
  8
0
100
AcDbLine
 62
7
  6
CONTINUOUS
 10
1085.7804560329
 20
257.9724765509
 11
1085.7804560329
 21
1951.2082206375
  0
LINE
  5
268
100
AcDbEntity
  8
0
100
AcDbLine
 62
7
  6
CONTINUOUS
 10
1089.3144102968
 20
259.249049467
 11
1089.3144102968
 21
222.9456865893
  0
LINE
  5
269
100
AcDbEntity
  8
0
100
AcDbLine
 62
7
  6
CONTINUOUS
 10
1089.3144102968
 20
1952.4847935535
 11
1089.3144102968
 21
1988.7881564355
  0
LINE
  5
26A
100
AcDbEntity
  8
0
100
AcDbLine
 62
7
  6
CONTINUOUS
 10
1096.1216228108
 20
1992.7228931466
 11
1096.1216228108
 21
223.9288987099
  0
LINE
  5
26B
100
AcDbEntity
  8
0
100
AcDbLine
 62
7
  6
CONTINUOUS
 10
1097.5364717008
 20
226.0807866359
 11
1097.5364717008
 21
1993.5071758904
  0
LINE
  5
26C
100
AcDbEntity
  8
0
100
AcDbLine
 62
7
  6
CONTINUOUS
 10
1088.1121749221
 20
1953.1318043259
 11
1088.1529518283
 21
1988.1151344746
  0
LINE
  5
26D
100
AcDbEntity
  8
0
100
AcDbLine
 62
7
  6
CONTINUOUS
 10
1046.5632307378
 20
2008.9471628128
 11
1046.7637304953
 21
2008.4507583291
  0
LINE
  5
26E
100
AcDbEntity
  8
0
100
AcDbLine
 62
7
  6
CONTINUOUS
 10
1046.7637304953
 20
245.2954387795
 11
1046.5632307378
 21
244.8020387188
  0
LINE
  5
26F
100
AcDbEntity
  8
0
100
AcDbLine
 62
7
  6
CONTINUOUS
 10
1030.6083420309
 20
186.1050141943
 11
1034.867414863
 21
191.5108867595
  0
LINE
  5
270
100
AcDbEntity
  8
0
100
AcDbLine
 62
7
  6
CONTINUOUS
 10
1052.9772482716
 20
2008.4871285454
 11
1052.3478796389
 21
2008.4089200083
  0
LINE
  5
271
100
AcDbEntity
  8
0
100
AcDbLine
 62
7
  6
CONTINUOUS
 10
1052.8456396578
 20
2009.7270142894
 11
1046.5632307378
 21
2008.9471628128
  0
LINE
  5
272
100
AcDbEntity
  8
0
100
AcDbLine
 62
7
  6
CONTINUOUS
 10
1036.9586340298
 20
1923.5984700119
 11
1034.867414863
 21
1924.8058086472
  0
LINE
  5
273
100
AcDbEntity
  8
0
100
AcDbLine
 62
7
  6
CONTINUOUS
 10
1034.867414863
 20
1925.9488827724
 11
1036.7261400335
 21
1924.8757715593
  0
LINE
  5
274
100
AcDbEntity
  8
0
100
AcDbLine
 62
7
  6
CONTINUOUS
 10
629.6433776265
 20
2181.0026471191
 11
1025.9479666276
 21
1952.2012621572
  0
LINE
  5
275
100
AcDbEntity
  8
0
100
AcDbLine
 62
7
  6
CONTINUOUS
 10
1030.6133060564
 20
1954.9018692174
 11
630.1880390924
 21
2186.0822748898
  0
LINE
  5
276
100
AcDbEntity
  8
0
100
AcDbLine
 62
7
  6
CONTINUOUS
 10
687.2929344127
 20
2154.5676551053
 11
688.707153863
 21
2153.7511735963
  0
LINE
  5
277
100
AcDbEntity
  8
0
100
AcDbLine
 62
7
  6
CONTINUOUS
 10
975.3694364376
 20
1988.2503717138
 11
976.7836558879
 21
1987.4338902047
  0
LINE
  5
278
100
AcDbEntity
  8
0
100
AcDbLine
 62
7
  6
CONTINUOUS
 10
636.9873176786
 20
2187.0643410633
 11
645.3259398574
 21
2182.2501442154
  0
LINE
  5
279
100
AcDbEntity
  8
0
100
AcDbLine
 62
7
  6
CONTINUOUS
 10
1026.5287926842
 20
1962.1675534535
 11
1034.867414863
 21
1957.3533566056
  0
LINE
  5
27A
100
AcDbEntity
  8
0
100
AcDbLine
 62
7
  6
CONTINUOUS
 10
645.4074936697
 20
2182.2754775658
 11
673.4560883177
 21
2166.0819802413
  0
LINE
  5
27B
100
AcDbEntity
  8
0
100
AcDbLine
 62
7
  6
CONTINUOUS
 10
998.5617518486
 20
1978.3863841284
 11
1026.6103464965
 21
1962.1928868039
  0
LINE
  5
27C
100
AcDbEntity
  8
0
100
AcDbLine
 62
7
  6
CONTINUOUS
 10
692.9497651104
 20
2155.45276651
 11
694.3639845607
 21
2154.6362850009
  0
LINE
  5
27D
100
AcDbEntity
  8
0
100
AcDbLine
 62
7
  6
CONTINUOUS
 10
981.0262671353
 20
1989.1354831184
 11
982.4404865856
 21
1988.3190016093
  0
LINE
  5
27E
100
AcDbEntity
  8
0
100
AcDbLine
 62
7
  6
CONTINUOUS
 10
982.4404865856
 20
1989.191091907
 11
981.0262671353
 21
1990.007573416
  0
LINE
  5
27F
100
AcDbEntity
  8
0
100
AcDbLine
 62
7
  6
CONTINUOUS
 10
694.3639845607
 20
2155.5083752986
 11
692.9497651104
 21
2156.3248568076
  0
LINE
  5
280
100
AcDbEntity
  8
0
100
AcDbLine
 62
7
  6
CONTINUOUS
 10
679.7384972376
 20
2165.2079889296
 11
998.480170882
 21
1981.18656097
  0
LINE
  5
281
100
AcDbEntity
  8
0
100
AcDbLine
 62
7
  6
CONTINUOUS
 10
1082.6878894523
 20
1951.411641561
 11
1073.6773763096
 21
1956.6137460013
  0
LINE
  5
282
100
AcDbEntity
  8
0
100
AcDbLine
 62
7
  6
CONTINUOUS
 10
698.5861009794
 20
2173.1678956744
 11
689.575587942
 21
2178.3700001756
  0
LINE
  5
283
100
AcDbEntity
  8
0
100
AcDbLine
 62
7
  6
CONTINUOUS
 10
689.3430939457
 20
2179.647301723
 11
699.5760464042
 21
2173.7394375203
  0
LINE
  5
284
100
AcDbEntity
  8
0
100
AcDbLine
 62
7
  6
CONTINUOUS
 10
1074.6673217344
 20
1957.1852878472
 11
1084.9002741929
 21
1951.2774236444
  0
LINE
  5
285
100
AcDbEntity
  8
0
100
AcDbLine
 62
7
  6
CONTINUOUS
 10
691.4343131125
 20
2182.1957780113
 11
692.595771581
 21
2181.5252248217
  0
LINE
  5
286
100
AcDbEntity
  8
0
100
AcDbLine
 62
7
  6
CONTINUOUS
 10
1088.1529518283
 20
1953.1553467431
 11
1089.3144102968
 21
1952.4847935535
  0
LINE
  5
287
100
AcDbEntity
  8
0
100
AcDbLine
 62
7
  6
CONTINUOUS
 10
1037.0785061965
 20
229.8545605442
 11
1034.867414863
 21
227.8142496372
  0
LWPOLYLINE
  5
288
100
AcDbEntity
  8
0
100
AcDbPolyline
 62
7
  6
CONTINUOUS
 90
4
 70
0
 10
976.6374196479
 20
1989.715481266
 10
976.7411088595
 20
1989.7209804873
 10
976.9296014573
 20
1989.726139508
 10
977.1211841182
 20
1989.7266439695
  0
LINE
  5
289
100
AcDbEntity
  8
0
100
AcDbLine
 62
7
  6
CONTINUOUS
 10
1052.3478796389
 20
2008.4089200083
 11
1046.7637304953
 21
2008.4507583291
  0
LINE
  5
28A
100
AcDbEntity
  8
0
100
AcDbLine
 62
7
  6
CONTINUOUS
 10
1088.1529518283
 20
1988.1151344746
 11
1080.9350112119
 21
1992.2352357158
  0
LINE
  5
28B
100
AcDbEntity
  8
0
100
AcDbLine
 62
7
  6
CONTINUOUS
 10
1046.7637304953
 20
2008.4507583291
 11
727.8189534801
 21
2192.5894454218
  0
LINE
  5
28C
100
AcDbEntity
  8
0
100
AcDbLine
 62
7
  6
CONTINUOUS
 10
1046.5632307378
 20
2008.9471628128
 11
727.8215570934
 21
2192.9685907724
  0
LINE
  5
28D
100
AcDbEntity
  8
0
100
AcDbLine
 62
7
  6
CONTINUOUS
 10
743.8612413898
 20
2185.7184358864
 11
745.2754608401
 21
2184.9019543773
  0
LINE
  5
28E
100
AcDbEntity
  8
0
100
AcDbLine
 62
7
  6
CONTINUOUS
 10
1031.9377434147
 20
2019.4011524948
 11
1033.351962865
 21
2018.5846709858
  0
LINE
  5
28F
100
AcDbEntity
  8
0
100
AcDbLine
 62
7
  6
CONTINUOUS
 10
1080.9350112119
 20
1992.2352357158
 11
1052.8864165639
 21
2008.4287330403
  0
LINE
  5
290
100
AcDbEntity
  8
0
100
AcDbLine
 62
7
  6
CONTINUOUS
 10
727.780753033
 20
2196.1243291532
 11
699.7321583851
 21
2212.3178264777
  0
LINE
  5
291
100
AcDbEntity
  8
0
100
AcDbLine
 62
7
  6
CONTINUOUS
 10
1080.8942343057
 20
1993.5335169649
 11
1052.8456396578
 21
2009.7270142894
  0
LINE
  5
292
100
AcDbEntity
  8
0
100
AcDbLine
 62
7
  6
CONTINUOUS
 10
727.7399761269
 20
2197.4226104022
 11
699.691381479
 21
2213.6161077268
  0
LINE
  5
293
100
AcDbEntity
  8
0
100
AcDbLine
 62
7
  6
CONTINUOUS
 10
1089.3144102968
 20
1988.7881564355
 11
1080.975788118
 21
1993.6023532834
  0
LINE
  5
294
100
AcDbEntity
  8
0
100
AcDbLine
 62
7
  6
CONTINUOUS
 10
699.7729352913
 20
2213.6849440453
 11
691.4343131125
 21
2218.4991408932
  0
LINE
  5
295
100
AcDbEntity
  8
0
100
AcDbLine
 62
7
  6
CONTINUOUS
 10
749.5180720875
 20
2188.1122988197
 11
750.9322915378
 21
2187.2958173106
  0
LINE
  5
296
100
AcDbEntity
  8
0
100
AcDbLine
 62
7
  6
CONTINUOUS
 10
1037.5945741124
 20
2021.7950154281
 11
1039.0087935627
 21
2020.9785339191
  0
LINE
  5
297
100
AcDbEntity
  8
0
100
AcDbLine
 62
7
  6
CONTINUOUS
 10
1039.0087935627
 20
2023.3593757454
 11
1037.5945741124
 21
2024.1758572544
  0
LINE
  5
298
100
AcDbEntity
  8
0
100
AcDbLine
 62
7
  6
CONTINUOUS
 10
750.9322915378
 20
2189.676659137
 11
749.5180720875
 21
2190.493140646
  0
LINE
  5
299
100
AcDbEntity
  8
0
100
AcDbLine
 62
7
  6
CONTINUOUS
 10
695.6884219191
 20
2223.8987128131
 11
1096.1136888831
 21
1992.7183071407
  0
LINE
  5
29A
100
AcDbEntity
  8
0
100
AcDbLine
 62
7
  6
CONTINUOUS
 10
1097.5369581932
 20
1993.5059479459
 11
698.2157180084
 21
2224.04895788
  0
LINE
  5
29B
100
AcDbEntity
  8
0
100
AcDbLine
 62
7
  6
CONTINUOUS
 10
699.7321583851
 20
2212.3178264777
 11
692.595771581
 21
2216.4850125533
  0
LINE
  5
29C
100
AcDbEntity
  8
0
100
AcDbLine
 62
7
  6
CONTINUOUS
 10
1089.3144102968
 20
259.249049467
 11
1085.7804560329
 21
257.9724765509
  0
LINE
  5
29D
100
AcDbEntity
  8
0
100
AcDbLine
 62
7
  6
CONTINUOUS
 10
630.1801051646
 20
2186.0811289385
 11
636.9873176786
 21
2187.0643410591
  0
LWPOLYLINE
  5
29E
100
AcDbEntity
  8
0
100
AcDbPolyline
 62
7
  6
CONTINUOUS
 90
4
 70
0
 10
688.5842996943
 20
2156.0340047402
 10
688.6646068346
 20
2156.0382638788
 10
688.8530994324
 20
2156.0434228995
 10
689.0446820933
 20
2156.0439273611
  0
LINE
  5
29F
100
AcDbEntity
  8
0
100
AcDbLine
 62
7
  6
CONTINUOUS
 10
673.4560883177
 20
2166.0819802413
 11
679.7384972376
 21
2165.2079889296
  0
ARC
  5
2A0
100
AcDbEntity
  8
0
100
AcDbCircle
 62
7
  6
CONTINUOUS
 10
700.9250881668
 20
2159.3224404785
 40
9.446110452
100
AcDbArc
 50
205.9935753134
 51
215.7018974379
  0
ARC
  5
2A1
100
AcDbEntity
  8
0
100
AcDbCircle
 62
7
  6
CONTINUOUS
 10
689.0849505718
 20
2152.4850450634
 40
9.4342794479
100
AcDbArc
 50
26.5052238734
 51
36.270839261
  0
ARC
  5
2A2
100
AcDbEntity
  8
0
100
AcDbCircle
 62
7
  6
CONTINUOUS
 10
700.756759783
 20
2159.2452998875
 40
9.2610022573
100
AcDbArc
 50
202.7360276031
 51
206.0210201541
  0
ARC
  5
2A3
100
AcDbEntity
  8
0
100
AcDbCircle
 62
7
  6
CONTINUOUS
 10
699.5801899712
 20
2158.4974927752
 40
9.0099701006
100
AcDbArc
 50
216.2920340334
 51
220.209428323
  0
ARC
  5
2A4
100
AcDbEntity
  8
0
100
AcDbCircle
 62
7
  6
CONTINUOUS
 10
698.8138365052
 20
2158.3094864071
 40
8.2403432711
100
AcDbArc
 50
195.8943896647
 51
198.8965681604
  0
ARC
  5
2A5
100
AcDbEntity
  8
0
100
AcDbCircle
 62
7
  6
CONTINUOUS
 10
698.4822923104
 20
2158.2149738513
 40
7.895590946
100
AcDbArc
 50
193.4040975399
 51
195.8936582034
  0
ARC
  5
2A6
100
AcDbEntity
  8
0
100
AcDbCircle
 62
7
  6
CONTINUOUS
 10
1037.2773458867
 20
2017.9737745694
 40
3.4679229813
100
AcDbArc
 50
55.1569152268
 51
60.0479458423
  0
ARC
  5
2A7
100
AcDbEntity
  8
0
100
AcDbCircle
 62
7
  6
CONTINUOUS
 10
749.2008438616
 20
2184.2910579607
 40
3.4679229816
100
AcDbArc
 50
55.156915227
 51
60.0479458421
  0
ARC
  5
2A8
100
AcDbEntity
  8
0
100
AcDbCircle
 62
7
  6
CONTINUOUS
 10
977.1008729085
 20
1986.1307401809
 40
3.4679031441
100
AcDbArc
 50
119.952478447
 51
124.8429415669
  0
ARC
  5
2A9
100
AcDbEntity
  8
0
100
AcDbCircle
 62
7
  6
CONTINUOUS
 10
689.0243708838
 20
2152.4480235723
 40
3.4679031444
100
AcDbArc
 50
119.9524784473
 51
124.8429415668
  0
ARC
  5
2AA
100
AcDbEntity
  8
0
100
AcDbCircle
 62
7
  6
CONTINUOUS
 10
1037.2773573268
 20
257.5620036937
 40
3.4679026956
100
AcDbArc
 50
299.9524782357
 51
304.8429521299
  0
ARC
  5
2AB
100
AcDbEntity
  8
0
100
AcDbCircle
 62
7
  6
CONTINUOUS
 10
1021.285227893
 20
856.1666309752
 40
2.58973323
100
AcDbArc
 50
320.6559138599
 51
328.9839260547
  0
ARC
  5
2AC
100
AcDbEntity
  8
0
100
AcDbCircle
 62
7
  6
CONTINUOUS
 10
1021.2852278931
 20
1284.8303999682
 40
2.58973323
100
AcDbArc
 50
320.6559138599
 51
328.9839260549
  0
ARC
  5
2AD
100
AcDbEntity
  8
0
100
AcDbCircle
 62
7
  6
CONTINUOUS
 10
638.0317568633
 20
1077.4331199253
 40
2.5897332301
100
AcDbArc
 50
320.65591386
 51
328.9839260547
  0
ARC
  5
2AE
100
AcDbEntity
  8
0
100
AcDbCircle
 62
7
  6
CONTINUOUS
 10
638.0317568634
 20
1506.0968889183
 40
2.5897332301
100
AcDbArc
 50
320.65591386
 51
328.9839260547
  0
ARC
  5
2AF
100
AcDbEntity
  8
0
100
AcDbCircle
 62
7
  6
CONTINUOUS
 10
634.010381228
 20
1513.2964135107
 40
2.1828969491
100
AcDbArc
 50
108.0386247028
 51
119.9959948913
  0
ARC
  5
2B0
100
AcDbEntity
  8
0
100
AcDbCircle
 62
7
  6
CONTINUOUS
 10
634.010381228
 20
1084.6326445177
 40
2.1828969491
100
AcDbArc
 50
108.0386247027
 51
119.9959948913
  0
ARC
  5
2B1
100
AcDbEntity
  8
0
100
AcDbCircle
 62
7
  6
CONTINUOUS
 10
1017.2638522577
 20
1292.0299245607
 40
2.1828969492
100
AcDbArc
 50
108.0386247027
 51
119.9959948912
  0
ARC
  5
2B2
100
AcDbEntity
  8
0
100
AcDbCircle
 62
7
  6
CONTINUOUS
 10
1017.2638522577
 20
863.3661555677
 40
2.1828969491
100
AcDbArc
 50
108.0386247027
 51
119.9959948913
  0
ARC
  5
2B3
100
AcDbEntity
  8
0
100
AcDbCircle
 62
7
  6
CONTINUOUS
 10
703.6598505303
 20
2165.8855310805
 40
2.1825794294
100
AcDbArc
 50
107.8383596714
 51
119.9935992954
  0
ARC
  5
2B4
100
AcDbEntity
  8
0
100
AcDbCircle
 62
7
  6
CONTINUOUS
 10
634.0101225647
 20
472.2560872368
 40
2.1825794294
100
AcDbArc
 50
107.8383596714
 51
119.9935992954
  0
ARC
  5
2B5
100
AcDbEntity
  8
0
100
AcDbCircle
 62
7
  6
CONTINUOUS
 10
634.0101225647
 20
2125.6734819242
 40
2.1825794294
100
AcDbArc
 50
107.8383596713
 51
119.9935992955
  0
ARC
  5
2B6
100
AcDbEntity
  8
0
100
AcDbCircle
 62
7
  6
CONTINUOUS
 10
1017.2635935944
 20
250.9895982867
 40
2.1825794294
100
AcDbArc
 50
107.8383596714
 51
119.9935992954
  0
ARC
  5
2B7
100
AcDbEntity
  8
0
100
AcDbCircle
 62
7
  6
CONTINUOUS
 10
1017.2635935944
 20
1904.4069929741
 40
2.1825794294
100
AcDbArc
 50
107.8383596715
 51
119.9935992954
  0
ARC
  5
2B8
100
AcDbEntity
  8
0
100
AcDbCircle
 62
7
  6
CONTINUOUS
 10
693.6349908863
 20
2152.7417343511
 40
1.9645412329
100
AcDbArc
 50
33.4559426979
 51
38.7148775292
  0
ARC
  5
2B9
100
AcDbEntity
  8
0
100
AcDbCircle
 62
7
  6
CONTINUOUS
 10
981.7114929109
 20
1986.4244509593
 40
1.9645412332
100
AcDbArc
 50
33.4559426984
 51
38.7148775287
  0
ARC
  5
2BA
100
AcDbEntity
  8
0
100
AcDbCircle
 62
7
  6
CONTINUOUS
 10
1075.9335105106
 20
284.0910079096
 40
1.850729111
100
AcDbArc
 50
106.562763561
 51
119.9850195739
  0
ARC
  5
2BB
100
AcDbEntity
  8
0
100
AcDbCircle
 62
7
  6
CONTINUOUS
 10
1075.9335105106
 20
1325.1315897498
 40
1.850729111
100
AcDbArc
 50
106.562763561
 51
119.9850195739
  0
ARC
  5
2BC
100
AcDbEntity
  8
0
100
AcDbCircle
 62
7
  6
CONTINUOUS
 10
1075.9335105106
 20
896.4678207568
 40
1.850729111
100
AcDbArc
 50
106.562763561
 51
119.9850195739
  0
ARC
  5
2BD
100
AcDbEntity
  8
0
100
AcDbCircle
 62
7
  6
CONTINUOUS
 10
1075.9335105106
 20
1937.508402597
 40
1.850729111
100
AcDbArc
 50
106.562763561
 51
119.9850195738
  0
ARC
  5
2BE
100
AcDbEntity
  8
0
100
AcDbCircle
 62
7
  6
CONTINUOUS
 10
692.6800394893
 20
2158.7748916071
 40
1.8507290632
100
AcDbArc
 50
106.5627637598
 51
119.9850195801
  0
ARC
  5
2BF
100
AcDbEntity
  8
0
100
AcDbCircle
 62
7
  6
CONTINUOUS
 10
1029.4758674308
 20
187.0043617246
 40
1.4477679695
100
AcDbArc
 50
299.1688752774
 51
321.4643860893
  0
ARC
  5
2C0
100
AcDbEntity
  8
0
100
AcDbCircle
 62
7
  6
CONTINUOUS
 10
696.8258601841
 20
2223.0056660951
 40
1.4477676442
100
AcDbArc
 50
119.1688661223
 51
141.4643793492
  0
SPLINE
  5
2C1
100
AcDbEntity
  8
0
100
AcDbSpline
 62
7
  6
CONTINUOUS
 70
0
 71
3
 72
9
 73
5
 74
0
 42
0.0000001
 43
0.0000001
 44
0.0000000001
 40
0.0
 40
0.0
 40
0.0
 40
0.0
 40
0.5026479413
 40
1.0
 40
1.0
 40
1.0
 40
1.0
 10
1096.1216228108
 20
223.9262852891
 30
0.0
 10
1096.2168550715
 20
223.9411461169
 30
0.0
 10
1096.4037423514
 20
223.9898075523
 30
0.0
 10
1096.5781129454
 20
224.072538638
 30
0.0
 10
1096.6600342778
 20
224.121366861
 30
0.0
  0
SPLINE
  5
2C2
100
AcDbEntity
  8
0
100
AcDbSpline
 62
7
  6
CONTINUOUS
 70
0
 71
3
 72
8
 73
4
 74
0
 42
0.0000001
 43
0.0000001
 44
0.0000000001
 40
0.0
 40
0.0
 40
0.0
 40
0.0
 40
1.0
 40
1.0
 40
1.0
 40
1.0
 10
749.5180720875
 20
2188.1122988197
 30
0.0
 10
747.8850696901
 20
2189.0550918646
 30
0.0
 10
745.4942134368
 20
2189.055090043
 30
0.0
 10
743.8612178381
 20
2188.1122852223
 30
0.0
  0
SPLINE
  5
2C3
100
AcDbEntity
  8
0
100
AcDbSpline
 62
7
  6
CONTINUOUS
 70
0
 71
3
 72
8
 73
4
 74
0
 42
0.0000001
 43
0.0000001
 44
0.0000000001
 40
0.0
 40
0.0
 40
0.0
 40
0.0
 40
1.0
 40
1.0
 40
1.0
 40
1.0
 10
1031.937719863
 20
2021.7950018307
 30
0.0
 10
1031.6387177394
 20
2021.6223739046
 30
0.0
 10
1031.2266917927
 20
2021.405784786
 30
0.0
 10
1031.206822073
 20
2021.061099618
 30
0.0
  0
SPLINE
  5
2C4
100
AcDbEntity
  8
0
100
AcDbSpline
 62
7
  6
CONTINUOUS
 70
0
 71
3
 72
8
 73
4
 74
0
 42
0.0000001
 43
0.0000001
 44
0.0000000001
 40
0.0
 40
0.0
 40
0.0
 40
0.0
 40
1.0
 40
1.0
 40
1.0
 40
1.0
 10
1037.5945741124
 20
2021.7950154281
 30
0.0
 10
1035.961571715
 20
2022.737808473
 30
0.0
 10
1033.5707154617
 20
2022.7378066514
 30
0.0
 10
1031.937719863
 20
2021.7950018307
 30
0.0
  0
SPLINE
  5
2C5
100
AcDbEntity
  8
0
100
AcDbSpline
 62
7
  6
CONTINUOUS
 70
0
 71
3
 72
8
 73
4
 74
0
 42
0.0000001
 43
0.0000001
 44
0.0000000001
 40
0.0
 40
0.0
 40
0.0
 40
0.0
 40
1.0
 40
1.0
 40
1.0
 40
1.0
 10
743.8612178381
 20
2188.1122852223
 30
0.0
 10
743.5622157145
 20
2187.9396572962
 30
0.0
 10
743.1501897678
 20
2187.7230681776
 30
0.0
 10
743.1303200481
 20
2187.3783830096
 30
0.0
  0
SPLINE
  5
2C6
100
AcDbEntity
  8
0
100
AcDbSpline
 62
7
  6
CONTINUOUS
 70
0
 71
3
 72
8
 73
4
 74
0
 42
0.0000001
 43
0.0000001
 44
0.0000000001
 40
0.0
 40
0.0
 40
0.0
 40
0.0
 40
1.0
 40
1.0
 40
1.0
 40
1.0
 10
1039.0088171145
 20
254.5572747359
 30
0.0
 10
1038.7530569934
 20
254.4096124426
 30
0.0
 10
1038.4858894
 20
254.2689331513
 30
0.0
 10
1038.1995352007
 20
254.1966928238
 30
0.0
  0
SPLINE
  5
2C7
100
AcDbEntity
  8
0
100
AcDbSpline
 62
7
  6
CONTINUOUS
 70
0
 71
3
 72
9
 73
5
 74
0
 42
0.0000001
 43
0.0000001
 44
0.0000000001
 40
0.0
 40
0.0
 40
0.0
 40
0.0
 40
0.482143142
 40
1.0
 40
1.0
 40
1.0
 40
1.0
 10
1038.1995352007
 20
254.1966928238
 30
0.0
 10
1038.1268057966
 20
254.1783449317
 30
0.0
 10
1037.9737347933
 20
254.1486007003
 30
0.0
 10
1037.8181983692
 20
254.1368387459
 30
0.0
 10
1037.7376491078
 20
254.1352906217
 30
0.0
  0
SPLINE
  5
2C8
100
AcDbEntity
  8
0
100
AcDbSpline
 62
7
  6
CONTINUOUS
 70
0
 71
3
 72
8
 73
4
 74
0
 42
0.0000001
 43
0.0000001
 44
0.0000000001
 40
0.0
 40
0.0
 40
0.0
 40
0.0
 40
1.0
 40
1.0
 40
1.0
 40
1.0
 10
692.007553903
 20
2160.1873658264
 30
0.0
 10
691.7120138266
 20
2159.6648252078
 30
0.0
 10
691.6058450661
 20
2159.0320837156
 30
0.0
 10
691.6058450661
 20
2158.431756609
 30
0.0
  0
SPLINE
  5
2C9
100
AcDbEntity
  8
0
100
AcDbSpline
 62
7
  6
CONTINUOUS
 70
0
 71
3
 72
8
 73
4
 74
0
 42
0.0000001
 43
0.0000001
 44
0.0000000001
 40
0.0
 40
0.0
 40
0.0
 40
0.0
 40
1.0
 40
1.0
 40
1.0
 40
1.0
 10
692.1524604871
 20
2160.5488302931
 30
0.0
 10
692.623049735
 20
2160.6893309611
 30
0.0
 10
693.1556645681
 20
2160.6420388507
 30
0.0
 10
693.6248984633
 20
2160.4970759951
 30
0.0
  0
SPLINE
  5
2CA
100
AcDbEntity
  8
0
100
AcDbSpline
 62
7
  6
CONTINUOUS
 70
0
 71
3
 72
8
 73
4
 74
0
 42
0.0000001
 43
0.0000001
 44
0.0000000001
 40
0.0
 40
0.0
 40
0.0
 40
0.0
 40
1.0
 40
1.0
 40
1.0
 40
1.0
 10
693.6248984633
 20
2160.4970759951
 30
0.0
 10
694.2595928976
 20
2160.3009965589
 30
0.0
 10
694.8446016708
 20
2159.9327717932
 30
0.0
 10
695.3542896741
 20
2159.5067409147
 30
0.0
  0
SPLINE
  5
2CB
100
AcDbEntity
  8
0
100
AcDbSpline
 62
7
  6
CONTINUOUS
 70
0
 71
3
 72
8
 73
4
 74
0
 42
0.0000001
 43
0.0000001
 44
0.0000000001
 40
0.0
 40
0.0
 40
0.0
 40
0.0
 40
1.0
 40
1.0
 40
1.0
 40
1.0
 10
695.3542896741
 20
2159.5067409147
 30
0.0
 10
695.8568845563
 20
2159.0866389351
 30
0.0
 10
696.3032230929
 20
2158.5942219131
 30
0.0
 10
696.6911448183
 20
2158.0663923726
 30
0.0
  0
SPLINE
  5
2CC
100
AcDbEntity
  8
0
100
AcDbSpline
 62
7
  6
CONTINUOUS
 70
0
 71
3
 72
8
 73
4
 74
0
 42
0.0000001
 43
0.0000001
 44
0.0000000001
 40
0.0
 40
0.0
 40
0.0
 40
0.0
 40
1.0
 40
1.0
 40
1.0
 40
1.0
 10
697.5276275905
 20
2156.6953696897
 30
0.0
 10
697.7062965481
 20
2156.3374869186
 30
0.0
 10
697.8629091266
 20
2155.9674830782
 30
0.0
 10
697.9923977846
 20
2155.5890185995
 30
0.0
  0
SPLINE
  5
2CD
100
AcDbEntity
  8
0
100
AcDbSpline
 62
7
  6
CONTINUOUS
 70
0
 71
3
 72
8
 73
4
 74
0
 42
0.0000001
 43
0.0000001
 44
0.0000000001
 40
0.0
 40
0.0
 40
0.0
 40
0.0
 40
1.0
 40
1.0
 40
1.0
 40
1.0
 10
697.9923977846
 20
2155.5890185995
 30
0.0
 10
698.1102466691
 20
2155.2445744039
 30
0.0
 10
698.2061830712
 20
2154.8915869957
 30
0.0
 10
698.2753902121
 20
2154.5341789164
 30
0.0
  0
SPLINE
  5
2CE
100
AcDbEntity
  8
0
100
AcDbSpline
 62
7
  6
CONTINUOUS
 70
0
 71
3
 72
8
 73
4
 74
0
 42
0.0000001
 43
0.0000001
 44
0.0000000001
 40
0.0
 40
0.0
 40
0.0
 40
0.0
 40
1.0
 40
1.0
 40
1.0
 40
1.0
 10
702.7578539273
 20
2167.4875391341
 30
0.0
 10
702.4085792916
 20
2166.8699911303
 30
0.0
 10
702.2831071201
 20
2166.1222057304
 30
0.0
 10
702.2831071201
 20
2165.4127282409
 30
0.0
  0
SPLINE
  5
2CF
100
AcDbEntity
  8
0
100
AcDbSpline
 62
7
  6
CONTINUOUS
 70
0
 71
3
 72
8
 73
4
 74
0
 42
0.0000001
 43
0.0000001
 44
0.0000000001
 40
0.0
 40
0.0
 40
0.0
 40
0.0
 40
1.0
 40
1.0
 40
1.0
 40
1.0
 10
702.9912551037
 20
2167.9631819465
 30
0.0
 10
703.5584386578
 20
2168.146145409
 30
0.0
 10
704.2091304752
 20
2168.0925634271
 30
0.0
 10
704.7785408469
 20
2167.9166525371
 30
0.0
  0
SPLINE
  5
2D0
100
AcDbEntity
  8
0
100
AcDbSpline
 62
7
  6
CONTINUOUS
 70
0
 71
3
 72
8
 73
4
 74
0
 42
0.0000001
 43
0.0000001
 44
0.0000000001
 40
0.0
 40
0.0
 40
0.0
 40
0.0
 40
1.0
 40
1.0
 40
1.0
 40
1.0
 10
704.7785408469
 20
2167.9166525371
 30
0.0
 10
705.5286342725
 20
2167.6849222972
 30
0.0
 10
706.2200082817
 20
2167.2497475767
 30
0.0
 10
706.8223668353
 20
2166.7462565399
 30
0.0
  0
SPLINE
  5
2D1
100
AcDbEntity
  8
0
100
AcDbSpline
 62
7
  6
CONTINUOUS
 70
0
 71
3
 72
9
 73
5
 74
0
 42
0.0000001
 43
0.0000001
 44
0.0000000001
 40
0.0
 40
0.0
 40
0.0
 40
0.0
 40
0.7659803344
 40
1.0
 40
1.0
 40
1.0
 40
1.0
 10
706.8223668353
 20
2166.7462565399
 30
0.0
 10
708.4335239204
 20
2165.3995451064
 30
0.0
 10
709.9920278389
 20
2162.8602544694
 30
0.0
 10
710.4148777912
 20
2160.1347775803
 30
0.0
 10
710.4148777912
 20
2159.4932322013
 30
0.0
  0
SPLINE
  5
2D2
100
AcDbEntity
  8
0
100
AcDbSpline
 62
7
  6
CONTINUOUS
 70
0
 71
3
 72
8
 73
4
 74
0
 42
0.0000001
 43
0.0000001
 44
0.0000000001
 40
0.0
 40
0.0
 40
0.0
 40
0.0
 40
1.0
 40
1.0
 40
1.0
 40
1.0
 10
710.4148777912
 20
2159.4932322013
 30
0.0
 10
710.4148777912
 20
2158.758611163
 30
0.0
 10
710.2800224285
 20
2157.9791688596
 30
0.0
 10
709.9003346521
 20
2157.3502767685
 30
0.0
  0
SPLINE
  5
2D3
100
AcDbEntity
  8
0
100
AcDbSpline
 62
7
  6
CONTINUOUS
 70
0
 71
3
 72
9
 73
5
 74
0
 42
0.0000001
 43
0.0000001
 44
0.0000000001
 40
0.0
 40
0.0
 40
0.0
 40
0.0
 40
0.505405488
 40
1.0
 40
1.0
 40
1.0
 40
1.0
 10
709.9003346521
 20
2157.3502767685
 30
0.0
 10
709.8672412931
 20
2157.2954629108
 30
0.0
 10
709.7979426354
 20
2157.1892616403
 30
0.0
 10
709.7210228466
 20
2157.0884283759
 30
0.0
 10
709.6811385343
 20
2157.0401018328
 30
0.0
  0
SPLINE
  5
2D4
100
AcDbEntity
  8
0
100
AcDbSpline
 62
7
  6
CONTINUOUS
 70
0
 71
3
 72
8
 73
4
 74
0
 42
0.0000001
 43
0.0000001
 44
0.0000000001
 40
0.0
 40
0.0
 40
0.0
 40
0.0
 40
1.0
 40
1.0
 40
1.0
 40
1.0
 10
709.6811385343
 20
2157.0401018328
 30
0.0
 10
709.5103299499
 20
2156.8331385449
 30
0.0
 10
709.3009195321
 20
2156.65199983
 30
0.0
 10
709.068557176
 20
2156.5177719994
 30
0.0
  0
SPLINE
  5
2D5
100
AcDbEntity
  8
0
100
AcDbSpline
 62
7
  6
CONTINUOUS
 70
0
 71
3
 72
8
 73
4
 74
0
 42
0.0000001
 43
0.0000001
 44
0.0000000001
 40
0.0
 40
0.0
 40
0.0
 40
0.0
 40
1.0
 40
1.0
 40
1.0
 40
1.0
 10
1085.7804560329
 20
257.9724765509
 30
0.0
 10
1084.8086787167
 20
257.6218916814
 30
0.0
 10
1083.5825708098
 20
257.6593646374
 30
0.0
 10
1082.6878894523
 20
258.1758974744
 30
0.0
  0
SPLINE
  5
2D6
100
AcDbEntity
  8
0
100
AcDbSpline
 62
7
  6
CONTINUOUS
 70
0
 71
3
 72
8
 73
4
 74
0
 42
0.0000001
 43
0.0000001
 44
0.0000000001
 40
0.0
 40
0.0
 40
0.0
 40
0.0
 40
1.0
 40
1.0
 40
1.0
 40
1.0
 10
1074.8593160958
 20
1937.165267659
 30
0.0
 10
1074.8593160958
 20
1936.4183281916
 30
0.0
 10
1075.0156486747
 20
1935.6670194138
 30
0.0
 10
1075.2562109926
 20
1934.9598784525
 30
0.0
  0
SPLINE
  5
2D7
100
AcDbEntity
  8
0
100
AcDbSpline
 62
7
  6
CONTINUOUS
 70
0
 71
3
 72
8
 73
4
 74
0
 42
0.0000001
 43
0.0000001
 44
0.0000000001
 40
0.0
 40
0.0
 40
0.0
 40
0.0
 40
1.0
 40
1.0
 40
1.0
 40
1.0
 10
1075.2562109926
 20
1934.9598784525
 30
0.0
 10
1075.7606526555
 20
1933.4770553505
 30
0.0
 10
1076.6723955359
 20
1932.0654284513
 30
0.0
 10
1077.8683148888
 20
1931.0539925193
 30
0.0
  0
SPLINE
  5
2D8
100
AcDbEntity
  8
0
100
AcDbSpline
 62
7
  6
CONTINUOUS
 70
0
 71
3
 72
9
 73
5
 74
0
 42
0.0000001
 43
0.0000001
 44
0.0000000001
 40
0.0
 40
0.0
 40
0.0
 40
0.0
 40
0.2876638638
 40
1.0
 40
1.0
 40
1.0
 40
1.0
 10
1077.8683148888
 20
1931.0539925193
 30
0.0
 10
1078.0841957367
 20
1930.8714136137
 30
0.0
 10
1078.8657644984
 20
1930.2864035332
 30
0.0
 10
1079.8481392608
 20
1929.8832467779
 30
0.0
 10
1080.5480528489
 20
1929.9007797459
 30
0.0
  0
SPLINE
  5
2D9
100
AcDbEntity
  8
0
100
AcDbSpline
 62
7
  6
CONTINUOUS
 70
0
 71
3
 72
8
 73
4
 74
0
 42
0.0000001
 43
0.0000001
 44
0.0000000001
 40
0.0
 40
0.0
 40
0.0
 40
0.0
 40
1.0
 40
1.0
 40
1.0
 40
1.0
 10
1075.2610249326
 20
285.503482189
 30
0.0
 10
1074.9654848562
 20
284.9809415704
 30
0.0
 10
1074.8593160958
 20
284.3482000782
 30
0.0
 10
1074.8593160958
 20
283.7478729716
 30
0.0
  0
SPLINE
  5
2DA
100
AcDbEntity
  8
0
100
AcDbSpline
 62
7
  6
CONTINUOUS
 70
0
 71
3
 72
8
 73
4
 74
0
 42
0.0000001
 43
0.0000001
 44
0.0000000001
 40
0.0
 40
0.0
 40
0.0
 40
0.0
 40
1.0
 40
1.0
 40
1.0
 40
1.0
 10
1074.8593160958
 20
896.1246858188
 30
0.0
 10
1074.8593160958
 20
895.3777463514
 30
0.0
 10
1075.0156486747
 20
894.6264375736
 30
0.0
 10
1075.2562109926
 20
893.9192966123
 30
0.0
  0
SPLINE
  5
2DB
100
AcDbEntity
  8
0
100
AcDbSpline
 62
7
  6
CONTINUOUS
 70
0
 71
3
 72
8
 73
4
 74
0
 42
0.0000001
 43
0.0000001
 44
0.0000000001
 40
0.0
 40
0.0
 40
0.0
 40
0.0
 40
1.0
 40
1.0
 40
1.0
 40
1.0
 10
1075.2562109926
 20
893.9192966123
 30
0.0
 10
1075.7606526555
 20
892.4364735103
 30
0.0
 10
1076.6723955359
 20
891.0248466111
 30
0.0
 10
1077.8683148888
 20
890.0134106791
 30
0.0
  0
SPLINE
  5
2DC
100
AcDbEntity
  8
0
100
AcDbSpline
 62
7
  6
CONTINUOUS
 70
0
 71
3
 72
9
 73
5
 74
0
 42
0.0000001
 43
0.0000001
 44
0.0000000001
 40
0.0
 40
0.0
 40
0.0
 40
0.0
 40
0.2876638638
 40
1.0
 40
1.0
 40
1.0
 40
1.0
 10
1077.8683148888
 20
890.0134106791
 30
0.0
 10
1078.0841957367
 20
889.8308317735
 30
0.0
 10
1078.8657644984
 20
889.245821693
 30
0.0
 10
1079.8481392608
 20
888.8426649377
 30
0.0
 10
1080.5480528489
 20
888.8601979057
 30
0.0
  0
SPLINE
  5
2DD
100
AcDbEntity
  8
0
100
AcDbSpline
 62
7
  6
CONTINUOUS
 70
0
 71
3
 72
8
 73
4
 74
0
 42
0.0000001
 43
0.0000001
 44
0.0000000001
 40
0.0
 40
0.0
 40
0.0
 40
0.0
 40
1.0
 40
1.0
 40
1.0
 40
1.0
 10
1075.4059315009
 20
285.8649466433
 30
0.0
 10
1075.8765207509
 20
286.0054473102
 30
0.0
 10
1076.4091355844
 20
285.9581552035
 30
0.0
 10
1076.8783694827
 20
285.8131923518
 30
0.0
  0
SPLINE
  5
2DE
100
AcDbEntity
  8
0
100
AcDbSpline
 62
7
  6
CONTINUOUS
 70
0
 71
3
 72
8
 73
4
 74
0
 42
0.0000001
 43
0.0000001
 44
0.0000000001
 40
0.0
 40
0.0
 40
0.0
 40
0.0
 40
1.0
 40
1.0
 40
1.0
 40
1.0
 10
1076.8783694827
 20
285.8131923518
 30
0.0
 10
1077.5130639226
 20
285.6171129204
 30
0.0
 10
1078.0980727033
 20
285.2488881591
 30
0.0
 10
1078.6077607137
 20
284.8228572831
 30
0.0
  0
SPLINE
  5
2DF
100
AcDbEntity
  8
0
100
AcDbSpline
 62
7
  6
CONTINUOUS
 70
0
 71
3
 72
8
 73
4
 74
0
 42
0.0000001
 43
0.0000001
 44
0.0000000001
 40
0.0
 40
0.0
 40
0.0
 40
0.0
 40
1.0
 40
1.0
 40
1.0
 40
1.0
 10
1078.6077607137
 20
284.8228572831
 30
0.0
 10
1079.8157299842
 20
283.8131568468
 30
0.0
 10
1080.7362109551
 20
282.3947435095
 30
0.0
 10
1081.245868855
 20
280.9051349856
 30
0.0
  0
SPLINE
  5
2E0
100
AcDbEntity
  8
0
100
AcDbSpline
 62
7
  6
CONTINUOUS
 70
0
 71
3
 72
8
 73
4
 74
0
 42
0.0000001
 43
0.0000001
 44
0.0000000001
 40
0.0
 40
0.0
 40
0.0
 40
0.0
 40
1.0
 40
1.0
 40
1.0
 40
1.0
 10
1081.245868855
 20
280.9051349856
 30
0.0
 10
1081.4892529233
 20
280.193781384
 30
0.0
 10
1081.6475776942
 20
279.4375204359
 30
0.0
 10
1081.6475776942
 20
278.6856828529
 30
0.0
  0
SPLINE
  5
2E1
100
AcDbEntity
  8
0
100
AcDbSpline
 62
7
  6
CONTINUOUS
 70
0
 71
3
 72
8
 73
4
 74
0
 42
0.0000001
 43
0.0000001
 44
0.0000000001
 40
0.0
 40
0.0
 40
0.0
 40
0.0
 40
1.0
 40
1.0
 40
1.0
 40
1.0
 10
1074.8593160958
 20
1324.7884548118
 30
0.0
 10
1074.8593160958
 20
1324.0415153445
 30
0.0
 10
1075.0156486747
 20
1323.2902065666
 30
0.0
 10
1075.2562109926
 20
1322.5830656053
 30
0.0
  0
SPLINE
  5
2E2
100
AcDbEntity
  8
0
100
AcDbSpline
 62
7
  6
CONTINUOUS
 70
0
 71
3
 72
8
 73
4
 74
0
 42
0.0000001
 43
0.0000001
 44
0.0000000001
 40
0.0
 40
0.0
 40
0.0
 40
0.0
 40
1.0
 40
1.0
 40
1.0
 40
1.0
 10
1075.2562109926
 20
1322.5830656053
 30
0.0
 10
1075.7606526555
 20
1321.1002425034
 30
0.0
 10
1076.6723955359
 20
1319.6886156041
 30
0.0
 10
1077.8683148888
 20
1318.6771796721
 30
0.0
  0
SPLINE
  5
2E3
100
AcDbEntity
  8
0
100
AcDbSpline
 62
7
  6
CONTINUOUS
 70
0
 71
3
 72
9
 73
5
 74
0
 42
0.0000001
 43
0.0000001
 44
0.0000000001
 40
0.0
 40
0.0
 40
0.0
 40
0.0
 40
0.2876638638
 40
1.0
 40
1.0
 40
1.0
 40
1.0
 10
1077.8683148888
 20
1318.6771796721
 30
0.0
 10
1078.0841957367
 20
1318.4946007665
 30
0.0
 10
1078.8657644984
 20
1317.909590686
 30
0.0
 10
1079.8481392608
 20
1317.5064339307
 30
0.0
 10
1080.5480528489
 20
1317.5239668988
 30
0.0
  0
SPLINE
  5
2E4
100
AcDbEntity
  8
0
100
AcDbSpline
 62
7
  6
CONTINUOUS
 70
0
 71
3
 72
8
 73
4
 74
0
 42
0.0000001
 43
0.0000001
 44
0.0000000001
 40
0.0
 40
0.0
 40
0.0
 40
0.0
 40
1.0
 40
1.0
 40
1.0
 40
1.0
 10
1074.8593160958
 20
283.7478729716
 30
0.0
 10
1074.8593160958
 20
283.0009335042
 30
0.0
 10
1075.0156486747
 20
282.2496247264
 30
0.0
 10
1075.2562109926
 20
281.5424837651
 30
0.0
  0
SPLINE
  5
2E5
100
AcDbEntity
  8
0
100
AcDbSpline
 62
7
  6
CONTINUOUS
 70
0
 71
3
 72
8
 73
4
 74
0
 42
0.0000001
 43
0.0000001
 44
0.0000000001
 40
0.0
 40
0.0
 40
0.0
 40
0.0
 40
1.0
 40
1.0
 40
1.0
 40
1.0
 10
1075.2562109926
 20
281.5424837651
 30
0.0
 10
1075.7606526555
 20
280.0596606631
 30
0.0
 10
1076.6723955359
 20
278.6480337639
 30
0.0
 10
1077.8683148888
 20
277.6365978319
 30
0.0
  0
SPLINE
  5
2E6
100
AcDbEntity
  8
0
100
AcDbSpline
 62
7
  6
CONTINUOUS
 70
0
 71
3
 72
9
 73
5
 74
0
 42
0.0000001
 43
0.0000001
 44
0.0000000001
 40
0.0
 40
0.0
 40
0.0
 40
0.0
 40
0.2876638638
 40
1.0
 40
1.0
 40
1.0
 40
1.0
 10
1077.8683148888
 20
277.6365978319
 30
0.0
 10
1078.0841957367
 20
277.4540189263
 30
0.0
 10
1078.8657644984
 20
276.8690088458
 30
0.0
 10
1079.8481392608
 20
276.4658520905
 30
0.0
 10
1080.5480528489
 20
276.4833850585
 30
0.0
  0
SPLINE
  5
2E7
100
AcDbEntity
  8
0
100
AcDbSpline
 62
7
  6
CONTINUOUS
 70
0
 71
3
 72
8
 73
4
 74
0
 42
0.0000001
 43
0.0000001
 44
0.0000000001
 40
0.0
 40
0.0
 40
0.0
 40
0.0
 40
1.0
 40
1.0
 40
1.0
 40
1.0
 10
1081.6475776942
 20
1932.1030775403
 30
0.0
 10
1081.6475776942
 20
1931.5058710035
 30
0.0
 10
1081.5425863541
 20
1930.8769793951
 30
0.0
 10
1081.2506827951
 20
1930.3559727158
 30
0.0
  0
SPLINE
  5
2E8
100
AcDbEntity
  8
0
100
AcDbSpline
 62
7
  6
CONTINUOUS
 70
0
 71
3
 72
8
 73
4
 74
0
 42
0.0000001
 43
0.0000001
 44
0.0000000001
 40
0.0
 40
0.0
 40
0.0
 40
0.0
 40
1.0
 40
1.0
 40
1.0
 40
1.0
 10
1081.2506827951
 20
1930.3559727158
 30
0.0
 10
1081.0763567133
 20
1930.0448252488
 30
0.0
 10
1080.8172128236
 20
1929.7637807431
 30
0.0
 10
1080.5083833208
 20
1929.5853804426
 30
0.0
  0
SPLINE
  5
2E9
100
AcDbEntity
  8
0
100
AcDbSpline
 62
7
  6
CONTINUOUS
 70
0
 71
3
 72
8
 73
4
 74
0
 42
0.0000001
 43
0.0000001
 44
0.0000000001
 40
0.0
 40
0.0
 40
0.0
 40
0.0
 40
1.0
 40
1.0
 40
1.0
 40
1.0
 10
1081.6475776942
 20
891.0624957001
 30
0.0
 10
1081.6475776942
 20
890.4652891633
 30
0.0
 10
1081.5425863541
 20
889.8363975549
 30
0.0
 10
1081.2506827951
 20
889.3153908756
 30
0.0
  0
SPLINE
  5
2EA
100
AcDbEntity
  8
0
100
AcDbSpline
 62
7
  6
CONTINUOUS
 70
0
 71
3
 72
8
 73
4
 74
0
 42
0.0000001
 43
0.0000001
 44
0.0000000001
 40
0.0
 40
0.0
 40
0.0
 40
0.0
 40
1.0
 40
1.0
 40
1.0
 40
1.0
 10
1081.2506827951
 20
889.3153908756
 30
0.0
 10
1081.0763567133
 20
889.0042434086
 30
0.0
 10
1080.8172128236
 20
888.7231989029
 30
0.0
 10
1080.5083833208
 20
888.5447986024
 30
0.0
  0
SPLINE
  5
2EB
100
AcDbEntity
  8
0
100
AcDbSpline
 62
7
  6
CONTINUOUS
 70
0
 71
3
 72
8
 73
4
 74
0
 42
0.0000001
 43
0.0000001
 44
0.0000000001
 40
0.0
 40
0.0
 40
0.0
 40
0.0
 40
1.0
 40
1.0
 40
1.0
 40
1.0
 10
1081.6475776942
 20
1319.7262646932
 30
0.0
 10
1081.6475776942
 20
1319.1290581563
 30
0.0
 10
1081.5425863541
 20
1318.5001665479
 30
0.0
 10
1081.2506827951
 20
1317.9791598686
 30
0.0
  0
SPLINE
  5
2EC
100
AcDbEntity
  8
0
100
AcDbSpline
 62
7
  6
CONTINUOUS
 70
0
 71
3
 72
8
 73
4
 74
0
 42
0.0000001
 43
0.0000001
 44
0.0000000001
 40
0.0
 40
0.0
 40
0.0
 40
0.0
 40
1.0
 40
1.0
 40
1.0
 40
1.0
 10
1081.2506827951
 20
1317.9791598686
 30
0.0
 10
1081.0763567133
 20
1317.6680124016
 30
0.0
 10
1080.8172128236
 20
1317.3869678959
 30
0.0
 10
1080.5083833208
 20
1317.2085675954
 30
0.0
  0
SPLINE
  5
2ED
100
AcDbEntity
  8
0
100
AcDbSpline
 62
7
  6
CONTINUOUS
 70
0
 71
3
 72
8
 73
4
 74
0
 42
0.0000001
 43
0.0000001
 44
0.0000000001
 40
0.0
 40
0.0
 40
0.0
 40
0.0
 40
1.0
 40
1.0
 40
1.0
 40
1.0
 10
1081.6475776942
 20
278.6856828529
 30
0.0
 10
1081.6475776942
 20
278.0884763161
 30
0.0
 10
1081.5425863541
 20
277.4595847077
 30
0.0
 10
1081.2506827951
 20
276.9385780284
 30
0.0
  0
SPLINE
  5
2EE
100
AcDbEntity
  8
0
100
AcDbSpline
 62
7
  6
CONTINUOUS
 70
0
 71
3
 72
8
 73
4
 74
0
 42
0.0000001
 43
0.0000001
 44
0.0000000001
 40
0.0
 40
0.0
 40
0.0
 40
0.0
 40
1.0
 40
1.0
 40
1.0
 40
1.0
 10
1081.2506827951
 20
276.9385780284
 30
0.0
 10
1081.0763567133
 20
276.6274305614
 30
0.0
 10
1080.8172128236
 20
276.3463860557
 30
0.0
 10
1080.5083833208
 20
276.1679857552
 30
0.0
  0
SPLINE
  5
2EF
100
AcDbEntity
  8
0
100
AcDbSpline
 62
7
  6
CONTINUOUS
 70
0
 71
3
 72
8
 73
4
 74
0
 42
0.0000001
 43
0.0000001
 44
0.0000000001
 40
0.0
 40
0.0
 40
0.0
 40
0.0
 40
1.0
 40
1.0
 40
1.0
 40
1.0
 10
1075.2610249326
 20
1326.5440640292
 30
0.0
 10
1074.9654848562
 20
1326.0215234106
 30
0.0
 10
1074.8593160958
 20
1325.3887819184
 30
0.0
 10
1074.8593160958
 20
1324.7884548118
 30
0.0
  0
SPLINE
  5
2F0
100
AcDbEntity
  8
0
100
AcDbSpline
 62
7
  6
CONTINUOUS
 70
0
 71
3
 72
8
 73
4
 74
0
 42
0.0000001
 43
0.0000001
 44
0.0000000001
 40
0.0
 40
0.0
 40
0.0
 40
0.0
 40
1.0
 40
1.0
 40
1.0
 40
1.0
 10
1075.4059315009
 20
1326.9055284835
 30
0.0
 10
1075.8765207509
 20
1327.0460291504
 30
0.0
 10
1076.4091355844
 20
1326.9987370437
 30
0.0
 10
1076.8783694827
 20
1326.853774192
 30
0.0
  0
SPLINE
  5
2F1
100
AcDbEntity
  8
0
100
AcDbSpline
 62
7
  6
CONTINUOUS
 70
0
 71
3
 72
8
 73
4
 74
0
 42
0.0000001
 43
0.0000001
 44
0.0000000001
 40
0.0
 40
0.0
 40
0.0
 40
0.0
 40
1.0
 40
1.0
 40
1.0
 40
1.0
 10
1076.8783694827
 20
1326.853774192
 30
0.0
 10
1077.5130639226
 20
1326.6576947606
 30
0.0
 10
1078.0980727033
 20
1326.2894699993
 30
0.0
 10
1078.6077607137
 20
1325.8634391233
 30
0.0
  0
SPLINE
  5
2F2
100
AcDbEntity
  8
0
100
AcDbSpline
 62
7
  6
CONTINUOUS
 70
0
 71
3
 72
8
 73
4
 74
0
 42
0.0000001
 43
0.0000001
 44
0.0000000001
 40
0.0
 40
0.0
 40
0.0
 40
0.0
 40
1.0
 40
1.0
 40
1.0
 40
1.0
 10
1078.6077607137
 20
1325.8634391233
 30
0.0
 10
1079.8157299842
 20
1324.853738687
 30
0.0
 10
1080.7362109551
 20
1323.4353253497
 30
0.0
 10
1081.245868855
 20
1321.9457168258
 30
0.0
  0
SPLINE
  5
2F3
100
AcDbEntity
  8
0
100
AcDbSpline
 62
7
  6
CONTINUOUS
 70
0
 71
3
 72
8
 73
4
 74
0
 42
0.0000001
 43
0.0000001
 44
0.0000000001
 40
0.0
 40
0.0
 40
0.0
 40
0.0
 40
1.0
 40
1.0
 40
1.0
 40
1.0
 10
1081.245868855
 20
1321.9457168258
 30
0.0
 10
1081.4892529233
 20
1321.2343632242
 30
0.0
 10
1081.6475776942
 20
1320.4781022761
 30
0.0
 10
1081.6475776942
 20
1319.7262646932
 30
0.0
  0
SPLINE
  5
2F4
100
AcDbEntity
  8
0
100
AcDbSpline
 62
7
  6
CONTINUOUS
 70
0
 71
3
 72
9
 73
5
 74
0
 42
0.0000001
 43
0.0000001
 44
0.0000000001
 40
0.0
 40
0.0
 40
0.0
 40
0.0
 40
0.2338315643
 40
1.0
 40
1.0
 40
1.0
 40
1.0
 10
702.2831071201
 20
2165.4127282409
 30
0.0
 10
702.2831071201
 20
2164.7752600162
 30
0.0
 10
702.7011249671
 20
2162.0644987387
 30
0.0
 10
704.244372465
 20
2159.5391175307
 30
0.0
 10
705.8391966028
 20
2158.1903121667
 30
0.0
  0
SPLINE
  5
2F5
100
AcDbEntity
  8
0
100
AcDbSpline
 62
7
  6
CONTINUOUS
 70
0
 71
3
 72
9
 73
5
 74
0
 42
0.0000001
 43
0.0000001
 44
0.0000000001
 40
0.0
 40
0.0
 40
0.0
 40
0.0
 40
0.2896776676
 40
1.0
 40
1.0
 40
1.0
 40
1.0
 10
705.8391966028
 20
2158.1903121667
 30
0.0
 10
706.1043698063
 20
2157.9660447814
 30
0.0
 10
707.0578068616
 20
2157.2548709943
 30
0.0
 10
708.2743164502
 20
2156.775011471
 30
0.0
 10
709.1239497887
 20
2156.8328914295
 30
0.0
  0
SPLINE
  5
2F6
100
AcDbEntity
  8
0
100
AcDbSpline
 62
7
  6
CONTINUOUS
 70
0
 71
3
 72
8
 73
4
 74
0
 42
0.0000001
 43
0.0000001
 44
0.0000000001
 40
0.0
 40
0.0
 40
0.0
 40
0.0
 40
1.0
 40
1.0
 40
1.0
 40
1.0
 10
1075.2610249326
 20
897.8802950362
 30
0.0
 10
1074.9654848562
 20
897.3577544176
 30
0.0
 10
1074.8593160958
 20
896.7250129254
 30
0.0
 10
1074.8593160958
 20
896.1246858188
 30
0.0
  0
SPLINE
  5
2F7
100
AcDbEntity
  8
0
100
AcDbSpline
 62
7
  6
CONTINUOUS
 70
0
 71
3
 72
8
 73
4
 74
0
 42
0.0000001
 43
0.0000001
 44
0.0000000001
 40
0.0
 40
0.0
 40
0.0
 40
0.0
 40
1.0
 40
1.0
 40
1.0
 40
1.0
 10
1075.4059315009
 20
898.2417594905
 30
0.0
 10
1075.8765207509
 20
898.3822601574
 30
0.0
 10
1076.4091355844
 20
898.3349680506
 30
0.0
 10
1076.8783694827
 20
898.190005199
 30
0.0
  0
SPLINE
  5
2F8
100
AcDbEntity
  8
0
100
AcDbSpline
 62
7
  6
CONTINUOUS
 70
0
 71
3
 72
8
 73
4
 74
0
 42
0.0000001
 43
0.0000001
 44
0.0000000001
 40
0.0
 40
0.0
 40
0.0
 40
0.0
 40
1.0
 40
1.0
 40
1.0
 40
1.0
 10
1076.8783694827
 20
898.190005199
 30
0.0
 10
1077.5130639226
 20
897.9939257676
 30
0.0
 10
1078.0980727033
 20
897.6257010063
 30
0.0
 10
1078.6077607137
 20
897.1996701302
 30
0.0
  0
SPLINE
  5
2F9
100
AcDbEntity
  8
0
100
AcDbSpline
 62
7
  6
CONTINUOUS
 70
0
 71
3
 72
8
 73
4
 74
0
 42
0.0000001
 43
0.0000001
 44
0.0000000001
 40
0.0
 40
0.0
 40
0.0
 40
0.0
 40
1.0
 40
1.0
 40
1.0
 40
1.0
 10
1078.6077607137
 20
897.1996701302
 30
0.0
 10
1079.8157299842
 20
896.189969694
 30
0.0
 10
1080.7362109551
 20
894.7715563567
 30
0.0
 10
1081.245868855
 20
893.2819478328
 30
0.0
  0
SPLINE
  5
2FA
100
AcDbEntity
  8
0
100
AcDbSpline
 62
7
  6
CONTINUOUS
 70
0
 71
3
 72
8
 73
4
 74
0
 42
0.0000001
 43
0.0000001
 44
0.0000000001
 40
0.0
 40
0.0
 40
0.0
 40
0.0
 40
1.0
 40
1.0
 40
1.0
 40
1.0
 10
1081.245868855
 20
893.2819478328
 30
0.0
 10
1081.4892529233
 20
892.5705942312
 30
0.0
 10
1081.6475776942
 20
891.8143332831
 30
0.0
 10
1081.6475776942
 20
891.0624957001
 30
0.0
  0
SPLINE
  5
2FB
100
AcDbEntity
  8
0
100
AcDbSpline
 62
7
  6
CONTINUOUS
 70
0
 71
3
 72
8
 73
4
 74
0
 42
0.0000001
 43
0.0000001
 44
0.0000000001
 40
0.0
 40
0.0
 40
0.0
 40
0.0
 40
1.0
 40
1.0
 40
1.0
 40
1.0
 10
1075.2610249326
 20
1938.9208768764
 30
0.0
 10
1074.9654848562
 20
1938.3983362578
 30
0.0
 10
1074.8593160958
 20
1937.7655947656
 30
0.0
 10
1074.8593160958
 20
1937.165267659
 30
0.0
  0
SPLINE
  5
2FC
100
AcDbEntity
  8
0
100
AcDbSpline
 62
7
  6
CONTINUOUS
 70
0
 71
3
 72
8
 73
4
 74
0
 42
0.0000001
 43
0.0000001
 44
0.0000000001
 40
0.0
 40
0.0
 40
0.0
 40
0.0
 40
1.0
 40
1.0
 40
1.0
 40
1.0
 10
1075.4059315009
 20
1939.2823413307
 30
0.0
 10
1075.8765207509
 20
1939.4228419976
 30
0.0
 10
1076.4091355844
 20
1939.3755498909
 30
0.0
 10
1076.8783694827
 20
1939.2305870392
 30
0.0
  0
SPLINE
  5
2FD
100
AcDbEntity
  8
0
100
AcDbSpline
 62
7
  6
CONTINUOUS
 70
0
 71
3
 72
8
 73
4
 74
0
 42
0.0000001
 43
0.0000001
 44
0.0000000001
 40
0.0
 40
0.0
 40
0.0
 40
0.0
 40
1.0
 40
1.0
 40
1.0
 40
1.0
 10
1076.8783694827
 20
1939.2305870392
 30
0.0
 10
1077.5130639226
 20
1939.0345076078
 30
0.0
 10
1078.0980727033
 20
1938.6662828465
 30
0.0
 10
1078.6077607137
 20
1938.2402519705
 30
0.0
  0
SPLINE
  5
2FE
100
AcDbEntity
  8
0
100
AcDbSpline
 62
7
  6
CONTINUOUS
 70
0
 71
3
 72
8
 73
4
 74
0
 42
0.0000001
 43
0.0000001
 44
0.0000000001
 40
0.0
 40
0.0
 40
0.0
 40
0.0
 40
1.0
 40
1.0
 40
1.0
 40
1.0
 10
1078.6077607137
 20
1938.2402519705
 30
0.0
 10
1079.8157299842
 20
1937.2305515342
 30
0.0
 10
1080.7362109551
 20
1935.8121381969
 30
0.0
 10
1081.245868855
 20
1934.322529673
 30
0.0
  0
SPLINE
  5
2FF
100
AcDbEntity
  8
0
100
AcDbSpline
 62
7
  6
CONTINUOUS
 70
0
 71
3
 72
8
 73
4
 74
0
 42
0.0000001
 43
0.0000001
 44
0.0000000001
 40
0.0
 40
0.0
 40
0.0
 40
0.0
 40
1.0
 40
1.0
 40
1.0
 40
1.0
 10
1081.245868855
 20
1934.322529673
 30
0.0
 10
1081.4892529233
 20
1933.6111760714
 30
0.0
 10
1081.6475776942
 20
1932.8549151233
 30
0.0
 10
1081.6475776942
 20
1932.1030775403
 30
0.0
  0
SPLINE
  5
300
100
AcDbEntity
  8
0
100
AcDbSpline
 62
7
  6
CONTINUOUS
 70
0
 71
3
 72
8
 73
4
 74
0
 42
0.0000001
 43
0.0000001
 44
0.0000000001
 40
0.0
 40
0.0
 40
0.0
 40
0.0
 40
1.0
 40
1.0
 40
1.0
 40
1.0
 10
1040.1802914421
 20
256.190237754
 30
0.0
 10
1040.1802914181
 20
255.7779255431
 30
0.0
 10
1039.9581160544
 20
255.3589084222
 30
0.0
 10
1039.6709610904
 20
255.0630311065
 30
0.0
  0
SPLINE
  5
301
100
AcDbEntity
  8
0
100
AcDbSpline
 62
7
  6
CONTINUOUS
 70
0
 71
3
 72
9
 73
5
 74
0
 42
0.0000001
 43
0.0000001
 44
0.0000000001
 40
0.0
 40
0.0
 40
0.0
 40
0.0
 40
0.4876945157
 40
1.0
 40
1.0
 40
1.0
 40
1.0
 10
1039.6709610904
 20
255.0630311065
 30
0.0
 10
1039.6098652682
 20
255.0000794946
 30
0.0
 10
1039.4775261992
 20
254.8777379165
 30
0.0
 10
1039.3342547972
 20
254.7685383066
 30
0.0
 10
1039.2586706601
 20
254.7158226416
 30
0.0
  0
SPLINE
  5
302
100
AcDbEntity
  8
0
100
AcDbSpline
 62
7
  6
CONTINUOUS
 70
0
 71
3
 72
8
 73
4
 74
0
 42
0.0000001
 43
0.0000001
 44
0.0000000001
 40
0.0
 40
0.0
 40
0.0
 40
0.0
 40
1.0
 40
1.0
 40
1.0
 40
1.0
 10
689.223221779
 20
2180.1554671043
 30
0.0
 10
689.0141268327
 20
2179.962274054
 30
0.0
 10
688.8433340025
 20
2179.6752955988
 30
0.0
 10
688.8432266404
 20
2179.3906128987
 30
0.0
  0
SPLINE
  5
303
100
AcDbEntity
  8
0
100
AcDbSpline
 62
7
  6
CONTINUOUS
 70
0
 71
3
 72
8
 73
4
 74
0
 42
0.0000001
 43
0.0000001
 44
0.0000000001
 40
0.0
 40
0.0
 40
0.0
 40
0.0
 40
1.0
 40
1.0
 40
1.0
 40
1.0
 10
1039.7828817614
 20
2020.3488482981
 30
0.0
 10
1039.632012892
 20
2020.5289380743
 30
0.0
 10
1039.451373223
 20
2020.6855725103
 30
0.0
 10
1039.2586773989
 20
2020.8199676835
 30
0.0
  0
SPLINE
  5
304
100
AcDbEntity
  8
0
100
AcDbSpline
 62
7
  6
CONTINUOUS
 70
0
 71
3
 72
8
 73
4
 74
0
 42
0.0000001
 43
0.0000001
 44
0.0000000001
 40
0.0
 40
0.0
 40
0.0
 40
0.0
 40
1.0
 40
1.0
 40
1.0
 40
1.0
 10
751.7063797365
 20
2186.6661316897
 30
0.0
 10
751.5555108672
 20
2186.8462214659
 30
0.0
 10
751.3748711981
 20
2187.0028559018
 30
0.0
 10
751.182175374
 20
2187.1372510751
 30
0.0
  0
SPLINE
  5
305
100
AcDbEntity
  8
0
100
AcDbSpline
 62
7
  6
CONTINUOUS
 70
0
 71
3
 72
8
 73
4
 74
0
 42
0.0000001
 43
0.0000001
 44
0.0000000001
 40
0.0
 40
0.0
 40
0.0
 40
0.0
 40
1.0
 40
1.0
 40
1.0
 40
1.0
 10
698.2159829339
 20
2224.0488420337
 30
0.0
 10
697.6069884533
 20
2224.3989389912
 30
0.0
 10
696.7458689989
 20
2224.5892593934
 30
0.0
 10
696.1202395872
 20
2224.2698380474
 30
0.0
  0
SPLINE
  5
306
100
AcDbEntity
  8
0
100
AcDbSpline
 62
7
  6
CONTINUOUS
 70
0
 71
3
 72
8
 73
4
 74
0
 42
0.0000001
 43
0.0000001
 44
0.0000000001
 40
0.0
 40
0.0
 40
0.0
 40
0.0
 40
1.0
 40
1.0
 40
1.0
 40
1.0
 10
693.2542400245
 20
2153.8099917078
 30
0.0
 10
693.5089388778
 20
2153.4560210665
 30
0.0
 10
693.7892673861
 20
2153.1187965441
 30
0.0
 10
694.093895231
 20
2152.8067571285
 30
0.0
  0
SPLINE
  5
307
100
AcDbEntity
  8
0
100
AcDbSpline
 62
7
  6
CONTINUOUS
 70
0
 71
3
 72
8
 73
4
 74
0
 42
0.0000001
 43
0.0000001
 44
0.0000000001
 40
0.0
 40
0.0
 40
0.0
 40
0.0
 40
1.0
 40
1.0
 40
1.0
 40
1.0
 10
1097.5363130468
 20
226.0810430122
 30
0.0
 10
1097.5360941873
 20
225.3654861454
 30
0.0
 10
1097.261595797
 20
224.5088528817
 30
0.0
 10
1096.6600342778
 20
224.121366861
 30
0.0
  0
SPLINE
  5
308
100
AcDbEntity
  8
0
100
AcDbSpline
 62
7
  6
CONTINUOUS
 70
0
 71
3
 72
9
 73
5
 74
0
 42
0.0000001
 43
0.0000001
 44
0.0000000001
 40
0.0
 40
0.0
 40
0.0
 40
0.0
 40
0.2099658218
 40
1.0
 40
1.0
 40
1.0
 40
1.0
 10
709.068557176
 20
2156.5177719994
 30
0.0
 10
708.7928699354
 20
2156.3585168565
 30
0.0
 10
707.2863026279
 20
2155.9114190894
 30
0.0
 10
705.7341155735
 20
2156.7790487152
 30
0.0
 10
704.8149623202
 20
2157.5473376714
 30
0.0
  0
SPLINE
  5
309
100
AcDbEntity
  8
0
100
AcDbSpline
 62
7
  6
CONTINUOUS
 70
0
 71
3
 72
8
 73
4
 74
0
 42
0.0000001
 43
0.0000001
 44
0.0000000001
 40
0.0
 40
0.0
 40
0.0
 40
0.0
 40
1.0
 40
1.0
 40
1.0
 40
1.0
 10
704.8149623202
 20
2157.5473376714
 30
0.0
 10
703.3873622795
 20
2158.7406200119
 30
0.0
 10
702.2995211402
 20
2160.4169266862
 30
0.0
 10
701.6971981715
 20
2162.1773731244
 30
0.0
  0
SPLINE
  5
30A
100
AcDbEntity
  8
0
100
AcDbSpline
 62
7
  6
CONTINUOUS
 70
0
 71
3
 72
8
 73
4
 74
0
 42
0.0000001
 43
0.0000001
 44
0.0000000001
 40
0.0
 40
0.0
 40
0.0
 40
0.0
 40
1.0
 40
1.0
 40
1.0
 40
1.0
 10
701.6971981715
 20
2162.1773731244
 30
0.0
 10
701.4095624561
 20
2163.0180637454
 30
0.0
 10
701.2224513643
 20
2163.9118266844
 30
0.0
 10
701.2224513643
 20
2164.8003620101
 30
0.0
  0
SPLINE
  5
30B
100
AcDbEntity
  8
0
100
AcDbSpline
 62
7
  6
CONTINUOUS
 70
0
 71
3
 72
8
 73
4
 74
0
 42
0.0000001
 43
0.0000001
 44
0.0000000001
 40
0.0
 40
0.0
 40
0.0
 40
0.0
 40
1.0
 40
1.0
 40
1.0
 40
1.0
 10
701.2224513643
 20
2164.8003620101
 30
0.0
 10
701.2224513643
 20
2165.5061515529
 30
0.0
 10
701.3465320376
 20
2166.2493870893
 30
0.0
 10
701.6915089697
 20
2166.8651222557
 30
0.0
  0
SPLINE
  5
30C
100
AcDbEntity
  8
0
100
AcDbSpline
 62
7
  6
CONTINUOUS
 70
0
 71
3
 72
8
 73
4
 74
0
 42
0.0000001
 43
0.0000001
 44
0.0000000001
 40
0.0
 40
0.0
 40
0.0
 40
0.0
 40
1.0
 40
1.0
 40
1.0
 40
1.0
 10
701.6915089697
 20
2166.8651222557
 30
0.0
 10
701.8975307011
 20
2167.2328419881
 30
0.0
 10
702.2037916598
 20
2167.5649854941
 30
0.0
 10
702.5687719796
 20
2167.775822212
 30
0.0
  0
SPLINE
  5
30D
100
AcDbEntity
  8
0
100
AcDbSpline
 62
7
  6
CONTINUOUS
 70
0
 71
3
 72
9
 73
5
 74
0
 42
0.0000001
 43
0.0000001
 44
0.0000000001
 40
0.0
 40
0.0
 40
0.0
 40
0.0
 40
0.2099658222
 40
1.0
 40
1.0
 40
1.0
 40
1.0
 10
1080.5083833208
 20
276.1679857552
 30
0.0
 10
1080.2751095004
 20
276.0332314027
 30
0.0
 10
1079.0003217743
 20
275.6549179038
 30
0.0
 10
1077.6869327193
 20
276.3890660423
 30
0.0
 10
1076.9091876526
 20
277.0391566963
 30
0.0
  0
SPLINE
  5
30E
100
AcDbEntity
  8
0
100
AcDbSpline
 62
7
  6
CONTINUOUS
 70
0
 71
3
 72
8
 73
4
 74
0
 42
0.0000001
 43
0.0000001
 44
0.0000000001
 40
0.0
 40
0.0
 40
0.0
 40
0.0
 40
1.0
 40
1.0
 40
1.0
 40
1.0
 10
1076.9091876526
 20
277.0391566963
 30
0.0
 10
1075.7012183821
 20
278.0488571326
 30
0.0
 10
1074.7807374113
 20
279.4672704699
 30
0.0
 10
1074.2710795113
 20
280.9568789938
 30
0.0
  0
SPLINE
  5
30F
100
AcDbEntity
  8
0
100
AcDbSpline
 62
7
  6
CONTINUOUS
 70
0
 71
3
 72
8
 73
4
 74
0
 42
0.0000001
 43
0.0000001
 44
0.0000000001
 40
0.0
 40
0.0
 40
0.0
 40
0.0
 40
1.0
 40
1.0
 40
1.0
 40
1.0
 10
1074.2710795113
 20
280.9568789938
 30
0.0
 10
1074.027695443
 20
281.6682325954
 30
0.0
 10
1073.8693706721
 20
282.4244935434
 30
0.0
 10
1073.8693706721
 20
283.1763311264
 30
0.0
  0
SPLINE
  5
310
100
AcDbEntity
  8
0
100
AcDbSpline
 62
7
  6
CONTINUOUS
 70
0
 71
3
 72
8
 73
4
 74
0
 42
0.0000001
 43
0.0000001
 44
0.0000000001
 40
0.0
 40
0.0
 40
0.0
 40
0.0
 40
1.0
 40
1.0
 40
1.0
 40
1.0
 10
1082.6878894523
 20
1951.411641561
 30
0.0
 10
1083.5825708098
 20
1950.8951087239
 30
0.0
 10
1084.8086787167
 20
1950.8576357679
 30
0.0
 10
1085.7804560329
 20
1951.2082206375
 30
0.0
  0
SPLINE
  5
311
100
AcDbEntity
  8
0
100
AcDbSpline
 62
7
  6
CONTINUOUS
 70
0
 71
3
 72
8
 73
4
 74
0
 42
0.0000001
 43
0.0000001
 44
0.0000000001
 40
0.0
 40
0.0
 40
0.0
 40
0.0
 40
1.0
 40
1.0
 40
1.0
 40
1.0
 10
1073.8693706721
 20
1936.5937258138
 30
0.0
 10
1073.8693706721
 20
1937.1909323507
 30
0.0
 10
1073.9743620123
 20
1937.8198239591
 30
0.0
 10
1074.2662655713
 20
1938.3408306384
 30
0.0
  0
SPLINE
  5
312
100
AcDbEntity
  8
0
100
AcDbSpline
 62
7
  6
CONTINUOUS
 70
0
 71
3
 72
8
 73
4
 74
0
 42
0.0000001
 43
0.0000001
 44
0.0000000001
 40
0.0
 40
0.0
 40
0.0
 40
0.0
 40
1.0
 40
1.0
 40
1.0
 40
1.0
 10
1074.2662655713
 20
1938.3408306384
 30
0.0
 10
1074.4405916531
 20
1938.6519781054
 30
0.0
 10
1074.6997355428
 20
1938.9330226111
 30
0.0
 10
1075.0085650455
 20
1939.1114229116
 30
0.0
  0
SPLINE
  5
313
100
AcDbEntity
  8
0
100
AcDbSpline
 62
7
  6
CONTINUOUS
 70
0
 71
3
 72
8
 73
4
 74
0
 42
0.0000001
 43
0.0000001
 44
0.0000000001
 40
0.0
 40
0.0
 40
0.0
 40
0.0
 40
1.0
 40
1.0
 40
1.0
 40
1.0
 10
1073.8693706721
 20
895.5531439736
 30
0.0
 10
1073.8693706721
 20
896.1503505105
 30
0.0
 10
1073.9743620123
 20
896.7792421189
 30
0.0
 10
1074.2662655713
 20
897.3002487982
 30
0.0
  0
SPLINE
  5
314
100
AcDbEntity
  8
0
100
AcDbSpline
 62
7
  6
CONTINUOUS
 70
0
 71
3
 72
8
 73
4
 74
0
 42
0.0000001
 43
0.0000001
 44
0.0000000001
 40
0.0
 40
0.0
 40
0.0
 40
0.0
 40
1.0
 40
1.0
 40
1.0
 40
1.0
 10
1074.2662655713
 20
897.3002487982
 30
0.0
 10
1074.4405916531
 20
897.6113962651
 30
0.0
 10
1074.6997355428
 20
897.8924407708
 30
0.0
 10
1075.0085650455
 20
898.0708410714
 30
0.0
  0
SPLINE
  5
315
100
AcDbEntity
  8
0
100
AcDbSpline
 62
7
  6
CONTINUOUS
 70
0
 71
3
 72
8
 73
4
 74
0
 42
0.0000001
 43
0.0000001
 44
0.0000000001
 40
0.0
 40
0.0
 40
0.0
 40
0.0
 40
1.0
 40
1.0
 40
1.0
 40
1.0
 10
1081.4810587879
 20
228.7654368638
 30
0.0
 10
1083.7010146597
 20
227.4898943462
 30
0.0
 10
1085.9356414754
 20
226.2399506936
 30
0.0
 10
1088.1529518283
 20
224.959814925
 30
0.0
  0
SPLINE
  5
316
100
AcDbEntity
  8
0
100
AcDbSpline
 62
7
  6
CONTINUOUS
 70
0
 71
3
 72
8
 73
4
 74
0
 42
0.0000001
 43
0.0000001
 44
0.0000000001
 40
0.0
 40
0.0
 40
0.0
 40
0.0
 40
1.0
 40
1.0
 40
1.0
 40
1.0
 10
1073.8693706721
 20
1324.2169129666
 30
0.0
 10
1073.8693706721
 20
1324.8141195035
 30
0.0
 10
1073.9743620123
 20
1325.4430111119
 30
0.0
 10
1074.2662655713
 20
1325.9640177912
 30
0.0
  0
SPLINE
  5
317
100
AcDbEntity
  8
0
100
AcDbSpline
 62
7
  6
CONTINUOUS
 70
0
 71
3
 72
8
 73
4
 74
0
 42
0.0000001
 43
0.0000001
 44
0.0000000001
 40
0.0
 40
0.0
 40
0.0
 40
0.0
 40
1.0
 40
1.0
 40
1.0
 40
1.0
 10
1074.2662655713
 20
1325.9640177912
 30
0.0
 10
1074.4405916531
 20
1326.2751652582
 30
0.0
 10
1074.6997355428
 20
1326.5562097639
 30
0.0
 10
1075.0085650455
 20
1326.7346100644
 30
0.0
  0
SPLINE
  5
318
100
AcDbEntity
  8
0
100
AcDbSpline
 62
7
  6
CONTINUOUS
 70
0
 71
3
 72
8
 73
4
 74
0
 42
0.0000001
 43
0.0000001
 44
0.0000000001
 40
0.0
 40
0.0
 40
0.0
 40
0.0
 40
1.0
 40
1.0
 40
1.0
 40
1.0
 10
1073.8693706721
 20
283.1763311264
 30
0.0
 10
1073.8693706721
 20
283.7735376633
 30
0.0
 10
1073.9743620123
 20
284.4024292717
 30
0.0
 10
1074.2662655713
 20
284.923435951
 30
0.0
  0
SPLINE
  5
319
100
AcDbEntity
  8
0
100
AcDbSpline
 62
7
  6
CONTINUOUS
 70
0
 71
3
 72
8
 73
4
 74
0
 42
0.0000001
 43
0.0000001
 44
0.0000000001
 40
0.0
 40
0.0
 40
0.0
 40
0.0
 40
1.0
 40
1.0
 40
1.0
 40
1.0
 10
1074.2662655713
 20
284.923435951
 30
0.0
 10
1074.4405916531
 20
285.234583418
 30
0.0
 10
1074.6997355428
 20
285.5156279237
 30
0.0
 10
1075.0085650455
 20
285.6940282242
 30
0.0
  0
SPLINE
  5
31A
100
AcDbEntity
  8
0
100
AcDbSpline
 62
7
  6
CONTINUOUS
 70
0
 71
3
 72
9
 73
5
 74
0
 42
0.0000001
 43
0.0000001
 44
0.0000000001
 40
0.0
 40
0.0
 40
0.0
 40
0.0
 40
0.510330154
 40
1.0
 40
1.0
 40
1.0
 40
1.0
 10
1039.0087935627
 20
257.8232143694
 30
0.0
 10
1039.0854877306
 20
257.7789359727
 30
0.0
 10
1039.2327011863
 20
257.6867144696
 30
0.0
 10
1039.3722482768
 20
257.5831899962
 30
0.0
 10
1039.4382221419
 20
257.5296374596
 30
0.0
  0
SPLINE
  5
31B
100
AcDbEntity
  8
0
100
AcDbSpline
 62
7
  6
CONTINUOUS
 70
0
 71
3
 72
8
 73
4
 74
0
 42
0.0000001
 43
0.0000001
 44
0.0000000001
 40
0.0
 40
0.0
 40
0.0
 40
0.0
 40
1.0
 40
1.0
 40
1.0
 40
1.0
 10
1039.4382221419
 20
257.5296374596
 30
0.0
 10
1039.8345084631
 20
257.2079625404
 30
0.0
 10
1040.1802914719
 20
256.7006470035
 30
0.0
 10
1040.1802914421
 20
256.190237754
 30
0.0
  0
SPLINE
  5
31C
100
AcDbEntity
  8
0
100
AcDbSpline
 62
7
  6
CONTINUOUS
 70
0
 71
3
 72
9
 73
5
 74
0
 42
0.0000001
 43
0.0000001
 44
0.0000000001
 40
0.0
 40
0.0
 40
0.0
 40
0.0
 40
0.2099658222
 40
1.0
 40
1.0
 40
1.0
 40
1.0
 10
1080.5083833208
 20
1317.2085675954
 30
0.0
 10
1080.2751095004
 20
1317.0738132429
 30
0.0
 10
1079.0003217743
 20
1316.695499744
 30
0.0
 10
1077.6869327193
 20
1317.4296478825
 30
0.0
 10
1076.9091876526
 20
1318.0797385365
 30
0.0
  0
SPLINE
  5
31D
100
AcDbEntity
  8
0
100
AcDbSpline
 62
7
  6
CONTINUOUS
 70
0
 71
3
 72
8
 73
4
 74
0
 42
0.0000001
 43
0.0000001
 44
0.0000000001
 40
0.0
 40
0.0
 40
0.0
 40
0.0
 40
1.0
 40
1.0
 40
1.0
 40
1.0
 10
1076.9091876526
 20
1318.0797385365
 30
0.0
 10
1075.7012183821
 20
1319.0894389728
 30
0.0
 10
1074.7807374113
 20
1320.5078523101
 30
0.0
 10
1074.2710795113
 20
1321.997460834
 30
0.0
  0
SPLINE
  5
31E
100
AcDbEntity
  8
0
100
AcDbSpline
 62
7
  6
CONTINUOUS
 70
0
 71
3
 72
8
 73
4
 74
0
 42
0.0000001
 43
0.0000001
 44
0.0000000001
 40
0.0
 40
0.0
 40
0.0
 40
0.0
 40
1.0
 40
1.0
 40
1.0
 40
1.0
 10
1074.2710795113
 20
1321.997460834
 30
0.0
 10
1074.027695443
 20
1322.7088144356
 30
0.0
 10
1073.8693706721
 20
1323.4650753837
 30
0.0
 10
1073.8693706721
 20
1324.2169129666
 30
0.0
  0
SPLINE
  5
31F
100
AcDbEntity
  8
0
100
AcDbSpline
 62
7
  6
CONTINUOUS
 70
0
 71
3
 72
9
 73
5
 74
0
 42
0.0000001
 43
0.0000001
 44
0.0000000001
 40
0.0
 40
0.0
 40
0.0
 40
0.0
 40
0.2099658222
 40
1.0
 40
1.0
 40
1.0
 40
1.0
 10
1080.5083833208
 20
888.5447986024
 30
0.0
 10
1080.2751095004
 20
888.4100442499
 30
0.0
 10
1079.0003217743
 20
888.031730751
 30
0.0
 10
1077.6869327193
 20
888.7658788895
 30
0.0
 10
1076.9091876526
 20
889.4159695435
 30
0.0
  0
SPLINE
  5
320
100
AcDbEntity
  8
0
100
AcDbSpline
 62
7
  6
CONTINUOUS
 70
0
 71
3
 72
8
 73
4
 74
0
 42
0.0000001
 43
0.0000001
 44
0.0000000001
 40
0.0
 40
0.0
 40
0.0
 40
0.0
 40
1.0
 40
1.0
 40
1.0
 40
1.0
 10
1076.9091876526
 20
889.4159695435
 30
0.0
 10
1075.7012183821
 20
890.4256699798
 30
0.0
 10
1074.7807374113
 20
891.8440833171
 30
0.0
 10
1074.2710795113
 20
893.333691841
 30
0.0
  0
SPLINE
  5
321
100
AcDbEntity
  8
0
100
AcDbSpline
 62
7
  6
CONTINUOUS
 70
0
 71
3
 72
8
 73
4
 74
0
 42
0.0000001
 43
0.0000001
 44
0.0000000001
 40
0.0
 40
0.0
 40
0.0
 40
0.0
 40
1.0
 40
1.0
 40
1.0
 40
1.0
 10
1074.2710795113
 20
893.333691841
 30
0.0
 10
1074.027695443
 20
894.0450454425
 30
0.0
 10
1073.8693706721
 20
894.8013063906
 30
0.0
 10
1073.8693706721
 20
895.5531439736
 30
0.0
  0
SPLINE
  5
322
100
AcDbEntity
  8
0
100
AcDbSpline
 62
7
  6
CONTINUOUS
 70
0
 71
3
 72
9
 73
5
 74
0
 42
0.0000001
 43
0.0000001
 44
0.0000000001
 40
0.0
 40
0.0
 40
0.0
 40
0.0
 40
0.4799101093
 40
1.0
 40
1.0
 40
1.0
 40
1.0
 10
1096.6600342778
 20
1993.0233112571
 30
0.0
 10
1096.5741068918
 20
1992.9753074335
 30
0.0
 10
1096.394304697
 20
1992.8766376396
 30
0.0
 10
1096.2146786624
 20
1992.7776467353
 30
0.0
 10
1096.1216228108
 20
1992.7255064656
 30
0.0
  0
SPLINE
  5
323
100
AcDbEntity
  8
0
100
AcDbSpline
 62
7
  6
CONTINUOUS
 70
0
 71
3
 72
9
 73
5
 74
0
 42
0.0000001
 43
0.0000001
 44
0.0000000001
 40
0.0
 40
0.0
 40
0.0
 40
0.0
 40
0.7671212691
 40
1.0
 40
1.0
 40
1.0
 40
1.0
 10
1096.6600342778
 20
1993.0233112571
 30
0.0
 10
1096.8880069549
 20
1993.1396312387
 30
0.0
 10
1097.1769781785
 20
1993.2102596965
 30
0.0
 10
1097.4643208366
 20
1993.5351944682
 30
0.0
 10
1097.5365153152
 20
1993.5064810654
 30
0.0
  0
SPLINE
  5
324
100
AcDbEntity
  8
0
100
AcDbSpline
 62
7
  6
CONTINUOUS
 70
0
 71
3
 72
8
 73
4
 74
0
 42
0.0000001
 43
0.0000001
 44
0.0000000001
 40
0.0
 40
0.0
 40
0.0
 40
0.0
 40
1.0
 40
1.0
 40
1.0
 40
1.0
 10
692.3180587136
 20
2153.1644813547
 30
0.0
 10
691.7660406855
 20
2153.9158227215
 30
0.0
 10
691.3194211453
 20
2154.7586363068
 30
0.0
 10
691.0176085224
 20
2155.6407626547
 30
0.0
  0
SPLINE
  5
325
100
AcDbEntity
  8
0
100
AcDbSpline
 62
7
  6
CONTINUOUS
 70
0
 71
3
 72
9
 73
5
 74
0
 42
0.0000001
 43
0.0000001
 44
0.0000000001
 40
0.0
 40
0.0
 40
0.0
 40
0.0
 40
0.2099658222
 40
1.0
 40
1.0
 40
1.0
 40
1.0
 10
1080.5083833208
 20
1929.5853804426
 30
0.0
 10
1080.2751095004
 20
1929.4506260901
 30
0.0
 10
1079.0003217743
 20
1929.0723125912
 30
0.0
 10
1077.6869327193
 20
1929.8064607297
 30
0.0
 10
1076.9091876526
 20
1930.4565513837
 30
0.0
  0
SPLINE
  5
326
100
AcDbEntity
  8
0
100
AcDbSpline
 62
7
  6
CONTINUOUS
 70
0
 71
3
 72
8
 73
4
 74
0
 42
0.0000001
 43
0.0000001
 44
0.0000000001
 40
0.0
 40
0.0
 40
0.0
 40
0.0
 40
1.0
 40
1.0
 40
1.0
 40
1.0
 10
1076.9091876526
 20
1930.4565513837
 30
0.0
 10
1075.7012183821
 20
1931.46625182
 30
0.0
 10
1074.7807374113
 20
1932.8846651573
 30
0.0
 10
1074.2710795113
 20
1934.3742736812
 30
0.0
  0
SPLINE
  5
327
100
AcDbEntity
  8
0
100
AcDbSpline
 62
7
  6
CONTINUOUS
 70
0
 71
3
 72
8
 73
4
 74
0
 42
0.0000001
 43
0.0000001
 44
0.0000000001
 40
0.0
 40
0.0
 40
0.0
 40
0.0
 40
1.0
 40
1.0
 40
1.0
 40
1.0
 10
1074.2710795113
 20
1934.3742736812
 30
0.0
 10
1074.027695443
 20
1935.0856272827
 30
0.0
 10
1073.8693706721
 20
1935.8418882308
 30
0.0
 10
1073.8693706721
 20
1936.5937258138
 30
0.0
  0
SPLINE
  5
328
100
AcDbEntity
  8
0
100
AcDbSpline
 62
7
  6
CONTINUOUS
 70
0
 71
3
 72
8
 73
4
 74
0
 42
0.0000001
 43
0.0000001
 44
0.0000000001
 40
0.0
 40
0.0
 40
0.0
 40
0.0
 40
1.0
 40
1.0
 40
1.0
 40
1.0
 10
690.7345134148
 20
2158.8874264791
 30
0.0
 10
690.7967373645
 20
2159.1370573514
 30
0.0
 10
690.8870461818
 20
2159.382876452
 30
0.0
 10
691.0127945824
 20
2159.607319612
 30
0.0
  0
SPLINE
  5
329
100
AcDbEntity
  8
0
100
AcDbSpline
 62
7
  6
CONTINUOUS
 70
0
 71
3
 72
8
 73
4
 74
0
 42
0.0000001
 43
0.0000001
 44
0.0000000001
 40
0.0
 40
0.0
 40
0.0
 40
0.0
 40
1.0
 40
1.0
 40
1.0
 40
1.0
 10
691.0127945824
 20
2159.607319612
 30
0.0
 10
691.1871206616
 20
2159.9184670767
 30
0.0
 10
691.4462645481
 20
2160.1995115812
 30
0.0
 10
691.755094048
 20
2160.3779118802
 30
0.0
  0
SPLINE
  5
32A
100
AcDbEntity
  8
0
100
AcDbSpline
 62
7
  6
CONTINUOUS
 70
0
 71
3
 72
8
 73
4
 74
0
 42
0.0000001
 43
0.0000001
 44
0.0000000001
 40
0.0
 40
0.0
 40
0.0
 40
0.0
 40
1.0
 40
1.0
 40
1.0
 40
1.0
 10
688.8432266404
 20
2179.3906128987
 30
0.0
 10
688.8430687257
 20
2178.9718842433
 30
0.0
 10
689.2129562124
 20
2178.5793609659
 30
0.0
 10
689.575587942
 20
2178.3700001756
 30
0.0
  0
SPLINE
  5
32B
100
AcDbEntity
  8
0
100
AcDbSpline
 62
7
  6
CONTINUOUS
 70
0
 71
3
 72
8
 73
4
 74
0
 42
0.0000001
 43
0.0000001
 44
0.0000000001
 40
0.0
 40
0.0
 40
0.0
 40
0.0
 40
1.0
 40
1.0
 40
1.0
 40
1.0
 10
633.3415271381
 20
474.3337381028
 30
0.0
 10
633.9087106922
 20
474.5167015653
 30
0.0
 10
634.5594025096
 20
474.4631195833
 30
0.0
 10
635.1288128814
 20
474.2872086934
 30
0.0
  0
SPLINE
  5
32C
100
AcDbEntity
  8
0
100
AcDbSpline
 62
7
  6
CONTINUOUS
 70
0
 71
3
 72
8
 73
4
 74
0
 42
0.0000001
 43
0.0000001
 44
0.0000000001
 40
0.0
 40
0.0
 40
0.0
 40
0.0
 40
1.0
 40
1.0
 40
1.0
 40
1.0
 10
635.1288128814
 20
474.2872086934
 30
0.0
 10
635.878906307
 20
474.0554784535
 30
0.0
 10
636.5702803161
 20
473.6203037329
 30
0.0
 10
637.1726388697
 20
473.1168126962
 30
0.0
  0
SPLINE
  5
32D
100
AcDbEntity
  8
0
100
AcDbSpline
 62
7
  6
CONTINUOUS
 70
0
 71
3
 72
9
 73
5
 74
0
 42
0.0000001
 43
0.0000001
 44
0.0000000001
 40
0.0
 40
0.0
 40
0.0
 40
0.0
 40
0.7659803344
 40
1.0
 40
1.0
 40
1.0
 40
1.0
 10
637.1726388697
 20
473.1168126962
 30
0.0
 10
638.7837959549
 20
471.7701012627
 30
0.0
 10
640.3422998734
 20
469.2308106256
 30
0.0
 10
640.7651498257
 20
466.5053337366
 30
0.0
 10
640.7651498257
 20
465.8637883576
 30
0.0
  0
SPLINE
  5
32E
100
AcDbEntity
  8
0
100
AcDbSpline
 62
7
  6
CONTINUOUS
 70
0
 71
3
 72
9
 73
5
 74
0
 42
0.0000001
 43
0.0000001
 44
0.0000000001
 40
0.0
 40
0.0
 40
0.0
 40
0.0
 40
0.4973520506
 40
1.0
 40
1.0
 40
1.0
 40
1.0
 10
629.6416936977
 20
2185.8886607875
 30
0.0
 10
629.7236150238
 20
2185.9374890067
 30
0.0
 10
629.8979856306
 20
2186.0202200492
 30
0.0
 10
630.0848729081
 20
2186.0688814304
 30
0.0
 10
630.1801051646
 20
2186.0837422575
 30
0.0
  0
SPLINE
  5
32F
100
AcDbEntity
  8
0
100
AcDbSpline
 62
7
  6
CONTINUOUS
 70
0
 71
3
 72
8
 73
4
 74
0
 42
0.0000001
 43
0.0000001
 44
0.0000000001
 40
0.0
 40
0.0
 40
0.0
 40
0.0
 40
1.0
 40
1.0
 40
1.0
 40
1.0
 10
629.6416936977
 20
2185.8886607875
 30
0.0
 10
629.2626414674
 20
2185.6443778701
 30
0.0
 10
628.9859707888
 20
2185.2135629612
 30
0.0
 10
628.8693390354
 20
2184.777957898
 30
0.0
  0
SPLINE
  5
330
100
AcDbEntity
  8
0
100
AcDbSpline
 62
7
  6
CONTINUOUS
 70
0
 71
3
 72
8
 73
4
 74
0
 42
0.0000001
 43
0.0000001
 44
0.0000000001
 40
0.0
 40
0.0
 40
0.0
 40
0.0
 40
1.0
 40
1.0
 40
1.0
 40
1.0
 10
628.8693390354
 20
2184.777957898
 30
0.0
 10
628.7956033064
 20
2184.5025641402
 30
0.0
 10
628.7653360408
 20
2184.2141415807
 30
0.0
 10
628.7651313402
 20
2183.9290474951
 30
0.0
  0
SPLINE
  5
331
100
AcDbEntity
  8
0
100
AcDbSpline
 62
7
  6
CONTINUOUS
 70
0
 71
3
 72
8
 73
4
 74
0
 42
0.0000001
 43
0.0000001
 44
0.0000000001
 40
0.0
 40
0.0
 40
0.0
 40
0.0
 40
1.0
 40
1.0
 40
1.0
 40
1.0
 10
633.1081259617
 20
473.8580952904
 30
0.0
 10
632.758851326
 20
473.2405472866
 30
0.0
 10
632.6333791546
 20
472.4927618867
 30
0.0
 10
632.6333791546
 20
471.7832843971
 30
0.0
  0
SPLINE
  5
332
100
AcDbEntity
  8
0
100
AcDbSpline
 62
7
  6
CONTINUOUS
 70
0
 71
3
 72
8
 73
4
 74
0
 42
0.0000001
 43
0.0000001
 44
0.0000000001
 40
0.0
 40
0.0
 40
0.0
 40
0.0
 40
1.0
 40
1.0
 40
1.0
 40
1.0
 10
633.3344295976
 20
1515.3720166722
 30
0.0
 10
633.9137274016
 20
1515.5610917519
 30
0.0
 10
634.5809731157
 20
1515.5019914132
 30
0.0
 10
635.1617340273
 20
1515.3174593153
 30
0.0
  0
SPLINE
  5
333
100
AcDbEntity
  8
0
100
AcDbSpline
 62
7
  6
CONTINUOUS
 70
0
 71
3
 72
8
 73
4
 74
0
 42
0.0000001
 43
0.0000001
 44
0.0000000001
 40
0.0
 40
0.0
 40
0.0
 40
0.0
 40
1.0
 40
1.0
 40
1.0
 40
1.0
 10
635.1617340273
 20
1515.3174593153
 30
0.0
 10
635.900669859
 20
1515.0826684116
 30
0.0
 10
636.5815598923
 20
1514.6520909892
 30
0.0
 10
637.1761391971
 20
1514.1544682586
 30
0.0
  0
SPLINE
  5
334
100
AcDbEntity
  8
0
100
AcDbSpline
 62
7
  6
CONTINUOUS
 70
0
 71
3
 72
9
 73
5
 74
0
 42
0.0000001
 43
0.0000001
 44
0.0000000001
 40
0.0
 40
0.0
 40
0.0
 40
0.0
 40
0.7660047146
 40
1.0
 40
1.0
 40
1.0
 40
1.0
 10
637.1761391971
 20
1514.1544682586
 30
0.0
 10
638.7856447681
 20
1512.8074207735
 30
0.0
 10
640.3428131913
 20
1510.2695960935
 30
0.0
 10
640.7651498257
 20
1507.5455072035
 30
0.0
 10
640.7651498257
 20
1506.9043701978
 30
0.0
  0
SPLINE
  5
335
100
AcDbEntity
  8
0
100
AcDbSpline
 62
7
  6
CONTINUOUS
 70
0
 71
3
 72
8
 73
4
 74
0
 42
0.0000001
 43
0.0000001
 44
0.0000000001
 40
0.0
 40
0.0
 40
0.0
 40
0.0
 40
1.0
 40
1.0
 40
1.0
 40
1.0
 10
633.1133676645
 20
1514.9078542787
 30
0.0
 10
632.7601624461
 20
1514.2886603772
 30
0.0
 10
632.6333791546
 20
1513.5367161613
 30
0.0
 10
632.6333791546
 20
1512.8238662373
 30
0.0
  0
SPLINE
  5
336
100
AcDbEntity
  8
0
100
AcDbSpline
 62
7
  6
CONTINUOUS
 70
0
 71
3
 72
8
 73
4
 74
0
 42
0.0000001
 43
0.0000001
 44
0.0000000001
 40
0.0
 40
0.0
 40
0.0
 40
0.0
 40
1.0
 40
1.0
 40
1.0
 40
1.0
 10
633.3344295976
 20
1086.7082476791
 30
0.0
 10
633.9137274016
 20
1086.8973227589
 30
0.0
 10
634.5809731157
 20
1086.8382224202
 30
0.0
 10
635.1617340273
 20
1086.6536903222
 30
0.0
  0
SPLINE
  5
337
100
AcDbEntity
  8
0
100
AcDbSpline
 62
7
  6
CONTINUOUS
 70
0
 71
3
 72
8
 73
4
 74
0
 42
0.0000001
 43
0.0000001
 44
0.0000000001
 40
0.0
 40
0.0
 40
0.0
 40
0.0
 40
1.0
 40
1.0
 40
1.0
 40
1.0
 10
635.1617340273
 20
1086.6536903222
 30
0.0
 10
635.900669859
 20
1086.4188994185
 30
0.0
 10
636.5815598923
 20
1085.9883219962
 30
0.0
 10
637.1761391971
 20
1085.4906992656
 30
0.0
  0
SPLINE
  5
338
100
AcDbEntity
  8
0
100
AcDbSpline
 62
7
  6
CONTINUOUS
 70
0
 71
3
 72
9
 73
5
 74
0
 42
0.0000001
 43
0.0000001
 44
0.0000000001
 40
0.0
 40
0.0
 40
0.0
 40
0.0
 40
0.7660047146
 40
1.0
 40
1.0
 40
1.0
 40
1.0
 10
637.1761391971
 20
1085.4906992656
 30
0.0
 10
638.7856447681
 20
1084.1436517805
 30
0.0
 10
640.3428131913
 20
1081.6058271004
 30
0.0
 10
640.7651498257
 20
1078.8817382105
 30
0.0
 10
640.7651498257
 20
1078.2406012047
 30
0.0
  0
SPLINE
  5
339
100
AcDbEntity
  8
0
100
AcDbSpline
 62
7
  6
CONTINUOUS
 70
0
 71
3
 72
8
 73
4
 74
0
 42
0.0000001
 43
0.0000001
 44
0.0000000001
 40
0.0
 40
0.0
 40
0.0
 40
0.0
 40
1.0
 40
1.0
 40
1.0
 40
1.0
 10
633.1133676645
 20
1086.2440852857
 30
0.0
 10
632.7601624461
 20
1085.6248913842
 30
0.0
 10
632.6333791546
 20
1084.8729471682
 30
0.0
 10
632.6333791546
 20
1084.1600972443
 30
0.0
  0
SPLINE
  5
33A
100
AcDbEntity
  8
0
100
AcDbSpline
 62
7
  6
CONTINUOUS
 70
0
 71
3
 72
9
 73
5
 74
0
 42
0.0000001
 43
0.0000001
 44
0.0000000001
 40
0.0
 40
0.0
 40
0.0
 40
0.0
 40
0.5077497469
 40
1.0
 40
1.0
 40
1.0
 40
1.0
 10
975.1195598437
 20
1988.9769219664
 30
0.0
 10
975.0703438924
 20
1988.9425966349
 30
0.0
 10
974.9752576214
 20
1988.8723036939
 30
0.0
 10
974.8844957756
 20
1988.7964894133
 30
0.0
 10
974.841071316
 20
1988.7577815762
 30
0.0
  0
SPLINE
  5
33B
100
AcDbEntity
  8
0
100
AcDbSpline
 62
7
  6
CONTINUOUS
 70
0
 71
3
 72
8
 73
4
 74
0
 42
0.0000001
 43
0.0000001
 44
0.0000000001
 40
0.0
 40
0.0
 40
0.0
 40
0.0
 40
1.0
 40
1.0
 40
1.0
 40
1.0
 10
976.6364745276
 20
1989.6286699722
 30
0.0
 10
976.33544342
 20
1989.5527270112
 30
0.0
 10
976.0228889597
 20
1989.4859785085
 30
0.0
 10
975.754020011
 20
1989.3307478752
 30
0.0
  0
SPLINE
  5
33C
100
AcDbEntity
  8
0
100
AcDbSpline
 62
7
  6
CONTINUOUS
 70
0
 71
3
 72
9
 73
5
 74
0
 42
0.0000001
 43
0.0000001
 44
0.0000000001
 40
0.0
 40
0.0
 40
0.0
 40
0.0
 40
0.5157995104
 40
1.0
 40
1.0
 40
1.0
 40
1.0
 10
975.754020011
 20
1989.3307478752
 30
0.0
 10
975.7026674213
 20
1989.3010996207
 30
0.0
 10
975.6069172694
 20
1989.2363486667
 30
0.0
 10
975.5269451911
 20
1989.1517297192
 30
0.0
 10
975.4950058094
 20
1989.1061405706
 30
0.0
  0
SPLINE
  5
33D
100
AcDbEntity
  8
0
100
AcDbSpline
 62
7
  6
CONTINUOUS
 70
0
 71
3
 72
8
 73
4
 74
0
 42
0.0000001
 43
0.0000001
 44
0.0000000001
 40
0.0
 40
0.0
 40
0.0
 40
0.0
 40
1.0
 40
1.0
 40
1.0
 40
1.0
 10
633.3415271381
 20
2127.7511327902
 30
0.0
 10
633.9087106922
 20
2127.9340962527
 30
0.0
 10
634.5594025096
 20
2127.8805142707
 30
0.0
 10
635.1288128814
 20
2127.7046033808
 30
0.0
  0
SPLINE
  5
33E
100
AcDbEntity
  8
0
100
AcDbSpline
 62
7
  6
CONTINUOUS
 70
0
 71
3
 72
8
 73
4
 74
0
 42
0.0000001
 43
0.0000001
 44
0.0000000001
 40
0.0
 40
0.0
 40
0.0
 40
0.0
 40
1.0
 40
1.0
 40
1.0
 40
1.0
 10
635.1288128814
 20
2127.7046033808
 30
0.0
 10
635.878906307
 20
2127.4728731408
 30
0.0
 10
636.5702803161
 20
2127.0376984203
 30
0.0
 10
637.1726388697
 20
2126.5342073836
 30
0.0
  0
SPLINE
  5
33F
100
AcDbEntity
  8
0
100
AcDbSpline
 62
7
  6
CONTINUOUS
 70
0
 71
3
 72
9
 73
5
 74
0
 42
0.0000001
 43
0.0000001
 44
0.0000000001
 40
0.0
 40
0.0
 40
0.0
 40
0.0
 40
0.7659803344
 40
1.0
 40
1.0
 40
1.0
 40
1.0
 10
637.1726388697
 20
2126.5342073836
 30
0.0
 10
638.7837959549
 20
2125.1874959501
 30
0.0
 10
640.3422998734
 20
2122.648205313
 30
0.0
 10
640.7651498257
 20
2119.922728424
 30
0.0
 10
640.7651498257
 20
2119.281183045
 30
0.0
  0
SPLINE
  5
340
100
AcDbEntity
  8
0
100
AcDbSpline
 62
7
  6
CONTINUOUS
 70
0
 71
3
 72
9
 73
5
 74
0
 42
0.0000001
 43
0.0000001
 44
0.0000000001
 40
0.0
 40
0.0
 40
0.0
 40
0.0
 40
0.5123054968
 40
1.0
 40
1.0
 40
1.0
 40
1.0
 10
687.0430578188
 20
2155.294205358
 30
0.0
 10
686.9674735841
 20
2155.241489646
 30
0.0
 10
686.8242020024
 20
2155.1322899335
 30
0.0
 10
686.6918627751
 20
2155.0099482238
 30
0.0
 10
686.630766885
 20
2154.9469965419
 30
0.0
  0
SPLINE
  5
341
100
AcDbEntity
  8
0
100
AcDbSpline
 62
7
  6
CONTINUOUS
 70
0
 71
3
 72
8
 73
4
 74
0
 42
0.0000001
 43
0.0000001
 44
0.0000000001
 40
0.0
 40
0.0
 40
0.0
 40
0.0
 40
1.0
 40
1.0
 40
1.0
 40
1.0
 10
688.5599725027
 20
2155.9459533637
 30
0.0
 10
688.2589413951
 20
2155.8700104027
 30
0.0
 10
687.9463869348
 20
2155.8032619001
 30
0.0
 10
687.6775179862
 20
2155.6480312668
 30
0.0
  0
SPLINE
  5
342
100
AcDbEntity
  8
0
100
AcDbSpline
 62
7
  6
CONTINUOUS
 70
0
 71
3
 72
9
 73
5
 74
0
 42
0.0000001
 43
0.0000001
 44
0.0000000001
 40
0.0
 40
0.0
 40
0.0
 40
0.0
 40
0.5157995104
 40
1.0
 40
1.0
 40
1.0
 40
1.0
 10
687.6775179862
 20
2155.6480312668
 30
0.0
 10
687.6261653964
 20
2155.6183830122
 30
0.0
 10
687.5304152446
 20
2155.5536320582
 30
0.0
 10
687.4504431662
 20
2155.4690131107
 30
0.0
 10
687.4185037845
 20
2155.4234239622
 30
0.0
  0
SPLINE
  5
343
100
AcDbEntity
  8
0
100
AcDbSpline
 62
7
  6
CONTINUOUS
 70
0
 71
3
 72
8
 73
4
 74
0
 42
0.0000001
 43
0.0000001
 44
0.0000000001
 40
0.0
 40
0.0
 40
0.0
 40
0.0
 40
1.0
 40
1.0
 40
1.0
 40
1.0
 10
633.1081259617
 20
2127.2754899778
 30
0.0
 10
632.758851326
 20
2126.657941974
 30
0.0
 10
632.6333791546
 20
2125.9101565741
 30
0.0
 10
632.6333791546
 20
2125.2006790845
 30
0.0
  0
SPLINE
  5
344
100
AcDbEntity
  8
0
100
AcDbSpline
 62
7
  6
CONTINUOUS
 70
0
 71
3
 72
8
 73
4
 74
0
 42
0.0000001
 43
0.0000001
 44
0.0000000001
 40
0.0
 40
0.0
 40
0.0
 40
0.0
 40
1.0
 40
1.0
 40
1.0
 40
1.0
 10
1016.5949981678
 20
253.0672491528
 30
0.0
 10
1017.1621817219
 20
253.2502126153
 30
0.0
 10
1017.8128735393
 20
253.1966306333
 30
0.0
 10
1018.382283911
 20
253.0207197434
 30
0.0
  0
SPLINE
  5
345
100
AcDbEntity
  8
0
100
AcDbSpline
 62
7
  6
CONTINUOUS
 70
0
 71
3
 72
8
 73
4
 74
0
 42
0.0000001
 43
0.0000001
 44
0.0000000001
 40
0.0
 40
0.0
 40
0.0
 40
0.0
 40
1.0
 40
1.0
 40
1.0
 40
1.0
 10
1018.382283911
 20
253.0207197434
 30
0.0
 10
1019.1323773366
 20
252.7889895034
 30
0.0
 10
1019.8237513458
 20
252.3538147829
 30
0.0
 10
1020.4261098994
 20
251.8503237462
 30
0.0
  0
SPLINE
  5
346
100
AcDbEntity
  8
0
100
AcDbSpline
 62
7
  6
CONTINUOUS
 70
0
 71
3
 72
9
 73
5
 74
0
 42
0.0000001
 43
0.0000001
 44
0.0000000001
 40
0.0
 40
0.0
 40
0.0
 40
0.0
 40
0.7659803344
 40
1.0
 40
1.0
 40
1.0
 40
1.0
 10
1020.4261098994
 20
251.8503237462
 30
0.0
 10
1022.0372669845
 20
250.5036123127
 30
0.0
 10
1023.595770903
 20
247.9643216756
 30
0.0
 10
1024.0186208553
 20
245.2388447866
 30
0.0
 10
1024.0186208553
 20
244.5972994076
 30
0.0
  0
SPLINE
  5
347
100
AcDbEntity
  8
0
100
AcDbSpline
 62
7
  6
CONTINUOUS
 70
0
 71
3
 72
8
 73
4
 74
0
 42
0.0000001
 43
0.0000001
 44
0.0000000001
 40
0.0
 40
0.0
 40
0.0
 40
0.0
 40
1.0
 40
1.0
 40
1.0
 40
1.0
 10
1016.3615969914
 20
252.5916063404
 30
0.0
 10
1016.0123223557
 20
251.9740583366
 30
0.0
 10
1015.8868501842
 20
251.2262729367
 30
0.0
 10
1015.8868501842
 20
250.5167954471
 30
0.0
  0
SPLINE
  5
348
100
AcDbEntity
  8
0
100
AcDbSpline
 62
7
  6
CONTINUOUS
 70
0
 71
3
 72
8
 73
4
 74
0
 42
0.0000001
 43
0.0000001
 44
0.0000000001
 40
0.0
 40
0.0
 40
0.0
 40
0.0
 40
1.0
 40
1.0
 40
1.0
 40
1.0
 10
1016.5879006273
 20
1294.1055277222
 30
0.0
 10
1017.1671984313
 20
1294.2946028019
 30
0.0
 10
1017.8344441454
 20
1294.2355024632
 30
0.0
 10
1018.4152050569
 20
1294.0509703653
 30
0.0
  0
SPLINE
  5
349
100
AcDbEntity
  8
0
100
AcDbSpline
 62
7
  6
CONTINUOUS
 70
0
 71
3
 72
8
 73
4
 74
0
 42
0.0000001
 43
0.0000001
 44
0.0000000001
 40
0.0
 40
0.0
 40
0.0
 40
0.0
 40
1.0
 40
1.0
 40
1.0
 40
1.0
 10
1018.4152050569
 20
1294.0509703653
 30
0.0
 10
1019.1541408886
 20
1293.8161794616
 30
0.0
 10
1019.8350309219
 20
1293.3856020392
 30
0.0
 10
1020.4296102268
 20
1292.8879793086
 30
0.0
  0
SPLINE
  5
34A
100
AcDbEntity
  8
0
100
AcDbSpline
 62
7
  6
CONTINUOUS
 70
0
 71
3
 72
9
 73
5
 74
0
 42
0.0000001
 43
0.0000001
 44
0.0000000001
 40
0.0
 40
0.0
 40
0.0
 40
0.0
 40
0.7660047146
 40
1.0
 40
1.0
 40
1.0
 40
1.0
 10
1020.4296102268
 20
1292.8879793086
 30
0.0
 10
1022.0391157978
 20
1291.5409318235
 30
0.0
 10
1023.5962842209
 20
1289.0031071434
 30
0.0
 10
1024.0186208553
 20
1286.2790182535
 30
0.0
 10
1024.0186208553
 20
1285.6378812478
 30
0.0
  0
SPLINE
  5
34B
100
AcDbEntity
  8
0
100
AcDbSpline
 62
7
  6
CONTINUOUS
 70
0
 71
3
 72
8
 73
4
 74
0
 42
0.0000001
 43
0.0000001
 44
0.0000000001
 40
0.0
 40
0.0
 40
0.0
 40
0.0
 40
1.0
 40
1.0
 40
1.0
 40
1.0
 10
1016.3668386942
 20
1293.6413653287
 30
0.0
 10
1016.0136334758
 20
1293.0221714272
 30
0.0
 10
1015.8868501842
 20
1292.2702272113
 30
0.0
 10
1015.8868501842
 20
1291.5573772873
 30
0.0
  0
SPLINE
  5
34C
100
AcDbEntity
  8
0
100
AcDbSpline
 62
7
  6
CONTINUOUS
 70
0
 71
3
 72
8
 73
4
 74
0
 42
0.0000001
 43
0.0000001
 44
0.0000000001
 40
0.0
 40
0.0
 40
0.0
 40
0.0
 40
1.0
 40
1.0
 40
1.0
 40
1.0
 10
1016.5879006272
 20
865.4417587291
 30
0.0
 10
1017.1671984313
 20
865.6308338088
 30
0.0
 10
1017.8344441454
 20
865.5717334702
 30
0.0
 10
1018.4152050569
 20
865.3872013722
 30
0.0
  0
SPLINE
  5
34D
100
AcDbEntity
  8
0
100
AcDbSpline
 62
7
  6
CONTINUOUS
 70
0
 71
3
 72
8
 73
4
 74
0
 42
0.0000001
 43
0.0000001
 44
0.0000000001
 40
0.0
 40
0.0
 40
0.0
 40
0.0
 40
1.0
 40
1.0
 40
1.0
 40
1.0
 10
1018.4152050569
 20
865.3872013722
 30
0.0
 10
1019.1541408886
 20
865.1524104685
 30
0.0
 10
1019.8350309219
 20
864.7218330462
 30
0.0
 10
1020.4296102268
 20
864.2242103156
 30
0.0
  0
SPLINE
  5
34E
100
AcDbEntity
  8
0
100
AcDbSpline
 62
7
  6
CONTINUOUS
 70
0
 71
3
 72
9
 73
5
 74
0
 42
0.0000001
 43
0.0000001
 44
0.0000000001
 40
0.0
 40
0.0
 40
0.0
 40
0.0
 40
0.7660047146
 40
1.0
 40
1.0
 40
1.0
 40
1.0
 10
1020.4296102268
 20
864.2242103156
 30
0.0
 10
1022.0391157978
 20
862.8771628305
 30
0.0
 10
1023.5962842209
 20
860.3393381504
 30
0.0
 10
1024.0186208553
 20
857.6152492605
 30
0.0
 10
1024.0186208553
 20
856.9741122547
 30
0.0
  0
SPLINE
  5
34F
100
AcDbEntity
  8
0
100
AcDbSpline
 62
7
  6
CONTINUOUS
 70
0
 71
3
 72
8
 73
4
 74
0
 42
0.0000001
 43
0.0000001
 44
0.0000000001
 40
0.0
 40
0.0
 40
0.0
 40
0.0
 40
1.0
 40
1.0
 40
1.0
 40
1.0
 10
1016.3668386942
 20
864.9775963357
 30
0.0
 10
1016.0136334758
 20
864.3584024342
 30
0.0
 10
1015.8868501842
 20
863.6064582182
 30
0.0
 10
1015.8868501842
 20
862.8936082943
 30
0.0
  0
SPLINE
  5
350
100
AcDbEntity
  8
0
100
AcDbSpline
 62
7
  6
CONTINUOUS
 70
0
 71
3
 72
8
 73
4
 74
0
 42
0.0000001
 43
0.0000001
 44
0.0000000001
 40
0.0
 40
0.0
 40
0.0
 40
0.0
 40
1.0
 40
1.0
 40
1.0
 40
1.0
 10
692.9497651104
 20
2155.45276651
 30
0.0
 10
692.2010915328
 20
2155.885003623
 30
0.0
 10
691.3075903186
 20
2156.0815979829
 30
0.0
 10
690.4440278268
 20
2156.1216088649
 30
0.0
  0
SPLINE
  5
351
100
AcDbEntity
  8
0
100
AcDbSpline
 62
7
  6
CONTINUOUS
 70
0
 71
3
 72
8
 73
4
 74
0
 42
0.0000001
 43
0.0000001
 44
0.0000000001
 40
0.0
 40
0.0
 40
0.0
 40
0.0
 40
1.0
 40
1.0
 40
1.0
 40
1.0
 10
690.4440278268
 20
2156.1216088649
 30
0.0
 10
689.9773617076
 20
2156.1432306041
 30
0.0
 10
689.5058835165
 20
2156.1183451929
 30
0.0
 10
689.0446820933
 20
2156.0439273611
 30
0.0
  0
SPLINE
  5
352
100
AcDbEntity
  8
0
100
AcDbSpline
 62
7
  6
CONTINUOUS
 70
0
 71
3
 72
8
 73
4
 74
0
 42
0.0000001
 43
0.0000001
 44
0.0000000001
 40
0.0
 40
0.0
 40
0.0
 40
0.0
 40
1.0
 40
1.0
 40
1.0
 40
1.0
 10
981.0262671353
 20
1989.1354831184
 30
0.0
 10
980.2775935577
 20
1989.5677202315
 30
0.0
 10
979.3840923434
 20
1989.7643145913
 30
0.0
 10
978.5205298517
 20
1989.8043254733
 30
0.0
  0
SPLINE
  5
353
100
AcDbEntity
  8
0
100
AcDbSpline
 62
7
  6
CONTINUOUS
 70
0
 71
3
 72
8
 73
4
 74
0
 42
0.0000001
 43
0.0000001
 44
0.0000000001
 40
0.0
 40
0.0
 40
0.0
 40
0.0
 40
1.0
 40
1.0
 40
1.0
 40
1.0
 10
978.5205298517
 20
1989.8043254733
 30
0.0
 10
978.0538637325
 20
1989.8259472126
 30
0.0
 10
977.5823855414
 20
1989.8010618013
 30
0.0
 10
977.1211841182
 20
1989.7266439695
 30
0.0
  0
SPLINE
  5
354
100
AcDbEntity
  8
0
100
AcDbSpline
 62
7
  6
CONTINUOUS
 70
0
 71
3
 72
8
 73
4
 74
0
 42
0.0000001
 43
0.0000001
 44
0.0000000001
 40
0.0
 40
0.0
 40
0.0
 40
0.0
 40
1.0
 40
1.0
 40
1.0
 40
1.0
 10
1037.458501335
 20
1923.8551588362
 30
0.0
 10
1037.4586592497
 20
1924.2738874917
 30
0.0
 10
1037.0887717631
 20
1924.666410769
 30
0.0
 10
1036.7261400335
 20
1924.8757715593
 30
0.0
  0
SPLINE
  5
355
100
AcDbEntity
  8
0
100
AcDbSpline
 62
7
  6
CONTINUOUS
 70
0
 71
3
 72
8
 73
4
 74
0
 42
0.0000001
 43
0.0000001
 44
0.0000000001
 40
0.0
 40
0.0
 40
0.0
 40
0.0
 40
1.0
 40
1.0
 40
1.0
 40
1.0
 10
1037.4585013101
 20
230.6194147682
 30
0.0
 10
1037.4583935899
 20
230.3347320665
 30
0.0
 10
1037.2876011441
 20
230.0477535957
 30
0.0
 10
1037.0785061965
 20
229.8545605442
 30
0.0
  0
SPLINE
  5
356
100
AcDbEntity
  8
0
100
AcDbSpline
 62
7
  6
CONTINUOUS
 70
0
 71
3
 72
8
 73
4
 74
0
 42
0.0000001
 43
0.0000001
 44
0.0000000001
 40
0.0
 40
0.0
 40
0.0
 40
0.0
 40
1.0
 40
1.0
 40
1.0
 40
1.0
 10
1016.5949981678
 20
1906.4846438402
 30
0.0
 10
1017.1621817219
 20
1906.6676073027
 30
0.0
 10
1017.8128735393
 20
1906.6140253207
 30
0.0
 10
1018.382283911
 20
1906.4381144308
 30
0.0
  0
SPLINE
  5
357
100
AcDbEntity
  8
0
100
AcDbSpline
 62
7
  6
CONTINUOUS
 70
0
 71
3
 72
8
 73
4
 74
0
 42
0.0000001
 43
0.0000001
 44
0.0000000001
 40
0.0
 40
0.0
 40
0.0
 40
0.0
 40
1.0
 40
1.0
 40
1.0
 40
1.0
 10
1018.382283911
 20
1906.4381144308
 30
0.0
 10
1019.1323773366
 20
1906.2063841908
 30
0.0
 10
1019.8237513458
 20
1905.7712094703
 30
0.0
 10
1020.4261098994
 20
1905.2677184336
 30
0.0
  0
SPLINE
  5
358
100
AcDbEntity
  8
0
100
AcDbSpline
 62
7
  6
CONTINUOUS
 70
0
 71
3
 72
9
 73
5
 74
0
 42
0.0000001
 43
0.0000001
 44
0.0000000001
 40
0.0
 40
0.0
 40
0.0
 40
0.0
 40
0.7659803344
 40
1.0
 40
1.0
 40
1.0
 40
1.0
 10
1020.4261098994
 20
1905.2677184336
 30
0.0
 10
1022.0372669845
 20
1903.9210070001
 30
0.0
 10
1023.595770903
 20
1901.381716363
 30
0.0
 10
1024.0186208553
 20
1898.6562394739
 30
0.0
 10
1024.0186208553
 20
1898.014694095
 30
0.0
  0
SPLINE
  5
359
100
AcDbEntity
  8
0
100
AcDbSpline
 62
7
  6
CONTINUOUS
 70
0
 71
3
 72
8
 73
4
 74
0
 42
0.0000001
 43
0.0000001
 44
0.0000000001
 40
0.0
 40
0.0
 40
0.0
 40
0.0
 40
1.0
 40
1.0
 40
1.0
 40
1.0
 10
1016.3615969914
 20
1906.0090010278
 30
0.0
 10
1016.0123223557
 20
1905.391453024
 30
0.0
 10
1015.8868501842
 20
1904.6436676241
 30
0.0
 10
1015.8868501842
 20
1903.9341901345
 30
0.0
  0
SPLINE
  5
35A
100
AcDbEntity
  8
0
100
AcDbSpline
 62
7
  6
CONTINUOUS
 70
0
 71
3
 72
8
 73
4
 74
0
 42
0.0000001
 43
0.0000001
 44
0.0000000001
 40
0.0
 40
0.0
 40
0.0
 40
0.0
 40
1.0
 40
1.0
 40
1.0
 40
1.0
 10
695.1678596027
 20
2153.970447399
 30
0.0
 10
694.9504651562
 20
2154.2421113432
 30
0.0
 10
694.6653103976
 20
2154.4623183835
 30
0.0
 10
694.3639845607
 20
2154.6362850009
 30
0.0
  0
SPLINE
  5
35B
100
AcDbEntity
  8
0
100
AcDbSpline
 62
7
  6
CONTINUOUS
 70
0
 71
3
 72
8
 73
4
 74
0
 42
0.0000001
 43
0.0000001
 44
0.0000000001
 40
0.0
 40
0.0
 40
0.0
 40
0.0
 40
1.0
 40
1.0
 40
1.0
 40
1.0
 10
983.2443616275
 20
1987.6531640075
 30
0.0
 10
983.0269671811
 20
1987.9248279516
 30
0.0
 10
982.7418124224
 20
1988.145034992
 30
0.0
 10
982.4404865856
 20
1988.3190016093
 30
0.0
  0
SPLINE
  5
35C
100
AcDbEntity
  8
0
100
AcDbSpline
 62
7
  6
CONTINUOUS
 70
0
 71
3
 72
9
 73
5
 74
0
 42
0.0000001
 43
0.0000001
 44
0.0000000001
 40
0.0
 40
0.0
 40
0.0
 40
0.0
 40
0.2338315643
 40
1.0
 40
1.0
 40
1.0
 40
1.0
 10
1015.8868501842
 20
1903.9341901345
 30
0.0
 10
1015.8868501842
 20
1903.2967219099
 30
0.0
 10
1016.3048680312
 20
1900.5859606324
 30
0.0
 10
1017.8481155291
 20
1898.0605794244
 30
0.0
 10
1019.4429396669
 20
1896.7117740603
 30
0.0
  0
SPLINE
  5
35D
100
AcDbEntity
  8
0
100
AcDbSpline
 62
7
  6
CONTINUOUS
 70
0
 71
3
 72
9
 73
5
 74
0
 42
0.0000001
 43
0.0000001
 44
0.0000000001
 40
0.0
 40
0.0
 40
0.0
 40
0.0
 40
0.2896776676
 40
1.0
 40
1.0
 40
1.0
 40
1.0
 10
1019.4429396669
 20
1896.7117740603
 30
0.0
 10
1019.7081128704
 20
1896.4875066751
 30
0.0
 10
1020.6615499257
 20
1895.776332888
 30
0.0
 10
1021.8780595143
 20
1895.2964733646
 30
0.0
 10
1022.7276928528
 20
1895.3543533231
 30
0.0
  0
SPLINE
  5
35E
100
AcDbEntity
  8
0
100
AcDbSpline
 62
7
  6
CONTINUOUS
 70
0
 71
3
 72
9
 73
5
 74
0
 42
0.0000001
 43
0.0000001
 44
0.0000000001
 40
0.0
 40
0.0
 40
0.0
 40
0.0
 40
0.2338189992
 40
1.0
 40
1.0
 40
1.0
 40
1.0
 10
1015.8868501842
 20
862.8936082943
 30
0.0
 10
1015.8868501842
 20
862.2560075939
 30
0.0
 10
1016.3049268141
 20
859.5445284672
 30
0.0
 10
1017.8490444738
 20
857.0185664892
 30
0.0
 10
1019.4446307178
 20
855.6697632313
 30
0.0
  0
SPLINE
  5
35F
100
AcDbEntity
  8
0
100
AcDbSpline
 62
7
  6
CONTINUOUS
 70
0
 71
3
 72
9
 73
5
 74
0
 42
0.0000001
 43
0.0000001
 44
0.0000000001
 40
0.0
 40
0.0
 40
0.0
 40
0.0
 40
0.2897055354
 40
1.0
 40
1.0
 40
1.0
 40
1.0
 10
1019.4446307178
 20
855.6697632313
 30
0.0
 10
1019.7099606546
 20
855.445470822
 30
0.0
 10
1020.6638056868
 20
854.7342765038
 30
0.0
 10
1021.8812947168
 20
854.2551478078
 30
0.0
 10
1022.731077561
 20
854.3140281963
 30
0.0
  0
SPLINE
  5
360
100
AcDbEntity
  8
0
100
AcDbSpline
 62
7
  6
CONTINUOUS
 70
0
 71
3
 72
9
 73
5
 74
0
 42
0.0000001
 43
0.0000001
 44
0.0000000001
 40
0.0
 40
0.0
 40
0.0
 40
0.0
 40
0.2338189992
 40
1.0
 40
1.0
 40
1.0
 40
1.0
 10
1015.8868501842
 20
1291.5573772873
 30
0.0
 10
1015.8868501842
 20
1290.919776587
 30
0.0
 10
1016.3049268141
 20
1288.2082974602
 30
0.0
 10
1017.8490444738
 20
1285.6823354822
 30
0.0
 10
1019.4446307178
 20
1284.3335322244
 30
0.0
  0
SPLINE
  5
361
100
AcDbEntity
  8
0
100
AcDbSpline
 62
7
  6
CONTINUOUS
 70
0
 71
3
 72
9
 73
5
 74
0
 42
0.0000001
 43
0.0000001
 44
0.0000000001
 40
0.0
 40
0.0
 40
0.0
 40
0.0
 40
0.2897055354
 40
1.0
 40
1.0
 40
1.0
 40
1.0
 10
1019.4446307178
 20
1284.3335322244
 30
0.0
 10
1019.7099606546
 20
1284.109239815
 30
0.0
 10
1020.6638056868
 20
1283.3980454968
 30
0.0
 10
1021.8812947168
 20
1282.9189168009
 30
0.0
 10
1022.731077561
 20
1282.9777971893
 30
0.0
  0
SPLINE
  5
362
100
AcDbEntity
  8
0
100
AcDbSpline
 62
7
  6
CONTINUOUS
 70
0
 71
3
 72
9
 73
5
 74
0
 42
0.0000001
 43
0.0000001
 44
0.0000000001
 40
0.0
 40
0.0
 40
0.0
 40
0.0
 40
0.2338315643
 40
1.0
 40
1.0
 40
1.0
 40
1.0
 10
1015.8868501842
 20
250.5167954471
 30
0.0
 10
1015.8868501842
 20
249.8793272225
 30
0.0
 10
1016.3048680312
 20
247.168565945
 30
0.0
 10
1017.8481155291
 20
244.643184737
 30
0.0
 10
1019.4429396669
 20
243.2943793729
 30
0.0
  0
SPLINE
  5
363
100
AcDbEntity
  8
0
100
AcDbSpline
 62
7
  6
CONTINUOUS
 70
0
 71
3
 72
9
 73
5
 74
0
 42
0.0000001
 43
0.0000001
 44
0.0000000001
 40
0.0
 40
0.0
 40
0.0
 40
0.0
 40
0.2896776676
 40
1.0
 40
1.0
 40
1.0
 40
1.0
 10
1019.4429396669
 20
243.2943793729
 30
0.0
 10
1019.7081128704
 20
243.0701119877
 30
0.0
 10
1020.6615499257
 20
242.3589382006
 30
0.0
 10
1021.8780595143
 20
241.8790786772
 30
0.0
 10
1022.7276928528
 20
241.9369586357
 30
0.0
  0
SPLINE
  5
364
100
AcDbEntity
  8
0
100
AcDbSpline
 62
7
  6
CONTINUOUS
 70
0
 71
3
 72
9
 73
5
 74
0
 42
0.0000001
 43
0.0000001
 44
0.0000000001
 40
0.0
 40
0.0
 40
0.0
 40
0.0
 40
0.2338315643
 40
1.0
 40
1.0
 40
1.0
 40
1.0
 10
632.6333791546
 20
2125.2006790845
 30
0.0
 10
632.6333791546
 20
2124.5632108599
 30
0.0
 10
633.0513970016
 20
2121.8524495824
 30
0.0
 10
634.5946444995
 20
2119.3270683744
 30
0.0
 10
636.1894686372
 20
2117.9782630103
 30
0.0
  0
SPLINE
  5
365
100
AcDbEntity
  8
0
100
AcDbSpline
 62
7
  6
CONTINUOUS
 70
0
 71
3
 72
9
 73
5
 74
0
 42
0.0000001
 43
0.0000001
 44
0.0000000001
 40
0.0
 40
0.0
 40
0.0
 40
0.0
 40
0.2896776676
 40
1.0
 40
1.0
 40
1.0
 40
1.0
 10
636.1894686372
 20
2117.9782630103
 30
0.0
 10
636.4546418407
 20
2117.7539956251
 30
0.0
 10
637.4080788961
 20
2117.042821838
 30
0.0
 10
638.6245884846
 20
2116.5629623146
 30
0.0
 10
639.4742218231
 20
2116.6208422731
 30
0.0
  0
SPLINE
  5
366
100
AcDbEntity
  8
0
100
AcDbSpline
 62
7
  6
CONTINUOUS
 70
0
 71
3
 72
9
 73
5
 74
0
 42
0.0000001
 43
0.0000001
 44
0.0000000001
 40
0.0
 40
0.0
 40
0.0
 40
0.0
 40
0.2338189992
 40
1.0
 40
1.0
 40
1.0
 40
1.0
 10
632.6333791546
 20
1084.1600972443
 30
0.0
 10
632.6333791546
 20
1083.522496544
 30
0.0
 10
633.0514557844
 20
1080.8110174172
 30
0.0
 10
634.5955734441
 20
1078.2850554392
 30
0.0
 10
636.1911596882
 20
1076.9362521814
 30
0.0
  0
SPLINE
  5
367
100
AcDbEntity
  8
0
100
AcDbSpline
 62
7
  6
CONTINUOUS
 70
0
 71
3
 72
9
 73
5
 74
0
 42
0.0000001
 43
0.0000001
 44
0.0000000001
 40
0.0
 40
0.0
 40
0.0
 40
0.0
 40
0.2897055354
 40
1.0
 40
1.0
 40
1.0
 40
1.0
 10
636.1911596882
 20
1076.9362521814
 30
0.0
 10
636.4564896249
 20
1076.711959772
 30
0.0
 10
637.4103346571
 20
1076.0007654538
 30
0.0
 10
638.6278236871
 20
1075.5216367579
 30
0.0
 10
639.4776065313
 20
1075.5805171463
 30
0.0
  0
SPLINE
  5
368
100
AcDbEntity
  8
0
100
AcDbSpline
 62
7
  6
CONTINUOUS
 70
0
 71
3
 72
9
 73
5
 74
0
 42
0.0000001
 43
0.0000001
 44
0.0000000001
 40
0.0
 40
0.0
 40
0.0
 40
0.0
 40
0.2338189992
 40
1.0
 40
1.0
 40
1.0
 40
1.0
 10
632.6333791546
 20
1512.8238662373
 30
0.0
 10
632.6333791546
 20
1512.186265537
 30
0.0
 10
633.0514557844
 20
1509.4747864102
 30
0.0
 10
634.5955734441
 20
1506.9488244322
 30
0.0
 10
636.1911596882
 20
1505.6000211744
 30
0.0
  0
SPLINE
  5
369
100
AcDbEntity
  8
0
100
AcDbSpline
 62
7
  6
CONTINUOUS
 70
0
 71
3
 72
9
 73
5
 74
0
 42
0.0000001
 43
0.0000001
 44
0.0000000001
 40
0.0
 40
0.0
 40
0.0
 40
0.0
 40
0.2897055354
 40
1.0
 40
1.0
 40
1.0
 40
1.0
 10
636.1911596882
 20
1505.6000211744
 30
0.0
 10
636.4564896249
 20
1505.375728765
 30
0.0
 10
637.4103346571
 20
1504.6645344469
 30
0.0
 10
638.6278236871
 20
1504.1854057509
 30
0.0
 10
639.4776065313
 20
1504.2442861393
 30
0.0
  0
SPLINE
  5
36A
100
AcDbEntity
  8
0
100
AcDbSpline
 62
7
  6
CONTINUOUS
 70
0
 71
3
 72
9
 73
5
 74
0
 42
0.0000001
 43
0.0000001
 44
0.0000000001
 40
0.0
 40
0.0
 40
0.0
 40
0.0
 40
0.2338315643
 40
1.0
 40
1.0
 40
1.0
 40
1.0
 10
632.6333791546
 20
471.7832843971
 30
0.0
 10
632.6333791546
 20
471.1458161725
 30
0.0
 10
633.0513970016
 20
468.435054895
 30
0.0
 10
634.5946444995
 20
465.909673687
 30
0.0
 10
636.1894686372
 20
464.5608683229
 30
0.0
  0
SPLINE
  5
36B
100
AcDbEntity
  8
0
100
AcDbSpline
 62
7
  6
CONTINUOUS
 70
0
 71
3
 72
9
 73
5
 74
0
 42
0.0000001
 43
0.0000001
 44
0.0000000001
 40
0.0
 40
0.0
 40
0.0
 40
0.0
 40
0.2896776676
 40
1.0
 40
1.0
 40
1.0
 40
1.0
 10
636.1894686372
 20
464.5608683229
 30
0.0
 10
636.4546418407
 20
464.3366009377
 30
0.0
 10
637.4080788961
 20
463.6254271506
 30
0.0
 10
638.6245884846
 20
463.1455676272
 30
0.0
 10
639.4742218231
 20
463.2034475857
 30
0.0
  0
SPLINE
  5
36C
100
AcDbEntity
  8
0
100
AcDbSpline
 62
7
  6
CONTINUOUS
 70
0
 71
3
 72
8
 73
4
 74
0
 42
0.0000001
 43
0.0000001
 44
0.0000000001
 40
0.0
 40
0.0
 40
0.0
 40
0.0
 40
1.0
 40
1.0
 40
1.0
 40
1.0
 10
1024.0186208553
 20
1898.014694095
 30
0.0
 10
1024.0186208553
 20
1897.2800730567
 30
0.0
 10
1023.8837654926
 20
1896.5006307533
 30
0.0
 10
1023.5040777162
 20
1895.8717386621
 30
0.0
  0
SPLINE
  5
36D
100
AcDbEntity
  8
0
100
AcDbSpline
 62
7
  6
CONTINUOUS
 70
0
 71
3
 72
9
 73
5
 74
0
 42
0.0000001
 43
0.0000001
 44
0.0000000001
 40
0.0
 40
0.0
 40
0.0
 40
0.0
 40
0.505405488
 40
1.0
 40
1.0
 40
1.0
 40
1.0
 10
1023.5040777162
 20
1895.8717386621
 30
0.0
 10
1023.4709843572
 20
1895.8169248044
 30
0.0
 10
1023.4016856995
 20
1895.710723534
 30
0.0
 10
1023.3247659107
 20
1895.6098902696
 30
0.0
 10
1023.2848815984
 20
1895.5615637265
 30
0.0
  0
SPLINE
  5
36E
100
AcDbEntity
  8
0
100
AcDbSpline
 62
7
  6
CONTINUOUS
 70
0
 71
3
 72
8
 73
4
 74
0
 42
0.0000001
 43
0.0000001
 44
0.0000000001
 40
0.0
 40
0.0
 40
0.0
 40
0.0
 40
1.0
 40
1.0
 40
1.0
 40
1.0
 10
1023.2848815984
 20
1895.5615637265
 30
0.0
 10
1023.114073014
 20
1895.3546004386
 30
0.0
 10
1022.9046625962
 20
1895.1734617236
 30
0.0
 10
1022.6723002401
 20
1895.039233893
 30
0.0
  0
SPLINE
  5
36F
100
AcDbEntity
  8
0
100
AcDbSpline
 62
7
  6
CONTINUOUS
 70
0
 71
3
 72
8
 73
4
 74
0
 42
0.0000001
 43
0.0000001
 44
0.0000000001
 40
0.0
 40
0.0
 40
0.0
 40
0.0
 40
1.0
 40
1.0
 40
1.0
 40
1.0
 10
1024.0186208553
 20
856.9741122547
 30
0.0
 10
1024.0186208553
 20
856.2398758821
 30
0.0
 10
1023.8838898671
 20
855.4609332348
 30
0.0
 10
1023.5046882563
 20
854.8321970507
 30
0.0
  0
SPLINE
  5
370
100
AcDbEntity
  8
0
100
AcDbSpline
 62
7
  6
CONTINUOUS
 70
0
 71
3
 72
8
 73
4
 74
0
 42
0.0000001
 43
0.0000001
 44
0.0000000001
 40
0.0
 40
0.0
 40
0.0
 40
0.0
 40
1.0
 40
1.0
 40
1.0
 40
1.0
 10
1023.2880048894
 20
854.5248019629
 30
0.0
 10
1023.1165792357
 20
854.3162505282
 30
0.0
 10
1022.9060396904
 20
854.1337210551
 30
0.0
 10
1022.6722793515
 20
853.9986782486
 30
0.0
  0
SPLINE
  5
371
100
AcDbEntity
  8
0
100
AcDbSpline
 62
7
  6
CONTINUOUS
 70
0
 71
3
 72
8
 73
4
 74
0
 42
0.0000001
 43
0.0000001
 44
0.0000000001
 40
0.0
 40
0.0
 40
0.0
 40
0.0
 40
1.0
 40
1.0
 40
1.0
 40
1.0
 10
1024.0186208553
 20
1285.6378812478
 30
0.0
 10
1024.0186208553
 20
1284.9036448752
 30
0.0
 10
1023.8838898671
 20
1284.1247022279
 30
0.0
 10
1023.5046882563
 20
1283.4959660438
 30
0.0
  0
SPLINE
  5
372
100
AcDbEntity
  8
0
100
AcDbSpline
 62
7
  6
CONTINUOUS
 70
0
 71
3
 72
8
 73
4
 74
0
 42
0.0000001
 43
0.0000001
 44
0.0000000001
 40
0.0
 40
0.0
 40
0.0
 40
0.0
 40
1.0
 40
1.0
 40
1.0
 40
1.0
 10
1023.2880048894
 20
1283.1885709559
 30
0.0
 10
1023.1165792357
 20
1282.9800195213
 30
0.0
 10
1022.9060396904
 20
1282.7974900482
 30
0.0
 10
1022.6722793515
 20
1282.6624472416
 30
0.0
  0
SPLINE
  5
373
100
AcDbEntity
  8
0
100
AcDbSpline
 62
7
  6
CONTINUOUS
 70
0
 71
3
 72
8
 73
4
 74
0
 42
0.0000001
 43
0.0000001
 44
0.0000000001
 40
0.0
 40
0.0
 40
0.0
 40
0.0
 40
1.0
 40
1.0
 40
1.0
 40
1.0
 10
1024.0186208553
 20
244.5972994076
 30
0.0
 10
1024.0186208553
 20
243.8626783693
 30
0.0
 10
1023.8837654926
 20
243.0832360659
 30
0.0
 10
1023.5040777162
 20
242.4543439747
 30
0.0
  0
SPLINE
  5
374
100
AcDbEntity
  8
0
100
AcDbSpline
 62
7
  6
CONTINUOUS
 70
0
 71
3
 72
9
 73
5
 74
0
 42
0.0000001
 43
0.0000001
 44
0.0000000001
 40
0.0
 40
0.0
 40
0.0
 40
0.0
 40
0.505405488
 40
1.0
 40
1.0
 40
1.0
 40
1.0
 10
1023.5040777162
 20
242.4543439747
 30
0.0
 10
1023.4709843572
 20
242.399530117
 30
0.0
 10
1023.4016856995
 20
242.2933288466
 30
0.0
 10
1023.3247659107
 20
242.1924955822
 30
0.0
 10
1023.2848815984
 20
242.1441690391
 30
0.0
  0
SPLINE
  5
375
100
AcDbEntity
  8
0
100
AcDbSpline
 62
7
  6
CONTINUOUS
 70
0
 71
3
 72
8
 73
4
 74
0
 42
0.0000001
 43
0.0000001
 44
0.0000000001
 40
0.0
 40
0.0
 40
0.0
 40
0.0
 40
1.0
 40
1.0
 40
1.0
 40
1.0
 10
1023.2848815984
 20
242.1441690391
 30
0.0
 10
1023.114073014
 20
241.9372057512
 30
0.0
 10
1022.9046625962
 20
241.7560670362
 30
0.0
 10
1022.6723002401
 20
241.6218392056
 30
0.0
  0
SPLINE
  5
376
100
AcDbEntity
  8
0
100
AcDbSpline
 62
7
  6
CONTINUOUS
 70
0
 71
3
 72
8
 73
4
 74
0
 42
0.0000001
 43
0.0000001
 44
0.0000000001
 40
0.0
 40
0.0
 40
0.0
 40
0.0
 40
1.0
 40
1.0
 40
1.0
 40
1.0
 10
640.7651498257
 20
2119.281183045
 30
0.0
 10
640.7651498257
 20
2118.5465620067
 30
0.0
 10
640.630294463
 20
2117.7671197033
 30
0.0
 10
640.2506066865
 20
2117.1382276121
 30
0.0
  0
SPLINE
  5
377
100
AcDbEntity
  8
0
100
AcDbSpline
 62
7
  6
CONTINUOUS
 70
0
 71
3
 72
9
 73
5
 74
0
 42
0.0000001
 43
0.0000001
 44
0.0000000001
 40
0.0
 40
0.0
 40
0.0
 40
0.0
 40
0.505405488
 40
1.0
 40
1.0
 40
1.0
 40
1.0
 10
640.2506066865
 20
2117.1382276121
 30
0.0
 10
640.2175133276
 20
2117.0834137544
 30
0.0
 10
640.1482146698
 20
2116.977212484
 30
0.0
 10
640.0712948811
 20
2116.8763792196
 30
0.0
 10
640.0314105687
 20
2116.8280526765
 30
0.0
  0
SPLINE
  5
378
100
AcDbEntity
  8
0
100
AcDbSpline
 62
7
  6
CONTINUOUS
 70
0
 71
3
 72
8
 73
4
 74
0
 42
0.0000001
 43
0.0000001
 44
0.0000000001
 40
0.0
 40
0.0
 40
0.0
 40
0.0
 40
1.0
 40
1.0
 40
1.0
 40
1.0
 10
640.0314105687
 20
2116.8280526765
 30
0.0
 10
639.8606019843
 20
2116.6210893886
 30
0.0
 10
639.6511915666
 20
2116.4399506736
 30
0.0
 10
639.4188292104
 20
2116.305722843
 30
0.0
  0
SPLINE
  5
379
100
AcDbEntity
  8
0
100
AcDbSpline
 62
7
  6
CONTINUOUS
 70
0
 71
3
 72
8
 73
4
 74
0
 42
0.0000001
 43
0.0000001
 44
0.0000000001
 40
0.0
 40
0.0
 40
0.0
 40
0.0
 40
1.0
 40
1.0
 40
1.0
 40
1.0
 10
640.7651498257
 20
1078.2406012047
 30
0.0
 10
640.7651498257
 20
1077.5063648322
 30
0.0
 10
640.6304188374
 20
1076.7274221848
 30
0.0
 10
640.2512172266
 20
1076.0986860007
 30
0.0
  0
SPLINE
  5
37A
100
AcDbEntity
  8
0
100
AcDbSpline
 62
7
  6
CONTINUOUS
 70
0
 71
3
 72
8
 73
4
 74
0
 42
0.0000001
 43
0.0000001
 44
0.0000000001
 40
0.0
 40
0.0
 40
0.0
 40
0.0
 40
1.0
 40
1.0
 40
1.0
 40
1.0
 10
640.0345338597
 20
1075.7912909129
 30
0.0
 10
639.863108206
 20
1075.5827394783
 30
0.0
 10
639.6525686607
 20
1075.4002100051
 30
0.0
 10
639.4188083218
 20
1075.2651671986
 30
0.0
  0
SPLINE
  5
37B
100
AcDbEntity
  8
0
100
AcDbSpline
 62
7
  6
CONTINUOUS
 70
0
 71
3
 72
8
 73
4
 74
0
 42
0.0000001
 43
0.0000001
 44
0.0000000001
 40
0.0
 40
0.0
 40
0.0
 40
0.0
 40
1.0
 40
1.0
 40
1.0
 40
1.0
 10
640.7651498257
 20
1506.9043701978
 30
0.0
 10
640.7651498257
 20
1506.1701338252
 30
0.0
 10
640.6304188374
 20
1505.3911911779
 30
0.0
 10
640.2512172266
 20
1504.7624549938
 30
0.0
  0
SPLINE
  5
37C
100
AcDbEntity
  8
0
100
AcDbSpline
 62
7
  6
CONTINUOUS
 70
0
 71
3
 72
8
 73
4
 74
0
 42
0.0000001
 43
0.0000001
 44
0.0000000001
 40
0.0
 40
0.0
 40
0.0
 40
0.0
 40
1.0
 40
1.0
 40
1.0
 40
1.0
 10
640.0345338597
 20
1504.4550599059
 30
0.0
 10
639.863108206
 20
1504.2465084713
 30
0.0
 10
639.6525686607
 20
1504.0639789982
 30
0.0
 10
639.4188083218
 20
1503.9289361916
 30
0.0
  0
SPLINE
  5
37D
100
AcDbEntity
  8
0
100
AcDbSpline
 62
7
  6
CONTINUOUS
 70
0
 71
3
 72
8
 73
4
 74
0
 42
0.0000001
 43
0.0000001
 44
0.0000000001
 40
0.0
 40
0.0
 40
0.0
 40
0.0
 40
1.0
 40
1.0
 40
1.0
 40
1.0
 10
640.7651498257
 20
465.8637883576
 30
0.0
 10
640.7651498257
 20
465.1291673193
 30
0.0
 10
640.630294463
 20
464.3497250159
 30
0.0
 10
640.2506066865
 20
463.7208329247
 30
0.0
  0
SPLINE
  5
37E
100
AcDbEntity
  8
0
100
AcDbSpline
 62
7
  6
CONTINUOUS
 70
0
 71
3
 72
9
 73
5
 74
0
 42
0.0000001
 43
0.0000001
 44
0.0000000001
 40
0.0
 40
0.0
 40
0.0
 40
0.0
 40
0.505405488
 40
1.0
 40
1.0
 40
1.0
 40
1.0
 10
640.2506066865
 20
463.7208329247
 30
0.0
 10
640.2175133276
 20
463.6660190671
 30
0.0
 10
640.1482146698
 20
463.5598177966
 30
0.0
 10
640.0712948811
 20
463.4589845322
 30
0.0
 10
640.0314105687
 20
463.4106579891
 30
0.0
  0
SPLINE
  5
37F
100
AcDbEntity
  8
0
100
AcDbSpline
 62
7
  6
CONTINUOUS
 70
0
 71
3
 72
8
 73
4
 74
0
 42
0.0000001
 43
0.0000001
 44
0.0000000001
 40
0.0
 40
0.0
 40
0.0
 40
0.0
 40
1.0
 40
1.0
 40
1.0
 40
1.0
 10
640.0314105687
 20
463.4106579891
 30
0.0
 10
639.8606019843
 20
463.2036947012
 30
0.0
 10
639.6511915666
 20
463.0225559862
 30
0.0
 10
639.4188292104
 20
462.8883281556
 30
0.0
  0
SPLINE
  5
380
100
AcDbEntity
  8
0
100
AcDbSpline
 62
7
  6
CONTINUOUS
 70
0
 71
3
 72
8
 73
4
 74
0
 42
0.0000001
 43
0.0000001
 44
0.0000000001
 40
0.0
 40
0.0
 40
0.0
 40
0.0
 40
1.0
 40
1.0
 40
1.0
 40
1.0
 10
1030.1814883882
 20
185.740189601
 30
0.0
 10
1029.7843033019
 20
185.5375312715
 30
0.0
 10
1029.2776666692
 20
185.5160905341
 30
0.0
 10
1028.8479281098
 20
185.6350491902
 30
0.0
  0
SPLINE
  5
381
100
AcDbEntity
  8
0
100
AcDbSpline
 62
7
  6
CONTINUOUS
 70
0
 71
3
 72
8
 73
4
 74
0
 42
0.0000001
 43
0.0000001
 44
0.0000000001
 40
0.0
 40
0.0
 40
0.0
 40
0.0
 40
1.0
 40
1.0
 40
1.0
 40
1.0
 10
1028.8479281098
 20
185.6350491902
 30
0.0
 10
1028.5816256899
 20
185.708766052
 30
0.0
 10
1028.3251668667
 20
185.8230374335
 30
0.0
 10
1028.0857297349
 20
185.9609541274
 30
0.0
  0
SPLINE
  5
382
100
AcDbEntity
  8
0
100
AcDbSpline
 62
7
  6
CONTINUOUS
 70
0
 71
3
 72
8
 73
4
 74
0
 42
0.0000001
 43
0.0000001
 44
0.0000000001
 40
0.0
 40
0.0
 40
0.0
 40
0.0
 40
1.0
 40
1.0
 40
1.0
 40
1.0
 10
628.7651313402
 20
2183.9290474951
 30
0.0
 10
628.7643997013
 20
2182.9100672334
 30
0.0
 10
629.0695262055
 20
2181.843011478
 30
0.0
 10
629.6433776265
 20
2181.0009806854
 30
0.0
  0
SPLINE
  5
383
100
AcDbEntity
  8
0
100
AcDbSpline
 62
7
  6
CONTINUOUS
 70
0
 71
3
 72
9
 73
5
 74
0
 42
0.0000001
 43
0.0000001
 44
0.0000000001
 40
0.0
 40
0.0
 40
0.0
 40
0.0
 40
0.2099658218
 40
1.0
 40
1.0
 40
1.0
 40
1.0
 10
639.4188292104
 20
2116.305722843
 30
0.0
 10
639.1431419698
 20
2116.1464677002
 30
0.0
 10
637.6365746623
 20
2115.699369933
 30
0.0
 10
636.0843876079
 20
2116.5669995589
 30
0.0
 10
635.1652343547
 20
2117.3352885151
 30
0.0
  0
SPLINE
  5
384
100
AcDbEntity
  8
0
100
AcDbSpline
 62
7
  6
CONTINUOUS
 70
0
 71
3
 72
8
 73
4
 74
0
 42
0.0000001
 43
0.0000001
 44
0.0000000001
 40
0.0
 40
0.0
 40
0.0
 40
0.0
 40
1.0
 40
1.0
 40
1.0
 40
1.0
 10
635.1652343547
 20
2117.3352885151
 30
0.0
 10
633.7376343139
 20
2118.5285708555
 30
0.0
 10
632.6497931747
 20
2120.2048775299
 30
0.0
 10
632.0474702059
 20
2121.9653239681
 30
0.0
  0
SPLINE
  5
385
100
AcDbEntity
  8
0
100
AcDbSpline
 62
7
  6
CONTINUOUS
 70
0
 71
3
 72
8
 73
4
 74
0
 42
0.0000001
 43
0.0000001
 44
0.0000000001
 40
0.0
 40
0.0
 40
0.0
 40
0.0
 40
1.0
 40
1.0
 40
1.0
 40
1.0
 10
632.0474702059
 20
2121.9653239681
 30
0.0
 10
631.7598344905
 20
2122.8060145891
 30
0.0
 10
631.5727233987
 20
2123.699777528
 30
0.0
 10
631.5727233987
 20
2124.5883128537
 30
0.0
  0
SPLINE
  5
386
100
AcDbEntity
  8
0
100
AcDbSpline
 62
7
  6
CONTINUOUS
 70
0
 71
3
 72
8
 73
4
 74
0
 42
0.0000001
 43
0.0000001
 44
0.0000000001
 40
0.0
 40
0.0
 40
0.0
 40
0.0
 40
1.0
 40
1.0
 40
1.0
 40
1.0
 10
1028.0857297349
 20
185.9609541274
 30
0.0
 10
1027.1947626774
 20
186.4741545236
 30
0.0
 10
1026.5261434487
 20
187.3343913111
 30
0.0
 10
1025.9479666276
 20
188.1846315758
 30
0.0
  0
SPLINE
  5
387
100
AcDbEntity
  8
0
100
AcDbSpline
 62
7
  6
CONTINUOUS
 70
0
 71
3
 72
9
 73
5
 74
0
 42
0.0000001
 43
0.0000001
 44
0.0000000001
 40
0.0
 40
0.0
 40
0.0
 40
0.0
 40
0.2099658218
 40
1.0
 40
1.0
 40
1.0
 40
1.0
 10
639.4188292104
 20
462.8883281556
 30
0.0
 10
639.1431419698
 20
462.7290730128
 30
0.0
 10
637.6365746623
 20
462.2819752456
 30
0.0
 10
636.0843876079
 20
463.1496048715
 30
0.0
 10
635.1652343547
 20
463.9178938277
 30
0.0
  0
SPLINE
  5
388
100
AcDbEntity
  8
0
100
AcDbSpline
 62
7
  6
CONTINUOUS
 70
0
 71
3
 72
8
 73
4
 74
0
 42
0.0000001
 43
0.0000001
 44
0.0000000001
 40
0.0
 40
0.0
 40
0.0
 40
0.0
 40
1.0
 40
1.0
 40
1.0
 40
1.0
 10
635.1652343547
 20
463.9178938277
 30
0.0
 10
633.7376343139
 20
465.1111761681
 30
0.0
 10
632.6497931747
 20
466.7874828425
 30
0.0
 10
632.0474702059
 20
468.5479292807
 30
0.0
  0
SPLINE
  5
389
100
AcDbEntity
  8
0
100
AcDbSpline
 62
7
  6
CONTINUOUS
 70
0
 71
3
 72
8
 73
4
 74
0
 42
0.0000001
 43
0.0000001
 44
0.0000000001
 40
0.0
 40
0.0
 40
0.0
 40
0.0
 40
1.0
 40
1.0
 40
1.0
 40
1.0
 10
632.0474702059
 20
468.5479292807
 30
0.0
 10
631.7598344905
 20
469.3886199017
 30
0.0
 10
631.5727233987
 20
470.2823828406
 30
0.0
 10
631.5727233987
 20
471.1709181663
 30
0.0
  0
SPLINE
  5
38A
100
AcDbEntity
  8
0
100
AcDbSpline
 62
7
  6
CONTINUOUS
 70
0
 71
3
 72
9
 73
5
 74
0
 42
0.0000001
 43
0.0000001
 44
0.0000000001
 40
0.0
 40
0.0
 40
0.0
 40
0.0
 40
0.2099658218
 40
1.0
 40
1.0
 40
1.0
 40
1.0
 10
1022.6723002401
 20
241.6218392056
 30
0.0
 10
1022.3966129995
 20
241.4625840628
 30
0.0
 10
1020.890045692
 20
241.0154862956
 30
0.0
 10
1019.3378586376
 20
241.8831159215
 30
0.0
 10
1018.4187053843
 20
242.6514048777
 30
0.0
  0
SPLINE
  5
38B
100
AcDbEntity
  8
0
100
AcDbSpline
 62
7
  6
CONTINUOUS
 70
0
 71
3
 72
8
 73
4
 74
0
 42
0.0000001
 43
0.0000001
 44
0.0000000001
 40
0.0
 40
0.0
 40
0.0
 40
0.0
 40
1.0
 40
1.0
 40
1.0
 40
1.0
 10
1018.4187053843
 20
242.6514048777
 30
0.0
 10
1016.9911053436
 20
243.8446872181
 30
0.0
 10
1015.9032642043
 20
245.5209938925
 30
0.0
 10
1015.3009412356
 20
247.2814403307
 30
0.0
  0
SPLINE
  5
38C
100
AcDbEntity
  8
0
100
AcDbSpline
 62
7
  6
CONTINUOUS
 70
0
 71
3
 72
8
 73
4
 74
0
 42
0.0000001
 43
0.0000001
 44
0.0000000001
 40
0.0
 40
0.0
 40
0.0
 40
0.0
 40
1.0
 40
1.0
 40
1.0
 40
1.0
 10
1015.3009412356
 20
247.2814403307
 30
0.0
 10
1015.0133055202
 20
248.1221309517
 30
0.0
 10
1014.8261944284
 20
249.0158938906
 30
0.0
 10
1014.8261944284
 20
249.9044292163
 30
0.0
  0
SPLINE
  5
38D
100
AcDbEntity
  8
0
100
AcDbSpline
 62
7
  6
CONTINUOUS
 70
0
 71
3
 72
8
 73
4
 74
0
 42
0.0000001
 43
0.0000001
 44
0.0000000001
 40
0.0
 40
0.0
 40
0.0
 40
0.0
 40
1.0
 40
1.0
 40
1.0
 40
1.0
 10
1014.8261944284
 20
1903.3218239037
 30
0.0
 10
1014.8261944284
 20
1904.0276134466
 30
0.0
 10
1014.9502751017
 20
1904.7708489829
 30
0.0
 10
1015.2952520338
 20
1905.3865841493
 30
0.0
  0
SPLINE
  5
38E
100
AcDbEntity
  8
0
100
AcDbSpline
 62
7
  6
CONTINUOUS
 70
0
 71
3
 72
8
 73
4
 74
0
 42
0.0000001
 43
0.0000001
 44
0.0000000001
 40
0.0
 40
0.0
 40
0.0
 40
0.0
 40
1.0
 40
1.0
 40
1.0
 40
1.0
 10
1015.2952520338
 20
1905.3865841493
 30
0.0
 10
1015.5012737652
 20
1905.7543038817
 30
0.0
 10
1015.8075347239
 20
1906.0864473878
 30
0.0
 10
1016.1725150437
 20
1906.2972841056
 30
0.0
  0
SPLINE
  5
38F
100
AcDbEntity
  8
0
100
AcDbSpline
 62
7
  6
CONTINUOUS
 70
0
 71
3
 72
8
 73
4
 74
0
 42
0.0000001
 43
0.0000001
 44
0.0000000001
 40
0.0
 40
0.0
 40
0.0
 40
0.0
 40
1.0
 40
1.0
 40
1.0
 40
1.0
 10
1014.8261944284
 20
862.2812420635
 30
0.0
 10
1014.8261944284
 20
862.9892998987
 30
0.0
 10
1014.9511278308
 20
863.7353328982
 30
0.0
 10
1015.2987459126
 20
864.3521858525
 30
0.0
  0
SPLINE
  5
390
100
AcDbEntity
  8
0
100
AcDbSpline
 62
7
  6
CONTINUOUS
 70
0
 71
3
 72
8
 73
4
 74
0
 42
0.0000001
 43
0.0000001
 44
0.0000000001
 40
0.0
 40
0.0
 40
0.0
 40
0.0
 40
1.0
 40
1.0
 40
1.0
 40
1.0
 10
1015.2987459126
 20
864.3521858525
 30
0.0
 10
1015.5045539281
 20
864.7173949399
 30
0.0
 10
1015.809546528
 20
865.0469779313
 30
0.0
 10
1016.1725359322
 20
865.2566760697
 30
0.0
  0
SPLINE
  5
391
100
AcDbEntity
  8
0
100
AcDbSpline
 62
7
  6
CONTINUOUS
 70
0
 71
3
 72
8
 73
4
 74
0
 42
0.0000001
 43
0.0000001
 44
0.0000000001
 40
0.0
 40
0.0
 40
0.0
 40
0.0
 40
1.0
 40
1.0
 40
1.0
 40
1.0
 10
1014.8261944284
 20
1290.9450110565
 30
0.0
 10
1014.8261944284
 20
1291.6530688918
 30
0.0
 10
1014.9511278308
 20
1292.3991018912
 30
0.0
 10
1015.2987459126
 20
1293.0159548455
 30
0.0
  0
SPLINE
  5
392
100
AcDbEntity
  8
0
100
AcDbSpline
 62
7
  6
CONTINUOUS
 70
0
 71
3
 72
8
 73
4
 74
0
 42
0.0000001
 43
0.0000001
 44
0.0000000001
 40
0.0
 40
0.0
 40
0.0
 40
0.0
 40
1.0
 40
1.0
 40
1.0
 40
1.0
 10
1015.2987459126
 20
1293.0159548455
 30
0.0
 10
1015.5045539281
 20
1293.381163933
 30
0.0
 10
1015.809546528
 20
1293.7107469243
 30
0.0
 10
1016.1725359322
 20
1293.9204450627
 30
0.0
  0
SPLINE
  5
393
100
AcDbEntity
  8
0
100
AcDbSpline
 62
7
  6
CONTINUOUS
 70
0
 71
3
 72
8
 73
4
 74
0
 42
0.0000001
 43
0.0000001
 44
0.0000000001
 40
0.0
 40
0.0
 40
0.0
 40
0.0
 40
1.0
 40
1.0
 40
1.0
 40
1.0
 10
1014.8261944284
 20
249.9044292163
 30
0.0
 10
1014.8261944284
 20
250.6102187592
 30
0.0
 10
1014.9502751017
 20
251.3534542955
 30
0.0
 10
1015.2952520338
 20
251.9691894619
 30
0.0
  0
SPLINE
  5
394
100
AcDbEntity
  8
0
100
AcDbSpline
 62
7
  6
CONTINUOUS
 70
0
 71
3
 72
8
 73
4
 74
0
 42
0.0000001
 43
0.0000001
 44
0.0000000001
 40
0.0
 40
0.0
 40
0.0
 40
0.0
 40
1.0
 40
1.0
 40
1.0
 40
1.0
 10
1015.2952520338
 20
251.9691894619
 30
0.0
 10
1015.5012737652
 20
252.3369091943
 30
0.0
 10
1015.8075347239
 20
252.6690527004
 30
0.0
 10
1016.1725150437
 20
252.8798894182
 30
0.0
  0
SPLINE
  5
395
100
AcDbEntity
  8
0
100
AcDbSpline
 62
7
  6
CONTINUOUS
 70
0
 71
3
 72
8
 73
4
 74
0
 42
0.0000001
 43
0.0000001
 44
0.0000000001
 40
0.0
 40
0.0
 40
0.0
 40
0.0
 40
1.0
 40
1.0
 40
1.0
 40
1.0
 10
631.5727233987
 20
2124.5883128537
 30
0.0
 10
631.5727233987
 20
2125.2941023966
 30
0.0
 10
631.6968040721
 20
2126.0373379329
 30
0.0
 10
632.0417810041
 20
2126.6530730993
 30
0.0
  0
SPLINE
  5
396
100
AcDbEntity
  8
0
100
AcDbSpline
 62
7
  6
CONTINUOUS
 70
0
 71
3
 72
8
 73
4
 74
0
 42
0.0000001
 43
0.0000001
 44
0.0000000001
 40
0.0
 40
0.0
 40
0.0
 40
0.0
 40
1.0
 40
1.0
 40
1.0
 40
1.0
 10
632.0417810041
 20
2126.6530730993
 30
0.0
 10
632.2478027356
 20
2127.0207928317
 30
0.0
 10
632.5540636942
 20
2127.3529363378
 30
0.0
 10
632.919044014
 20
2127.5637730556
 30
0.0
  0
SPLINE
  5
397
100
AcDbEntity
  8
0
100
AcDbSpline
 62
7
  6
CONTINUOUS
 70
0
 71
3
 72
9
 73
5
 74
0
 42
0.0000001
 43
0.0000001
 44
0.0000000001
 40
0.0
 40
0.0
 40
0.0
 40
0.0
 40
0.2099658218
 40
1.0
 40
1.0
 40
1.0
 40
1.0
 10
1022.6723002401
 20
1895.039233893
 30
0.0
 10
1022.3966129995
 20
1894.8799787502
 30
0.0
 10
1020.890045692
 20
1894.432880983
 30
0.0
 10
1019.3378586376
 20
1895.3005106088
 30
0.0
 10
1018.4187053843
 20
1896.0687995651
 30
0.0
  0
SPLINE
  5
398
100
AcDbEntity
  8
0
100
AcDbSpline
 62
7
  6
CONTINUOUS
 70
0
 71
3
 72
8
 73
4
 74
0
 42
0.0000001
 43
0.0000001
 44
0.0000000001
 40
0.0
 40
0.0
 40
0.0
 40
0.0
 40
1.0
 40
1.0
 40
1.0
 40
1.0
 10
1018.4187053843
 20
1896.0687995651
 30
0.0
 10
1016.9911053436
 20
1897.2620819055
 30
0.0
 10
1015.9032642043
 20
1898.9383885799
 30
0.0
 10
1015.3009412356
 20
1900.6988350181
 30
0.0
  0
SPLINE
  5
399
100
AcDbEntity
  8
0
100
AcDbSpline
 62
7
  6
CONTINUOUS
 70
0
 71
3
 72
8
 73
4
 74
0
 42
0.0000001
 43
0.0000001
 44
0.0000000001
 40
0.0
 40
0.0
 40
0.0
 40
0.0
 40
1.0
 40
1.0
 40
1.0
 40
1.0
 10
1015.3009412356
 20
1900.6988350181
 30
0.0
 10
1015.0133055202
 20
1901.5395256391
 30
0.0
 10
1014.8261944284
 20
1902.433288578
 30
0.0
 10
1014.8261944284
 20
1903.3218239037
 30
0.0
  0
SPLINE
  5
39A
100
AcDbEntity
  8
0
100
AcDbSpline
 62
7
  6
CONTINUOUS
 70
0
 71
3
 72
8
 73
4
 74
0
 42
0.0000001
 43
0.0000001
 44
0.0000000001
 40
0.0
 40
0.0
 40
0.0
 40
0.0
 40
1.0
 40
1.0
 40
1.0
 40
1.0
 10
631.5727233987
 20
1083.5477310135
 30
0.0
 10
631.5727233987
 20
1084.2557888487
 30
0.0
 10
631.6976568011
 20
1085.0018218482
 30
0.0
 10
632.0452748829
 20
1085.6186748025
 30
0.0
  0
SPLINE
  5
39B
100
AcDbEntity
  8
0
100
AcDbSpline
 62
7
  6
CONTINUOUS
 70
0
 71
3
 72
8
 73
4
 74
0
 42
0.0000001
 43
0.0000001
 44
0.0000000001
 40
0.0
 40
0.0
 40
0.0
 40
0.0
 40
1.0
 40
1.0
 40
1.0
 40
1.0
 10
632.0452748829
 20
1085.6186748025
 30
0.0
 10
632.2510828985
 20
1085.9838838899
 30
0.0
 10
632.5560754983
 20
1086.3134668813
 30
0.0
 10
632.9190649026
 20
1086.5231650197
 30
0.0
  0
SPLINE
  5
39C
100
AcDbEntity
  8
0
100
AcDbSpline
 62
7
  6
CONTINUOUS
 70
0
 71
3
 72
8
 73
4
 74
0
 42
0.0000001
 43
0.0000001
 44
0.0000000001
 40
0.0
 40
0.0
 40
0.0
 40
0.0
 40
1.0
 40
1.0
 40
1.0
 40
1.0
 10
631.5727233987
 20
1512.2115000065
 30
0.0
 10
631.5727233987
 20
1512.9195578418
 30
0.0
 10
631.6976568011
 20
1513.6655908412
 30
0.0
 10
632.0452748829
 20
1514.2824437955
 30
0.0
  0
SPLINE
  5
39D
100
AcDbEntity
  8
0
100
AcDbSpline
 62
7
  6
CONTINUOUS
 70
0
 71
3
 72
8
 73
4
 74
0
 42
0.0000001
 43
0.0000001
 44
0.0000000001
 40
0.0
 40
0.0
 40
0.0
 40
0.0
 40
1.0
 40
1.0
 40
1.0
 40
1.0
 10
632.0452748829
 20
1514.2824437955
 30
0.0
 10
632.2510828985
 20
1514.647652883
 30
0.0
 10
632.5560754983
 20
1514.9772358743
 30
0.0
 10
632.9190649026
 20
1515.1869340127
 30
0.0
  0
SPLINE
  5
39E
100
AcDbEntity
  8
0
100
AcDbSpline
 62
7
  6
CONTINUOUS
 70
0
 71
3
 72
8
 73
4
 74
0
 42
0.0000001
 43
0.0000001
 44
0.0000000001
 40
0.0
 40
0.0
 40
0.0
 40
0.0
 40
1.0
 40
1.0
 40
1.0
 40
1.0
 10
631.5727233987
 20
471.1709181663
 30
0.0
 10
631.5727233987
 20
471.8767077092
 30
0.0
 10
631.6968040721
 20
472.6199432455
 30
0.0
 10
632.0417810041
 20
473.2356784119
 30
0.0
  0
SPLINE
  5
39F
100
AcDbEntity
  8
0
100
AcDbSpline
 62
7
  6
CONTINUOUS
 70
0
 71
3
 72
8
 73
4
 74
0
 42
0.0000001
 43
0.0000001
 44
0.0000000001
 40
0.0
 40
0.0
 40
0.0
 40
0.0
 40
1.0
 40
1.0
 40
1.0
 40
1.0
 10
632.0417810041
 20
473.2356784119
 30
0.0
 10
632.2478027356
 20
473.6033981443
 30
0.0
 10
632.5540636942
 20
473.9355416504
 30
0.0
 10
632.919044014
 20
474.1463783682
 30
0.0
  0
SPLINE
  5
3A0
100
AcDbEntity
  8
0
100
AcDbSpline
 62
7
  6
CONTINUOUS
 70
0
 71
3
 72
9
 73
5
 74
0
 42
0.0000001
 43
0.0000001
 44
0.0000000001
 40
0.0
 40
0.0
 40
0.0
 40
0.0
 40
0.4407355831
 40
1.0
 40
1.0
 40
1.0
 40
1.0
 10
1025.9479666276
 20
1952.1995916481
 30
0.0
 10
1026.6322646337
 20
1952.4172392422
 30
0.0
 10
1027.9544928546
 20
1953.4388154915
 30
0.0
 10
1029.4154583157
 20
1954.1487082459
 30
0.0
 10
1030.1814883882
 20
1954.6421339972
 30
0.0
  0
SPLINE
  5
3A1
100
AcDbEntity
  8
0
100
AcDbSpline
 62
7
  6
CONTINUOUS
 70
0
 71
3
 72
9
 73
5
 74
0
 42
0.0000001
 43
0.0000001
 44
0.0000000001
 40
0.0
 40
0.0
 40
0.0
 40
0.0
 40
0.4619920696
 40
1.0
 40
1.0
 40
1.0
 40
1.0
 10
1030.6083420309
 20
1954.9016220518
 30
0.0
 10
1030.5425170775
 20
1954.8618107292
 30
0.0
 10
1030.4007261919
 20
1954.7745054735
 30
0.0
 10
1030.2584413267
 20
1954.6880008688
 30
0.0
 10
1030.1814883882
 20
1954.6421339972
 30
0.0
  0
SPLINE
  5
3A2
100
AcDbEntity
  8
0
100
AcDbSpline
 62
7
  6
CONTINUOUS
 70
0
 71
3
 72
9
 73
5
 74
0
 42
0.0000001
 43
0.0000001
 44
0.0000000001
 40
0.0
 40
0.0
 40
0.0
 40
0.0
 40
0.2099702167
 40
1.0
 40
1.0
 40
1.0
 40
1.0
 10
639.4188083218
 20
1075.2651671986
 30
0.0
 10
639.1428527671
 20
1075.1057483135
 30
0.0
 10
637.6346287274
 20
1074.6585948107
 30
0.0
 10
636.0812873617
 20
1075.5280289023
 30
0.0
 10
635.1617340273
 20
1076.2976329527
 30
0.0
  0
SPLINE
  5
3A3
100
AcDbEntity
  8
0
100
AcDbSpline
 62
7
  6
CONTINUOUS
 70
0
 71
3
 72
8
 73
4
 74
0
 42
0.0000001
 43
0.0000001
 44
0.0000000001
 40
0.0
 40
0.0
 40
0.0
 40
0.0
 40
1.0
 40
1.0
 40
1.0
 40
1.0
 10
635.1617340273
 20
1076.2976329527
 30
0.0
 10
633.7343322099
 20
1077.4922718921
 30
0.0
 10
632.6466465748
 20
1079.1696134652
 30
0.0
 10
632.0452748829
 20
1080.9311441155
 30
0.0
  0
SPLINE
  5
3A4
100
AcDbEntity
  8
0
100
AcDbSpline
 62
7
  6
CONTINUOUS
 70
0
 71
3
 72
8
 73
4
 74
0
 42
0.0000001
 43
0.0000001
 44
0.0000000001
 40
0.0
 40
0.0
 40
0.0
 40
0.0
 40
1.0
 40
1.0
 40
1.0
 40
1.0
 10
632.0452748829
 20
1080.9311441155
 30
0.0
 10
631.7589247897
 20
1081.7699173279
 30
0.0
 10
631.5727233987
 20
1082.6614258303
 30
0.0
 10
631.5727233987
 20
1083.5477310135
 30
0.0
  0
SPLINE
  5
3A5
100
AcDbEntity
  8
0
100
AcDbSpline
 62
7
  6
CONTINUOUS
 70
0
 71
3
 72
9
 73
5
 74
0
 42
0.0000001
 43
0.0000001
 44
0.0000000001
 40
0.0
 40
0.0
 40
0.0
 40
0.0
 40
0.2099702167
 40
1.0
 40
1.0
 40
1.0
 40
1.0
 10
1022.6722793515
 20
1282.6624472416
 30
0.0
 10
1022.3963237967
 20
1282.5030283566
 30
0.0
 10
1020.888099757
 20
1282.0558748537
 30
0.0
 10
1019.3347583914
 20
1282.9253089453
 30
0.0
 10
1018.4152050569
 20
1283.6949129957
 30
0.0
  0
SPLINE
  5
3A6
100
AcDbEntity
  8
0
100
AcDbSpline
 62
7
  6
CONTINUOUS
 70
0
 71
3
 72
8
 73
4
 74
0
 42
0.0000001
 43
0.0000001
 44
0.0000000001
 40
0.0
 40
0.0
 40
0.0
 40
0.0
 40
1.0
 40
1.0
 40
1.0
 40
1.0
 10
1018.4152050569
 20
1283.6949129957
 30
0.0
 10
1016.9878032396
 20
1284.8895519351
 30
0.0
 10
1015.9001176044
 20
1286.5668935082
 30
0.0
 10
1015.2987459126
 20
1288.3284241585
 30
0.0
  0
SPLINE
  5
3A7
100
AcDbEntity
  8
0
100
AcDbSpline
 62
7
  6
CONTINUOUS
 70
0
 71
3
 72
8
 73
4
 74
0
 42
0.0000001
 43
0.0000001
 44
0.0000000001
 40
0.0
 40
0.0
 40
0.0
 40
0.0
 40
1.0
 40
1.0
 40
1.0
 40
1.0
 10
1015.2987459126
 20
1288.3284241585
 30
0.0
 10
1015.0123958194
 20
1289.167197371
 30
0.0
 10
1014.8261944284
 20
1290.0587058733
 30
0.0
 10
1014.8261944284
 20
1290.9450110565
 30
0.0
  0
SPLINE
  5
3A8
100
AcDbEntity
  8
0
100
AcDbSpline
 62
7
  6
CONTINUOUS
 70
0
 71
3
 72
8
 73
4
 74
0
 42
0.0000001
 43
0.0000001
 44
0.0000000001
 40
0.0
 40
0.0
 40
0.0
 40
0.0
 40
1.0
 40
1.0
 40
1.0
 40
1.0
 10
1037.0785061965
 20
1923.0903046307
 30
0.0
 10
1037.2876011428
 20
1923.2834976809
 30
0.0
 10
1037.4583939729
 20
1923.5704761362
 30
0.0
 10
1037.458501335
 20
1923.8551588362
 30
0.0
  0
SPLINE
  5
3A9
100
AcDbEntity
  8
0
100
AcDbSpline
 62
7
  6
CONTINUOUS
 70
0
 71
3
 72
9
 73
5
 74
0
 42
0.0000001
 43
0.0000001
 44
0.0000000001
 40
0.0
 40
0.0
 40
0.0
 40
0.0
 40
0.2099702167
 40
1.0
 40
1.0
 40
1.0
 40
1.0
 10
639.4188083218
 20
1503.9289361916
 30
0.0
 10
639.1428527671
 20
1503.7695173066
 30
0.0
 10
637.6346287274
 20
1503.3223638037
 30
0.0
 10
636.0812873617
 20
1504.1917978953
 30
0.0
 10
635.1617340273
 20
1504.9614019457
 30
0.0
  0
SPLINE
  5
3AA
100
AcDbEntity
  8
0
100
AcDbSpline
 62
7
  6
CONTINUOUS
 70
0
 71
3
 72
8
 73
4
 74
0
 42
0.0000001
 43
0.0000001
 44
0.0000000001
 40
0.0
 40
0.0
 40
0.0
 40
0.0
 40
1.0
 40
1.0
 40
1.0
 40
1.0
 10
635.1617340273
 20
1504.9614019457
 30
0.0
 10
633.7343322099
 20
1506.1560408851
 30
0.0
 10
632.6466465748
 20
1507.8333824582
 30
0.0
 10
632.0452748829
 20
1509.5949131085
 30
0.0
  0
SPLINE
  5
3AB
100
AcDbEntity
  8
0
100
AcDbSpline
 62
7
  6
CONTINUOUS
 70
0
 71
3
 72
8
 73
4
 74
0
 42
0.0000001
 43
0.0000001
 44
0.0000000001
 40
0.0
 40
0.0
 40
0.0
 40
0.0
 40
1.0
 40
1.0
 40
1.0
 40
1.0
 10
632.0452748829
 20
1509.5949131085
 30
0.0
 10
631.7589247897
 20
1510.433686321
 30
0.0
 10
631.5727233987
 20
1511.3251948233
 30
0.0
 10
631.5727233987
 20
1512.2115000065
 30
0.0
  0
SPLINE
  5
3AC
100
AcDbEntity
  8
0
100
AcDbSpline
 62
7
  6
CONTINUOUS
 70
0
 71
3
 72
9
 73
5
 74
0
 42
0.0000001
 43
0.0000001
 44
0.0000000001
 40
0.0
 40
0.0
 40
0.0
 40
0.0
 40
0.2099702167
 40
1.0
 40
1.0
 40
1.0
 40
1.0
 10
1022.6722793515
 20
853.9986782486
 30
0.0
 10
1022.3963237967
 20
853.8392593635
 30
0.0
 10
1020.888099757
 20
853.3921058607
 30
0.0
 10
1019.3347583914
 20
854.2615399523
 30
0.0
 10
1018.4152050569
 20
855.0311440027
 30
0.0
  0
SPLINE
  5
3AD
100
AcDbEntity
  8
0
100
AcDbSpline
 62
7
  6
CONTINUOUS
 70
0
 71
3
 72
8
 73
4
 74
0
 42
0.0000001
 43
0.0000001
 44
0.0000000001
 40
0.0
 40
0.0
 40
0.0
 40
0.0
 40
1.0
 40
1.0
 40
1.0
 40
1.0
 10
1018.4152050569
 20
855.0311440027
 30
0.0
 10
1016.9878032396
 20
856.2257829421
 30
0.0
 10
1015.9001176044
 20
857.9031245151
 30
0.0
 10
1015.2987459126
 20
859.6646551655
 30
0.0
  0
SPLINE
  5
3AE
100
AcDbEntity
  8
0
100
AcDbSpline
 62
7
  6
CONTINUOUS
 70
0
 71
3
 72
8
 73
4
 74
0
 42
0.0000001
 43
0.0000001
 44
0.0000000001
 40
0.0
 40
0.0
 40
0.0
 40
0.0
 40
1.0
 40
1.0
 40
1.0
 40
1.0
 10
1015.2987459126
 20
859.6646551655
 30
0.0
 10
1015.0123958194
 20
860.5034283779
 30
0.0
 10
1014.8261944284
 20
861.3949368803
 30
0.0
 10
1014.8261944284
 20
862.2812420635
 30
0.0
  0
SPLINE
  5
3AF
100
AcDbEntity
  8
0
100
AcDbSpline
 62
7
  6
CONTINUOUS
 70
0
 71
3
 72
9
 73
5
 74
0
 42
0.0000001
 43
0.0000001
 44
0.0000000001
 40
0.0
 40
0.0
 40
0.0
 40
0.0
 40
0.7188149739
 40
1.0
 40
1.0
 40
1.0
 40
1.0
 10
629.6433776265
 20
416.9860206132
 30
0.0
 10
629.4145591497
 20
416.9131493514
 30
0.0
 10
629.2394938825
 20
416.6703334029
 30
0.0
 10
628.7591382376
 20
416.597424503
 30
0.0
 10
628.7654149286
 20
416.5036960766
 30
0.0
  0
ELLIPSE
  5
3B0
100
AcDbEntity
  8
0
100
AcDbEllipse
 62
7
  6
CONTINUOUS
 10
1036.1803782139
 20
254.563771692
 30
0.0
 11
3.9897363519
 21
-0.659194334
 31
0.0
 40
0.4344138212
 41
0.7342878988
 42
0.857054404
  0
ELLIPSE
  5
3B1
100
AcDbEntity
  8
0
100
AcDbEllipse
 62
7
  6
CONTINUOUS
 10
1034.7661587636
 20
2021.7885048746
 30
0.0
 11
3.9374589769
 21
1.02581769
 31
0.0
 40
0.6868360053
 41
6.8915217137
 42
10.0331143673
  0
ELLIPSE
  5
3B2
100
AcDbEntity
  8
0
100
AcDbEllipse
 62
7
  6
CONTINUOUS
 10
1036.1803782139
 20
2020.9720233656
 30
0.0
 11
3.9374589769
 21
1.02581769
 31
0.0
 40
0.6868360053
 41
3.7499290601
 42
6.8915217137
  0
ELLIPSE
  5
3B3
100
AcDbEntity
  8
0
100
AcDbEllipse
 62
7
  6
CONTINUOUS
 10
748.103876189
 20
2187.2893067572
 30
0.0
 11
3.9374589769
 21
1.02581769
 31
0.0
 40
0.6868360053
 41
3.7499290601
 42
6.8915217137
  0
ELLIPSE
  5
3B4
100
AcDbEntity
  8
0
100
AcDbEllipse
 62
7
  6
CONTINUOUS
 10
746.6896567387
 20
2188.1057882662
 30
0.0
 11
3.9374589769
 21
1.02581769
 31
0.0
 40
0.6868360053
 41
6.8915217137
 42
10.0331143673
  0
ELLIPSE
  5
3B5
100
AcDbEntity
  8
0
100
AcDbEllipse
 62
7
  6
CONTINUOUS
 10
691.5355692119
 20
2154.6297744474
 30
0.0
 11
3.9897363519
 21
-0.659194334
 31
0.0
 40
0.4344138212
 41
3.9986470576
 42
7.1402397112
  0
ELLIPSE
  5
3B6
100
AcDbEntity
  8
0
100
AcDbEllipse
 62
7
  6
CONTINUOUS
 10
978.1978517865
 20
1989.1289725649
 30
0.0
 11
3.9897363519
 21
-0.659194334
 31
0.0
 40
0.4344138212
 41
7.1402397112
 42
10.2818323648
  0
ELLIPSE
  5
3B7
100
AcDbEntity
  8
0
100
AcDbEllipse
 62
7
  6
CONTINUOUS
 10
979.6120712368
 20
1988.3124910559
 30
0.0
 11
3.9897363519
 21
-0.659194334
 31
0.0
 40
0.4344138212
 41
3.9986470576
 42
7.1402397112
  0
ELLIPSE
  5
3B8
100
AcDbEntity
  8
0
100
AcDbEllipse
 62
7
  6
CONTINUOUS
 10
690.1213497616
 20
2155.4462559565
 30
0.0
 11
3.9897363519
 21
-0.659194334
 31
0.0
 40
0.4344138212
 41
7.1402397112
 42
10.2818323648
  0
ENDSEC
  0
SECTION
  2
OBJECTS
  0
DICTIONARY
  5
C
100
AcDbDictionary
280
0
281
1
  3
ACAD_GROUP
350
D
  3
ACAD_MLINESTYLE
350
17
  3
ACAD_LAYOUT
350
1A
  3
ACAD_PLOTSETTINGS
350
19
  3
ACAD_PLOTSTYLENAME
350
E
  0
DICTIONARY
  5
D
102
{ACAD_REACTORS
330
C
102
}
100
AcDbDictionary
280
0
281
1
  0
ACDBDICTIONARYWDFLT
  5
E
102
{ACAD_REACTORS
330
C
102
}
100
AcDbDictionary
281
1
  3
Normal
350
F
100
AcDbDictionaryWithDefault
340
F
  0
DICTIONARY
  5
17
102
{ACAD_REACTORS
330
C
102
}
100
AcDbDictionary
280
0
281
1
  3
Standard
350
18
  0
DICTIONARY
  5
19
102
{ACAD_REACTORS
330
C
102
}
100
AcDbDictionary
281
1
  0
DICTIONARY
  5
1A
102
{ACAD_REACTORS
330
C
102
}
100
AcDbDictionary
281
1
  3
Model
350
3B9
  3
Layout1
350
3BA
  0
ACDBPLACEHOLDER
  5
F
102
{ACAD_REACTORS
330
E
102
}
  0
MLINESTYLE
  5
18
102
{ACAD_REACTORS
330
17
102
}
100
AcDbMlineStyle
  2
STANDARD
 70
0
  3

 62
256
 51
90.0
 52
90.0
 71
2
 49
0.5
 62
256
  6
BYLAYER
 49
-0.5
 62
256
  6
BYLAYER
  0
LAYOUT
  5
3B9
102
{ACAD_REACTORS
330
1A
102
}
100
AcDbPlotSettings
  1

  2
none_device
  4

  6

 40
0.0
 41
0.0
 42
0.0
 43
0.0
 44
210.0
 45
297.0
 46
0.0
 47
0.0
 48
0.0
 49
0.0
140
0.0
141
0.0
142
1.0
143
1.0
 70
1024
 72
1
 73
0
 74
0
  7

 75
0
147
1.0
148
0.0
149
0.0
100
AcDbLayout
  1
Model
 70
0
 71
0
 10
0.0
 20
0.0
 11
210.0
 21
297.0
 12
0.0
 22
0.0
 32
0.0
 14
0.0
 24
0.0
 34
0.0
 15
0.0
 25
0.0
 35
0.0
146
0.0
 13
0.0
 23
0.0
 33
0.0
 16
1.0
 26
0.0
 36
0.0
 17
0.0
 27
1.0
 37
0.0
 76
0
330
210
345
0
346
0
  0
LAYOUT
  5
3BA
102
{ACAD_REACTORS
330
1A
102
}
100
AcDbPlotSettings
  1

  2
none_device
  4

  6

 40
0.0
 41
0.0
 42
0.0
 43
0.0
 44
210.0
 45
297.0
 46
0.0
 47
0.0
 48
0.0
 49
0.0
140
0.0
141
0.0
142
1.0
143
1.0
 70
0
 72
1
 73
0
 74
0
  7

 75
0
147
1.0
148
0.0
149
0.0
100
AcDbLayout
  1
Layout1
 70
0
 71
1
 10
0.0
 20
0.0
 11
210.0
 21
297.0
 12
0.0
 22
0.0
 32
0.0
 14
0.0
 24
0.0
 34
0.0
 15
0.0
 25
0.0
 35
0.0
146
0.0
 13
0.0
 23
0.0
 33
0.0
 16
1.0
 26
0.0
 36
0.0
 17
0.0
 27
1.0
 37
0.0
 76
0
330
211
345
0
346
0
  0
ENDSEC
  0
EOF
