999
DXF file: C:\Users\SESA654545\Desktop\sachin babu tesys\Gen2D (4)\Gen2D\CAD\SB115106_3D-CAD\drw0001_1.dxf
999
Pro/ENGINEER 2019471 by Parametric Technology Corporation
  0
SECTION
  2
HEADER
  9
$ACADVER
  1
AC1024
  9
$DWGCODEPAGE
  3
ANSI_1252
  9
$EXTMAX
 10
90.2410627461
 20
127.6266458837
 30
0.0
  9
$EXTMIN
 10
0.0
 20
0.0
 30
0.0
  9
$LIMMIN
 10
0.0
 20
0.0
  9
$LIMMAX
 10
90.2410627461
 20
127.6266458837
  9
$VIEWCTR
 10
45.120531373
 20
63.8133229419
  9
$VIEWSIZE
 40
127.6266458837
  9
$CLAYER
  8
0
  9
$LTSCALE
 40
8.3193665465
  9
$CELTYPE
  6
BYLAYER
  9
$DIMSCALE
 40
1.0
  9
$DIMASZ
 40
1.074298366
  9
$DIMEXO
 40
1.0
  9
$DIMDLI
 40
5.7479259776
  9
$DIMEXE
 40
1.0
  9
$DIMCEN
 40
1.3613508894
  9
$DIMLFAC
 40
1.0
  9
$DIMBLK
  1
_FILLED
  9
$DIMALT
 70
0
  9
$DIMALTF
 40
0.0393700787
  9
$DIMTXT
 40
1.5040177124
  9
$DIMTOL
 70
1
  9
$DIMLIM
 70
0
  9
$DIMTFAC
 40
1.0
  9
$DIMTP
 40
0.01
  9
$DIMTM
 40
0.01
  9
$DIMGAP
 40
0.625
  9
$DIMDSEP
 70
46
  9
$AUNITS
 70
0
  9
$PDMODE
 70
3
  9
$PDSIZE
 40
0.3125
  9
$HANDSEED
  5
2AB
  9
$TILEMODE
 70
1
  9
$MEASUREMENT
 70
1
  9
$INSUNITS
 70
4
  0
ENDSEC
  0
SECTION
  2
CLASSES
  0
CLASS
  1
ACDBDICTIONARYWDFLT
  2
AcDbDictionaryWithDefault
  3
AutoCAD 2000
 90
0
 91
1
280
0
281
0
  0
CLASS
  1
ACDBPLACEHOLDER
  2
AcDbPlaceHolder
  3
AutoCAD 2000
 90
0
 91
1
280
0
281
0
  0
CLASS
  1
LAYOUT
  2
AcDbLayout
  3
AutoCAD 2000
 90
0
 91
0
280
0
281
0
  0
ENDSEC
  0
SECTION
  2
TABLES
  0
TABLE
  2
VPORT
  5
8
100
AcDbSymbolTable
 70
2
  0
VPORT
  5
1F4
100
AcDbSymbolTableRecord
100
AcDbViewportTableRecord
  2
*ACTIVE
 70
0
 10
0.0
 20
0.0
 11
1.0
 21
1.0
 12
45.120531373
 22
63.8133229419
 13
0.0
 23
0.0
 14
1.0
 24
1.0
 15
0.0
 25
0.0
 16
0.0
 26
0.0
 36
1.0
 17
0.0
 27
0.0
 37
0.0
 40
127.6266458837
 41
0.7070707071
 42
50.0
 43
0.0
 44
0.0
 50
0.0
 51
0.0
 71
0
 72
100
 73
1
 74
1
 75
0
 76
0
 77
0
 78
0
  0
ENDTAB
  0
TABLE
  2
LTYPE
  5
5
100
AcDbSymbolTable
 70
6
  0
LTYPE
  5
14
100
AcDbSymbolTableRecord
100
AcDbLinetypeTableRecord
  2
BYBLOCK
 70
0
  3

 72
65
 73
0
 40
0.0
  0
LTYPE
  5
15
100
AcDbSymbolTableRecord
100
AcDbLinetypeTableRecord
  2
BYLAYER
 70
0
  3

 72
65
 73
0
 40
0.0
  0
LTYPE
  5
16
100
AcDbSymbolTableRecord
100
AcDbLinetypeTableRecord
  2
CONTINUOUS
 70
64
  3
Solid line
 72
65
 73
0
 40
0.0
  0
LTYPE
  5
1F5
100
AcDbSymbolTableRecord
100
AcDbLinetypeTableRecord
  2
CENTER
 70
64
  3
____ _ ____ _ ____ _ ____ _ ____ _ ____ _ ____
 72
65
 73
4
 40
0.6
 49
0.375
 74
0
 49
-0.075
 74
0
 49
0.075
 74
0
 49
-0.075
 74
0
  0
LTYPE
  5
1F6
100
AcDbSymbolTableRecord
100
AcDbLinetypeTableRecord
  2
HIDDEN
 70
64
  3
- - - - - - - - - - - - - - - - - - - -
 72
65
 73
2
 40
0.2
 49
0.1
 74
0
 49
-0.1
 74
0
  0
LTYPE
  5
1F7
100
AcDbSymbolTableRecord
100
AcDbLinetypeTableRecord
  2
PHANTOM
 70
64
  3
_____ _ _ _____ _ _ _____ _ _ _____
 72
65
 73
6
 40
0.8
 49
0.45
 74
0
 49
-0.05
 74
0
 49
0.1
 74
0
 49
-0.05
 74
0
 49
0.1
 74
0
 49
-0.05
 74
0
  0
LTYPE
  5
1F8
100
AcDbSymbolTableRecord
100
AcDbLinetypeTableRecord
  2
DOT
 70
64
  3
. . . . . . . . . . . . . . . . . . . .
 72
65
 73
2
 40
0.2
 49
0.1
 74
0
 49
-0.1
 74
0
  0
LTYPE
  5
1F9
100
AcDbSymbolTableRecord
100
AcDbLinetypeTableRecord
  2
DASHED
 70
64
  3
- - - - - - - - - - - - - - - - - - - -
 72
65
 73
2
 40
0.2
 49
0.1
 74
0
 49
-0.1
 74
0
  0
ENDTAB
  0
TABLE
  2
LAYER
  5
2
100
AcDbSymbolTable
 70
36
  0
LAYER
  5
10
100
AcDbSymbolTableRecord
100
AcDbLayerTableRecord
  2
0
 70
0
 62
7
  6
CONTINUOUS
370
-3
390
F
  0
LAYER
  5
1FA
100
AcDbSymbolTableRecord
100
AcDbLayerTableRecord
  2
DEFAULT_1
 70
0
 62
7
  6
CENTER
370
-3
390
F
  0
LAYER
  5
1FB
100
AcDbSymbolTableRecord
100
AcDbLayerTableRecord
  2
DEFAULT_2
 70
0
 62
8
  6
HIDDEN
370
-3
390
F
  0
LAYER
  5
1FC
100
AcDbSymbolTableRecord
100
AcDbLayerTableRecord
  2
DEFAULT_3
 70
0
 62
7
  6
PHANTOM
370
-3
390
F
  0
LAYER
  5
1FD
100
AcDbSymbolTableRecord
100
AcDbLayerTableRecord
  2
00_COMPONENTS
 70
0
 62
7
  6
CONTINUOUS
370
-3
390
F
  0
LAYER
  5
1FE
100
AcDbSymbolTableRecord
100
AcDbLayerTableRecord
  2
01_1_DEFAULT_DATUMS
 70
0
 62
7
  6
CONTINUOUS
370
-3
390
F
  0
LAYER
  5
1FF
100
AcDbSymbolTableRecord
100
AcDbLayerTableRecord
  2
01_PLANES
 70
0
 62
7
  6
CONTINUOUS
370
-3
390
F
  0
LAYER
  5
200
100
AcDbSymbolTableRecord
100
AcDbLayerTableRecord
  2
02_COORD_SYS
 70
0
 62
7
  6
CONTINUOUS
370
-3
390
F
  0
LAYER
  5
201
100
AcDbSymbolTableRecord
100
AcDbLayerTableRecord
  2
03_AXES
 70
0
 62
7
  6
CONTINUOUS
370
-3
390
F
  0
LAYER
  5
202
100
AcDbSymbolTableRecord
100
AcDbLayerTableRecord
  2
04_POINTS
 70
0
 62
7
  6
CONTINUOUS
370
-3
390
F
  0
LAYER
  5
203
100
AcDbSymbolTableRecord
100
AcDbLayerTableRecord
  2
05_CURVES
 70
0
 62
7
  6
CONTINUOUS
370
-3
390
F
  0
LAYER
  5
204
100
AcDbSymbolTableRecord
100
AcDbLayerTableRecord
  2
06_SURFS
 70
0
 62
7
  6
CONTINUOUS
370
-3
390
F
  0
LAYER
  5
205
100
AcDbSymbolTableRecord
100
AcDbLayerTableRecord
  2
07_COSMETICS
 70
0
 62
7
  6
CONTINUOUS
370
-3
390
F
  0
LAYER
  5
206
100
AcDbSymbolTableRecord
100
AcDbLayerTableRecord
  2
10_NOTES
 70
0
 62
7
  6
CONTINUOUS
370
-3
390
F
  0
LAYER
  5
207
100
AcDbSymbolTableRecord
100
AcDbLayerTableRecord
  2
11_NOTES_PUB
 70
0
 62
7
  6
CONTINUOUS
370
-3
390
F
  0
LAYER
  5
208
100
AcDbSymbolTableRecord
100
AcDbLayerTableRecord
  2
13_REF_GTOL
 70
0
 62
7
  6
CONTINUOUS
370
-3
390
F
  0
LAYER
  5
209
100
AcDbSymbolTableRecord
100
AcDbLayerTableRecord
  2
16_MISC
 70
0
 62
7
  6
CONTINUOUS
370
-3
390
F
  0
LAYER
  5
20A
100
AcDbSymbolTableRecord
100
AcDbLayerTableRecord
  2
17_NO_PRINT
 70
0
 62
7
  6
CONTINUOUS
370
-3
390
F
  0
LAYER
  5
20B
100
AcDbSymbolTableRecord
100
AcDbLayerTableRecord
  2
18_DATUM_CAMS_JOINTS
 70
0
 62
7
  6
CONTINUOUS
370
-3
390
F
  0
LAYER
  5
20C
100
AcDbSymbolTableRecord
100
AcDbLayerTableRecord
  2
19_DATUM_FUNCTIONAL
 70
0
 62
7
  6
CONTINUOUS
370
-3
390
F
  0
LAYER
  5
20D
100
AcDbSymbolTableRecord
100
AcDbLayerTableRecord
  2
20_DATUM_KINEMATIC_SCHEME
 70
0
 62
7
  6
CONTINUOUS
370
-3
390
F
  0
ENDTAB
  0
TABLE
  2
STYLE
  5
3
100
AcDbSymbolTable
 70
1
  0
STYLE
  5
11
100
AcDbSymbolTableRecord
100
AcDbTextStyleTableRecord
  2
STANDARD
 70
0
 40
0.0
 41
0.8
 50
0.0
 71
0
 42
0.2
  3
txt
  4

  0
STYLE
  5
20E
100
AcDbSymbolTableRecord
100
AcDbTextStyleTableRecord
  2
TEXTSTYLE_1
 70
0
 40
0.0
 41
0.8
 50
0.0
 71
0
 42
0.2
  3
gdt
  4

  0
ENDTAB
  0
TABLE
  2
VIEW
  5
6
100
AcDbSymbolTable
 70
0
  0
ENDTAB
  0
TABLE
  2
UCS
  5
7
100
AcDbSymbolTable
 70
0
  0
ENDTAB
  0
TABLE
  2
APPID
  5
9
100
AcDbSymbolTable
 70
1
  0
APPID
  5
20F
100
AcDbSymbolTableRecord
100
AcDbRegAppTableRecord
  2
ACAD
 70
0
  0
ENDTAB
  0
TABLE
  2
BLOCK_RECORD
  5
1
100
AcDbSymbolTable
 70
0
  0
BLOCK_RECORD
  5
210
100
AcDbSymbolTableRecord
100
AcDbBlockTableRecord
  2
*Model_Space
  0
BLOCK_RECORD
  5
211
100
AcDbSymbolTableRecord
100
AcDbBlockTableRecord
  2
*Paper_Space
  0
BLOCK_RECORD
  5
212
100
AcDbSymbolTableRecord
100
AcDbBlockTableRecord
  2
_FILLED
  0
ENDTAB
  0
TABLE
  2
DIMSTYLE
  5
A
100
AcDbSymbolTable
 70
1
100
AcDbDimStyleTable
 71
0
  0
DIMSTYLE
105
213
100
AcDbSymbolTableRecord
100
AcDbDimStyleTableRecord
  2
STANDARD
 70
0
  3

  4

 40
1.0
 41
1.074298366
 42
1.0
 43
0.38
 44
1.0
 45
0.0
 46
0.0
 47
0.01
 48
0.01
140
1.5040177124
141
0.09
142
0.0
143
25.4
144
1.0
145
0.0
146
1.0
147
0.625
 71
1
 72
0
 73
0
 74
0
 75
0
 76
0
 77
1
 78
8
 79
2
170
0
171
1
172
0
173
0
174
0
175
0
176
0
177
0
178
0
270
2
179
2
271
2
272
2
273
2
274
2
275
0
280
0
281
0
282
0
283
1
284
8
285
0
286
0
287
3
288
0
340
11
278
46
341
212
342
212
343
212
344
212
  0
ENDTAB
  0
ENDSEC
  0
SECTION
  2
BLOCKS
  0
BLOCK
  5
20
100
AcDbEntity
  8
0
100
AcDbBlockBegin
  2
*Model_Space
 70
0
 10
0.0
 20
0.0
 30
0.0
  3
*Model_Space
  1

  0
ENDBLK
  5
21
100
AcDbEntity
  8
0
100
AcDbBlockEnd
  0
BLOCK
  5
1C
100
AcDbEntity
  8
0
100
AcDbBlockBegin
  2
*Paper_Space
 70
0
 10
0.0
 20
0.0
 30
0.0
  3
*Paper_Space
  1

  0
ENDBLK
  5
1D
100
AcDbEntity
  8
0
100
AcDbBlockEnd
  0
BLOCK
  5
214
100
AcDbEntity
  8
0
100
AcDbBlockBegin
  2
_FILLED
 70
64
 10
0.0
 20
0.0
  3
_FILLED
  1

  0
SOLID
  5
215
100
AcDbEntity
  8
0
  6
BYBLOCK
 62
0
100
AcDbTrace
 10
0.0
 20
0.0
 11
-1.0
 21
0.25
 12
-1.0
 22
-0.25
 13
-1.0
 23
-0.25
  0
ENDBLK
  5
216
100
AcDbEntity
  8
0
  6
BYBLOCK
 62
0
100
AcDbBlockEnd
  0
ENDSEC
  0
SECTION
  2
ENTITIES
  0
LINE
  5
217
100
AcDbEntity
  8
0
100
AcDbLine
 62
7
  6
CONTINUOUS
 10
10.4690015266
 20
61.3406849051
 11
10.4690015266
 21
72.8125438657
  0
LINE
  5
218
100
AcDbEntity
  8
0
100
AcDbLine
 62
7
  6
CONTINUOUS
 10
15.2984035841
 20
57.1650048764
 11
15.2984035841
 21
55.6968872444
  0
LINE
  5
219
100
AcDbEntity
  8
0
100
AcDbLine
 62
7
  6
CONTINUOUS
 10
15.3768644516
 20
47.9259479171
 11
15.3768644516
 21
57.1197412965
  0
LINE
  5
21A
100
AcDbEntity
  8
0
100
AcDbLine
 62
7
  6
CONTINUOUS
 10
17.356771682
 20
55.9775078402
 11
17.356771682
 21
46.7828738044
  0
LINE
  5
21B
100
AcDbEntity
  8
0
100
AcDbLine
 62
7
  6
CONTINUOUS
 10
17.5413020442
 20
54.4019784689
 11
17.5413020442
 21
55.8700960464
  0
LINE
  5
21C
100
AcDbEntity
  8
0
100
AcDbLine
 62
7
  6
CONTINUOUS
 10
18.382072246
 20
54.4931640266
 11
18.382072246
 21
47.3748278275
  0
LINE
  5
21D
100
AcDbEntity
  8
0
100
AcDbLine
 62
7
  6
CONTINUOUS
 10
17.356771682
 20
46.7828738044
 11
15.3768644516
 21
47.9259479171
  0
LINE
  5
21E
100
AcDbEntity
  8
0
100
AcDbLine
 62
7
  6
CONTINUOUS
 10
10.4690015266
 20
72.8125438657
 11
27.044026835
 21
82.3820820669
  0
LINE
  5
21F
100
AcDbEntity
  8
0
100
AcDbLine
 62
7
  6
CONTINUOUS
 10
15.2984035841
 20
55.6968872444
 11
15.2569636785
 21
55.6053870321
  0
LINE
  5
220
100
AcDbEntity
  8
0
100
AcDbLine
 62
7
  6
CONTINUOUS
 10
37.3625141184
 20
85.8192229895
 11
29.2970079356
 21
81.0813522485
  0
LINE
  5
221
100
AcDbEntity
  8
0
100
AcDbLine
 62
7
  6
CONTINUOUS
 10
15.3768644516
 20
57.1197412965
 11
15.2984035841
 21
57.1650048764
  0
LINE
  5
222
100
AcDbEntity
  8
0
100
AcDbLine
 62
7
  6
CONTINUOUS
 10
17.5413020442
 20
55.8700960464
 11
17.356771682
 21
55.9775078402
  0
LINE
  5
223
100
AcDbEntity
  8
0
100
AcDbLine
 62
7
  6
CONTINUOUS
 10
42.1708602494
 20
83.0431858587
 11
34.1053540666
 21
78.3053151177
  0
LINE
  5
224
100
AcDbEntity
  8
0
100
AcDbLine
 62
7
  6
CONTINUOUS
 10
18.2030204791
 20
68.0351074922
 11
34.2706947027
 21
77.3117281565
  0
LINE
  5
225
100
AcDbEntity
  8
0
100
AcDbLine
 62
7
  6
CONTINUOUS
 10
31.0242040082
 20
70.4567123239
 11
31.0242040082
 21
69.4974246294
  0
LINE
  5
226
100
AcDbEntity
  8
0
100
AcDbLine
 62
7
  6
CONTINUOUS
 10
42.1980097092
 20
79.4665234637
 11
37.1897726196
 21
76.5245655217
  0
LINE
  5
227
100
AcDbEntity
  8
0
100
AcDbLine
 62
7
  6
CONTINUOUS
 10
41.0162852713
 20
77.4780359502
 11
38.3010000017
 21
75.8830126075
  0
LINE
  5
228
100
AcDbEntity
  8
0
100
AcDbLine
 62
7
  6
CONTINUOUS
 10
42.4004638405
 20
77.8531313103
 11
38.6770463564
 21
75.6659070549
  0
LINE
  5
229
100
AcDbEntity
  8
0
100
AcDbLine
 62
7
  6
CONTINUOUS
 10
42.917923773
 20
79.9124031114
 11
51.9334748291
 21
85.1175028702
  0
LINE
  5
22A
100
AcDbEntity
  8
0
100
AcDbLine
 62
7
  6
CONTINUOUS
 10
47.4876089814
 20
46.1345841189
 11
56.3008819573
 21
42.1188973198
  0
LINE
  5
22B
100
AcDbEntity
  8
0
100
AcDbLine
 62
7
  6
CONTINUOUS
 10
34.2706947027
 20
72.331063412
 11
34.2706947027
 21
77.3117281565
  0
LINE
  5
22C
100
AcDbEntity
  8
0
100
AcDbLine
 62
7
  6
CONTINUOUS
 10
44.1328826683
 20
76.8529413024
 11
40.4094653203
 21
74.6657171271
  0
LINE
  5
22D
100
AcDbEntity
  8
0
100
AcDbLine
 62
7
  6
CONTINUOUS
 10
44.1364741268
 20
76.3798035378
 11
40.8174867488
 21
74.4301511747
  0
LINE
  5
22E
100
AcDbEntity
  8
0
100
AcDbLine
 62
7
  6
CONTINUOUS
 10
15.6021313461
 20
61.6642504956
 11
15.2481197375
 21
61.4598630181
  0
LINE
  5
22F
100
AcDbEntity
  8
0
100
AcDbLine
 62
7
  6
CONTINUOUS
 10
31.0242040082
 20
70.4567123239
 11
34.2706947027
 21
72.331063412
  0
LINE
  5
230
100
AcDbEntity
  8
0
100
AcDbLine
 62
7
  6
CONTINUOUS
 10
16.3981906257
 20
61.4105786662
 11
16.6345262616
 21
61.5470262947
  0
LINE
  5
231
100
AcDbEntity
  8
0
100
AcDbLine
 62
7
  6
CONTINUOUS
 10
39.4149179532
 20
74.3417766673
 11
23.0485683111
 21
64.8927166991
  0
LINE
  5
232
100
AcDbEntity
  8
0
100
AcDbLine
 62
7
  6
CONTINUOUS
 10
23.8069834043
 20
64.4324481051
 11
40.1927386508
 21
73.8927118374
  0
LINE
  5
233
100
AcDbEntity
  8
0
100
AcDbLine
 62
7
  6
CONTINUOUS
 10
47.1258455584
 20
77.483013296
 11
56.141394779
 21
82.6881141145
  0
LINE
  5
234
100
AcDbEntity
  8
0
100
AcDbLine
 62
7
  6
CONTINUOUS
 10
17.7946291432
 20
54.1558760915
 11
17.7826294445
 21
54.1473420883
  0
LINE
  5
235
100
AcDbEntity
  8
0
100
AcDbLine
 62
7
  6
CONTINUOUS
 10
18.8079297421
 20
54.7392965753
 11
18.8199295646
 21
54.7478300572
  0
LINE
  5
236
100
AcDbEntity
  8
0
100
AcDbLine
 62
7
  6
CONTINUOUS
 10
45.4772057207
 20
75.6057493026
 11
42.1582183426
 21
73.6560969396
  0
LINE
  5
237
100
AcDbEntity
  8
0
100
AcDbLine
 62
7
  6
CONTINUOUS
 10
45.4827594654
 20
75.2383232282
 11
42.4764711483
 21
73.4723577533
  0
LINE
  5
238
100
AcDbEntity
  8
0
100
AcDbLine
 62
7
  6
CONTINUOUS
 10
47.2865857812
 20
75.0872219793
 11
43.5159219817
 21
72.8722441112
  0
LINE
  5
239
100
AcDbEntity
  8
0
100
AcDbLine
 62
7
  6
CONTINUOUS
 10
48.0561021445
 20
76.9459415557
 11
57.3898580756
 21
82.3347558882
  0
LINE
  5
23A
100
AcDbEntity
  8
0
100
AcDbLine
 62
7
  6
CONTINUOUS
 10
15.2984035841
 20
55.696893092
 11
15.3768644516
 21
55.7421922246
  0
LINE
  5
23B
100
AcDbEntity
  8
0
100
AcDbLine
 62
7
  6
CONTINUOUS
 10
15.256978597
 20
55.6053613341
 11
15.3768644516
 21
55.6745770513
  0
LINE
  5
23C
100
AcDbEntity
  8
0
100
AcDbLine
 62
7
  6
CONTINUOUS
 10
40.1927386508
 20
67.9527593983
 11
40.1927386508
 21
73.8927118374
  0
LINE
  5
23D
100
AcDbEntity
  8
0
100
AcDbLine
 62
7
  6
CONTINUOUS
 10
48.6492467775
 20
74.3005070841
 11
44.878582978
 21
72.085529216
  0
LINE
  5
23E
100
AcDbEntity
  8
0
100
AcDbLine
 62
7
  6
CONTINUOUS
 10
48.6652915397
 20
73.2390536276
 11
45.797980583
 21
71.5547267696
  0
LINE
  5
23F
100
AcDbEntity
  8
0
100
AcDbLine
 62
7
  6
CONTINUOUS
 10
50.6260313637
 20
75.4622257954
 11
59.9597872948
 21
80.8510401278
  0
LINE
  5
240
100
AcDbEntity
  8
0
100
AcDbLine
 62
7
  6
CONTINUOUS
 10
50.9442362387
 20
75.2785142812
 11
59.9597872948
 21
80.4836140401
  0
LINE
  5
241
100
AcDbEntity
  8
0
100
AcDbLine
 62
7
  6
CONTINUOUS
 10
18.5335827756
 20
56.4559416756
 11
18.5906789638
 21
56.4889059784
  0
LINE
  5
242
100
AcDbEntity
  8
0
100
AcDbLine
 62
7
  6
CONTINUOUS
 10
45.3369619013
 20
70.9227603482
 11
28.9926744073
 21
61.4864378911
  0
LINE
  5
243
100
AcDbEntity
  8
0
100
AcDbLine
 62
7
  6
CONTINUOUS
 10
17.7946323247
 20
54.1558765674
 11
18.8199328886
 21
54.7478305905
  0
LINE
  5
244
100
AcDbEntity
  8
0
100
AcDbLine
 62
7
  6
CONTINUOUS
 10
17.7827438779
 20
54.1471436974
 11
18.8080444418
 21
54.7390977205
  0
LINE
  5
245
100
AcDbEntity
  8
0
100
AcDbLine
 62
7
  6
CONTINUOUS
 10
29.8024562555
 20
61.0558257298
 11
46.114782599
 21
70.4736955183
  0
LINE
  5
246
100
AcDbEntity
  8
0
100
AcDbLine
 62
7
  6
CONTINUOUS
 10
41.0162852713
 20
77.4780359502
 11
41.006504101
 21
78.7666046451
  0
LINE
  5
247
100
AcDbEntity
  8
0
100
AcDbLine
 62
7
  6
CONTINUOUS
 10
42.1980097092
 20
79.4665234637
 11
42.1708602494
 21
83.0431858587
  0
LINE
  5
248
100
AcDbEntity
  8
0
100
AcDbLine
 62
7
  6
CONTINUOUS
 10
42.1701400965
 20
54.536419313
 11
42.1701400965
 21
43.0645603523
  0
LINE
  5
249
100
AcDbEntity
  8
0
100
AcDbLine
 62
7
  6
CONTINUOUS
 10
54.7272751037
 20
73.0944251849
 11
63.7428243244
 21
78.2995260035
  0
LINE
  5
24A
100
AcDbEntity
  8
0
100
AcDbLine
 62
7
  6
CONTINUOUS
 10
55.6288537473
 20
72.5739102879
 11
63.7428243244
 21
77.2584854216
  0
LINE
  5
24B
100
AcDbEntity
  8
0
100
AcDbLine
 62
7
  6
CONTINUOUS
 10
45.4827594654
 20
75.2383232282
 11
45.4772057207
 21
75.6057493026
  0
LINE
  5
24C
100
AcDbEntity
  8
0
100
AcDbLine
 62
7
  6
CONTINUOUS
 10
44.1364741268
 20
76.3798035378
 11
44.1328826683
 21
76.8529413024
  0
LINE
  5
24D
100
AcDbEntity
  8
0
100
AcDbLine
 62
7
  6
CONTINUOUS
 10
46.114782599
 20
64.5337430792
 11
46.114782599
 21
70.4736955183
  0
LINE
  5
24E
100
AcDbEntity
  8
0
100
AcDbLine
 62
7
  6
CONTINUOUS
 10
56.0000707735
 20
72.3595928864
 11
65.0156218296
 21
77.5646926453
  0
LINE
  5
24F
100
AcDbEntity
  8
0
100
AcDbLine
 62
7
  6
CONTINUOUS
 10
18.382072246
 20
50.1100996374
 11
22.9601115114
 21
52.7532160624
  0
LINE
  5
250
100
AcDbEntity
  8
0
100
AcDbLine
 62
7
  6
CONTINUOUS
 10
51.2590058494
 20
67.5037440291
 11
35.3288362198
 21
58.3065112053
  0
LINE
  5
251
100
AcDbEntity
  8
0
100
AcDbLine
 62
7
  6
CONTINUOUS
 10
31.0242040082
 20
70.4567123239
 11
31.8549833979
 21
69.9770724705
  0
LINE
  5
252
100
AcDbEntity
  8
0
100
AcDbLine
 62
7
  6
CONTINUOUS
 10
48.6652915397
 20
73.2390536276
 11
48.6492467775
 21
74.3005070841
  0
LINE
  5
253
100
AcDbEntity
  8
0
100
AcDbLine
 62
7
  6
CONTINUOUS
 10
36.1904061849
 20
57.9057987488
 11
52.0368265471
 21
67.0546791992
  0
LINE
  5
254
100
AcDbEntity
  8
0
100
AcDbLine
 62
7
  6
CONTINUOUS
 10
17.356771682
 20
46.7828738044
 11
18.382072246
 21
47.3748278275
  0
LINE
  5
255
100
AcDbEntity
  8
0
100
AcDbLine
 62
7
  6
CONTINUOUS
 10
60.4902193637
 20
69.7672630355
 11
69.5057685843
 21
74.9723638541
  0
LINE
  5
256
100
AcDbEntity
  8
0
100
AcDbLine
 62
7
  6
CONTINUOUS
 10
35.1014740924
 20
71.8514235586
 11
34.2706947027
 21
72.331063412
  0
LINE
  5
257
100
AcDbEntity
  8
0
100
AcDbLine
 62
7
  6
CONTINUOUS
 10
59.4854299921
 20
68.0443753208
 11
55.7147661926
 21
65.8293974527
  0
LINE
  5
258
100
AcDbEntity
  8
0
100
AcDbLine
 62
7
  6
CONTINUOUS
 10
60.8509333093
 20
67.256019448
 11
57.0802695098
 21
65.0410415799
  0
LINE
  5
259
100
AcDbEntity
  8
0
100
AcDbLine
 62
7
  6
CONTINUOUS
 10
60.8589209866
 20
66.7253127555
 11
57.5399336086
 21
64.7756603925
  0
LINE
  5
25A
100
AcDbEntity
  8
0
100
AcDbLine
 62
7
  6
CONTINUOUS
 10
61.7983705197
 20
69.0120186994
 11
70.8139215758
 21
74.2171184582
  0
LINE
  5
25B
100
AcDbEntity
  8
0
100
AcDbLine
 62
7
  6
CONTINUOUS
 10
55.2577113451
 20
65.1951425623
 11
52.1133095322
 21
63.3797321657
  0
LINE
  5
25C
100
AcDbEntity
  8
0
100
AcDbLine
 62
7
  6
CONTINUOUS
 10
54.3940595462
 20
62.475667743
 11
42.0625606263
 21
55.3561160201
  0
LINE
  5
25D
100
AcDbEntity
  8
0
100
AcDbLine
 62
7
  6
CONTINUOUS
 10
34.2706947027
 20
77.3117281565
 11
39.4149179532
 21
74.3417766673
  0
LINE
  5
25E
100
AcDbEntity
  8
0
100
AcDbLine
 62
7
  6
CONTINUOUS
 10
40.1927386508
 20
73.8927118374
 11
45.3369619013
 21
70.9227603482
  0
LINE
  5
25F
100
AcDbEntity
  8
0
100
AcDbLine
 62
7
  6
CONTINUOUS
 10
46.114782599
 20
70.4736955183
 11
51.2590058494
 21
67.5037440291
  0
LINE
  5
260
100
AcDbEntity
  8
0
100
AcDbLine
 62
7
  6
CONTINUOUS
 10
52.0368265471
 20
67.0546791992
 11
55.2577113451
 21
65.1951425623
  0
LINE
  5
261
100
AcDbEntity
  8
0
100
AcDbLine
 62
7
  6
CONTINUOUS
 10
52.0368265471
 20
61.1147267601
 11
52.0368265471
 21
67.0546791992
  0
LINE
  5
262
100
AcDbEntity
  8
0
100
AcDbLine
 62
7
  6
CONTINUOUS
 10
52.1133095322
 20
61.1588839686
 11
52.1133095322
 21
63.3797321657
  0
LINE
  5
263
100
AcDbEntity
  8
0
100
AcDbLine
 62
7
  6
CONTINUOUS
 10
42.1701400965
 20
54.536419313
 11
58.7225425216
 21
64.0928962644
  0
LINE
  5
264
100
AcDbEntity
  8
0
100
AcDbLine
 62
7
  6
CONTINUOUS
 10
66.3238745962
 20
66.3992768107
 11
75.3394238168
 21
71.6043776293
  0
LINE
  5
265
100
AcDbEntity
  8
0
100
AcDbLine
 62
7
  6
CONTINUOUS
 10
58.7225425216
 20
64.0928962644
 11
27.044026835
 21
82.3820820669
  0
LINE
  5
266
100
AcDbEntity
  8
0
100
AcDbLine
 62
7
  6
CONTINUOUS
 10
56.141394779
 20
82.6881141145
 11
56.141394779
 21
81.6139595704
  0
LINE
  5
267
100
AcDbEntity
  8
0
100
AcDbLine
 62
7
  6
CONTINUOUS
 10
56.3008819573
 20
51.2228992708
 11
56.3008819573
 21
42.1188973198
  0
LINE
  5
268
100
AcDbEntity
  8
0
100
AcDbLine
 62
7
  6
CONTINUOUS
 10
65.2985956503
 20
64.1621233805
 11
58.7512116449
 21
60.3160338225
  0
LINE
  5
269
100
AcDbEntity
  8
0
100
AcDbLine
 62
7
  6
CONTINUOUS
 10
67.2254532398
 20
65.8787619138
 11
75.3394238168
 21
70.5633370475
  0
LINE
  5
26A
100
AcDbEntity
  8
0
100
AcDbLine
 62
7
  6
CONTINUOUS
 10
67.6320257522
 20
65.6440324746
 11
76.6475768083
 21
70.8491322335
  0
LINE
  5
26B
100
AcDbEntity
  8
0
100
AcDbLine
 62
7
  6
CONTINUOUS
 10
58.5820771493
 20
67.5137243107
 11
48.6652915397
 21
73.2390536276
  0
LINE
  5
26C
100
AcDbEntity
  8
0
100
AcDbLine
 62
7
  6
CONTINUOUS
 10
46.5222102988
 20
74.6382095861
 11
45.4827594654
 21
75.2383232282
  0
LINE
  5
26D
100
AcDbEntity
  8
0
100
AcDbLine
 62
7
  6
CONTINUOUS
 10
65.2985956503
 20
64.1621233805
 11
60.8589209866
 21
66.7253127555
  0
LINE
  5
26E
100
AcDbEntity
  8
0
100
AcDbLine
 62
7
  6
CONTINUOUS
 10
45.4772057207
 20
75.6057493026
 11
44.1364741268
 21
76.3798035378
  0
LINE
  5
26F
100
AcDbEntity
  8
0
100
AcDbLine
 62
7
  6
CONTINUOUS
 10
44.1328826683
 20
76.8529413024
 11
42.4004638405
 21
77.8531313103
  0
LINE
  5
270
100
AcDbEntity
  8
0
100
AcDbLine
 62
7
  6
CONTINUOUS
 10
60.8509333093
 20
67.256019448
 11
59.4854299921
 21
68.0443753208
  0
LINE
  5
271
100
AcDbEntity
  8
0
100
AcDbLine
 62
7
  6
CONTINUOUS
 10
48.6492467775
 20
74.3005070841
 11
47.2865857812
 21
75.0872219793
  0
LINE
  5
272
100
AcDbEntity
  8
0
100
AcDbLine
 62
7
  6
CONTINUOUS
 10
70.7433043672
 20
61.9698680946
 11
69.5064794335
 21
62.6839328938
  0
LINE
  5
273
100
AcDbEntity
  8
0
100
AcDbLine
 62
7
  6
CONTINUOUS
 10
58.7225425216
 20
64.0928962644
 11
58.7910384205
 21
55.0692653239
  0
LINE
  5
274
100
AcDbEntity
  8
0
100
AcDbLine
 62
7
  6
CONTINUOUS
 10
59.9597872948
 20
80.8510401278
 11
59.9597872948
 21
80.4836140401
  0
LINE
  5
275
100
AcDbEntity
  8
0
100
AcDbLine
 62
7
  6
CONTINUOUS
 10
65.3325364933
 20
61.9167410688
 11
58.7683307318
 21
58.06077001
  0
LINE
  5
276
100
AcDbEntity
  8
0
100
AcDbLine
 62
7
  6
CONTINUOUS
 10
71.1328182591
 20
63.6228947026
 11
69.5064794335
 21
62.6839331487
  0
LINE
  5
277
100
AcDbEntity
  8
0
100
AcDbLine
 62
7
  6
CONTINUOUS
 10
71.1328186766
 20
62.438965652
 11
81.1736961346
 21
68.2360351382
  0
LINE
  5
278
100
AcDbEntity
  8
0
100
AcDbLine
 62
7
  6
CONTINUOUS
 10
58.7910384205
 20
55.0692653239
 11
70.7433066252
 21
61.9698693982
  0
LINE
  5
279
100
AcDbEntity
  8
0
100
AcDbLine
 62
7
  6
CONTINUOUS
 10
71.1328182591
 20
63.6228947026
 11
42.1914414176
 21
80.3318284062
  0
LINE
  5
27A
100
AcDbEntity
  8
0
100
AcDbLine
 62
7
  6
CONTINUOUS
 10
60.8589209866
 20
66.7253127555
 11
60.8509333093
 21
67.256019448
  0
LINE
  5
27B
100
AcDbEntity
  8
0
100
AcDbLine
 62
7
  6
CONTINUOUS
 10
56.3008819573
 20
51.2228992708
 11
42.1701400965
 21
43.0645603523
  0
LINE
  5
27C
100
AcDbEntity
  8
0
100
AcDbLine
 62
7
  6
CONTINUOUS
 10
42.1708602494
 20
83.0431858587
 11
37.3625141184
 21
85.8192229895
  0
LINE
  5
27D
100
AcDbEntity
  8
0
100
AcDbLine
 62
7
  6
CONTINUOUS
 10
65.3325364933
 20
61.9167410688
 11
65.2985956503
 21
64.1621233805
  0
LINE
  5
27E
100
AcDbEntity
  8
0
100
AcDbLine
 62
7
  6
CONTINUOUS
 10
63.7428243244
 20
78.2995260035
 11
63.7428243244
 21
77.2584854216
  0
LINE
  5
27F
100
AcDbEntity
  8
0
100
AcDbLine
 62
7
  6
CONTINUOUS
 10
81.1736961346
 20
62.1530921306
 11
70.7433073115
 21
56.1311402821
  0
LINE
  5
280
100
AcDbEntity
  8
0
100
AcDbLine
 62
7
  6
CONTINUOUS
 10
63.7428243244
 20
77.2584854216
 11
64.1140413506
 21
77.0441680201
  0
LINE
  5
281
100
AcDbEntity
  8
0
100
AcDbLine
 62
7
  6
CONTINUOUS
 10
75.3394238168
 20
70.5633370475
 11
75.7459963292
 21
70.3286076083
  0
LINE
  5
282
100
AcDbEntity
  8
0
100
AcDbLine
 62
7
  6
CONTINUOUS
 10
51.9334748291
 20
85.1175028702
 11
56.141394779
 21
82.6881141145
  0
LINE
  5
283
100
AcDbEntity
  8
0
100
AcDbLine
 62
7
  6
CONTINUOUS
 10
59.9597872948
 20
80.4836140401
 11
63.7428243244
 21
78.2995260035
  0
LINE
  5
284
100
AcDbEntity
  8
0
100
AcDbLine
 62
7
  6
CONTINUOUS
 10
65.0156218296
 20
77.5646926453
 11
69.5057685843
 21
74.9723638541
  0
LINE
  5
285
100
AcDbEntity
  8
0
100
AcDbLine
 62
7
  6
CONTINUOUS
 10
70.8139215758
 20
74.2171184582
 11
75.3394238168
 21
71.6043776293
  0
LINE
  5
286
100
AcDbEntity
  8
0
100
AcDbLine
 62
7
  6
CONTINUOUS
 10
76.6475768083
 20
70.8491322335
 11
81.1736961346
 21
68.2360351382
  0
LINE
  5
287
100
AcDbEntity
  8
0
100
AcDbLine
 62
7
  6
CONTINUOUS
 10
57.3898580756
 20
82.3347558882
 11
59.9597872948
 21
80.8510401278
  0
LINE
  5
288
100
AcDbEntity
  8
0
100
AcDbLine
 62
7
  6
CONTINUOUS
 10
69.5057685843
 20
74.9723638541
 11
69.5057685843
 21
73.4618604847
  0
LINE
  5
289
100
AcDbEntity
  8
0
100
AcDbLine
 62
7
  6
CONTINUOUS
 10
70.7433066252
 20
61.9698693982
 11
70.7433077542
 21
52.3644544782
  0
LINE
  5
28A
100
AcDbEntity
  8
0
100
AcDbLine
 62
7
  6
CONTINUOUS
 10
70.5205700455
 20
50.3285890601
 11
56.3008819573
 21
42.1188973198
  0
LINE
  5
28B
100
AcDbEntity
  8
0
100
AcDbLine
 62
7
  6
CONTINUOUS
 10
71.1328186766
 20
62.438965652
 11
71.1328182591
 21
63.6228947026
  0
LINE
  5
28C
100
AcDbEntity
  8
0
100
AcDbLine
 62
7
  6
CONTINUOUS
 10
75.3394238168
 20
71.6043776293
 11
75.3394238168
 21
70.5633370475
  0
LINE
  5
28D
100
AcDbEntity
  8
0
100
AcDbLine
 62
7
  6
CONTINUOUS
 10
81.1736961346
 20
68.2360351382
 11
81.1736961346
 21
62.1530921306
  0
ARC
  5
28E
100
AcDbEntity
  8
0
100
AcDbCircle
 62
7
  6
CONTINUOUS
 10
-380.8670830544
 20
100.7436266808
 40
454.1943299837
100
AcDbArc
 50
353.6271032704
 51
353.8854566506
  0
ARC
  5
28F
100
AcDbEntity
  8
0
100
AcDbCircle
 62
7
  6
CONTINUOUS
 10
96.6544402483
 20
189.1231468904
 40
144.47799787
100
AcDbArc
 50
245.2600811262
 51
247.7990580182
  0
ARC
  5
290
100
AcDbEntity
  8
0
100
AcDbCircle
 62
7
  6
CONTINUOUS
 10
102.2241231974
 20
186.469038223
 40
132.8987242672
100
AcDbArc
 50
247.8482996027
 51
248.9060316982
  0
ARC
  5
291
100
AcDbEntity
  8
0
100
AcDbCircle
 62
7
  6
CONTINUOUS
 10
91.4547112822
 20
178.0537105265
 40
132.247894489
100
AcDbArc
 50
242.2129274081
 51
244.8873715724
  0
ARC
  5
292
100
AcDbEntity
  8
0
100
AcDbCircle
 62
7
  6
CONTINUOUS
 10
70.5287273073
 20
134.108919768
 40
94.3524597768
100
AcDbArc
 50
230.4652216926
 51
233.4880327697
  0
SPLINE
  5
293
100
AcDbEntity
  8
0
100
AcDbSpline
 62
7
  6
CONTINUOUS
 70
0
 71
3
 72
13
 73
9
 74
0
 42
0.0000001
 43
0.0000001
 44
0.0000000001
 40
0.0
 40
0.0
 40
0.0
 40
0.0
 40
0.1161181437
 40
0.2323893583
 40
0.3501835319
 40
0.4708512483
 40
0.7246756353
 40
1.0
 40
1.0
 40
1.0
 40
1.0
 10
53.7513813769
 20
48.1473526289
 30
0.0
 10
53.8018984265
 20
48.1765339162
 30
0.0
 10
53.8988805529
 20
48.2424473141
 30
0.0
 10
54.0285457295
 20
48.3622714653
 30
0.0
 10
54.1406235748
 20
48.5016916719
 30
0.0
 10
54.2665025486
 20
48.7154790198
 30
0.0
 10
54.372219184
 20
49.0282958525
 30
0.0
 10
54.3976608303
 20
49.2951739446
 30
0.0
 10
54.3976608303
 20
49.4335015007
 30
0.0
  0
SPLINE
  5
294
100
AcDbEntity
  8
0
100
AcDbSpline
 62
7
  6
CONTINUOUS
 70
0
 71
3
 72
12
 73
8
 74
0
 42
0.0000001
 43
0.0000001
 44
0.0000000001
 40
0.0
 40
0.0
 40
0.0
 40
0.0
 40
0.1003634948
 40
0.2048590846
 40
0.4336519935
 40
0.6979541092
 40
1.0
 40
1.0
 40
1.0
 40
1.0
 10
14.6271670864
 20
63.0750718468
 30
0.0
 10
14.6662948936
 20
63.0975888465
 30
0.0
 10
14.7418122442
 20
63.1515426928
 30
0.0
 10
14.8775852745
 20
63.292885788
 30
0.0
 10
15.0105647981
 20
63.5315619237
 30
0.0
 10
15.1018067386
 20
63.8799011111
 30
0.0
 10
15.1197587438
 20
64.1354006827
 30
0.0
 10
15.1197587438
 20
64.2712630904
 30
0.0
  0
SPLINE
  5
295
100
AcDbEntity
  8
0
100
AcDbSpline
 62
7
  6
CONTINUOUS
 70
0
 71
3
 72
15
 73
11
 74
0
 42
0.0000001
 43
0.0000001
 44
0.0000000001
 40
0.0
 40
0.0
 40
0.0
 40
0.0
 40
0.0870642975
 40
0.1865637254
 40
0.3039270647
 40
0.4377049016
 40
0.5821805832
 40
0.729401148
 40
0.8712852337
 40
1.0
 40
1.0
 40
1.0
 40
1.0
 10
17.7827309532
 20
54.1471660025
 30
0.0
 10
17.7727148981
 20
54.1414094889
 30
0.0
 10
17.7476171155
 20
54.1349002132
 30
0.0
 10
17.7071934395
 20
54.1430458231
 30
0.0
 10
17.6659502633
 20
54.1656085409
 30
0.0
 10
17.6263721395
 20
54.2006321347
 30
0.0
 10
17.5914595087
 20
54.2453490447
 30
0.0
 10
17.5639286497
 20
54.2961822978
 30
0.0
 10
17.5461231387
 20
54.3489595285
 30
0.0
 10
17.5413052241
 20
54.3848994905
 30
0.0
 10
17.5413020442
 20
54.4019784689
 30
0.0
  0
SPLINE
  5
296
100
AcDbEntity
  8
0
100
AcDbSpline
 62
7
  6
CONTINUOUS
 70
0
 71
3
 72
13
 73
9
 74
0
 42
0.0000001
 43
0.0000001
 44
0.0000000001
 40
0.0
 40
0.0
 40
0.0
 40
0.0
 40
0.0893564783
 40
0.1859988232
 40
0.2947063104
 40
0.4169769921
 40
0.6962224993
 40
1.0
 40
1.0
 40
1.0
 40
1.0
 10
15.2569767629
 20
55.6053643696
 30
0.0
 10
15.249837972
 20
55.6012425639
 30
0.0
 10
15.2331911146
 20
55.5955187467
 30
0.0
 10
15.2055965928
 20
55.5958239217
 30
0.0
 10
15.1763148295
 20
55.6044312824
 30
0.0
 10
15.1346946071
 20
55.6269663095
 30
0.0
 10
15.0865964614
 20
55.6722816244
 30
0.0
 10
15.0572831735
 20
55.7180193317
 30
0.0
 10
15.045094295
 20
55.7432537015
 30
0.0
  0
SPLINE
  5
297
100
AcDbEntity
  8
0
100
AcDbSpline
 62
7
  6
CONTINUOUS
 70
0
 71
3
 72
9
 73
5
 74
0
 42
0.0000001
 43
0.0000001
 44
0.0000000001
 40
0.0
 40
0.0
 40
0.0
 40
0.0
 40
0.2403715451
 40
1.0
 40
1.0
 40
1.0
 40
1.0
 10
54.3976608303
 20
49.4335015007
 30
0.0
 10
54.3976608303
 20
49.4822740297
 30
0.0
 10
54.3908346406
 20
49.6851584259
 30
0.0
 10
54.3582842927
 20
49.8868673177
 30
0.0
 10
54.3220390795
 20
50.0366772877
 30
0.0
  0
SPLINE
  5
298
100
AcDbEntity
  8
0
100
AcDbSpline
 62
7
  6
CONTINUOUS
 70
0
 71
3
 72
20
 73
16
 74
0
 42
0.0000001
 43
0.0000001
 44
0.0000000001
 40
0.0
 40
0.0
 40
0.0
 40
0.0
 40
0.065358272
 40
0.1352403115
 40
0.2841756044
 40
0.4377509069
 40
0.5859768922
 40
0.6552316353
 40
0.7199084321
 40
0.7792756398
 40
0.8329117016
 40
0.8808331454
 40
0.9236310322
 40
0.9626440938
 40
1.0
 40
1.0
 40
1.0
 40
1.0
 10
15.1197587438
 20
64.2712630904
 30
0.0
 10
15.1197587438
 20
64.3841170541
 30
0.0
 10
15.106057627
 20
64.6177578282
 30
0.0
 10
15.0301812135
 20
65.1031014883
 30
0.0
 10
14.8482665461
 20
65.7230353156
 30
0.0
 10
14.5220658581
 20
66.432253578
 30
0.0
 10
14.1722402796
 20
66.972397447
 30
0.0
 10
13.8583777523
 20
67.3457306581
 30
0.0
 10
13.6206925795
 20
67.580834536
 30
0.0
 10
13.3803276521
 20
67.7725935163
 30
0.0
 10
13.1419381587
 20
67.9171597932
 30
0.0
 10
12.9098192188
 20
68.0115158509
 30
0.0
 10
12.6877117521
 20
68.0529430678
 30
0.0
 10
12.4798715344
 20
68.0386098975
 30
0.0
 10
12.3546902269
 20
67.9899637698
 30
0.0
 10
12.2988195109
 20
67.9577299963
 30
0.0
  0
SPLINE
  5
299
100
AcDbEntity
  8
0
100
AcDbSpline
 62
7
  6
CONTINUOUS
 70
0
 71
3
 72
11
 73
7
 74
0
 42
0.0000001
 43
0.0000001
 44
0.0000000001
 40
0.0
 40
0.0
 40
0.0
 40
0.0
 40
0.2388061456
 40
0.4852682304
 40
0.7391180979
 40
1.0
 40
1.0
 40
1.0
 40
1.0
 10
18.4783139948
 20
55.3971182846
 30
0.0
 10
20.2485735147
 20
54.2132158398
 30
0.0
 10
23.9178215946
 20
51.9135750679
 30
0.0
 10
29.6882391049
 20
48.7217979148
 30
0.0
 10
35.7916730792
 20
45.744186991
 30
0.0
 10
40.0118503684
 20
43.9331912005
 30
0.0
 10
42.1701400965
 20
43.0645603523
 30
0.0
  0
SPLINE
  5
29A
100
AcDbEntity
  8
0
100
AcDbSpline
 62
7
  6
CONTINUOUS
 70
0
 71
3
 72
14
 73
10
 74
0
 42
0.0000001
 43
0.0000001
 44
0.0000000001
 40
0.0
 40
0.0
 40
0.0
 40
0.0
 40
0.2853077148
 40
0.4191593779
 40
0.546846233
 40
0.6683108723
 40
0.7836740212
 40
0.8936339783
 40
1.0
 40
1.0
 40
1.0
 40
1.0
 10
14.30661972
 20
59.0513202942
 30
0.0
 10
14.3105958441
 20
59.3068830679
 30
0.0
 10
14.3393560593
 20
59.6830090024
 30
0.0
 10
14.4352571918
 20
60.1639185285
 30
0.0
 10
14.5331229828
 20
60.4933889536
 30
0.0
 10
14.6598738646
 20
60.7951674197
 30
0.0
 10
14.8179660065
 20
61.0639790202
 30
0.0
 10
15.0103038868
 20
61.2925857532
 30
0.0
 10
15.1655975191
 20
61.412219076
 30
0.0
 10
15.2481197247
 20
61.4598630107
 30
0.0
  0
SPLINE
  5
29B
100
AcDbEntity
  8
0
100
AcDbSpline
 62
7
  6
CONTINUOUS
 70
0
 71
3
 72
11
 73
7
 74
0
 42
0.0000001
 43
0.0000001
 44
0.0000000001
 40
0.0
 40
0.0
 40
0.0
 40
0.0
 40
0.2687301173
 40
0.5263385792
 40
0.770500409
 40
1.0
 40
1.0
 40
1.0
 40
1.0
 10
15.0450945652
 20
55.7432537882
 30
0.0
 10
14.9115183423
 20
56.0186228675
 30
0.0
 10
14.6877101103
 20
56.576887053
 30
0.0
 10
14.4580644859
 20
57.4255419674
 30
0.0
 10
14.3280317119
 20
58.2497114799
 30
0.0
 10
14.3025536269
 20
58.7899748182
 30
0.0
 10
14.30661972
 20
59.0513202942
 30
0.0
  0
SPLINE
  5
29C
100
AcDbEntity
  8
0
100
AcDbSpline
 62
7
  6
CONTINUOUS
 70
0
 71
3
 72
9
 73
5
 74
0
 42
0.0000001
 43
0.0000001
 44
0.0000000001
 40
0.0
 40
0.0
 40
0.0
 40
0.0
 40
0.2449006211
 40
1.0
 40
1.0
 40
1.0
 40
1.0
 10
18.8199293315
 20
54.7478304012
 30
0.0
 10
18.8436035622
 20
54.7692991779
 30
0.0
 10
18.9370783349
 20
54.8604772205
 30
0.0
 10
19.0178486835
 20
54.9642300132
 30
0.0
 10
19.0721898527
 20
55.0464306069
 30
0.0
  0
SPLINE
  5
29D
100
AcDbEntity
  8
0
100
AcDbSpline
 62
7
  6
CONTINUOUS
 70
0
 71
3
 72
9
 73
5
 74
0
 42
0.0000001
 43
0.0000001
 44
0.0000000001
 40
0.0
 40
0.0
 40
0.0
 40
0.0
 40
0.2471686172
 40
1.0
 40
1.0
 40
1.0
 40
1.0
 10
18.2030204791
 20
68.0351074922
 30
0.0
 10
18.5951868225
 20
67.7655834452
 30
0.0
 10
20.1892563524
 20
66.6859848033
 30
0.0
 10
21.8124344012
 20
65.6494471341
 30
0.0
 10
23.0485683111
 20
64.8927166991
 30
0.0
  0
SPLINE
  5
29E
100
AcDbEntity
  8
0
100
AcDbSpline
 62
7
  6
CONTINUOUS
 70
0
 71
3
 72
9
 73
5
 74
0
 42
0.0000001
 43
0.0000001
 44
0.0000000001
 40
0.0
 40
0.0
 40
0.0
 40
0.0
 40
0.2473368114
 40
1.0
 40
1.0
 40
1.0
 40
1.0
 10
23.8069834043
 20
64.4324481051
 30
0.0
 10
24.2283433091
 20
64.1789423004
 30
0.0
 10
25.9384371697
 20
63.1648448392
 30
0.0
 10
27.6740078994
 20
62.1937847569
 30
0.0
 10
28.9926744074
 20
61.4864378911
 30
0.0
  0
SPLINE
  5
29F
100
AcDbEntity
  8
0
100
AcDbSpline
 62
7
  6
CONTINUOUS
 70
0
 71
3
 72
21
 73
17
 74
0
 42
0.0000001
 43
0.0000001
 44
0.0000000001
 40
0.0
 40
0.0
 40
0.0
 40
0.0
 40
0.0651787874
 40
0.1349731267
 40
0.2836236544
 40
0.4365282558
 40
0.5114912511
 40
0.5838677553
 40
0.6526210518
 40
0.7168536722
 40
0.7759045164
 40
0.8295713997
 40
0.877895977
 40
0.9213745046
 40
0.9614026312
 40
1.0
 40
1.0
 40
1.0
 40
1.0
 10
11.8269442054
 20
66.7733163098
 30
0.0
 10
11.8269442054
 20
66.6602536204
 30
0.0
 10
11.8401013707
 20
66.426018945
 30
0.0
 10
11.9122621931
 20
65.9388486809
 30
0.0
 10
12.0852136864
 20
65.3155054084
 30
0.0
 10
12.3484355137
 20
64.7152168812
 30
0.0
 10
12.6087982073
 20
64.263652886
 30
0.0
 10
12.8209869667
 20
63.9541264982
 30
0.0
 10
13.0471481889
 20
63.6782702078
 30
0.0
 10
13.2826423325
 20
63.4418087077
 30
0.0
 10
13.5230978582
 20
63.2497879733
 30
0.0
 10
13.7633805364
 20
63.1054307372
 30
0.0
 10
13.9990648184
 20
63.011391005
 30
0.0
 10
14.2265436386
 20
62.9724628048
 30
0.0
 10
14.4401056651
 20
62.9908004045
 30
0.0
 10
14.5691368829
 20
63.0416770268
 30
0.0
 10
14.6271670864
 20
63.0750718468
 30
0.0
  0
SPLINE
  5
2A0
100
AcDbEntity
  8
0
100
AcDbSpline
 62
7
  6
CONTINUOUS
 70
0
 71
3
 72
17
 73
13
 74
0
 42
0.0000001
 43
0.0000001
 44
0.0000000001
 40
0.0
 40
0.0
 40
0.0
 40
0.0
 40
0.0548866633
 40
0.1149090059
 40
0.178689896
 40
0.244794096
 40
0.3795114735
 40
0.5131981543
 40
0.6430931799
 40
0.7679441536
 40
0.8870744094
 40
1.0
 40
1.0
 40
1.0
 40
1.0
 10
16.6345529474
 20
61.5470081892
 30
0.0
 10
16.7190954108
 20
61.4895263515
 30
0.0
 10
16.885930517
 20
61.3540171972
 30
0.0
 10
17.1162997503
 20
61.1129427273
 30
0.0
 10
17.3338453808
 20
60.8333611952
 30
0.0
 10
17.6034479302
 20
60.420277189
 30
0.0
 10
17.8887856037
 20
59.8644538382
 30
0.0
 10
18.1572035181
 20
59.1717410932
 30
0.0
 10
18.3578767446
 20
58.4757161337
 30
0.0
 10
18.4960976907
 20
57.7924276553
 30
0.0
 10
18.5759558754
 20
57.1317915839
 30
0.0
 10
18.5924461414
 20
56.6992360603
 30
0.0
 10
18.5906789638
 20
56.4889059784
 30
0.0
  0
SPLINE
  5
2A1
100
AcDbEntity
  8
0
100
AcDbSpline
 62
7
  6
CONTINUOUS
 70
0
 71
3
 72
9
 73
5
 74
0
 42
0.0000001
 43
0.0000001
 44
0.0000000001
 40
0.0
 40
0.0
 40
0.0
 40
0.0
 40
0.5167468985
 40
1.0
 40
1.0
 40
1.0
 40
1.0
 10
18.5906789638
 20
56.4889059784
 30
0.0
 10
18.5890885611
 20
56.2996157015
 30
0.0
 10
18.5707086013
 20
55.9332155256
 30
0.0
 10
18.5158612229
 20
55.5701179776
 30
0.0
 10
18.4783139948
 20
55.3971182846
 30
0.0
  0
SPLINE
  5
2A2
100
AcDbEntity
  8
0
100
AcDbSpline
 62
7
  6
CONTINUOUS
 70
0
 71
3
 72
17
 73
13
 74
0
 42
0.0000001
 43
0.0000001
 44
0.0000000001
 40
0.0
 40
0.0
 40
0.0
 40
0.0
 40
0.0570972234
 40
0.1186088273
 40
0.1832180065
 40
0.2496625584
 40
0.3840865181
 40
0.5168323729
 40
0.6455776209
 40
0.7693216995
 40
0.8875927364
 40
1.0
 40
1.0
 40
1.0
 40
1.0
 10
16.3981611445
 20
61.4105951571
 30
0.0
 10
16.4911303879
 20
61.3585921785
 30
0.0
 10
16.6749886561
 20
61.2336238248
 30
0.0
 10
16.929847582
 20
61.0046916428
 30
0.0
 10
17.1694113559
 20
60.736106886
 30
0.0
 10
17.4641722293
 20
60.3374133454
 30
0.0
 10
17.7751752996
 20
59.7958074421
 30
0.0
 10
18.066391668
 20
59.1156151135
 30
0.0
 10
18.2831402718
 20
58.4292437287
 30
0.0
 10
18.432021985
 20
57.7528336824
 30
0.0
 10
18.5178461517
 20
57.0963989733
 30
0.0
 10
18.5354807638
 20
56.6656489125
 30
0.0
 10
18.5335827756
 20
56.4559416756
 30
0.0
  0
SPLINE
  5
2A3
100
AcDbEntity
  8
0
100
AcDbSpline
 62
7
  6
CONTINUOUS
 70
0
 71
3
 72
12
 73
8
 74
0
 42
0.0000001
 43
0.0000001
 44
0.0000000001
 40
0.0
 40
0.0
 40
0.0
 40
0.0
 40
0.2818751693
 40
0.5427557927
 40
0.6651232204
 40
0.7820182157
 40
1.0
 40
1.0
 40
1.0
 40
1.0
 10
18.5335827756
 20
56.4559416756
 30
0.0
 10
18.5314785156
 20
56.2234436385
 30
0.0
 10
18.5027340784
 20
55.7754505843
 30
0.0
 10
18.3932928785
 20
55.2354117428
 30
0.0
 10
18.2566745347
 20
54.8452429451
 30
0.0
 10
18.0948865744
 20
54.5045172538
 30
0.0
 10
17.9278224107
 20
54.2766619395
 30
0.0
 10
17.7946288799
 20
54.15587648
 30
0.0
  0
SPLINE
  5
2A4
100
AcDbEntity
  8
0
100
AcDbSpline
 62
7
  6
CONTINUOUS
 70
0
 71
3
 72
11
 73
7
 74
0
 42
0.0000001
 43
0.0000001
 44
0.0000000001
 40
0.0
 40
0.0
 40
0.0
 40
0.0
 40
0.2212142165
 40
0.4534430574
 40
0.7096952928
 40
1.0
 40
1.0
 40
1.0
 40
1.0
 10
15.2481197247
 20
61.4598630107
 30
0.0
 10
15.3250270133
 20
61.5042651909
 30
0.0
 10
15.4950158302
 20
61.576063591
 30
0.0
 10
15.7818089122
 20
61.6095967464
 30
0.0
 10
16.0937744457
 20
61.5569960311
 30
0.0
 10
16.2964509182
 20
61.4674875335
 30
0.0
 10
16.3981611445
 20
61.4105951571
 30
0.0
  0
SPLINE
  5
2A5
100
AcDbEntity
  8
0
100
AcDbSpline
 62
7
  6
CONTINUOUS
 70
0
 71
3
 72
11
 73
7
 74
0
 42
0.0000001
 43
0.0000001
 44
0.0000000001
 40
0.0
 40
0.0
 40
0.0
 40
0.0
 40
0.2156730134
 40
0.4430688905
 40
0.7000370688
 40
1.0
 40
1.0
 40
1.0
 40
1.0
 10
15.602131204
 20
61.6642506182
 30
0.0
 10
15.6703950023
 20
61.7036599238
 30
0.0
 10
15.8231937293
 20
61.7654723835
 30
0.0
 10
16.0829649018
 20
61.781066129
 30
0.0
 10
16.3643084698
 20
61.7085261518
 30
0.0
 10
16.5438946654
 20
61.6086483086
 30
0.0
 10
16.6345529474
 20
61.5470081892
 30
0.0
  0
SPLINE
  5
2A6
100
AcDbEntity
  8
0
100
AcDbSpline
 62
7
  6
CONTINUOUS
 70
0
 71
3
 72
11
 73
7
 74
0
 42
0.0000001
 43
0.0000001
 44
0.0000000001
 40
0.0
 40
0.0
 40
0.0
 40
0.0
 40
0.2661064201
 40
0.5218376903
 40
0.7665809922
 40
1.0
 40
1.0
 40
1.0
 40
1.0
 10
42.1701400965
 20
54.536419313
 30
0.0
 10
39.1480642609
 20
55.7526917449
 30
0.0
 10
33.2954288754
 20
58.327236916
 30
0.0
 10
24.9826363924
 20
62.6995185236
 30
0.0
 10
17.3634485363
 20
67.4769591432
 30
0.0
 10
12.67245819
 20
70.9931945605
 30
0.0
 10
10.4690015266
 20
72.8125438657
 30
0.0
  0
SPLINE
  5
2A7
100
AcDbEntity
  8
0
100
AcDbSpline
 62
7
  6
CONTINUOUS
 70
0
 71
3
 72
13
 73
9
 74
0
 42
0.0000001
 43
0.0000001
 44
0.0000000001
 40
0.0
 40
0.0
 40
0.0
 40
0.0
 40
0.2876875154
 40
0.5494137653
 40
0.6702814359
 40
0.7848549147
 40
0.8942044122
 40
1.0
 40
1.0
 40
1.0
 40
1.0
 10
51.6354285587
 20
48.497470932
 30
0.0
 10
51.8110436463
 20
48.3705932121
 30
0.0
 10
52.1699985026
 20
48.1584693162
 30
0.0
 10
52.6564435798
 20
48.003245338
 30
0.0
 10
53.0303754981
 20
47.9670062658
 30
0.0
 10
53.2907775015
 20
47.9825595168
 30
0.0
 10
53.5336175898
 20
48.0403199117
 30
0.0
 10
53.6823914777
 20
48.1075004586
 30
0.0
 10
53.7513813769
 20
48.1473526289
 30
0.0
  0
SPLINE
  5
2A8
100
AcDbEntity
  8
0
100
AcDbSpline
 62
7
  6
CONTINUOUS
 70
0
 71
3
 72
13
 73
9
 74
0
 42
0.0000001
 43
0.0000001
 44
0.0000000001
 40
0.0
 40
0.0
 40
0.0
 40
0.0
 40
0.0982774605
 40
0.2010337396
 40
0.3105907691
 40
0.428691005
 40
0.6940683194
 40
1.0
 40
1.0
 40
1.0
 40
1.0
 10
12.2988195109
 20
67.9577299963
 30
0.0
 10
12.26108374
 20
67.935958908
 30
0.0
 10
12.1882844989
 20
67.883378152
 30
0.0
 10
12.0934871051
 20
67.7825668991
 30
0.0
 10
12.0120967317
 20
67.660049753
 30
0.0
 10
11.9188781446
 20
67.4616501722
 30
0.0
 10
11.8436205396
 20
67.162706204
 30
0.0
 10
11.8269442054
 20
66.9089335959
 30
0.0
 10
11.8269442054
 20
66.7733163098
 30
0.0
  0
ENDSEC
  0
SECTION
  2
OBJECTS
  0
DICTIONARY
  5
C
100
AcDbDictionary
280
0
281
1
  3
ACAD_GROUP
350
D
  3
ACAD_MLINESTYLE
350
17
  3
ACAD_LAYOUT
350
1A
  3
ACAD_PLOTSETTINGS
350
19
  3
ACAD_PLOTSTYLENAME
350
E
  0
DICTIONARY
  5
D
102
{ACAD_REACTORS
330
C
102
}
100
AcDbDictionary
280
0
281
1
  0
ACDBDICTIONARYWDFLT
  5
E
102
{ACAD_REACTORS
330
C
102
}
100
AcDbDictionary
281
1
  3
Normal
350
F
100
AcDbDictionaryWithDefault
340
F
  0
DICTIONARY
  5
17
102
{ACAD_REACTORS
330
C
102
}
100
AcDbDictionary
280
0
281
1
  3
Standard
350
18
  0
DICTIONARY
  5
19
102
{ACAD_REACTORS
330
C
102
}
100
AcDbDictionary
281
1
  0
DICTIONARY
  5
1A
102
{ACAD_REACTORS
330
C
102
}
100
AcDbDictionary
281
1
  3
Model
350
2A9
  3
Layout1
350
2AA
  0
ACDBPLACEHOLDER
  5
F
102
{ACAD_REACTORS
330
E
102
}
  0
MLINESTYLE
  5
18
102
{ACAD_REACTORS
330
17
102
}
100
AcDbMlineStyle
  2
STANDARD
 70
0
  3

 62
256
 51
90.0
 52
90.0
 71
2
 49
0.5
 62
256
  6
BYLAYER
 49
-0.5
 62
256
  6
BYLAYER
  0
LAYOUT
  5
2A9
102
{ACAD_REACTORS
330
1A
102
}
100
AcDbPlotSettings
  1

  2
none_device
  4

  6

 40
0.0
 41
0.0
 42
0.0
 43
0.0
 44
210.0
 45
297.0
 46
0.0
 47
0.0
 48
0.0
 49
0.0
140
0.0
141
0.0
142
1.0
143
1.0
 70
1024
 72
1
 73
0
 74
0
  7

 75
0
147
1.0
148
0.0
149
0.0
100
AcDbLayout
  1
Model
 70
0
 71
0
 10
0.0
 20
0.0
 11
210.0
 21
297.0
 12
0.0
 22
0.0
 32
0.0
 14
0.0
 24
0.0
 34
0.0
 15
0.0
 25
0.0
 35
0.0
146
0.0
 13
0.0
 23
0.0
 33
0.0
 16
1.0
 26
0.0
 36
0.0
 17
0.0
 27
1.0
 37
0.0
 76
0
330
210
345
0
346
0
  0
LAYOUT
  5
2AA
102
{ACAD_REACTORS
330
1A
102
}
100
AcDbPlotSettings
  1

  2
none_device
  4

  6

 40
0.0
 41
0.0
 42
0.0
 43
0.0
 44
210.0
 45
297.0
 46
0.0
 47
0.0
 48
0.0
 49
0.0
140
0.0
141
0.0
142
1.0
143
1.0
 70
0
 72
1
 73
0
 74
0
  7

 75
0
147
1.0
148
0.0
149
0.0
100
AcDbLayout
  1
Layout1
 70
0
 71
1
 10
0.0
 20
0.0
 11
210.0
 21
297.0
 12
0.0
 22
0.0
 32
0.0
 14
0.0
 24
0.0
 34
0.0
 15
0.0
 25
0.0
 35
0.0
146
0.0
 13
0.0
 23
0.0
 33
0.0
 16
1.0
 26
0.0
 36
0.0
 17
0.0
 27
1.0
 37
0.0
 76
0
330
211
345
0
346
0
  0
ENDSEC
  0
EOF
