999
DXF file: C:\Users\sesa63760\Dev\_Creo\CAD\MCADID0004739_3D-CAD\drw0001_7.dxf
999
Pro/ENGINEER 2019471 by Parametric Technology Corporation
  0
SECTION
  2
HEADER
  9
$ACADVER
  1
AC1024
  9
$DWGCODEPAGE
  3
ANSI_1252
  9
$EXTMAX
 10
20.2250071834
 20
28.6039387309
 30
0.0
  9
$EXTMIN
 10
0.0
 20
0.0
 30
0.0
  9
$LIMMIN
 10
0.0
 20
0.0
  9
$LIMMAX
 10
20.2250071834
 20
28.6039387309
  9
$VIEWCTR
 10
10.1125035917
 20
14.3019693654
  9
$VIEWSIZE
 40
28.6039387309
  9
$CLAYER
  8
0
  9
$LTSCALE
 40
1.8645530432
  9
$CELTYPE
  6
BYLAYER
  9
$DIMSCALE
 40
1.0
  9
$DIMASZ
 40
0.240773895
  9
$DIMEXO
 40
1.0
  9
$DIMDLI
 40
1.288236648
  9
$DIMEXE
 40
1.0
  9
$DIMCEN
 40
0.3051086798
  9
$DIMLFAC
 40
1.0
  9
$DIMBLK
  1
_FILLED
  9
$DIMALT
 70
0
  9
$DIMALTF
 40
0.0393700787
  9
$DIMTXT
 40
0.3370834531
  9
$DIMTOL
 70
1
  9
$DIMLIM
 70
0
  9
$DIMTFAC
 40
1.0
  9
$DIMTP
 40
0.01
  9
$DIMTM
 40
0.01
  9
$DIMGAP
 40
0.625
  9
$DIMDSEP
 70
46
  9
$AUNITS
 70
0
  9
$PDMODE
 70
3
  9
$PDSIZE
 40
0.3125
  9
$HANDSEED
  5
2D0
  9
$TILEMODE
 70
1
  9
$MEASUREMENT
 70
1
  9
$INSUNITS
 70
4
  0
ENDSEC
  0
SECTION
  2
CLASSES
  0
CLASS
  1
ACDBDICTIONARYWDFLT
  2
AcDbDictionaryWithDefault
  3
AutoCAD 2000
 90
0
 91
1
280
0
281
0
  0
CLASS
  1
ACDBPLACEHOLDER
  2
AcDbPlaceHolder
  3
AutoCAD 2000
 90
0
 91
1
280
0
281
0
  0
CLASS
  1
LAYOUT
  2
AcDbLayout
  3
AutoCAD 2000
 90
0
 91
0
280
0
281
0
  0
ENDSEC
  0
SECTION
  2
TABLES
  0
TABLE
  2
VPORT
  5
8
100
AcDbSymbolTable
 70
2
  0
VPORT
  5
1F4
100
AcDbSymbolTableRecord
100
AcDbViewportTableRecord
  2
*ACTIVE
 70
0
 10
0.0
 20
0.0
 11
1.0
 21
1.0
 12
10.1125035917
 22
14.3019693654
 13
0.0
 23
0.0
 14
1.0
 24
1.0
 15
0.0
 25
0.0
 16
0.0
 26
0.0
 36
1.0
 17
0.0
 27
0.0
 37
0.0
 40
28.6039387309
 41
0.7070707071
 42
50.0
 43
0.0
 44
0.0
 50
0.0
 51
0.0
 71
0
 72
100
 73
1
 74
1
 75
0
 76
0
 77
0
 78
0
  0
ENDTAB
  0
TABLE
  2
LTYPE
  5
5
100
AcDbSymbolTable
 70
6
  0
LTYPE
  5
14
100
AcDbSymbolTableRecord
100
AcDbLinetypeTableRecord
  2
BYBLOCK
 70
0
  3

 72
65
 73
0
 40
0.0
  0
LTYPE
  5
15
100
AcDbSymbolTableRecord
100
AcDbLinetypeTableRecord
  2
BYLAYER
 70
0
  3

 72
65
 73
0
 40
0.0
  0
LTYPE
  5
16
100
AcDbSymbolTableRecord
100
AcDbLinetypeTableRecord
  2
CONTINUOUS
 70
64
  3
Solid line
 72
65
 73
0
 40
0.0
  0
LTYPE
  5
1F5
100
AcDbSymbolTableRecord
100
AcDbLinetypeTableRecord
  2
CENTER
 70
64
  3
____ _ ____ _ ____ _ ____ _ ____ _ ____ _ ____
 72
65
 73
4
 40
0.6
 49
0.375
 74
0
 49
-0.075
 74
0
 49
0.075
 74
0
 49
-0.075
 74
0
  0
LTYPE
  5
1F6
100
AcDbSymbolTableRecord
100
AcDbLinetypeTableRecord
  2
HIDDEN
 70
64
  3
- - - - - - - - - - - - - - - - - - - -
 72
65
 73
2
 40
0.2
 49
0.1
 74
0
 49
-0.1
 74
0
  0
LTYPE
  5
1F7
100
AcDbSymbolTableRecord
100
AcDbLinetypeTableRecord
  2
PHANTOM
 70
64
  3
_____ _ _ _____ _ _ _____ _ _ _____
 72
65
 73
6
 40
0.8
 49
0.45
 74
0
 49
-0.05
 74
0
 49
0.1
 74
0
 49
-0.05
 74
0
 49
0.1
 74
0
 49
-0.05
 74
0
  0
LTYPE
  5
1F8
100
AcDbSymbolTableRecord
100
AcDbLinetypeTableRecord
  2
DOT
 70
64
  3
. . . . . . . . . . . . . . . . . . . .
 72
65
 73
2
 40
0.2
 49
0.1
 74
0
 49
-0.1
 74
0
  0
LTYPE
  5
1F9
100
AcDbSymbolTableRecord
100
AcDbLinetypeTableRecord
  2
DASHED
 70
64
  3
- - - - - - - - - - - - - - - - - - - -
 72
65
 73
2
 40
0.2
 49
0.1
 74
0
 49
-0.1
 74
0
  0
ENDTAB
  0
TABLE
  2
LAYER
  5
2
100
AcDbSymbolTable
 70
36
  0
LAYER
  5
10
100
AcDbSymbolTableRecord
100
AcDbLayerTableRecord
  2
0
 70
0
 62
7
  6
CONTINUOUS
370
-3
390
F
  0
LAYER
  5
1FA
100
AcDbSymbolTableRecord
100
AcDbLayerTableRecord
  2
DEFAULT_1
 70
0
 62
7
  6
CENTER
370
-3
390
F
  0
LAYER
  5
1FB
100
AcDbSymbolTableRecord
100
AcDbLayerTableRecord
  2
DEFAULT_2
 70
0
 62
7
  6
HIDDEN
370
-3
390
F
  0
LAYER
  5
1FC
100
AcDbSymbolTableRecord
100
AcDbLayerTableRecord
  2
DEFAULT_3
 70
0
 62
7
  6
PHANTOM
370
-3
390
F
  0
LAYER
  5
1FD
100
AcDbSymbolTableRecord
100
AcDbLayerTableRecord
  2
00_COMPONENTS
 70
0
 62
7
  6
CONTINUOUS
370
-3
390
F
  0
LAYER
  5
1FE
100
AcDbSymbolTableRecord
100
AcDbLayerTableRecord
  2
01_1_DEFAULT_DATUMS
 70
0
 62
7
  6
CONTINUOUS
370
-3
390
F
  0
LAYER
  5
1FF
100
AcDbSymbolTableRecord
100
AcDbLayerTableRecord
  2
01_PLANES
 70
0
 62
7
  6
CONTINUOUS
370
-3
390
F
  0
LAYER
  5
200
100
AcDbSymbolTableRecord
100
AcDbLayerTableRecord
  2
02_COORD_SYS
 70
0
 62
7
  6
CONTINUOUS
370
-3
390
F
  0
LAYER
  5
201
100
AcDbSymbolTableRecord
100
AcDbLayerTableRecord
  2
03_AXES
 70
0
 62
7
  6
CONTINUOUS
370
-3
390
F
  0
LAYER
  5
202
100
AcDbSymbolTableRecord
100
AcDbLayerTableRecord
  2
04_POINTS
 70
0
 62
7
  6
CONTINUOUS
370
-3
390
F
  0
LAYER
  5
203
100
AcDbSymbolTableRecord
100
AcDbLayerTableRecord
  2
05_CURVES
 70
0
 62
7
  6
CONTINUOUS
370
-3
390
F
  0
LAYER
  5
204
100
AcDbSymbolTableRecord
100
AcDbLayerTableRecord
  2
06_SURFS
 70
0
 62
7
  6
CONTINUOUS
370
-3
390
F
  0
LAYER
  5
205
100
AcDbSymbolTableRecord
100
AcDbLayerTableRecord
  2
07_COSMETICS
 70
0
 62
7
  6
CONTINUOUS
370
-3
390
F
  0
LAYER
  5
206
100
AcDbSymbolTableRecord
100
AcDbLayerTableRecord
  2
10_NOTES
 70
0
 62
7
  6
CONTINUOUS
370
-3
390
F
  0
LAYER
  5
207
100
AcDbSymbolTableRecord
100
AcDbLayerTableRecord
  2
11_NOTES_PUB
 70
0
 62
7
  6
CONTINUOUS
370
-3
390
F
  0
LAYER
  5
208
100
AcDbSymbolTableRecord
100
AcDbLayerTableRecord
  2
13_REF_GTOL
 70
0
 62
7
  6
CONTINUOUS
370
-3
390
F
  0
LAYER
  5
209
100
AcDbSymbolTableRecord
100
AcDbLayerTableRecord
  2
16_MISC
 70
0
 62
7
  6
CONTINUOUS
370
-3
390
F
  0
LAYER
  5
20A
100
AcDbSymbolTableRecord
100
AcDbLayerTableRecord
  2
17_NO_PRINT
 70
0
 62
7
  6
CONTINUOUS
370
-3
390
F
  0
LAYER
  5
20B
100
AcDbSymbolTableRecord
100
AcDbLayerTableRecord
  2
18_DATUM_CAMS_JOINTS
 70
0
 62
7
  6
CONTINUOUS
370
-3
390
F
  0
LAYER
  5
20C
100
AcDbSymbolTableRecord
100
AcDbLayerTableRecord
  2
19_DATUM_FUNCTIONAL
 70
0
 62
7
  6
CONTINUOUS
370
-3
390
F
  0
LAYER
  5
20D
100
AcDbSymbolTableRecord
100
AcDbLayerTableRecord
  2
20_DATUM_KINEMATIC_SCHEME
 70
0
 62
7
  6
CONTINUOUS
370
-3
390
F
  0
ENDTAB
  0
TABLE
  2
STYLE
  5
3
100
AcDbSymbolTable
 70
1
  0
STYLE
  5
11
100
AcDbSymbolTableRecord
100
AcDbTextStyleTableRecord
  2
STANDARD
 70
0
 40
0.0
 41
1.0
 50
0.0
 71
0
 42
0.2
  3
ARIAL.TTF
  4

  0
STYLE
  5
20E
100
AcDbSymbolTableRecord
100
AcDbTextStyleTableRecord
  2
TEXTSTYLE_1
 70
0
 40
0.0
 41
0.8
 50
0.0
 71
0
 42
0.2
  3
gdt
  4

  0
ENDTAB
  0
TABLE
  2
VIEW
  5
6
100
AcDbSymbolTable
 70
0
  0
ENDTAB
  0
TABLE
  2
UCS
  5
7
100
AcDbSymbolTable
 70
0
  0
ENDTAB
  0
TABLE
  2
APPID
  5
9
100
AcDbSymbolTable
 70
1
  0
APPID
  5
20F
100
AcDbSymbolTableRecord
100
AcDbRegAppTableRecord
  2
ACAD
 70
0
  0
ENDTAB
  0
TABLE
  2
BLOCK_RECORD
  5
1
100
AcDbSymbolTable
 70
0
  0
BLOCK_RECORD
  5
210
100
AcDbSymbolTableRecord
100
AcDbBlockTableRecord
  2
*Model_Space
  0
BLOCK_RECORD
  5
211
100
AcDbSymbolTableRecord
100
AcDbBlockTableRecord
  2
*Paper_Space
  0
BLOCK_RECORD
  5
212
100
AcDbSymbolTableRecord
100
AcDbBlockTableRecord
  2
_FILLED
  0
ENDTAB
  0
TABLE
  2
DIMSTYLE
  5
A
100
AcDbSymbolTable
 70
1
100
AcDbDimStyleTable
 71
0
  0
DIMSTYLE
105
213
100
AcDbSymbolTableRecord
100
AcDbDimStyleTableRecord
  2
STANDARD
 70
0
  3

  4

 40
1.0
 41
0.240773895
 42
1.0
 43
0.38
 44
1.0
 45
0.0
 46
0.0
 47
0.01
 48
0.01
140
0.3370834531
141
0.09
142
0.0
143
25.4
144
1.0
145
0.0
146
1.0
147
0.625
 71
1
 72
0
 73
0
 74
0
 75
0
 76
0
 77
1
 78
8
 79
2
170
0
171
1
172
0
173
0
174
0
175
0
176
0
177
0
178
0
270
2
179
2
271
2
272
2
273
2
274
2
275
0
280
0
281
0
282
0
283
1
284
8
285
0
286
0
287
3
288
0
340
11
278
46
341
212
342
212
343
212
344
212
  0
ENDTAB
  0
ENDSEC
  0
SECTION
  2
BLOCKS
  0
BLOCK
  5
20
100
AcDbEntity
  8
0
100
AcDbBlockBegin
  2
*Model_Space
 70
0
 10
0.0
 20
0.0
 30
0.0
  3
*Model_Space
  1

  0
ENDBLK
  5
21
100
AcDbEntity
  8
0
100
AcDbBlockEnd
  0
BLOCK
  5
1C
100
AcDbEntity
  8
0
100
AcDbBlockBegin
  2
*Paper_Space
 70
0
 10
0.0
 20
0.0
 30
0.0
  3
*Paper_Space
  1

  0
ENDBLK
  5
1D
100
AcDbEntity
  8
0
100
AcDbBlockEnd
  0
BLOCK
  5
214
100
AcDbEntity
  8
0
100
AcDbBlockBegin
  2
_FILLED
 70
64
 10
0.0
 20
0.0
  3
_FILLED
  1

  0
SOLID
  5
215
100
AcDbEntity
  8
0
  6
BYBLOCK
 62
0
100
AcDbTrace
 10
0.0
 20
0.0
 11
-1.0
 21
0.25
 12
-1.0
 22
-0.25
 13
-1.0
 23
-0.25
  0
ENDBLK
  5
216
100
AcDbEntity
  8
0
  6
BYBLOCK
 62
0
100
AcDbBlockEnd
  0
ENDSEC
  0
SECTION
  2
ENTITIES
  0
LINE
  5
217
100
AcDbEntity
  8
0
100
AcDbLine
 62
7
  6
BYLAYER
 10
11.0405430876
 20
6.4219966134
 11
9.2544859777
 21
6.4219966134
  0
LINE
  5
218
100
AcDbEntity
  8
0
100
AcDbLine
 62
7
  6
BYLAYER
 10
8.7919703615
 20
8.3219966134
 11
11.5030587038
 21
8.3219966134
  0
LINE
  5
219
100
AcDbEntity
  8
0
100
AcDbLine
 62
7
  6
BYLAYER
 10
4.4545364016
 20
12.8228032749
 11
4.4545364016
 21
13.0248719712
  0
LINE
  5
21A
100
AcDbEntity
  8
0
100
AcDbLine
 62
7
  6
BYLAYER
 10
4.4545364016
 20
15.7191212556
 11
4.4545364016
 21
15.9211899519
  0
LINE
  5
21B
100
AcDbEntity
  8
0
100
AcDbLine
 62
7
  6
BYLAYER
 10
11.6225145326
 20
8.5719966134
 11
8.6725145326
 21
8.5719966134
  0
LINE
  5
21C
100
AcDbEntity
  8
0
100
AcDbLine
 62
7
  6
BYLAYER
 10
8.3475145326
 20
8.8947710383
 11
8.4725145326
 21
8.8947710383
  0
LINE
  5
21D
100
AcDbEntity
  8
0
100
AcDbLine
 62
7
  6
BYLAYER
 10
11.8225145326
 20
8.8947710383
 11
11.9475145326
 21
8.8947710383
  0
LINE
  5
21E
100
AcDbEntity
  8
0
100
AcDbLine
 62
7
  6
BYLAYER
 10
5.0369861842
 20
11.2485455824
 11
5.0369861842
 21
11.4236920158
  0
LINE
  5
21F
100
AcDbEntity
  8
0
100
AcDbLine
 62
7
  6
BYLAYER
 10
5.0369861842
 20
17.320301211
 11
5.0369861842
 21
17.4954480187
  0
LINE
  5
220
100
AcDbEntity
  8
0
100
AcDbLine
 62
7
  6
BYLAYER
 10
8.4725145326
 20
19.9719966134
 11
8.6725145326
 21
20.1719966134
  0
LINE
  5
221
100
AcDbEntity
  8
0
100
AcDbLine
 62
7
  6
BYLAYER
 10
6.3961257983
 20
9.5476752225
 11
8.0475145326
 21
9.5476752225
  0
LINE
  5
222
100
AcDbEntity
  8
0
100
AcDbLine
 62
7
  6
BYLAYER
 10
12.2475145326
 20
9.5476752225
 11
13.898903267
 21
9.5476752225
  0
LINE
  5
223
100
AcDbEntity
  8
0
100
AcDbLine
 62
7
  6
BYLAYER
 10
8.4725145326
 20
8.7719966134
 11
8.6725145326
 21
8.5719966134
  0
LINE
  5
224
100
AcDbEntity
  8
0
100
AcDbLine
 62
7
  6
BYLAYER
 10
6.6065789218
 20
15.9211899519
 11
6.6065789218
 21
15.7191212556
  0
LINE
  5
225
100
AcDbEntity
  8
0
100
AcDbLine
 62
7
  6
BYLAYER
 10
6.6065789218
 20
12.8228032749
 11
6.6065789218
 21
13.0248719712
  0
LINE
  5
226
100
AcDbEntity
  8
0
100
AcDbLine
 62
7
  6
BYLAYER
 10
15.2580287008
 20
11.2485455929
 11
12.6465426759
 21
11.2485455929
  0
LINE
  5
227
100
AcDbEntity
  8
0
100
AcDbLine
 62
7
  6
BYLAYER
 10
7.6484870575
 20
11.2485455824
 11
5.0369988564
 21
11.2485455824
  0
LINE
  5
228
100
AcDbEntity
  8
0
100
AcDbLine
 62
7
  6
BYLAYER
 10
15.25804142
 20
11.4236920158
 11
12.6466168317
 21
11.4236920158
  0
LINE
  5
229
100
AcDbEntity
  8
0
100
AcDbLine
 62
7
  6
BYLAYER
 10
7.6484144858
 20
11.4236920158
 11
5.0369878297
 21
11.4236920158
  0
LINE
  5
22A
100
AcDbEntity
  8
0
100
AcDbLine
 62
7
  6
BYLAYER
 10
7.6483696789
 20
17.4954480187
 11
7.6483696789
 21
17.320301211
  0
LINE
  5
22B
100
AcDbEntity
  8
0
100
AcDbLine
 62
7
  6
BYLAYER
 10
7.6483696789
 20
11.4236920158
 11
7.6483696789
 21
11.2485455824
  0
LINE
  5
22C
100
AcDbEntity
  8
0
100
AcDbLine
 62
7
  6
BYLAYER
 10
8.0475145326
 20
20.156138809
 11
8.0475145326
 21
17.8094350434
  0
LINE
  5
22D
100
AcDbEntity
  8
0
100
AcDbLine
 62
7
  6
BYLAYER
 10
8.0475145326
 20
10.9345576476
 11
8.0475145326
 21
8.5878544177
  0
LINE
  5
22E
100
AcDbEntity
  8
0
100
AcDbLine
 62
7
  6
BYLAYER
 10
8.3475145326
 20
19.8856161142
 11
8.3475145326
 21
17.6167192518
  0
LINE
  5
22F
100
AcDbEntity
  8
0
100
AcDbLine
 62
7
  6
BYLAYER
 10
8.3475145326
 20
11.127273975
 11
8.3475145326
 21
8.8583771126
  0
LINE
  5
230
100
AcDbEntity
  8
0
100
AcDbLine
 62
7
  6
BYLAYER
 10
8.3975145326
 20
11.3409077002
 11
8.3975145326
 21
17.4030855266
  0
LINE
  5
231
100
AcDbEntity
  8
0
100
AcDbLine
 62
7
  6
BYLAYER
 10
8.4725145326
 20
8.7720445422
 11
8.4725145326
 21
19.9719486846
  0
LINE
  5
232
100
AcDbEntity
  8
0
100
AcDbLine
 62
7
  6
BYLAYER
 10
8.6725145326
 20
8.5719966134
 11
8.6725145326
 21
20.1719966134
  0
LINE
  5
233
100
AcDbEntity
  8
0
100
AcDbLine
 62
7
  6
BYLAYER
 10
4.4545358525
 20
12.8228032749
 11
6.6065754693
 21
12.8228032749
  0
LINE
  5
234
100
AcDbEntity
  8
0
100
AcDbLine
 62
7
  6
BYLAYER
 10
13.6884535462
 20
12.8228032749
 11
15.8404934678
 21
12.8228032749
  0
LINE
  5
235
100
AcDbEntity
  8
0
100
AcDbLine
 62
7
  6
BYLAYER
 10
15.8404926636
 20
13.0248719712
 11
13.6884501435
 21
13.0248719712
  0
LINE
  5
236
100
AcDbEntity
  8
0
100
AcDbLine
 62
7
  6
BYLAYER
 10
6.6065789218
 20
13.0248719712
 11
4.4545364016
 21
13.0248719712
  0
LINE
  5
237
100
AcDbEntity
  8
0
100
AcDbLine
 62
7
  6
BYLAYER
 10
11.8975145326
 20
13.1069966134
 11
11.8225145326
 21
13.1069966134
  0
LINE
  5
238
100
AcDbEntity
  8
0
100
AcDbLine
 62
7
  6
BYLAYER
 10
8.4725145326
 20
13.1069966134
 11
8.3975145326
 21
13.1069966134
  0
LINE
  5
239
100
AcDbEntity
  8
0
100
AcDbLine
 62
7
  6
BYLAYER
 10
12.646660918
 20
17.3203030199
 11
12.4525734296
 21
17.0915422955
  0
LINE
  5
23A
100
AcDbEntity
  8
0
100
AcDbLine
 62
7
  6
BYLAYER
 10
7.648371535
 20
11.4236942036
 11
7.8424553995
 21
11.6524511316
  0
LINE
  5
23B
100
AcDbEntity
  8
0
100
AcDbLine
 62
7
  6
BYLAYER
 10
5.0369861842
 20
11.4236920158
 11
4.7771269682
 21
11.2737814163
  0
LINE
  5
23C
100
AcDbEntity
  8
0
100
AcDbLine
 62
7
  6
BYLAYER
 10
15.5179002521
 20
17.4702150034
 11
15.257949565
 21
17.3204629572
  0
LINE
  5
23D
100
AcDbEntity
  8
0
100
AcDbLine
 62
7
  6
BYLAYER
 10
6.6065789148
 20
12.822803273
 11
6.8814247854
 21
12.9430519796
  0
LINE
  5
23E
100
AcDbEntity
  8
0
100
AcDbLine
 62
7
  6
BYLAYER
 10
13.6884501508
 20
15.9211899539
 11
13.4136042975
 21
15.8009412069
  0
LINE
  5
23F
100
AcDbEntity
  8
0
100
AcDbLine
 62
7
  6
BYLAYER
 10
16.129939899
 20
16.0000588172
 11
15.840480646
 21
15.9211866817
  0
LINE
  5
240
100
AcDbEntity
  8
0
100
AcDbLine
 62
7
  6
BYLAYER
 10
4.1650630124
 20
12.7440304583
 11
4.4545364008
 21
12.8228032745
  0
LINE
  5
241
100
AcDbEntity
  8
0
100
AcDbLine
 62
7
  6
BYLAYER
 10
11.8975145326
 20
14.1523316686
 11
11.8225145326
 21
14.1523316686
  0
LINE
  5
242
100
AcDbEntity
  8
0
100
AcDbLine
 62
7
  6
BYLAYER
 10
8.4725145326
 20
14.1523316686
 11
8.3975145326
 21
14.1523316686
  0
LINE
  5
243
100
AcDbEntity
  8
0
100
AcDbLine
 62
7
  6
BYLAYER
 10
8.3975145326
 20
14.2157132535
 11
8.4725145326
 21
14.2157132535
  0
LINE
  5
244
100
AcDbEntity
  8
0
100
AcDbLine
 62
7
  6
BYLAYER
 10
11.8225145326
 20
14.2157132535
 11
11.8975145326
 21
14.2157132535
  0
LINE
  5
245
100
AcDbEntity
  8
0
100
AcDbLine
 62
7
  6
BYLAYER
 10
16.1299730842
 20
12.7440563026
 11
15.840487976
 21
12.8227860489
  0
LINE
  5
246
100
AcDbEntity
  8
0
100
AcDbLine
 62
7
  6
BYLAYER
 10
4.1650616367
 20
15.9999577148
 11
4.4545395417
 21
15.9212014911
  0
LINE
  5
247
100
AcDbEntity
  8
0
100
AcDbLine
 62
7
  6
BYLAYER
 10
13.6884501435
 20
12.8228032749
 11
13.4136039123
 21
12.9430511408
  0
LINE
  5
248
100
AcDbEntity
  8
0
100
AcDbLine
 62
7
  6
BYLAYER
 10
6.6065789218
 20
15.9211899519
 11
6.8814251529
 21
15.800942086
  0
LINE
  5
249
100
AcDbEntity
  8
0
100
AcDbLine
 62
7
  6
BYLAYER
 10
15.5178992658
 20
11.2737765162
 11
15.2580428801
 21
11.4236920162
  0
LINE
  5
24A
100
AcDbEntity
  8
0
100
AcDbLine
 62
7
  6
BYLAYER
 10
4.7771651811
 20
17.4702780302
 11
5.0369853941
 21
17.3203016668
  0
LINE
  5
24B
100
AcDbEntity
  8
0
100
AcDbLine
 62
7
  6
BYLAYER
 10
12.6466575211
 20
11.4236942165
 11
12.4525710222
 21
11.6524488887
  0
LINE
  5
24C
100
AcDbEntity
  8
0
100
AcDbLine
 62
7
  6
BYLAYER
 10
7.648368225
 20
17.3203029283
 11
7.8424583219
 21
17.0915445747
  0
LINE
  5
24D
100
AcDbEntity
  8
0
100
AcDbLine
 62
7
  6
BYLAYER
 10
11.8975145326
 20
14.5282799733
 11
11.8225145326
 21
14.5282799733
  0
LINE
  5
24E
100
AcDbEntity
  8
0
100
AcDbLine
 62
7
  6
BYLAYER
 10
8.4725145326
 20
14.5282799733
 11
8.3975145326
 21
14.5282799733
  0
LINE
  5
24F
100
AcDbEntity
  8
0
100
AcDbLine
 62
7
  6
BYLAYER
 10
8.3975145326
 20
14.5916615581
 11
8.4725145326
 21
14.5916615581
  0
LINE
  5
250
100
AcDbEntity
  8
0
100
AcDbLine
 62
7
  6
BYLAYER
 10
11.8225145326
 20
14.5916615581
 11
11.8975145326
 21
14.5916615581
  0
LINE
  5
251
100
AcDbEntity
  8
0
100
AcDbLine
 62
7
  6
BYLAYER
 10
11.6225145326
 20
20.1719966134
 11
11.6225145326
 21
8.5719966134
  0
LINE
  5
252
100
AcDbEntity
  8
0
100
AcDbLine
 62
7
  6
BYLAYER
 10
8.3975145326
 20
15.6369966134
 11
8.4725145326
 21
15.6369966134
  0
LINE
  5
253
100
AcDbEntity
  8
0
100
AcDbLine
 62
7
  6
BYLAYER
 10
11.8225145326
 20
15.6369966134
 11
11.8975145326
 21
15.6369966134
  0
LINE
  5
254
100
AcDbEntity
  8
0
100
AcDbLine
 62
7
  6
BYLAYER
 10
4.4545364016
 20
15.7191212556
 11
6.6065789218
 21
15.7191212556
  0
LINE
  5
255
100
AcDbEntity
  8
0
100
AcDbLine
 62
7
  6
BYLAYER
 10
13.6884501435
 20
15.7191212556
 11
15.8404926636
 21
15.7191212556
  0
LINE
  5
256
100
AcDbEntity
  8
0
100
AcDbLine
 62
7
  6
BYLAYER
 10
15.8404939698
 20
15.9211899519
 11
13.688453596
 21
15.9211899519
  0
LINE
  5
257
100
AcDbEntity
  8
0
100
AcDbLine
 62
7
  6
BYLAYER
 10
6.6065755191
 20
15.9211899519
 11
4.4545358629
 21
15.9211899519
  0
LINE
  5
258
100
AcDbEntity
  8
0
100
AcDbLine
 62
7
  6
BYLAYER
 10
11.8225145326
 20
19.9719486846
 11
11.8225145326
 21
8.7720445422
  0
LINE
  5
259
100
AcDbEntity
  8
0
100
AcDbLine
 62
7
  6
BYLAYER
 10
11.8975145326
 20
11.3409077002
 11
11.8975145326
 21
17.4030855266
  0
LINE
  5
25A
100
AcDbEntity
  8
0
100
AcDbLine
 62
7
  6
BYLAYER
 10
11.9475145326
 20
8.8583771126
 11
11.9475145326
 21
11.127273975
  0
LINE
  5
25B
100
AcDbEntity
  8
0
100
AcDbLine
 62
7
  6
BYLAYER
 10
11.9475145326
 20
17.6167192518
 11
11.9475145326
 21
19.8856161142
  0
LINE
  5
25C
100
AcDbEntity
  8
0
100
AcDbLine
 62
7
  6
BYLAYER
 10
12.2475145326
 20
8.5878544177
 11
12.2475145326
 21
10.9345586846
  0
LINE
  5
25D
100
AcDbEntity
  8
0
100
AcDbLine
 62
7
  6
BYLAYER
 10
12.2475145326
 20
17.8094360786
 11
12.2475145326
 21
20.1561437153
  0
LINE
  5
25E
100
AcDbEntity
  8
0
100
AcDbLine
 62
7
  6
BYLAYER
 10
12.6466593864
 20
11.2485455929
 11
12.6466593864
 21
11.4236920158
  0
LINE
  5
25F
100
AcDbEntity
  8
0
100
AcDbLine
 62
7
  6
BYLAYER
 10
12.6466593864
 20
17.320301211
 11
12.6466593864
 21
17.4954480187
  0
LINE
  5
260
100
AcDbEntity
  8
0
100
AcDbLine
 62
7
  6
BYLAYER
 10
5.0369973971
 20
17.320301211
 11
7.6484122336
 21
17.320301211
  0
LINE
  5
261
100
AcDbEntity
  8
0
100
AcDbLine
 62
7
  6
BYLAYER
 10
12.6466145794
 20
17.320301211
 11
15.2580338468
 21
17.320301211
  0
LINE
  5
262
100
AcDbEntity
  8
0
100
AcDbLine
 62
7
  6
BYLAYER
 10
13.6884501435
 20
15.9211899519
 11
13.6884501435
 21
15.7191212556
  0
LINE
  5
263
100
AcDbEntity
  8
0
100
AcDbLine
 62
7
  6
BYLAYER
 10
13.6884501435
 20
12.8228032749
 11
13.6884501435
 21
13.0248719712
  0
LINE
  5
264
100
AcDbEntity
  8
0
100
AcDbLine
 62
7
  6
BYLAYER
 10
15.2580428811
 20
17.4954480187
 11
12.6466593864
 21
17.4954480187
  0
LINE
  5
265
100
AcDbEntity
  8
0
100
AcDbLine
 62
7
  6
BYLAYER
 10
7.6483696789
 20
17.4954480187
 11
5.0369861842
 21
17.4954480187
  0
LINE
  5
266
100
AcDbEntity
  8
0
100
AcDbLine
 62
7
  6
BYLAYER
 10
15.2580428811
 20
17.4954480187
 11
15.2580428811
 21
17.320301211
  0
LINE
  5
267
100
AcDbEntity
  8
0
100
AcDbLine
 62
7
  6
BYLAYER
 10
15.2580428811
 20
11.4236920158
 11
15.2580428811
 21
11.2485455929
  0
LINE
  5
268
100
AcDbEntity
  8
0
100
AcDbLine
 62
7
  6
BYLAYER
 10
11.8225145326
 20
8.7719966134
 11
11.6225145326
 21
8.5719966134
  0
LINE
  5
269
100
AcDbEntity
  8
0
100
AcDbLine
 62
7
  6
BYLAYER
 10
13.898903267
 20
19.1963180042
 11
12.2475145326
 21
19.1963180042
  0
LINE
  5
26A
100
AcDbEntity
  8
0
100
AcDbLine
 62
7
  6
BYLAYER
 10
8.0475145326
 20
19.1963180042
 11
6.3961257983
 21
19.1963180042
  0
LINE
  5
26B
100
AcDbEntity
  8
0
100
AcDbLine
 62
7
  6
BYLAYER
 10
11.8225145326
 20
19.9719966134
 11
11.6225145326
 21
20.1719966134
  0
LINE
  5
26C
100
AcDbEntity
  8
0
100
AcDbLine
 62
7
  6
BYLAYER
 10
15.8404926636
 20
15.9211899519
 11
15.8404926636
 21
15.7191212556
  0
LINE
  5
26D
100
AcDbEntity
  8
0
100
AcDbLine
 62
7
  6
BYLAYER
 10
15.8404926636
 20
13.0248719712
 11
15.8404926636
 21
12.8228032749
  0
LINE
  5
26E
100
AcDbEntity
  8
0
100
AcDbLine
 62
7
  6
BYLAYER
 10
11.9475145326
 20
19.8492221884
 11
11.8225145326
 21
19.8492221884
  0
LINE
  5
26F
100
AcDbEntity
  8
0
100
AcDbLine
 62
7
  6
BYLAYER
 10
8.4725145326
 20
19.8492221884
 11
8.3475145326
 21
19.8492221884
  0
LINE
  5
270
100
AcDbEntity
  8
0
100
AcDbLine
 62
7
  6
BYLAYER
 10
11.6225145326
 20
20.1719966134
 11
8.6725145326
 21
20.1719966134
  0
LINE
  5
271
100
AcDbEntity
  8
0
100
AcDbLine
 62
7
  6
BYLAYER
 10
11.5030587038
 20
20.4219966134
 11
8.7919703615
 21
20.4219966134
  0
LINE
  5
272
100
AcDbEntity
  8
0
100
AcDbLine
 62
7
  6
BYLAYER
 10
9.2544859777
 20
22.3219966134
 11
11.0405430876
 21
22.3219966134
  0
ARC
  5
273
100
AcDbEntity
  8
0
100
AcDbCircle
 62
7
  6
BYLAYER
 10
10.1404283253
 20
14.1204280285
 40
5.9202352381
100
AcDbArc
 50
290.849387158
 51
291.8014621628
  0
ARC
  5
274
100
AcDbEntity
  8
0
100
AcDbCircle
 62
7
  6
BYLAYER
 10
10.1470218753
 20
14.1008404084
 40
5.8992314032
100
AcDbArc
 50
230.5183276816
 51
248.2032894258
  0
ARC
  5
275
100
AcDbEntity
  8
0
100
AcDbCircle
 62
7
  6
BYLAYER
 10
10.0642511683
 20
14.1196887614
 40
3.8615660714
100
AcDbArc
 50
304.4288837196
 51
311.9680520446
  0
ARC
  5
276
100
AcDbEntity
  8
0
100
AcDbCircle
 62
7
  6
BYLAYER
 10
8.0475145326
 20
8.8583771126
 40
0.3
100
AcDbArc
 50
249.149412216
 51
360.0
  0
ARC
  5
277
100
AcDbEntity
  8
0
100
AcDbCircle
 62
7
  6
BYLAYER
 10
8.0475145326
 20
11.127273975
 40
0.3
100
AcDbArc
 50
0.0
 51
57.0889514062
  0
ARC
  5
278
100
AcDbEntity
  8
0
100
AcDbCircle
 62
7
  6
BYLAYER
 10
7.9672665897
 20
8.7513720164
 40
0.1821474822
100
AcDbArc
 50
292.8736901042
 51
296.1399445698
  0
ARC
  5
279
100
AcDbEntity
  8
0
100
AcDbCircle
 62
7
  6
BYLAYER
 10
8.0475145326
 20
19.8856161142
 40
0.3
100
AcDbArc
 50
0.0
 51
110.8505877839
  0
ARC
  5
27A
100
AcDbEntity
  8
0
100
AcDbCircle
 62
7
  6
BYLAYER
 10
8.0475145326
 20
17.6167192518
 40
0.3
100
AcDbArc
 50
302.9110502761
 51
360.0
  0
ARC
  5
27B
100
AcDbEntity
  8
0
100
AcDbCircle
 62
7
  6
BYLAYER
 10
7.9678213367
 20
19.9938396724
 40
0.1808091826
100
AcDbArc
 50
63.8477079989
 51
67.137933974
  0
ARC
  5
27C
100
AcDbEntity
  8
0
100
AcDbCircle
 62
7
  6
BYLAYER
 10
10.0638721866
 20
14.6238260294
 40
3.8621762364
100
AcDbArc
 50
48.0324720854
 51
55.5705046763
  0
ARC
  5
27D
100
AcDbEntity
  8
0
100
AcDbCircle
 62
7
  6
BYLAYER
 10
10.1475145326
 20
14.3719966134
 40
8.0
100
AcDbArc
 50
276.4092039782
 51
83.5907960218
  0
ARC
  5
27E
100
AcDbEntity
  8
0
100
AcDbCircle
 62
7
  6
BYLAYER
 10
10.1475145326
 20
14.3719966134
 40
8.0
100
AcDbArc
 50
96.4092039782
 51
263.5907960218
  0
CIRCLE
  5
27F
100
AcDbEntity
  8
0
100
AcDbCircle
 62
7
  6
BYLAYER
 10
10.1475145326
 20
14.3719966134
 40
7.5
  0
ARC
  5
280
100
AcDbEntity
  8
0
100
AcDbCircle
 62
7
  6
BYLAYER
 10
10.1475145326
 20
14.3719966134
 40
6.2
100
AcDbArc
 50
282.6289405407
 51
77.3710594593
  0
ARC
  5
281
100
AcDbEntity
  8
0
100
AcDbCircle
 62
7
  6
BYLAYER
 10
10.1475145326
 20
14.3719966134
 40
6.2
100
AcDbArc
 50
102.6289405407
 51
257.3710594593
  0
ARC
  5
282
100
AcDbEntity
  8
0
100
AcDbCircle
 62
7
  6
BYLAYER
 10
10.1475145326
 20
14.3719966134
 40
5.9
100
AcDbArc
 50
15.2229136668
 51
29.981034319
  0
ARC
  5
283
100
AcDbEntity
  8
0
100
AcDbCircle
 62
7
  6
BYLAYER
 10
10.1475145326
 20
14.3719966134
 40
5.9
100
AcDbArc
 50
150.0189551085
 51
164.7770843765
  0
ARC
  5
284
100
AcDbEntity
  8
0
100
AcDbCircle
 62
7
  6
BYLAYER
 10
10.1475145326
 20
14.3719966134
 40
5.9
100
AcDbArc
 50
195.2229155972
 51
209.9809984628
  0
ARC
  5
285
100
AcDbEntity
  8
0
100
AcDbCircle
 62
7
  6
BYLAYER
 10
10.1475145326
 20
14.3719966134
 40
5.9
100
AcDbArc
 50
330.0190024324
 51
344.7770850533
  0
ARC
  5
286
100
AcDbEntity
  8
0
100
AcDbCircle
 62
7
  6
BYLAYER
 10
10.1475145326
 20
14.3719966134
 40
3.865
100
AcDbArc
 50
23.6298191009
 51
49.7140656955
  0
ARC
  5
287
100
AcDbEntity
  8
0
100
AcDbCircle
 62
7
  6
BYLAYER
 10
10.1475145326
 20
14.3719966134
 40
3.865
100
AcDbArc
 50
203.6298191009
 51
229.7140656955
  0
ARC
  5
288
100
AcDbEntity
  8
0
100
AcDbCircle
 62
7
  6
BYLAYER
 10
10.1475145326
 20
14.3719966134
 40
3.865
100
AcDbArc
 50
130.2859597738
 51
156.3701806034
  0
ARC
  5
289
100
AcDbEntity
  8
0
100
AcDbCircle
 62
7
  6
BYLAYER
 10
10.1475145326
 20
14.3719966134
 40
3.865
100
AcDbArc
 50
310.2859597738
 51
336.3701806034
  0
ARC
  5
28A
100
AcDbEntity
  8
0
100
AcDbCircle
 62
7
  6
BYLAYER
 10
10.1475145326
 20
14.3719966134
 40
3.565
100
AcDbArc
 50
117.9893773096
 51
242.0051910389
  0
ARC
  5
28B
100
AcDbEntity
  8
0
100
AcDbCircle
 62
7
  6
BYLAYER
 10
10.1475145326
 20
14.3719966134
 40
3.565
100
AcDbArc
 50
297.9893774271
 51
62.0051934898
  0
ARC
  5
28C
100
AcDbEntity
  8
0
100
AcDbCircle
 62
7
  6
BYLAYER
 10
10.1475145326
 20
14.3719966134
 40
3.5
100
AcDbArc
 50
298.6492243167
 51
61.3508322113
  0
ARC
  5
28D
100
AcDbEntity
  8
0
100
AcDbCircle
 62
7
  6
BYLAYER
 10
10.1475145326
 20
14.3719966134
 40
3.5
100
AcDbArc
 50
118.6492282127
 51
241.3508285808
  0
ARC
  5
28E
100
AcDbEntity
  8
0
100
AcDbCircle
 62
7
  6
BYLAYER
 10
10.1475145326
 20
14.3719966134
 40
3.3
100
AcDbArc
 50
122.0259316502
 51
237.9740683498
  0
ARC
  5
28F
100
AcDbEntity
  8
0
100
AcDbCircle
 62
7
  6
BYLAYER
 10
10.1475145326
 20
14.3719966134
 40
3.3
100
AcDbArc
 50
302.0259316502
 51
57.9740683498
  0
ARC
  5
290
100
AcDbEntity
  8
0
100
AcDbCircle
 62
7
  6
BYLAYER
 10
10.1412015504
 20
14.6256127441
 40
5.9180475858
100
AcDbArc
 50
68.2051466839
 51
69.1506023808
  0
ARC
  5
291
100
AcDbEntity
  8
0
100
AcDbCircle
 62
7
  6
BYLAYER
 10
10.1469307959
 20
14.6433140336
 40
5.8990482359
100
AcDbArc
 50
111.8035711541
 51
129.4819848786
  0
ARC
  5
292
100
AcDbEntity
  8
0
100
AcDbCircle
 62
7
  6
BYLAYER
 10
10.1529698543
 20
14.1162460502
 40
5.9157466602
100
AcDbArc
 50
248.2052032185
 51
249.1509582413
  0
ARC
  5
293
100
AcDbEntity
  8
0
100
AcDbCircle
 62
7
  6
BYLAYER
 10
10.1480112709
 20
14.1008334616
 40
5.8992234134
100
AcDbArc
 50
291.8037608069
 51
309.4816844256
  0
ARC
  5
294
100
AcDbEntity
  8
0
100
AcDbCircle
 62
7
  6
BYLAYER
 10
10.2309200367
 20
14.1198534799
 40
3.8617831548
100
AcDbArc
 50
228.0320216964
 51
235.5707672397
  0
ARC
  5
295
100
AcDbEntity
  8
0
100
AcDbCircle
 62
7
  6
BYLAYER
 10
12.2475145326
 20
8.8583771126
 40
0.3
100
AcDbArc
 50
180.0
 51
290.850587784
  0
ARC
  5
296
100
AcDbEntity
  8
0
100
AcDbCircle
 62
7
  6
BYLAYER
 10
12.2475145326
 20
11.127273975
 40
0.3
100
AcDbArc
 50
122.9110504061
 51
180.0
  0
ARC
  5
297
100
AcDbEntity
  8
0
100
AcDbCircle
 62
7
  6
BYLAYER
 10
12.3272066503
 20
8.7501528523
 40
0.1808081466
100
AcDbArc
 50
243.8479280978
 51
247.1381470997
  0
ARC
  5
298
100
AcDbEntity
  8
0
100
AcDbCircle
 62
7
  6
BYLAYER
 10
10.1555081666
 20
14.6213040337
 40
5.9226719768
100
AcDbArc
 50
110.8498114381
 51
111.8015269352
  0
ARC
  5
299
100
AcDbEntity
  8
0
100
AcDbCircle
 62
7
  6
BYLAYER
 10
10.1480943782
 20
14.6433070174
 40
5.8990565879
100
AcDbArc
 50
50.5180256577
 51
68.2035005242
  0
ARC
  5
29A
100
AcDbEntity
  8
0
100
AcDbCircle
 62
7
  6
BYLAYER
 10
10.2310182162
 20
14.6239859764
 40
3.8619650562
100
AcDbArc
 50
124.4291488456
 51
131.9675936381
  0
ARC
  5
29B
100
AcDbEntity
  8
0
100
AcDbCircle
 62
7
  6
BYLAYER
 10
12.2475145326
 20
19.8856161142
 40
0.3
100
AcDbArc
 50
69.149412216
 51
180.0
  0
ARC
  5
29C
100
AcDbEntity
  8
0
100
AcDbCircle
 62
7
  6
BYLAYER
 10
12.2475145326
 20
17.6167192518
 40
0.3
100
AcDbArc
 50
180.0
 51
237.0889515561
  0
ARC
  5
29D
100
AcDbEntity
  8
0
100
AcDbCircle
 62
7
  6
BYLAYER
 10
12.3277634832
 20
19.9926207255
 40
0.1821482904
100
AcDbArc
 50
112.8739068078
 51
116.1401410804
  0
SPLINE
  5
29E
100
AcDbEntity
  8
0
100
AcDbSpline
 62
7
  6
BYLAYER
 70
0
 71
3
 72
10
 73
6
 74
0
 42
0.0000001
 43
0.0000001
 44
0.0000000001
 40
0.0
 40
0.0
 40
0.0
 40
0.0
 40
0.2810145869
 40
0.5429245944
 40
1.0
 40
1.0
 40
1.0
 40
1.0
 10
15.2580918447
 20
17.4954464923
 30
0.0
 10
15.1601221531
 20
17.6753717662
 30
0.0
 10
14.9537226723
 20
18.0140481178
 30
0.0
 10
14.5169198003
 20
18.5985832718
 30
0.0
 10
14.1499753392
 20
18.9772286578
 30
0.0
 10
13.898903267
 20
19.1963180042
 30
0.0
  0
SPLINE
  5
29F
100
AcDbEntity
  8
0
100
AcDbSpline
 62
7
  6
BYLAYER
 70
0
 71
3
 72
16
 73
12
 74
0
 42
0.0000001
 43
0.0000001
 44
0.0000000001
 40
0.0
 40
0.0
 40
0.0
 40
0.0
 40
0.1184818409
 40
0.2381885094
 40
0.3596042763
 40
0.4834023636
 40
0.6097083091
 40
0.6738007047
 40
0.7384226746
 40
0.8688719036
 40
1.0
 40
1.0
 40
1.0
 40
1.0
 10
8.3475145326
 20
8.8583771126
 30
0.0
 10
8.3475145326
 20
8.8406948635
 30
0.0
 10
8.3435793609
 20
8.8050332721
 30
0.0
 10
8.3263101961
 20
8.7538085569
 30
0.0
 10
8.2982421333
 20
8.7066680685
 30
0.0
 10
8.2605766483
 20
8.6654944594
 30
0.0
 10
8.2225987605
 20
8.6374675361
 30
0.0
 10
8.1890654049
 20
8.6193708863
 30
0.0
 10
8.1534420149
 20
8.6041783957
 30
0.0
 10
8.1062007631
 20
8.5913373104
 30
0.0
 10
8.0670841109
 20
8.5878544177
 30
0.0
 10
8.0475145326
 20
8.5878544177
 30
0.0
  0
SPLINE
  5
2A0
100
AcDbEntity
  8
0
100
AcDbSpline
 62
7
  6
BYLAYER
 70
0
 71
3
 72
11
 73
7
 74
0
 42
0.0000001
 43
0.0000001
 44
0.0000000001
 40
0.0
 40
0.0
 40
0.0
 40
0.0
 40
0.2672898856
 40
0.5216675455
 40
0.7647300965
 40
1.0
 40
1.0
 40
1.0
 40
1.0
 10
12.2569616429
 20
20.1604453337
 30
0.0
 10
12.2651490908
 20
20.1638963736
 30
0.0
 10
12.2816685201
 20
20.1694470246
 30
0.0
 10
12.3069083288
 20
20.1734217907
 30
0.0
 10
12.3314056192
 20
20.1726508377
 30
0.0
 10
12.3469867299
 20
20.1687568941
 30
0.0
 10
12.3542953675
 20
20.1659736361
 30
0.0
  0
SPLINE
  5
2A1
100
AcDbEntity
  8
0
100
AcDbSpline
 62
7
  6
BYLAYER
 70
0
 71
3
 72
16
 73
12
 74
0
 42
0.0000001
 43
0.0000001
 44
0.0000000001
 40
0.0
 40
0.0
 40
0.0
 40
0.0
 40
0.1184818409
 40
0.2381885094
 40
0.3596042763
 40
0.4834023636
 40
0.6097083091
 40
0.6738007047
 40
0.7384226746
 40
0.8688719036
 40
1.0
 40
1.0
 40
1.0
 40
1.0
 10
11.9475145326
 20
19.8856161142
 30
0.0
 10
11.9475145326
 20
19.9032983633
 30
0.0
 10
11.9514497043
 20
19.9389599547
 30
0.0
 10
11.9687188692
 20
19.9901846699
 30
0.0
 10
11.996786932
 20
20.0373251583
 30
0.0
 10
12.0344524169
 20
20.0784987674
 30
0.0
 10
12.0724303047
 20
20.1065256906
 30
0.0
 10
12.1059636603
 20
20.1246223405
 30
0.0
 10
12.1415870504
 20
20.1398148311
 30
0.0
 10
12.1888283022
 20
20.1526559164
 30
0.0
 10
12.2279449543
 20
20.156138809
 30
0.0
 10
12.2475145326
 20
20.156138809
 30
0.0
  0
SPLINE
  5
2A2
100
AcDbEntity
  8
0
100
AcDbSpline
 62
7
  6
BYLAYER
 70
0
 71
3
 72
11
 73
7
 74
0
 42
0.0000001
 43
0.0000001
 44
0.0000000001
 40
0.0
 40
0.0
 40
0.0
 40
0.0
 40
0.262082356
 40
0.5176140553
 40
0.763625221
 40
1.0
 40
1.0
 40
1.0
 40
1.0
 10
13.8989014147
 20
19.1963176968
 30
0.0
 10
13.9160464959
 20
19.2002068639
 30
0.0
 10
13.9507496273
 20
19.2046134399
 30
0.0
 10
14.002239908
 20
19.2005292664
 30
0.0
 10
14.0496776516
 20
19.1848253472
 30
0.0
 10
14.077413903
 20
19.1674267169
 30
0.0
 10
14.08965221
 20
19.1573449465
 30
0.0
  0
SPLINE
  5
2A3
100
AcDbEntity
  8
0
100
AcDbSpline
 62
7
  6
BYLAYER
 70
0
 71
3
 72
15
 73
11
 74
0
 42
0.0000001
 43
0.0000001
 44
0.0000000001
 40
0.0
 40
0.0
 40
0.0
 40
0.0
 40
0.0866580846
 40
0.1817856201
 40
0.2894057595
 40
0.4110756563
 40
0.5464275777
 40
0.6925402023
 40
0.8452573547
 40
1.0
 40
1.0
 40
1.0
 40
1.0
 10
15.5178943006
 20
17.4702205552
 30
0.0
 10
15.513846114
 20
17.4772408832
 30
0.0
 10
15.5030937857
 20
17.4907577255
 30
0.0
 10
15.4807993006
 20
17.5066367138
 30
0.0
 10
15.4522784754
 20
17.5177027876
 30
0.0
 10
15.4185251549
 20
17.5236652072
 30
0.0
 10
15.380693398
 20
17.5240649218
 30
0.0
 10
15.3402756523
 20
17.5193169305
 30
0.0
 10
15.2988905345
 20
17.5096984779
 30
0.0
 10
15.2715660815
 20
17.5006155431
 30
0.0
 10
15.2580400838
 20
17.495472332
 30
0.0
  0
SPLINE
  5
2A4
100
AcDbEntity
  8
0
100
AcDbSpline
 62
7
  6
BYLAYER
 70
0
 71
3
 72
10
 73
6
 74
0
 42
0.0000001
 43
0.0000001
 44
0.0000000001
 40
0.0
 40
0.0
 40
0.0
 40
0.0
 40
0.4570765621
 40
0.7189863378
 40
1.0
 40
1.0
 40
1.0
 40
1.0
 10
6.3961257983
 20
19.1963180042
 30
0.0
 10
6.1450531214
 20
18.9772280768
 30
0.0
 10
5.7781101115
 20
18.5985806315
 30
0.0
 10
5.3413037067
 20
18.0140480807
 30
0.0
 10
5.1349067648
 20
17.6753711027
 30
0.0
 10
5.0369373324
 20
17.4954464593
 30
0.0
  0
SPLINE
  5
2A5
100
AcDbEntity
  8
0
100
AcDbSpline
 62
7
  6
BYLAYER
 70
0
 71
3
 72
19
 73
15
 74
0
 42
0.0000001
 43
0.0000001
 44
0.0000000001
 40
0.0
 40
0.0
 40
0.0
 40
0.0
 40
0.1337607548
 40
0.2766757219
 40
0.3499237936
 40
0.4230750475
 40
0.4950258979
 40
0.5647678767
 40
0.6947621966
 40
0.7545393309
 40
0.8104051664
 40
0.8623503993
 40
0.9109553581
 40
1.0
 40
1.0
 40
1.0
 40
1.0
 10
15.8404923989
 20
15.7191119305
 30
0.0
 10
15.8602502567
 20
15.7220490634
 30
0.0
 10
15.9007390601
 20
15.7309189053
 30
0.0
 10
15.9500219163
 20
15.7488668612
 30
0.0
 10
15.9886760547
 20
15.7682569141
 30
0.0
 10
16.0166208818
 20
15.7851242533
 30
0.0
 10
16.0426673388
 20
15.8039336334
 30
0.0
 10
16.0732940995
 20
15.8306037831
 30
0.0
 10
16.098525668
 20
15.8605128426
 30
0.0
 10
16.1169542109
 20
15.8923136679
 30
0.0
 10
16.1267261351
 20
15.9154370127
 30
0.0
 10
16.1326631803
 20
15.9381234991
 30
0.0
 10
16.1357394064
 20
15.9663353532
 30
0.0
 10
16.1334542578
 20
15.9871615412
 30
0.0
 10
16.1299587055
 20
15.9999912273
 30
0.0
  0
SPLINE
  5
2A6
100
AcDbEntity
  8
0
100
AcDbSpline
 62
7
  6
BYLAYER
 70
0
 71
3
 72
18
 73
14
 74
0
 42
0.0000001
 43
0.0000001
 44
0.0000000001
 40
0.0
 40
0.0
 40
0.0
 40
0.0
 40
0.1458264364
 40
0.2910623667
 40
0.4316801252
 40
0.5644883729
 40
0.6272603312
 40
0.6873732039
 40
0.7995021765
 40
0.852066184
 40
0.9026332037
 40
0.9517268
 40
1.0
 40
1.0
 40
1.0
 40
1.0
 10
15.8404926636
 20
13.024870793
 30
0.0
 10
15.8620316148
 20
13.0216690392
 30
0.0
 10
15.904623029
 20
13.0121609035
 30
0.0
 10
15.9650648666
 20
12.9891167661
 30
0.0
 10
16.0197279513
 20
12.9583002986
 30
0.0
 10
16.0592119077
 20
12.9268502147
 30
0.0
 10
16.0854320781
 20
12.89900782
 30
0.0
 10
16.1067995868
 20
12.8711229813
 30
0.0
 10
16.1227446412
 20
12.8411177443
 30
0.0
 10
16.1317677879
 20
12.8101700436
 30
0.0
 10
16.1349064384
 20
12.787565679
 30
0.0
 10
16.134503983
 20
12.7653901068
 30
0.0
 10
16.1318656656
 20
12.7510118416
 30
0.0
 10
16.1299730842
 20
12.7440563026
 30
0.0
  0
SPLINE
  5
2A7
100
AcDbEntity
  8
0
100
AcDbSpline
 62
7
  6
BYLAYER
 70
0
 71
3
 72
15
 73
11
 74
0
 42
0.0000001
 43
0.0000001
 44
0.0000000001
 40
0.0
 40
0.0
 40
0.0
 40
0.0
 40
0.1547379728
 40
0.307453151
 40
0.4535663327
 40
0.5889199663
 40
0.7105919049
 40
0.8182135353
 40
0.9133416719
 40
1.0
 40
1.0
 40
1.0
 40
1.0
 10
15.2580196689
 20
11.2485332523
 30
0.0
 10
15.2715461966
 20
11.243389187
 30
0.0
 10
15.298871987
 20
11.2343044569
 30
0.0
 10
15.3402596692
 20
11.2246835214
 30
0.0
 10
15.3806806784
 20
11.2199333174
 30
0.0
 10
15.4185160958
 20
11.2203313588
 30
0.0
 10
15.452273031
 20
11.2262930002
 30
0.0
 10
15.4807970912
 20
11.2373591168
 30
0.0
 10
15.5030939711
 20
11.2532392405
 30
0.0
 10
15.5138472129
 20
11.266757409
 30
0.0
 10
15.5178955992
 20
11.2737784472
 30
0.0
  0
SPLINE
  5
2A8
100
AcDbEntity
  8
0
100
AcDbSpline
 62
7
  6
BYLAYER
 70
0
 71
3
 72
11
 73
7
 74
0
 42
0.0000001
 43
0.0000001
 44
0.0000000001
 40
0.0
 40
0.0
 40
0.0
 40
0.0
 40
0.2714171137
 40
0.5296618928
 40
0.7721365503
 40
1.0
 40
1.0
 40
1.0
 40
1.0
 10
13.8989037516
 20
9.5476694291
 30
0.0
 10
13.9166596486
 20
9.5436426463
 30
0.0
 10
13.9522116067
 20
9.5392761454
 30
0.0
 10
14.0042442231
 20
9.543875615
 30
0.0
 10
14.0509300825
 20
9.5598256099
 30
0.0
 10
14.0778512901
 20
9.5769325574
 30
0.0
 10
14.0896483569
 20
9.5866519189
 30
0.0
  0
SPLINE
  5
2A9
100
AcDbEntity
  8
0
100
AcDbSpline
 62
7
  6
BYLAYER
 70
0
 71
3
 72
16
 73
12
 74
0
 42
0.0000001
 43
0.0000001
 44
0.0000000001
 40
0.0
 40
0.0
 40
0.0
 40
0.0
 40
0.1311283322
 40
0.2615779736
 40
0.3262000009
 40
0.3902923755
 40
0.5165981696
 40
0.6403961244
 40
0.7618117008
 40
0.8815182034
 40
1.0
 40
1.0
 40
1.0
 40
1.0
 10
8.0475145326
 20
20.156138809
 30
0.0
 10
8.0670841461
 20
20.156138809
 30
0.0
 10
8.1062008867
 20
20.1526558403
 30
0.0
 10
8.1534422535
 20
20.1398147772
 30
0.0
 10
8.1890656873
 20
20.1246222128
 30
0.0
 10
8.222599005
 20
20.1065255308
 30
0.0
 10
8.2605768322
 20
20.0784986036
 30
0.0
 10
8.2982422337
 20
20.0373250147
 30
0.0
 10
8.3263102324
 20
19.9901845765
 30
0.0
 10
8.3435793758
 20
19.9389599179
 30
0.0
 10
8.3475145326
 20
19.9032983567
 30
0.0
 10
8.3475145326
 20
19.8856161142
 30
0.0
  0
SPLINE
  5
2AA
100
AcDbEntity
  8
0
100
AcDbSpline
 62
7
  6
BYLAYER
 70
0
 71
3
 72
11
 73
7
 74
0
 42
0.0000001
 43
0.0000001
 44
0.0000000001
 40
0.0
 40
0.0
 40
0.0
 40
0.0
 40
0.2352699554
 40
0.4783324654
 40
0.7327100936
 40
1.0
 40
1.0
 40
1.0
 40
1.0
 10
12.3542953153
 20
8.5780201268
 30
0.0
 10
12.3469866326
 20
8.5752367914
 30
0.0
 10
12.3314054059
 20
8.5713427207
 30
0.0
 10
12.3069079026
 20
8.570571676
 30
0.0
 10
12.281667868
 20
8.5745464398
 30
0.0
 10
12.2651482951
 20
8.5800971428
 30
0.0
 10
12.2569607786
 20
8.5835482203
 30
0.0
  0
SPLINE
  5
2AB
100
AcDbEntity
  8
0
100
AcDbSpline
 62
7
  6
BYLAYER
 70
0
 71
3
 72
16
 73
12
 74
0
 42
0.0000001
 43
0.0000001
 44
0.0000000001
 40
0.0
 40
0.0
 40
0.0
 40
0.0
 40
0.1184817966
 40
0.2381882992
 40
0.3596038756
 40
0.4834018304
 40
0.6097076245
 40
0.6737999991
 40
0.7384220264
 40
0.8688716678
 40
1.0
 40
1.0
 40
1.0
 40
1.0
 10
11.9475145326
 20
9.8181979174
 30
0.0
 10
11.9475145326
 20
9.800515675
 30
0.0
 10
11.9514496895
 20
9.7648541138
 30
0.0
 10
11.9687188329
 20
9.7136294551
 30
0.0
 10
11.9967868316
 20
9.666489017
 30
0.0
 10
12.034452233
 20
9.6253154281
 30
0.0
 10
12.0724300602
 20
9.5972885009
 30
0.0
 10
12.105963378
 20
9.5791918188
 30
0.0
 10
12.1415868117
 20
9.5639992545
 30
0.0
 10
12.1888281785
 20
9.5511581914
 30
0.0
 10
12.2279449192
 20
9.5476752226
 30
0.0
 10
12.2475145326
 20
9.5476752226
 30
0.0
  0
SPLINE
  5
2AC
100
AcDbEntity
  8
0
100
AcDbSpline
 62
7
  6
BYLAYER
 70
0
 71
3
 72
16
 73
12
 74
0
 42
0.0000001
 43
0.0000001
 44
0.0000000001
 40
0.0
 40
0.0
 40
0.0
 40
0.0
 40
0.1311283322
 40
0.2615779736
 40
0.3262000009
 40
0.3902923755
 40
0.5165981696
 40
0.6403961244
 40
0.7618117008
 40
0.8815182034
 40
1.0
 40
1.0
 40
1.0
 40
1.0
 10
12.2475145326
 20
8.5878544177
 30
0.0
 10
12.2279449192
 20
8.5878544177
 30
0.0
 10
12.1888281785
 20
8.5913373865
 30
0.0
 10
12.1415868117
 20
8.6041784496
 30
0.0
 10
12.105963378
 20
8.619371014
 30
0.0
 10
12.0724300602
 20
8.637467696
 30
0.0
 10
12.034452233
 20
8.6654946232
 30
0.0
 10
11.9967868316
 20
8.7066682121
 30
0.0
 10
11.9687188329
 20
8.7538086503
 30
0.0
 10
11.9514496895
 20
8.8050333089
 30
0.0
 10
11.9475145326
 20
8.8406948701
 30
0.0
 10
11.9475145326
 20
8.8583771126
 30
0.0
  0
SPLINE
  5
2AD
100
AcDbEntity
  8
0
100
AcDbSpline
 62
7
  6
BYLAYER
 70
0
 71
3
 72
16
 73
12
 74
0
 42
0.0000001
 43
0.0000001
 44
0.0000000001
 40
0.0
 40
0.0
 40
0.0
 40
0.0
 40
0.1311283322
 40
0.2615779736
 40
0.3262000009
 40
0.3902923755
 40
0.5165981696
 40
0.6403961244
 40
0.7618117008
 40
0.8815182034
 40
1.0
 40
1.0
 40
1.0
 40
1.0
 10
12.2475145326
 20
19.1963180042
 30
0.0
 10
12.2279449192
 20
19.1963180042
 30
0.0
 10
12.1888281785
 20
19.1928350355
 30
0.0
 10
12.1415868117
 20
19.1799939724
 30
0.0
 10
12.105963378
 20
19.164801408
 30
0.0
 10
12.0724300602
 20
19.146704726
 30
0.0
 10
12.034452233
 20
19.1186777988
 30
0.0
 10
11.9967868316
 20
19.0775042099
 30
0.0
 10
11.9687188329
 20
19.0303637717
 30
0.0
 10
11.9514496895
 20
18.9791391131
 30
0.0
 10
11.9475145326
 20
18.9434775519
 30
0.0
 10
11.9475145326
 20
18.9257953094
 30
0.0
  0
SPLINE
  5
2AE
100
AcDbEntity
  8
0
100
AcDbSpline
 62
7
  6
BYLAYER
 70
0
 71
3
 72
15
 73
11
 74
0
 42
0.0000001
 43
0.0000001
 44
0.0000000001
 40
0.0
 40
0.0
 40
0.0
 40
0.0
 40
0.1498659553
 40
0.296670425
 40
0.4369189517
 40
0.5683603255
 40
0.6895728107
 40
0.800443529
 40
0.9027930995
 40
1.0
 40
1.0
 40
1.0
 40
1.0
 10
12.2475727194
 20
17.8094791342
 30
0.0
 10
12.228038734
 20
17.8094798876
 30
0.0
 10
12.1893255629
 20
17.8070514001
 30
0.0
 10
12.1332430519
 20
17.7962889862
 30
0.0
 10
12.081402352
 20
17.7787122919
 30
0.0
 10
12.0357686667
 20
17.7549759653
 30
0.0
 10
11.9979710211
 20
17.7259277244
 30
0.0
 10
11.9694845977
 20
17.6924086253
 30
0.0
 10
11.9516574901
 20
17.6555473587
 30
0.0
 10
11.9475145326
 20
17.6293894955
 30
0.0
 10
11.9475145326
 20
17.6167192518
 30
0.0
  0
SPLINE
  5
2AF
100
AcDbEntity
  8
0
100
AcDbSpline
 62
7
  6
BYLAYER
 70
0
 71
3
 72
11
 73
7
 74
0
 42
0.0000001
 43
0.0000001
 44
0.0000000001
 40
0.0
 40
0.0
 40
0.0
 40
0.0
 40
0.2352697524
 40
0.4783322454
 40
0.7327099618
 40
1.0
 40
1.0
 40
1.0
 40
1.0
 10
7.9407337088
 20
20.1659736386
 30
0.0
 10
7.9480424053
 20
20.1687569173
 30
0.0
 10
7.9636236502
 20
20.1726508752
 30
0.0
 10
7.9881211503
 20
20.1734217712
 30
0.0
 10
8.0133611684
 20
20.1694468796
 30
0.0
 10
8.0298807234
 20
20.1638961071
 30
0.0
 10
8.0380682306
 20
20.1604449976
 30
0.0
  0
SPLINE
  5
2B0
100
AcDbEntity
  8
0
100
AcDbSpline
 62
7
  6
BYLAYER
 70
0
 71
3
 72
20
 73
16
 74
0
 42
0.0000001
 43
0.0000001
 44
0.0000000001
 40
0.0
 40
0.0
 40
0.0
 40
0.0
 40
0.0704786059
 40
0.1447320083
 40
0.2996536845
 40
0.4557187473
 40
0.6038615903
 40
0.6723634492
 40
0.735928675
 40
0.7938995762
 40
0.8458134584
 40
0.8916019757
 40
0.9317018393
 40
0.9672096677
 40
1.0
 40
1.0
 40
1.0
 40
1.0
 10
12.2475727194
 20
17.8094791342
 30
0.0
 10
12.2386867938
 20
17.8014160526
 30
0.0
 10
12.2210606565
 20
17.7841637755
 30
0.0
 10
12.1869423467
 20
17.7462014674
 30
0.0
 10
12.1475692015
 20
17.6935492927
 30
0.0
 10
12.1077162274
 20
17.6261461577
 30
0.0
 10
12.0816758971
 20
17.5680826402
 30
0.0
 10
12.0667139824
 20
17.5227443575
 30
0.0
 10
12.0589897312
 20
17.4912869546
 30
0.0
 10
12.0545607947
 20
17.4620427237
 30
0.0
 10
12.0535136352
 20
17.4354924928
 30
0.0
 10
12.0558837513
 20
17.4120548117
 30
0.0
 10
12.0617187046
 20
17.3920662895
 30
0.0
 10
12.0710901004
 20
17.3759188421
 30
0.0
 10
12.0798254306
 20
17.3678945625
 30
0.0
 10
12.0845140265
 20
17.3648644783
 30
0.0
  0
SPLINE
  5
2B1
100
AcDbEntity
  8
0
100
AcDbSpline
 62
7
  6
BYLAYER
 70
0
 71
3
 72
23
 73
19
 74
0
 42
0.0000001
 43
0.0000001
 44
0.0000000001
 40
0.0
 40
0.0
 40
0.0
 40
0.0
 40
0.0736970015
 40
0.1502103639
 40
0.2283819516
 40
0.3071903872
 40
0.3856101686
 40
0.4625964969
 40
0.5371674333
 40
0.6084295246
 40
0.6755337258
 40
0.7376833133
 40
0.7943766388
 40
0.8453764783
 40
0.890738519
 40
0.9308523961
 40
0.9666936136
 40
1.0
 40
1.0
 40
1.0
 40
1.0
 10
12.6466648373
 20
17.4955400161
 30
0.0
 10
12.6372947445
 20
17.4882529252
 30
0.0
 10
12.6186422024
 20
17.4728191784
 30
0.0
 10
12.5916851715
 20
17.4477598411
 30
0.0
 10
12.5657316631
 20
17.4205114817
 30
0.0
 10
12.5411366016
 20
17.3916338338
 30
0.0
 10
12.518112467
 20
17.3617321976
 30
0.0
 10
12.4969919933
 20
17.3312806967
 30
0.0
 10
12.4782702128
 20
17.3006338583
 30
0.0
 10
12.4623750898
 20
17.2702121644
 30
0.0
 10
12.449424648
 20
17.24059583
 30
0.0
 10
12.4395324675
 20
17.2122914789
 30
0.0
 10
12.4328760319
 20
17.1857089731
 30
0.0
 10
12.4296742167
 20
17.1611967214
 30
0.0
 10
12.4299804825
 20
17.1391253461
 30
0.0
 10
12.4337721478
 20
17.1198167616
 30
0.0
 10
12.4411018977
 20
17.103615012
 30
0.0
 10
12.4484827251
 20
17.0950128269
 30
0.0
 10
12.4525734296
 20
17.0915422955
 30
0.0
  0
SPLINE
  5
2B2
100
AcDbEntity
  8
0
100
AcDbSpline
 62
7
  6
BYLAYER
 70
0
 71
3
 72
15
 73
11
 74
0
 42
0.0000001
 43
0.0000001
 44
0.0000000001
 40
0.0
 40
0.0
 40
0.0
 40
0.0
 40
0.1388197597
 40
0.2792791045
 40
0.4179664798
 40
0.5512444959
 40
0.6764111437
 40
0.7923604083
 40
0.8994697193
 40
1.0
 40
1.0
 40
1.0
 40
1.0
 10
13.6884372914
 20
15.7191094941
 30
0.0
 10
13.6745111283
 20
15.7157814675
 30
0.0
 10
13.6461431107
 20
15.7104634726
 30
0.0
 10
13.6030733422
 20
15.707057692
 30
0.0
 10
13.5604586623
 20
15.7090097972
 30
0.0
 10
13.5200329095
 20
15.7165841484
 30
0.0
 10
13.4836592999
 20
15.7301642398
 30
0.0
 10
13.4528113101
 20
15.7491003919
 30
0.0
 10
13.4289386257
 20
15.7728676077
 30
0.0
 10
13.417759438
 20
15.7914412691
 30
0.0
 10
13.4136039738
 20
15.8009411852
 30
0.0
  0
SPLINE
  5
2B3
100
AcDbEntity
  8
0
100
AcDbSpline
 62
7
  6
BYLAYER
 70
0
 71
3
 72
15
 73
11
 74
0
 42
0.0000001
 43
0.0000001
 44
0.0000000001
 40
0.0
 40
0.0
 40
0.0
 40
0.0
 40
0.1388176784
 40
0.2792760684
 40
0.4179634322
 40
0.5512421875
 40
0.6764098141
 40
0.7923599724
 40
0.8994697365
 40
1.0
 40
1.0
 40
1.0
 40
1.0
 10
13.6884508883
 20
13.0248800285
 30
0.0
 10
13.6745245514
 20
13.0282085806
 30
0.0
 10
13.6461560116
 20
13.0335276154
 30
0.0
 10
13.6030851537
 20
13.036934957
 30
0.0
 10
13.5604689264
 20
13.0349842634
 30
0.0
 10
13.5200412965
 20
13.0274111059
 30
0.0
 10
13.483665629
 20
13.013831835
 30
0.0
 10
13.4528156132
 20
12.9948960771
 30
0.0
 10
13.4289410923
 20
12.9711288081
 30
0.0
 10
13.4177609079
 20
12.9525547829
 30
0.0
 10
13.4136050358
 20
12.9430546474
 30
0.0
  0
SPLINE
  5
2B4
100
AcDbEntity
  8
0
100
AcDbSpline
 62
7
  6
BYLAYER
 70
0
 71
3
 72
11
 73
7
 74
0
 42
0.0000001
 43
0.0000001
 44
0.0000000001
 40
0.0
 40
0.0
 40
0.0
 40
0.0
 40
0.271417918
 40
0.5296631325
 40
0.7721376243
 40
1.0
 40
1.0
 40
1.0
 40
1.0
 10
6.3961257233
 20
19.1963196672
 30
0.0
 10
6.3783702599
 20
19.2003468788
 30
0.0
 10
6.3428191297
 20
19.2047144494
 30
0.0
 10
6.2907873834
 20
19.2001172443
 30
0.0
 10
6.2441017387
 20
19.1841701289
 30
0.0
 10
6.2171800966
 20
19.1670653178
 30
0.0
 10
6.2053826734
 20
19.1573470066
 30
0.0
  0
SPLINE
  5
2B5
100
AcDbEntity
  8
0
100
AcDbSpline
 62
7
  6
BYLAYER
 70
0
 71
3
 72
23
 73
19
 74
0
 42
0.0000001
 43
0.0000001
 44
0.0000000001
 40
0.0
 40
0.0
 40
0.0
 40
0.0
 40
0.073697906
 40
0.1502033825
 40
0.2283587392
 40
0.3071555599
 40
0.385568478
 40
0.462549626
 40
0.5371179019
 40
0.6083827606
 40
0.6754875869
 40
0.7376424733
 40
0.7943517879
 40
0.8453624269
 40
0.8907235222
 40
0.9308305349
 40
0.9666779591
 40
1.0
 40
1.0
 40
1.0
 40
1.0
 10
12.6466649707
 20
11.2484521589
 30
0.0
 10
12.6372947861
 20
11.255739316
 30
0.0
 10
12.6186340709
 20
11.2711606664
 30
0.0
 10
12.5916652167
 20
11.2962026218
 30
0.0
 10
12.565731628
 20
11.3234627502
 30
0.0
 10
12.5411612385
 20
11.3523533983
 30
0.0
 10
12.5181348247
 20
11.3822476785
 30
0.0
 10
12.4970001634
 20
11.4126865589
 30
0.0
 10
12.4782810713
 20
11.4433343544
 30
0.0
 10
12.462388873
 20
11.4737573635
 30
0.0
 10
12.4494325466
 20
11.5033724705
 30
0.0
 10
12.439537433
 20
11.5316796311
 30
0.0
 10
12.4328850804
 20
11.5582687713
 30
0.0
 10
12.4296881512
 20
11.5827851217
 30
0.0
 10
12.4299809087
 20
11.6048566819
 30
0.0
 10
12.4337659504
 20
11.6241668281
 30
0.0
 10
12.4410957598
 20
11.6403713502
 30
0.0
 10
12.4484784424
 20
11.6489766932
 30
0.0
 10
12.4525710222
 20
11.6524488887
 30
0.0
  0
SPLINE
  5
2B6
100
AcDbEntity
  8
0
100
AcDbSpline
 62
7
  6
BYLAYER
 70
0
 71
3
 72
20
 73
16
 74
0
 42
0.0000001
 43
0.0000001
 44
0.0000000001
 40
0.0
 40
0.0
 40
0.0
 40
0.0
 40
0.0704786127
 40
0.1447317336
 40
0.2996580308
 40
0.4557309717
 40
0.6038810008
 40
0.6723852066
 40
0.7359512633
 40
0.7939217607
 40
0.845837342
 40
0.8916253737
 40
0.9317220656
 40
0.9672210919
 40
1.0
 40
1.0
 40
1.0
 40
1.0
 10
12.2475748165
 20
10.9345139453
 30
0.0
 10
12.2386886321
 20
10.9425767383
 30
0.0
 10
12.2210619479
 20
10.9598283832
 30
0.0
 10
12.1869424065
 20
10.9977905981
 30
0.0
 10
12.1475687881
 20
11.050445053
 30
0.0
 10
12.1077140275
 20
11.1178509193
 30
0.0
 10
12.0816723956
 20
11.1759171897
 30
0.0
 10
12.066710999
 20
11.2212574559
 30
0.0
 10
12.0589866222
 20
11.2527153605
 30
0.0
 10
12.0545602092
 20
11.2819603378
 30
0.0
 10
12.0535154562
 20
11.3085109418
 30
0.0
 10
12.055890675
 20
11.3319476822
 30
0.0
 10
12.0617250206
 20
11.3519338819
 30
0.0
 10
12.0710939049
 20
11.368078232
 30
0.0
 10
12.0798269919
 20
11.3760997968
 30
0.0
 10
12.0845140096
 20
11.3791287367
 30
0.0
  0
SPLINE
  5
2B7
100
AcDbEntity
  8
0
100
AcDbSpline
 62
7
  6
BYLAYER
 70
0
 71
3
 72
15
 73
11
 74
0
 42
0.0000001
 43
0.0000001
 44
0.0000000001
 40
0.0
 40
0.0
 40
0.0
 40
0.0
 40
0.0972067995
 40
0.1995562839
 40
0.3104269758
 40
0.4316395031
 40
0.5630809301
 40
0.703329519
 40
0.8501340752
 40
1.0
 40
1.0
 40
1.0
 40
1.0
 10
11.9475145326
 20
11.127273975
 30
0.0
 10
11.9475145326
 20
11.1146036764
 30
0.0
 10
11.9516575224
 20
11.0884456951
 30
0.0
 10
11.969484789
 20
11.0515842879
 30
0.0
 10
11.9979714448
 20
11.0180650869
 30
0.0
 10
12.0357693864
 20
10.9890167941
 30
0.0
 10
12.0814034119
 20
10.9652804761
 30
0.0
 10
12.1332444782
 20
10.9477038618
 30
0.0
 10
12.1893273416
 20
10.9369415826
 30
0.0
 10
12.2280407301
 20
10.9345131648
 30
0.0
 10
12.2475748165
 20
10.9345139453
 30
0.0
  0
SPLINE
  5
2B8
100
AcDbEntity
  8
0
100
AcDbSpline
 62
7
  6
BYLAYER
 70
0
 71
3
 72
15
 73
11
 74
0
 42
0.0000001
 43
0.0000001
 44
0.0000000001
 40
0.0
 40
0.0
 40
0.0
 40
0.0
 40
0.154732876
 40
0.3074413561
 40
0.4535485601
 40
0.5889001112
 40
0.7105745171
 40
0.8182026045
 40
0.9133378515
 40
1.0
 40
1.0
 40
1.0
 40
1.0
 10
5.0369850555
 20
17.495474221
 30
0.0
 10
5.0234618908
 20
17.5006162218
 30
0.0
 10
4.9961431801
 20
17.509697244
 30
0.0
 10
4.9547666683
 20
17.5193146262
 30
0.0
 10
4.9143565987
 20
17.5240637237
 30
0.0
 10
4.8765306801
 20
17.5236674785
 30
0.0
 10
4.8427805258
 20
17.5177108272
 30
0.0
 10
4.8142598695
 20
17.506652364
 30
0.0
 10
4.7919619555
 20
17.4907824436
 30
0.0
 10
4.7812048552
 20
17.4772714525
 30
0.0
 10
4.7771538488
 20
17.4702537121
 30
0.0
  0
SPLINE
  5
2B9
100
AcDbEntity
  8
0
100
AcDbSpline
 62
7
  6
BYLAYER
 70
0
 71
3
 72
16
 73
12
 74
0
 42
0.0000001
 43
0.0000001
 44
0.0000000001
 40
0.0
 40
0.0
 40
0.0
 40
0.0
 40
0.1311283322
 40
0.2615779736
 40
0.3262000009
 40
0.3902923755
 40
0.5165981696
 40
0.6403961244
 40
0.7618117008
 40
0.8815182034
 40
1.0
 40
1.0
 40
1.0
 40
1.0
 10
8.0475145326
 20
9.5476752225
 30
0.0
 10
8.0670841461
 20
9.5476752225
 30
0.0
 10
8.1062008867
 20
9.5511581913
 30
0.0
 10
8.1534422535
 20
9.5639992544
 30
0.0
 10
8.1890656873
 20
9.5791918187
 30
0.0
 10
8.222599005
 20
9.5972885008
 30
0.0
 10
8.2605768322
 20
9.625315428
 30
0.0
 10
8.2982422337
 20
9.6664890169
 30
0.0
 10
8.3263102324
 20
9.7136294551
 30
0.0
 10
8.3435793758
 20
9.7648541137
 30
0.0
 10
8.3475145326
 20
9.8005156749
 30
0.0
 10
8.3475145326
 20
9.8181979173
 30
0.0
  0
SPLINE
  5
2BA
100
AcDbEntity
  8
0
100
AcDbSpline
 62
7
  6
BYLAYER
 70
0
 71
3
 72
15
 73
11
 74
0
 42
0.0000001
 43
0.0000001
 44
0.0000000001
 40
0.0
 40
0.0
 40
0.0
 40
0.0
 40
0.1498659405
 40
0.2966704224
 40
0.4369189621
 40
0.5683603524
 40
0.6895728519
 40
0.80044357
 40
0.9027931248
 40
1.0
 40
1.0
 40
1.0
 40
1.0
 10
8.0474557431
 20
10.9345140503
 30
0.0
 10
8.0669897567
 20
10.9345132891
 30
0.0
 10
8.105702988
 20
10.9369417556
 30
0.0
 10
8.1617855971
 20
10.9477041309
 30
0.0
 10
8.213626401
 20
10.965280799
 30
0.0
 10
8.259260185
 20
10.9890171214
 30
0.0
 10
8.2970579173
 20
11.0180653774
 30
0.0
 10
8.3255444104
 20
11.0515845067
 30
0.0
 10
8.3433715641
 20
11.0884458165
 30
0.0
 10
8.3475145326
 20
11.114603715
 30
0.0
 10
8.3475145326
 20
11.127273975
 30
0.0
  0
SPLINE
  5
2BB
100
AcDbEntity
  8
0
100
AcDbSpline
 62
7
  6
BYLAYER
 70
0
 71
3
 72
20
 73
16
 74
0
 42
0.0000001
 43
0.0000001
 44
0.0000000001
 40
0.0
 40
0.0
 40
0.0
 40
0.0
 40
0.0704786441
 40
0.1447320533
 40
0.2996536773
 40
0.45571871
 40
0.6038615425
 40
0.6723634034
 40
0.7359286339
 40
0.7938995419
 40
0.8458134338
 40
0.8916019626
 40
0.9317018353
 40
0.9672096673
 40
1.0
 40
1.0
 40
1.0
 40
1.0
 10
8.0474557431
 20
10.9345140503
 30
0.0
 10
8.0563417412
 20
10.9425770795
 30
0.0
 10
8.0739680209
 20
10.9598292584
 30
0.0
 10
8.1080865647
 20
10.9977914277
 30
0.0
 10
8.147459763
 20
11.0504436417
 30
0.0
 10
8.1873127805
 20
11.1178468192
 30
0.0
 10
8.213353174
 20
11.1759103721
 30
0.0
 10
8.2283151132
 20
11.2212486969
 30
0.0
 10
8.2360393786
 20
11.2527061321
 30
0.0
 10
8.2404683227
 20
11.2819503957
 30
0.0
 10
8.2415154817
 20
11.3085006583
 30
0.0
 10
8.2391453579
 20
11.3319383677
 30
0.0
 10
8.2333103933
 20
11.3519269127
 30
0.0
 10
8.223938984
 20
11.3680743765
 30
0.0
 10
8.2152036419
 20
11.3760986622
 30
0.0
 10
8.2105150401
 20
11.3791287477
 30
0.0
  0
SPLINE
  5
2BC
100
AcDbEntity
  8
0
100
AcDbSpline
 62
7
  6
BYLAYER
 70
0
 71
3
 72
23
 73
19
 74
0
 42
0.0000001
 43
0.0000001
 44
0.0000000001
 40
0.0
 40
0.0
 40
0.0
 40
0.0
 40
0.0736967207
 40
0.1502097313
 40
0.2283811784
 40
0.3071895838
 40
0.3856093555
 40
0.4625957046
 40
0.5371666915
 40
0.6084288339
 40
0.6755330811
 40
0.7376827196
 40
0.7943760937
 40
0.8453759606
 40
0.8907380177
 40
0.930851957
 40
0.966693338
 40
1.0
 40
1.0
 40
1.0
 40
1.0
 10
7.6483640542
 20
11.2484514086
 30
0.0
 10
7.6577341336
 20
11.2557385087
 30
0.0
 10
7.6763864303
 20
11.2711725382
 30
0.0
 10
7.7033429148
 20
11.2962324528
 30
0.0
 10
7.7292963267
 20
11.3234809452
 30
0.0
 10
7.7538916664
 20
11.352358483
 30
0.0
 10
7.7769160561
 20
11.3822600847
 30
0.0
 10
7.7980366151
 20
11.4127116944
 30
0.0
 10
7.8167584535
 20
11.4433586619
 30
0.0
 10
7.8326536845
 20
11.473780456
 30
0.0
 10
7.8456042409
 20
11.5033968861
 30
0.0
 10
7.855496503
 20
11.5317013418
 30
0.0
 10
7.8621529936
 20
11.5582839505
 30
0.0
 10
7.8653548585
 20
11.5827962949
 30
0.0
 10
7.8650486205
 20
11.6048677636
 30
0.0
 10
7.8612569264
 20
11.6241764535
 30
0.0
 10
7.8539270756
 20
11.6403783155
 30
0.0
 10
7.8465461554
 20
11.6489805642
 30
0.0
 10
7.8424553995
 20
11.6524511316
 30
0.0
  0
SPLINE
  5
2BD
100
AcDbEntity
  8
0
100
AcDbSpline
 62
7
  6
BYLAYER
 70
0
 71
3
 72
12
 73
8
 74
0
 42
0.0000001
 43
0.0000001
 44
0.0000000001
 40
0.0
 40
0.0
 40
0.0
 40
0.0
 40
0.2808844633
 40
0.5426792156
 40
0.6659431024
 40
0.7836493906
 40
1.0
 40
1.0
 40
1.0
 40
1.0
 10
5.0369988564
 20
11.2485455824
 30
0.0
 10
5.1349640219
 20
11.068626218
 30
0.0
 10
5.3412600102
 20
10.7299805918
 30
0.0
 10
5.6324541511
 20
10.3403697587
 30
0.0
 10
5.8716618365
 20
10.0623036934
 30
0.0
 10
6.0999096057
 20
9.8189857952
 30
0.0
 10
6.2772483769
 20
9.6514397962
 30
0.0
 10
6.3961257982
 20
9.5476752225
 30
0.0
  0
SPLINE
  5
2BE
100
AcDbEntity
  8
0
100
AcDbSpline
 62
7
  6
BYLAYER
 70
0
 71
3
 72
15
 73
11
 74
0
 42
0.0000001
 43
0.0000001
 44
0.0000000001
 40
0.0
 40
0.0
 40
0.0
 40
0.0
 40
0.1388195475
 40
0.2792787671
 40
0.4179661084
 40
0.5512441666
 40
0.6764109053
 40
0.7923602748
 40
0.8994696695
 40
1.0
 40
1.0
 40
1.0
 40
1.0
 10
6.6065910796
 20
13.0248831217
 30
0.0
 10
6.6205172406
 20
13.0282111804
 30
0.0
 10
6.6488852658
 20
13.0335292437
 30
0.0
 10
6.6919550696
 20
13.0369351351
 30
0.0
 10
6.7345698237
 20
13.0349831442
 30
0.0
 10
6.7749956865
 20
13.027408902
 30
0.0
 10
6.8113694348
 20
13.013828902
 30
0.0
 10
6.8422175802
 20
12.9948928171
 30
0.0
 10
6.8660904234
 20
12.9711256345
 30
0.0
 10
6.8772697119
 20
12.9525519684
 30
0.0
 10
6.8814252209
 20
12.9430520447
 30
0.0
  0
SPLINE
  5
2BF
100
AcDbEntity
  8
0
100
AcDbSpline
 62
7
  6
BYLAYER
 70
0
 71
3
 72
15
 73
11
 74
0
 42
0.0000001
 43
0.0000001
 44
0.0000000001
 40
0.0
 40
0.0
 40
0.0
 40
0.0
 40
0.1388176889
 40
0.2792760915
 40
0.4179634574
 40
0.5512422083
 40
0.676409822
 40
0.7923599631
 40
0.8994697231
 40
1.0
 40
1.0
 40
1.0
 40
1.0
 10
6.6065781199
 20
15.7191127848
 30
0.0
 10
6.6205044605
 20
15.7157842378
 30
0.0
 10
6.6488730086
 20
15.7104652164
 30
0.0
 10
6.6919438756
 20
15.7070578985
 30
0.0
 10
6.7345601075
 20
15.7090086233
 30
0.0
 10
6.7749877332
 20
15.7165818204
 30
0.0
 10
6.8113633857
 20
15.7301611351
 30
0.0
 10
6.842213372
 20
15.7490969438
 30
0.0
 10
6.8660878475
 20
15.7728642633
 30
0.0
 10
6.8772679916
 20
15.7914383174
 30
0.0
 10
6.8814238406
 20
15.8009384657
 30
0.0
  0
SPLINE
  5
2C0
100
AcDbEntity
  8
0
100
AcDbSpline
 62
7
  6
BYLAYER
 70
0
 71
3
 72
16
 73
12
 74
0
 42
0.0000001
 43
0.0000001
 44
0.0000000001
 40
0.0
 40
0.0
 40
0.0
 40
0.0
 40
0.1184817966
 40
0.2381882992
 40
0.3596038756
 40
0.4834018304
 40
0.6097076245
 40
0.6737999991
 40
0.7384220264
 40
0.8688716678
 40
1.0
 40
1.0
 40
1.0
 40
1.0
 10
8.3475145326
 20
18.9257953093
 30
0.0
 10
8.3475145326
 20
18.9434775518
 30
0.0
 10
8.3435793758
 20
18.979139113
 30
0.0
 10
8.3263102324
 20
19.0303637716
 30
0.0
 10
8.2982422337
 20
19.0775042098
 30
0.0
 10
8.2605768322
 20
19.1186777987
 30
0.0
 10
8.222599005
 20
19.1467047259
 30
0.0
 10
8.1890656873
 20
19.1648014079
 30
0.0
 10
8.1534422535
 20
19.1799939723
 30
0.0
 10
8.1062008867
 20
19.1928350354
 30
0.0
 10
8.0670841461
 20
19.1963180042
 30
0.0
 10
8.0475145326
 20
19.1963180042
 30
0.0
  0
SPLINE
  5
2C1
100
AcDbEntity
  8
0
100
AcDbSpline
 62
7
  6
BYLAYER
 70
0
 71
3
 72
20
 73
16
 74
0
 42
0.0000001
 43
0.0000001
 44
0.0000000001
 40
0.0
 40
0.0
 40
0.0
 40
0.0
 40
0.0704785731
 40
0.1447316859
 40
0.2996580323
 40
0.455731
 40
0.6038810368
 40
0.6723852395
 40
0.7359512908
 40
0.7939217815
 40
0.8458373535
 40
0.891625375
 40
0.93172206
 40
0.9672210866
 40
1.0
 40
1.0
 40
1.0
 40
1.0
 10
8.0474548551
 20
17.809479239
 30
0.0
 10
8.0563409665
 20
17.8014163934
 30
0.0
 10
8.0739675078
 20
17.7841646503
 30
0.0
 10
8.1080868154
 20
17.7462022977
 30
0.0
 10
8.1474603826
 20
17.6935478847
 30
0.0
 10
8.1873151006
 20
17.6261420625
 30
0.0
 10
8.213356669
 20
17.5680758284
 30
0.0
 10
8.2283180415
 20
17.5227356048
 30
0.0
 10
8.2360424038
 20
17.4912777326
 30
0.0
 10
8.240468809
 20
17.4620327878
 30
0.0
 10
8.2415135621
 20
17.435482215
 30
0.0
 10
8.2391383507
 20
17.4120455021
 30
0.0
 10
8.2333040155
 20
17.392059324
 30
0.0
 10
8.2239351432
 20
17.3759149888
 30
0.0
 10
8.215202067
 20
17.3678934288
 30
0.0
 10
8.2105150545
 20
17.3648644893
 30
0.0
  0
SPLINE
  5
2C2
100
AcDbEntity
  8
0
100
AcDbSpline
 62
7
  6
BYLAYER
 70
0
 71
3
 72
15
 73
11
 74
0
 42
0.0000001
 43
0.0000001
 44
0.0000000001
 40
0.0
 40
0.0
 40
0.0
 40
0.0
 40
0.097206825
 40
0.199556325
 40
0.3104270173
 40
0.4316395301
 40
0.5630809406
 40
0.7033295165
 40
0.8501340604
 40
1.0
 40
1.0
 40
1.0
 40
1.0
 10
8.3475145326
 20
17.6167192518
 30
0.0
 10
8.3475145326
 20
17.629389534
 30
0.0
 10
8.343371554
 20
17.6555474798
 30
0.0
 10
8.3255443338
 20
17.6924088436
 30
0.0
 10
8.2970577481
 20
17.7259280141
 30
0.0
 10
8.2592598937
 20
17.7549762919
 30
0.0
 10
8.2136259674
 20
17.778712614
 30
0.0
 10
8.1617850058
 20
17.7962892547
 30
0.0
 10
8.105702241
 20
17.8070515727
 30
0.0
 10
8.066988913
 20
17.8094800116
 30
0.0
 10
8.0474548551
 20
17.809479239
 30
0.0
  0
SPLINE
  5
2C3
100
AcDbEntity
  8
0
100
AcDbSpline
 62
7
  6
BYLAYER
 70
0
 71
3
 72
23
 73
19
 74
0
 42
0.0000001
 43
0.0000001
 44
0.0000000001
 40
0.0
 40
0.0
 40
0.0
 40
0.0
 40
0.0736982018
 40
0.1502040459
 40
0.2283595524
 40
0.3071564127
 40
0.3855693482
 40
0.4625504823
 40
0.5371187155
 40
0.6083835289
 40
0.6754883122
 40
0.7376431478
 40
0.7943524144
 40
0.8453630344
 40
0.8907241223
 40
0.9308310667
 40
0.9666782932
 40
1.0
 40
1.0
 40
1.0
 40
1.0
 10
7.6483642746
 20
17.4955392252
 30
0.0
 10
7.6577344731
 20
17.4882520775
 30
0.0
 10
7.6763954395
 20
17.472831017
 30
0.0
 10
7.7033648454
 20
17.4477896452
 30
0.0
 10
7.7292985189
 20
17.4205296404
 30
0.0
 10
7.7538686292
 20
17.3916388862
 30
0.0
 10
7.7768947992
 20
17.3617445841
 30
0.0
 10
7.7980293712
 20
17.3313058135
 30
0.0
 10
7.8167483951
 20
17.300658145
 30
0.0
 10
7.8326404797
 20
17.2702352377
 30
0.0
 10
7.8455966912
 20
17.2406202314
 30
0.0
 10
7.8554917265
 20
17.2123131821
 30
0.0
 10
7.8621440256
 20
17.185724149
 30
0.0
 10
7.8653409013
 20
17.1612078921
 30
0.0
 10
7.8650481106
 20
17.1391364279
 30
0.0
 10
7.8612631047
 20
17.1198263956
 30
0.0
 10
7.853933416
 20
17.1036219987
 30
0.0
 10
7.8465508417
 20
17.0950167281
 30
0.0
 10
7.8424583219
 20
17.0915445747
 30
0.0
  0
SPLINE
  5
2C4
100
AcDbEntity
  8
0
100
AcDbSpline
 62
7
  6
BYLAYER
 70
0
 71
3
 72
18
 73
14
 74
0
 42
0.0000001
 43
0.0000001
 44
0.0000000001
 40
0.0
 40
0.0
 40
0.0
 40
0.0
 40
0.1458275338
 40
0.2910635831
 40
0.431681024
 40
0.5644877542
 40
0.6272584896
 40
0.6873699317
 40
0.7994968437
 40
0.8520613375
 40
0.9026304097
 40
0.9517263992
 40
1.0
 40
1.0
 40
1.0
 40
1.0
 10
4.4545364016
 20
15.7191205139
 30
0.0
 10
4.4329961825
 20
15.7223228526
 30
0.0
 10
4.390402421
 20
15.7318319536
 30
0.0
 10
4.329957157
 20
15.7548772563
 30
0.0
 10
4.2752915106
 20
15.7856957345
 30
0.0
 10
4.235806944
 20
15.8171487804
 30
0.0
 10
4.2095869379
 20
15.8449933156
 30
0.0
 10
4.1882201641
 20
15.8728802345
 30
0.0
 10
4.172276907
 20
15.9028881707
 30
0.0
 10
4.163257099
 20
15.9338387682
 30
0.0
 10
4.1601213997
 20
15.9564455458
 30
0.0
 10
4.1605270865
 20
15.978622981
 30
0.0
 10
4.1631677612
 20
15.9930020625
 30
0.0
 10
4.1650616367
 20
15.9999577148
 30
0.0
  0
SPLINE
  5
2C5
100
AcDbEntity
  8
0
100
AcDbSpline
 62
7
  6
BYLAYER
 70
0
 71
3
 72
19
 73
15
 74
0
 42
0.0000001
 43
0.0000001
 44
0.0000000001
 40
0.0
 40
0.0
 40
0.0
 40
0.0
 40
0.1337502153
 40
0.2766566209
 40
0.3499020492
 40
0.4230516847
 40
0.49500202
 40
0.5647446855
 40
0.6947440196
 40
0.7545246692
 40
0.8103941758
 40
0.8623429186
 40
0.9109509728
 40
1.0
 40
1.0
 40
1.0
 40
1.0
 10
4.4545679385
 20
13.0248823127
 30
0.0
 10
4.4348115492
 20
13.0219467569
 30
0.0
 10
4.394325113
 20
13.0130806389
 30
0.0
 10
4.3450441745
 20
12.9951378665
 30
0.0
 10
4.3063901572
 20
12.975752412
 30
0.0
 10
4.2784443117
 20
12.9588885106
 30
0.0
 10
4.2523959905
 20
12.9400824028
 30
0.0
 10
4.2217654687
 20
12.913415743
 30
0.0
 10
4.1965287782
 20
12.8835096466
 30
0.0
 10
4.1780935946
 20
12.8517108278
 30
0.0
 10
4.168316404
 20
12.8285881451
 30
0.0
 10
4.1623739532
 20
12.8059016366
 30
0.0
 10
4.1592907999
 20
12.7776890663
 30
0.0
 10
4.1615706597
 20
12.7568612959
 30
0.0
 10
4.1650630959
 20
12.7440301587
 30
0.0
  0
SPLINE
  5
2C6
100
AcDbEntity
  8
0
100
AcDbSpline
 62
7
  6
BYLAYER
 70
0
 71
3
 72
19
 73
15
 74
0
 42
0.0000001
 43
0.0000001
 44
0.0000000001
 40
0.0
 40
0.0
 40
0.0
 40
0.0
 40
0.1115959566
 40
0.2339999821
 40
0.2985392381
 40
0.3647301436
 40
0.4320728557
 40
0.4999949853
 40
0.5679170639
 40
0.6352600134
 40
0.7014518566
 40
0.7659926356
 40
0.8884006447
 40
1.0
 40
1.0
 40
1.0
 40
1.0
 10
6.6065781507
 20
13.0248670343
 30
0.0
 10
6.5598392793
 20
13.1177638303
 30
0.0
 10
6.4716068868
 20
13.3176136684
 30
0.0
 10
6.3863822828
 20
13.583098099
 30
0.0
 10
6.3343887261
 20
13.8133128423
 30
0.0
 10
6.3048130349
 20
13.9956316315
 30
0.0
 10
6.2866594605
 20
14.1826087333
 30
0.0
 10
6.2804288613
 20
14.3719822993
 30
0.0
 10
6.2866594543
 20
14.5613560834
 30
0.0
 10
6.3048125298
 20
14.7483342584
 30
0.0
 10
6.3343864153
 20
14.9306558598
 30
0.0
 10
6.3863779366
 20
15.1608772372
 30
0.0
 10
6.4716033272
 20
15.4263702441
 30
0.0
 10
6.5598379198
 20
15.6262266686
 30
0.0
 10
6.6065781585
 20
15.7191263221
 30
0.0
  0
SPLINE
  5
2C7
100
AcDbEntity
  8
0
100
AcDbSpline
 62
7
  6
BYLAYER
 70
0
 71
3
 72
15
 73
11
 74
0
 42
0.0000001
 43
0.0000001
 44
0.0000000001
 40
0.0
 40
0.0
 40
0.0
 40
0.0
 40
0.1547356195
 40
0.3074468207
 40
0.453556269
 40
0.588908025
 40
0.710580851
 40
0.8182059542
 40
0.9133384619
 40
1.0
 40
1.0
 40
1.0
 40
1.0
 10
5.0369851425
 20
11.248524589
 30
0.0
 10
5.0234607277
 20
11.2433821085
 30
0.0
 10
4.9961394886
 20
11.2343002222
 30
0.0
 10
4.954759045
 20
11.2246824465
 30
0.0
 10
4.9143453404
 20
11.2199338795
 30
0.0
 10
4.8765164748
 20
11.2203317732
 30
0.0
 10
4.8427645878
 20
11.2262913476
 30
0.0
 10
4.8142435676
 20
11.2373536467
 30
0.0
 10
4.7919471794
 20
11.2532284351
 30
0.0
 10
4.78119243
 20
11.2667426465
 30
0.0
 10
4.7771428655
 20
11.2737618529
 30
0.0
  0
SPLINE
  5
2C8
100
AcDbEntity
  8
0
100
AcDbSpline
 62
7
  6
BYLAYER
 70
0
 71
3
 72
11
 73
7
 74
0
 42
0.0000001
 43
0.0000001
 44
0.0000000001
 40
0.0
 40
0.0
 40
0.0
 40
0.0
 40
0.2620823308
 40
0.5176140707
 40
0.7636252623
 40
1.0
 40
1.0
 40
1.0
 40
1.0
 10
6.3961285709
 20
9.5476753498
 30
0.0
 10
6.3789834316
 20
9.543786091
 30
0.0
 10
6.3442801631
 20
9.5393793439
 30
0.0
 10
6.2927896303
 20
9.5434633114
 30
0.0
 10
6.2453516077
 20
9.5591671097
 30
0.0
 10
6.2176151692
 20
9.5765657203
 30
0.0
 10
6.2053767789
 20
9.5866474968
 30
0.0
  0
SPLINE
  5
2C9
100
AcDbEntity
  8
0
100
AcDbSpline
 62
7
  6
BYLAYER
 70
0
 71
3
 72
19
 73
15
 74
0
 42
0.0000001
 43
0.0000001
 44
0.0000000001
 40
0.0
 40
0.0
 40
0.0
 40
0.0
 40
0.1109023205
 40
0.2336034334
 40
0.2983371726
 40
0.3646588412
 40
0.4320256638
 40
0.4999072834
 40
0.5677907273
 40
0.635163565
 40
0.7014963051
 40
0.766247101
 40
0.8890044369
 40
1.0
 40
1.0
 40
1.0
 40
1.0
 10
4.4545394283
 20
15.719116152
 30
0.0
 10
4.4243318629
 20
15.6225907843
 30
0.0
 10
4.3674872615
 20
15.4170942897
 30
0.0
 10
4.3131457475
 20
15.1502199915
 30
0.0
 10
4.2803659518
 20
14.9210755999
 30
0.0
 10
4.2617974439
 20
14.7410233592
 30
0.0
 10
4.2502198064
 20
14.5575093989
 30
0.0
 10
4.2461730848
 20
14.3722427724
 30
0.0
 10
4.2501970937
 20
14.1869701537
 30
0.0
 10
4.2617544393
 20
14.0034376044
 30
0.0
 10
4.2803074788
 20
13.8233524209
 30
0.0
 10
4.3130785421
 20
13.594128989
 30
0.0
 10
4.3674372919
 20
13.3271027579
 30
0.0
 10
4.4243137069
 20
13.1214734991
 30
0.0
 10
4.4545432781
 20
13.0248659149
 30
0.0
  0
SPLINE
  5
2CA
100
AcDbEntity
  8
0
100
AcDbSpline
 62
7
  6
BYLAYER
 70
0
 71
3
 72
11
 73
7
 74
0
 42
0.0000001
 43
0.0000001
 44
0.0000000001
 40
0.0
 40
0.0
 40
0.0
 40
0.0
 40
0.2672897505
 40
0.5216673274
 40
0.7647298974
 40
1.0
 40
1.0
 40
1.0
 40
1.0
 10
8.038067481
 20
8.5835478851
 30
0.0
 10
8.0298800239
 20
8.5800968778
 30
0.0
 10
8.0133605774
 20
8.5745462963
 30
0.0
 10
7.9881207537
 20
8.5705716539
 30
0.0
 10
7.9636234607
 20
8.5713427495
 30
0.0
 10
7.9480423677
 20
8.5752368016
 30
0.0
 10
7.9407337436
 20
8.5780201144
 30
0.0
  0
SPLINE
  5
2CB
100
AcDbEntity
  8
0
100
AcDbSpline
 62
7
  6
BYLAYER
 70
0
 71
3
 72
12
 73
8
 74
0
 42
0.0000001
 43
0.0000001
 44
0.0000000001
 40
0.0
 40
0.0
 40
0.0
 40
0.0
 40
0.2163510712
 40
0.3340575394
 40
0.4573216791
 40
0.7191164045
 40
1.0
 40
1.0
 40
1.0
 40
1.0
 10
13.898903267
 20
9.5476752225
 30
0.0
 10
14.0177809379
 20
9.6514399265
 30
0.0
 10
14.195119276
 20
9.8189869729
 30
0.0
 10
14.4233664753
 20
10.0623061037
 30
0.0
 10
14.6625745497
 20
10.3403719329
 30
0.0
 10
14.9537729656
 20
10.7299789673
 30
0.0
 10
15.1600639808
 20
11.0686267998
 30
0.0
 10
15.2580287008
 20
11.2485455929
 30
0.0
  0
SPLINE
  5
2CC
100
AcDbEntity
  8
0
100
AcDbSpline
 62
7
  6
BYLAYER
 70
0
 71
3
 72
19
 73
15
 74
0
 42
0.0000001
 43
0.0000001
 44
0.0000000001
 40
0.0
 40
0.0
 40
0.0
 40
0.0
 40
0.1109955605
 40
0.2337527709
 40
0.2985035257
 40
0.3648362375
 40
0.4322090516
 40
0.5000924698
 40
0.5679740589
 40
0.6353408563
 40
0.7016625189
 40
0.7663962866
 40
0.8890975694
 40
1.0
 40
1.0
 40
1.0
 40
1.0
 10
15.8404845128
 20
13.0248642377
 30
0.0
 10
15.8707141466
 20
13.1214718562
 30
0.0
 10
15.927590676
 20
13.3271010809
 30
0.0
 10
15.9819494771
 20
13.594127293
 30
0.0
 10
16.014720599
 20
13.8233506606
 30
0.0
 10
16.033273731
 20
14.0034358457
 30
0.0
 10
16.0448311797
 20
14.1869684157
 30
0.0
 10
16.0488552706
 20
14.3722410587
 30
0.0
 10
16.0448086237
 20
14.5575077109
 30
0.0
 10
16.0332310689
 20
14.7410217178
 30
0.0
 10
16.0146626193
 20
14.9210740592
 30
0.0
 10
15.9818828204
 20
15.1502187527
 30
0.0
 10
15.9275412315
 20
15.4170934702
 30
0.0
 10
15.8706965837
 20
15.6225903348
 30
0.0
 10
15.8404889778
 20
15.7191158515
 30
0.0
  0
SPLINE
  5
2CD
100
AcDbEntity
  8
0
100
AcDbSpline
 62
7
  6
BYLAYER
 70
0
 71
3
 72
19
 73
15
 74
0
 42
0.0000001
 43
0.0000001
 44
0.0000000001
 40
0.0
 40
0.0
 40
0.0
 40
0.0
 40
0.1115980252
 40
0.2340044906
 40
0.2985447369
 40
0.3647362515
 40
0.4320790617
 40
0.5000010876
 40
0.5679231749
 40
0.635266009
 40
0.7014573383
 40
0.76599724
 40
0.8884028143
 40
1.0
 40
1.0
 40
1.0
 40
1.0
 10
13.6884511312
 20
15.7191264872
 30
0.0
 10
13.735190841
 20
15.6262279458
 30
0.0
 10
13.8234246455
 20
15.4263740973
 30
0.0
 10
13.9086497524
 20
15.1608843487
 30
0.0
 10
13.9606420461
 20
14.9306654317
 30
0.0
 10
13.9902167006
 20
14.7483448769
 30
0.0
 10
14.0083701622
 20
14.5613672025
 30
0.0
 10
14.0146009164
 20
14.371993623
 30
0.0
 10
14.0083703358
 20
14.1826200145
 30
0.0
 10
13.9902168827
 20
13.9956424241
 30
0.0
 10
13.9606417765
 20
13.8133224106
 30
0.0
 10
13.9086488744
 20
13.5831049923
 30
0.0
 10
13.8234238904
 20
13.3176172672
 30
0.0
 10
13.7351906435
 20
13.117764946
 30
0.0
 10
13.6884512871
 20
13.0248671026
 30
0.0
  0
ENDSEC
  0
SECTION
  2
OBJECTS
  0
DICTIONARY
  5
C
100
AcDbDictionary
280
0
281
1
  3
ACAD_GROUP
350
D
  3
ACAD_MLINESTYLE
350
17
  3
ACAD_LAYOUT
350
1A
  3
ACAD_PLOTSETTINGS
350
19
  3
ACAD_PLOTSTYLENAME
350
E
  0
DICTIONARY
  5
D
102
{ACAD_REACTORS
330
C
102
}
100
AcDbDictionary
280
0
281
1
  0
ACDBDICTIONARYWDFLT
  5
E
102
{ACAD_REACTORS
330
C
102
}
100
AcDbDictionary
281
1
  3
Normal
350
F
100
AcDbDictionaryWithDefault
340
F
  0
DICTIONARY
  5
17
102
{ACAD_REACTORS
330
C
102
}
100
AcDbDictionary
280
0
281
1
  3
Standard
350
18
  0
DICTIONARY
  5
19
102
{ACAD_REACTORS
330
C
102
}
100
AcDbDictionary
281
1
  0
DICTIONARY
  5
1A
102
{ACAD_REACTORS
330
C
102
}
100
AcDbDictionary
281
1
  3
Model
350
2CE
  3
Layout1
350
2CF
  0
ACDBPLACEHOLDER
  5
F
102
{ACAD_REACTORS
330
E
102
}
  0
MLINESTYLE
  5
18
102
{ACAD_REACTORS
330
17
102
}
100
AcDbMlineStyle
  2
STANDARD
 70
0
  3

 62
256
 51
90.0
 52
90.0
 71
2
 49
0.5
 62
256
  6
BYLAYER
 49
-0.5
 62
256
  6
BYLAYER
  0
LAYOUT
  5
2CE
102
{ACAD_REACTORS
330
1A
102
}
100
AcDbPlotSettings
  1

  2
none_device
  4

  6

 40
0.0
 41
0.0
 42
0.0
 43
0.0
 44
210.0
 45
297.0
 46
0.0
 47
0.0
 48
0.0
 49
0.0
140
0.0
141
0.0
142
1.0
143
1.0
 70
1024
 72
1
 73
0
 74
0
  7

 75
0
147
1.0
148
0.0
149
0.0
100
AcDbLayout
  1
Model
 70
0
 71
0
 10
0.0
 20
0.0
 11
210.0
 21
297.0
 12
0.0
 22
0.0
 32
0.0
 14
0.0
 24
0.0
 34
0.0
 15
0.0
 25
0.0
 35
0.0
146
0.0
 13
0.0
 23
0.0
 33
0.0
 16
1.0
 26
0.0
 36
0.0
 17
0.0
 27
1.0
 37
0.0
 76
0
330
210
345
0
346
0
  0
LAYOUT
  5
2CF
102
{ACAD_REACTORS
330
1A
102
}
100
AcDbPlotSettings
  1

  2
none_device
  4

  6

 40
0.0
 41
0.0
 42
0.0
 43
0.0
 44
210.0
 45
297.0
 46
0.0
 47
0.0
 48
0.0
 49
0.0
140
0.0
141
0.0
142
1.0
143
1.0
 70
0
 72
1
 73
0
 74
0
  7

 75
0
147
1.0
148
0.0
149
0.0
100
AcDbLayout
  1
Layout1
 70
0
 71
1
 10
0.0
 20
0.0
 11
210.0
 21
297.0
 12
0.0
 22
0.0
 32
0.0
 14
0.0
 24
0.0
 34
0.0
 15
0.0
 25
0.0
 35
0.0
146
0.0
 13
0.0
 23
0.0
 33
0.0
 16
1.0
 26
0.0
 36
0.0
 17
0.0
 27
1.0
 37
0.0
 76
0
330
211
345
0
346
0
  0
ENDSEC
  0
EOF
