999
DXF file: C:\Users\sesa63760\Dev\_Creo\CAD\MCADPD0004458_3D-CAD\drw0001_4.dxf
999
Pro/ENGINEER 2019471 by Parametric Technology Corporation
  0
SECTION
  2
HEADER
  9
$ACADVER
  1
AC1024
  9
$DWGCODEPAGE
  3
ANSI_1252
  9
$EXTMAX
 10
100.7401787661
 20
142.4753956835
 30
0.0
  9
$EXTMIN
 10
0.0
 20
0.0
 30
0.0
  9
$LIMMIN
 10
0.0
 20
0.0
  9
$LIMMAX
 10
100.7401787661
 20
142.4753956835
  9
$VIEWCTR
 10
50.370089383
 20
71.2376978417
  9
$VIEWSIZE
 40
142.4753956835
  9
$CLAYER
  8
0
  9
$LTSCALE
 40
9.287285052
  9
$CELTYPE
  6
BYLAYER
  9
$DIMSCALE
 40
1.0
  9
$DIMASZ
 40
1.1992878425
  9
$DIMEXO
 40
1.0
  9
$DIMDLI
 40
6.4166696723
  9
$DIMEXE
 40
1.0
  9
$DIMCEN
 40
1.519737554
  9
$DIMLFAC
 40
1.0
  9
$DIMBLK
  1
_FILLED
  9
$DIMALT
 70
0
  9
$DIMALTF
 40
0.0393700787
  9
$DIMTXT
 40
1.6790029794
  9
$DIMTOL
 70
1
  9
$DIMLIM
 70
0
  9
$DIMTFAC
 40
1.0
  9
$DIMTP
 40
0.01
  9
$DIMTM
 40
0.01
  9
$DIMGAP
 40
0.625
  9
$DIMDSEP
 70
46
  9
$AUNITS
 70
0
  9
$PDMODE
 70
3
  9
$PDSIZE
 40
0.3125
  9
$HANDSEED
  5
378
  9
$TILEMODE
 70
1
  9
$MEASUREMENT
 70
1
  9
$INSUNITS
 70
4
  0
ENDSEC
  0
SECTION
  2
CLASSES
  0
CLASS
  1
ACDBDICTIONARYWDFLT
  2
AcDbDictionaryWithDefault
  3
AutoCAD 2000
 90
0
 91
1
280
0
281
0
  0
CLASS
  1
ACDBPLACEHOLDER
  2
AcDbPlaceHolder
  3
AutoCAD 2000
 90
0
 91
1
280
0
281
0
  0
CLASS
  1
LAYOUT
  2
AcDbLayout
  3
AutoCAD 2000
 90
0
 91
0
280
0
281
0
  0
ENDSEC
  0
SECTION
  2
TABLES
  0
TABLE
  2
VPORT
  5
8
100
AcDbSymbolTable
 70
2
  0
VPORT
  5
1F4
100
AcDbSymbolTableRecord
100
AcDbViewportTableRecord
  2
*ACTIVE
 70
0
 10
0.0
 20
0.0
 11
1.0
 21
1.0
 12
50.370089383
 22
71.2376978417
 13
0.0
 23
0.0
 14
1.0
 24
1.0
 15
0.0
 25
0.0
 16
0.0
 26
0.0
 36
1.0
 17
0.0
 27
0.0
 37
0.0
 40
142.4753956835
 41
0.7070707071
 42
50.0
 43
0.0
 44
0.0
 50
0.0
 51
0.0
 71
0
 72
100
 73
1
 74
1
 75
0
 76
0
 77
0
 78
0
  0
ENDTAB
  0
TABLE
  2
LTYPE
  5
5
100
AcDbSymbolTable
 70
6
  0
LTYPE
  5
14
100
AcDbSymbolTableRecord
100
AcDbLinetypeTableRecord
  2
BYBLOCK
 70
0
  3

 72
65
 73
0
 40
0.0
  0
LTYPE
  5
15
100
AcDbSymbolTableRecord
100
AcDbLinetypeTableRecord
  2
BYLAYER
 70
0
  3

 72
65
 73
0
 40
0.0
  0
LTYPE
  5
16
100
AcDbSymbolTableRecord
100
AcDbLinetypeTableRecord
  2
CONTINUOUS
 70
64
  3
Solid line
 72
65
 73
0
 40
0.0
  0
LTYPE
  5
1F5
100
AcDbSymbolTableRecord
100
AcDbLinetypeTableRecord
  2
CENTER
 70
64
  3
____ _ ____ _ ____ _ ____ _ ____ _ ____ _ ____
 72
65
 73
4
 40
0.6
 49
0.375
 74
0
 49
-0.075
 74
0
 49
0.075
 74
0
 49
-0.075
 74
0
  0
LTYPE
  5
1F6
100
AcDbSymbolTableRecord
100
AcDbLinetypeTableRecord
  2
HIDDEN
 70
64
  3
- - - - - - - - - - - - - - - - - - - -
 72
65
 73
2
 40
0.2
 49
0.1
 74
0
 49
-0.1
 74
0
  0
LTYPE
  5
1F7
100
AcDbSymbolTableRecord
100
AcDbLinetypeTableRecord
  2
PHANTOM
 70
64
  3
_____ _ _ _____ _ _ _____ _ _ _____
 72
65
 73
6
 40
0.8
 49
0.45
 74
0
 49
-0.05
 74
0
 49
0.1
 74
0
 49
-0.05
 74
0
 49
0.1
 74
0
 49
-0.05
 74
0
  0
LTYPE
  5
1F8
100
AcDbSymbolTableRecord
100
AcDbLinetypeTableRecord
  2
DOT
 70
64
  3
. . . . . . . . . . . . . . . . . . . .
 72
65
 73
2
 40
0.2
 49
0.1
 74
0
 49
-0.1
 74
0
  0
LTYPE
  5
1F9
100
AcDbSymbolTableRecord
100
AcDbLinetypeTableRecord
  2
DASHED
 70
64
  3
- - - - - - - - - - - - - - - - - - - -
 72
65
 73
2
 40
0.2
 49
0.1
 74
0
 49
-0.1
 74
0
  0
ENDTAB
  0
TABLE
  2
LAYER
  5
2
100
AcDbSymbolTable
 70
36
  0
LAYER
  5
10
100
AcDbSymbolTableRecord
100
AcDbLayerTableRecord
  2
0
 70
0
 62
7
  6
CONTINUOUS
370
-3
390
F
  0
LAYER
  5
1FA
100
AcDbSymbolTableRecord
100
AcDbLayerTableRecord
  2
DEFAULT_1
 70
0
 62
7
  6
CENTER
370
-3
390
F
  0
LAYER
  5
1FB
100
AcDbSymbolTableRecord
100
AcDbLayerTableRecord
  2
DEFAULT_2
 70
0
 62
7
  6
HIDDEN
370
-3
390
F
  0
LAYER
  5
1FC
100
AcDbSymbolTableRecord
100
AcDbLayerTableRecord
  2
DEFAULT_3
 70
0
 62
7
  6
PHANTOM
370
-3
390
F
  0
LAYER
  5
1FD
100
AcDbSymbolTableRecord
100
AcDbLayerTableRecord
  2
00_COMPONENTS
 70
0
 62
7
  6
CONTINUOUS
370
-3
390
F
  0
LAYER
  5
1FE
100
AcDbSymbolTableRecord
100
AcDbLayerTableRecord
  2
01_1_DEFAULT_DATUMS
 70
0
 62
7
  6
CONTINUOUS
370
-3
390
F
  0
LAYER
  5
1FF
100
AcDbSymbolTableRecord
100
AcDbLayerTableRecord
  2
01_PLANES
 70
0
 62
7
  6
CONTINUOUS
370
-3
390
F
  0
LAYER
  5
200
100
AcDbSymbolTableRecord
100
AcDbLayerTableRecord
  2
02_COORD_SYS
 70
0
 62
7
  6
CONTINUOUS
370
-3
390
F
  0
LAYER
  5
201
100
AcDbSymbolTableRecord
100
AcDbLayerTableRecord
  2
03_AXES
 70
0
 62
7
  6
CONTINUOUS
370
-3
390
F
  0
LAYER
  5
202
100
AcDbSymbolTableRecord
100
AcDbLayerTableRecord
  2
04_POINTS
 70
0
 62
7
  6
CONTINUOUS
370
-3
390
F
  0
LAYER
  5
203
100
AcDbSymbolTableRecord
100
AcDbLayerTableRecord
  2
05_CURVES
 70
0
 62
7
  6
CONTINUOUS
370
-3
390
F
  0
LAYER
  5
204
100
AcDbSymbolTableRecord
100
AcDbLayerTableRecord
  2
06_SURFS
 70
0
 62
7
  6
CONTINUOUS
370
-3
390
F
  0
LAYER
  5
205
100
AcDbSymbolTableRecord
100
AcDbLayerTableRecord
  2
07_COSMETICS
 70
0
 62
7
  6
CONTINUOUS
370
-3
390
F
  0
LAYER
  5
206
100
AcDbSymbolTableRecord
100
AcDbLayerTableRecord
  2
10_NOTES
 70
0
 62
7
  6
CONTINUOUS
370
-3
390
F
  0
LAYER
  5
207
100
AcDbSymbolTableRecord
100
AcDbLayerTableRecord
  2
11_NOTES_PUB
 70
0
 62
7
  6
CONTINUOUS
370
-3
390
F
  0
LAYER
  5
208
100
AcDbSymbolTableRecord
100
AcDbLayerTableRecord
  2
13_REF_GTOL
 70
0
 62
7
  6
CONTINUOUS
370
-3
390
F
  0
LAYER
  5
209
100
AcDbSymbolTableRecord
100
AcDbLayerTableRecord
  2
16_MISC
 70
0
 62
7
  6
CONTINUOUS
370
-3
390
F
  0
LAYER
  5
20A
100
AcDbSymbolTableRecord
100
AcDbLayerTableRecord
  2
17_NO_PRINT
 70
0
 62
7
  6
CONTINUOUS
370
-3
390
F
  0
LAYER
  5
20B
100
AcDbSymbolTableRecord
100
AcDbLayerTableRecord
  2
18_DATUM_CAMS_JOINTS
 70
0
 62
7
  6
CONTINUOUS
370
-3
390
F
  0
LAYER
  5
20C
100
AcDbSymbolTableRecord
100
AcDbLayerTableRecord
  2
19_DATUM_FUNCTIONAL
 70
0
 62
7
  6
CONTINUOUS
370
-3
390
F
  0
LAYER
  5
20D
100
AcDbSymbolTableRecord
100
AcDbLayerTableRecord
  2
20_DATUM_KINEMATIC_SCHEME
 70
0
 62
7
  6
CONTINUOUS
370
-3
390
F
  0
ENDTAB
  0
TABLE
  2
STYLE
  5
3
100
AcDbSymbolTable
 70
1
  0
STYLE
  5
11
100
AcDbSymbolTableRecord
100
AcDbTextStyleTableRecord
  2
STANDARD
 70
0
 40
0.0
 41
1.0
 50
0.0
 71
0
 42
0.2
  3
ARIAL.TTF
  4

  0
STYLE
  5
20E
100
AcDbSymbolTableRecord
100
AcDbTextStyleTableRecord
  2
TEXTSTYLE_1
 70
0
 40
0.0
 41
0.8
 50
0.0
 71
0
 42
0.2
  3
gdt
  4

  0
ENDTAB
  0
TABLE
  2
VIEW
  5
6
100
AcDbSymbolTable
 70
0
  0
ENDTAB
  0
TABLE
  2
UCS
  5
7
100
AcDbSymbolTable
 70
0
  0
ENDTAB
  0
TABLE
  2
APPID
  5
9
100
AcDbSymbolTable
 70
1
  0
APPID
  5
20F
100
AcDbSymbolTableRecord
100
AcDbRegAppTableRecord
  2
ACAD
 70
0
  0
ENDTAB
  0
TABLE
  2
BLOCK_RECORD
  5
1
100
AcDbSymbolTable
 70
0
  0
BLOCK_RECORD
  5
210
100
AcDbSymbolTableRecord
100
AcDbBlockTableRecord
  2
*Model_Space
  0
BLOCK_RECORD
  5
211
100
AcDbSymbolTableRecord
100
AcDbBlockTableRecord
  2
*Paper_Space
  0
BLOCK_RECORD
  5
212
100
AcDbSymbolTableRecord
100
AcDbBlockTableRecord
  2
_FILLED
  0
ENDTAB
  0
TABLE
  2
DIMSTYLE
  5
A
100
AcDbSymbolTable
 70
1
100
AcDbDimStyleTable
 71
0
  0
DIMSTYLE
105
213
100
AcDbSymbolTableRecord
100
AcDbDimStyleTableRecord
  2
STANDARD
 70
0
  3

  4

 40
1.0
 41
1.1992878425
 42
1.0
 43
0.38
 44
1.0
 45
0.0
 46
0.0
 47
0.01
 48
0.01
140
1.6790029794
141
0.09
142
0.0
143
25.4
144
1.0
145
0.0
146
1.0
147
0.625
 71
1
 72
0
 73
0
 74
0
 75
0
 76
0
 77
1
 78
8
 79
2
170
0
171
1
172
0
173
0
174
0
175
0
176
0
177
0
178
0
270
2
179
2
271
2
272
2
273
2
274
2
275
0
280
0
281
0
282
0
283
1
284
8
285
0
286
0
287
3
288
0
340
11
278
46
341
212
342
212
343
212
344
212
  0
ENDTAB
  0
ENDSEC
  0
SECTION
  2
BLOCKS
  0
BLOCK
  5
20
100
AcDbEntity
  8
0
100
AcDbBlockBegin
  2
*Model_Space
 70
0
 10
0.0
 20
0.0
 30
0.0
  3
*Model_Space
  1

  0
ENDBLK
  5
21
100
AcDbEntity
  8
0
100
AcDbBlockEnd
  0
BLOCK
  5
1C
100
AcDbEntity
  8
0
100
AcDbBlockBegin
  2
*Paper_Space
 70
0
 10
0.0
 20
0.0
 30
0.0
  3
*Paper_Space
  1

  0
ENDBLK
  5
1D
100
AcDbEntity
  8
0
100
AcDbBlockEnd
  0
BLOCK
  5
214
100
AcDbEntity
  8
0
100
AcDbBlockBegin
  2
_FILLED
 70
64
 10
0.0
 20
0.0
  3
_FILLED
  1

  0
SOLID
  5
215
100
AcDbEntity
  8
0
  6
BYBLOCK
 62
0
100
AcDbTrace
 10
0.0
 20
0.0
 11
-1.0
 21
0.25
 12
-1.0
 22
-0.25
 13
-1.0
 23
-0.25
  0
ENDBLK
  5
216
100
AcDbEntity
  8
0
  6
BYBLOCK
 62
0
100
AcDbBlockEnd
  0
ENDSEC
  0
SECTION
  2
ENTITIES
  0
LINE
  5
217
100
AcDbEntity
  8
0
100
AcDbLine
 62
7
  6
BYLAYER
 10
42.6780030521
 20
10.2017266187
 11
60.6780030521
 21
10.2017266187
  0
LINE
  5
218
100
AcDbEntity
  8
0
100
AcDbLine
 62
7
  6
BYLAYER
 10
56.046690874
 20
10.2929466024
 11
47.3093152302
 21
10.2929466024
  0
LINE
  5
219
100
AcDbEntity
  8
0
100
AcDbLine
 62
7
  6
BYLAYER
 10
62.6780032703
 20
12.7947348932
 11
40.6780028339
 21
12.7947348932
  0
LINE
  5
21A
100
AcDbEntity
  8
0
100
AcDbLine
 62
7
  6
BYLAYER
 10
79.0780030521
 20
14.6017273364
 11
24.2780030521
 21
14.6017273364
  0
LINE
  5
21B
100
AcDbEntity
  8
0
100
AcDbLine
 62
7
  6
BYLAYER
 10
79.0780030521
 20
16.1017266187
 11
63.5301865748
 21
16.1017266187
  0
LINE
  5
21C
100
AcDbEntity
  8
0
100
AcDbLine
 62
7
  6
BYLAYER
 10
57.3258192305
 20
16.1017266187
 11
46.0301864831
 21
16.1017266187
  0
LINE
  5
21D
100
AcDbEntity
  8
0
100
AcDbLine
 62
7
  6
BYLAYER
 10
39.8258192088
 20
16.1017266187
 11
24.2780030521
 21
16.1017266187
  0
LINE
  5
21E
100
AcDbEntity
  8
0
100
AcDbLine
 62
7
  6
BYLAYER
 10
33.0233025137
 20
22.1017266187
 11
35.3327035905
 21
22.1017266187
  0
LINE
  5
21F
100
AcDbEntity
  8
0
100
AcDbLine
 62
7
  6
BYLAYER
 10
50.5233025137
 20
22.1017266187
 11
52.8327035905
 21
22.1017266187
  0
LINE
  5
220
100
AcDbEntity
  8
0
100
AcDbLine
 62
7
  6
BYLAYER
 10
68.0233025137
 20
22.1017266187
 11
70.3327035905
 21
22.1017266187
  0
LINE
  5
221
100
AcDbEntity
  8
0
100
AcDbLine
 62
7
  6
BYLAYER
 10
70.3327035905
 20
26.1017266187
 11
68.0233025137
 21
26.1017266187
  0
LINE
  5
222
100
AcDbEntity
  8
0
100
AcDbLine
 62
7
  6
BYLAYER
 10
52.8327035905
 20
26.1017266187
 11
50.5233025137
 21
26.1017266187
  0
LINE
  5
223
100
AcDbEntity
  8
0
100
AcDbLine
 62
7
  6
BYLAYER
 10
35.3327035905
 20
26.1017266187
 11
33.0233025137
 21
26.1017266187
  0
LINE
  5
224
100
AcDbEntity
  8
0
100
AcDbLine
 62
7
  6
BYLAYER
 10
31.8686019753
 20
121.9017266187
 11
33.0233025137
 21
123.9017266187
  0
LINE
  5
225
100
AcDbEntity
  8
0
100
AcDbLine
 62
7
  6
BYLAYER
 10
33.0233025137
 20
22.1017266187
 11
31.8686019753
 21
24.1017266187
  0
LINE
  5
226
100
AcDbEntity
  8
0
100
AcDbLine
 62
7
  6
BYLAYER
 10
36.4874041289
 20
121.9017266187
 11
35.3327035905
 21
119.9017266187
  0
LINE
  5
227
100
AcDbEntity
  8
0
100
AcDbLine
 62
7
  6
BYLAYER
 10
24.2780030521
 20
31.6017266187
 11
41.6780115549
 21
31.6017266187
  0
LINE
  5
228
100
AcDbEntity
  8
0
100
AcDbLine
 62
7
  6
BYLAYER
 10
44.1779987418
 20
31.6017266187
 11
59.1780074599
 21
31.6017266187
  0
LINE
  5
229
100
AcDbEntity
  8
0
100
AcDbLine
 62
7
  6
BYLAYER
 10
61.724023213
 20
31.6017266187
 11
79.0780030521
 21
31.6017266187
  0
LINE
  5
22A
100
AcDbEntity
  8
0
100
AcDbLine
 62
7
  6
BYLAYER
 10
79.0780030521
 20
32.1017266187
 11
61.6779933554
 21
32.1017266187
  0
LINE
  5
22B
100
AcDbEntity
  8
0
100
AcDbLine
 62
7
  6
BYLAYER
 10
59.1780074694
 20
32.1017266187
 11
44.1779983973
 21
32.1017266187
  0
LINE
  5
22C
100
AcDbEntity
  8
0
100
AcDbLine
 62
7
  6
BYLAYER
 10
41.6780115731
 20
32.1017266187
 11
24.2780030521
 21
32.1017266187
  0
LINE
  5
22D
100
AcDbEntity
  8
0
100
AcDbLine
 62
7
  6
BYLAYER
 10
35.3327035905
 20
26.1017266187
 11
36.4874041289
 21
24.1017266187
  0
LINE
  5
22E
100
AcDbEntity
  8
0
100
AcDbLine
 62
7
  6
BYLAYER
 10
24.2780030521
 20
14.6017273364
 11
24.2780030521
 21
113.9017266187
  0
LINE
  5
22F
100
AcDbEntity
  8
0
100
AcDbLine
 62
7
  6
BYLAYER
 10
24.2780030521
 20
113.9152890238
 11
24.2780030521
 21
129.9017266187
  0
LINE
  5
230
100
AcDbEntity
  8
0
100
AcDbLine
 62
7
  6
BYLAYER
 10
24.7494604259
 20
98.8017266187
 11
24.7494604259
 21
87.7017266187
  0
LINE
  5
231
100
AcDbEntity
  8
0
100
AcDbLine
 62
7
  6
BYLAYER
 10
24.7494604259
 20
58.3017266187
 11
24.7494604259
 21
47.2017266187
  0
LINE
  5
232
100
AcDbEntity
  8
0
100
AcDbLine
 62
7
  6
BYLAYER
 10
25.1373455844
 20
129.9017266187
 11
25.1373455844
 21
114.4017266187
  0
LINE
  5
233
100
AcDbEntity
  8
0
100
AcDbLine
 62
7
  6
BYLAYER
 10
25.1373455844
 20
31.6017266187
 11
25.1373455844
 21
16.1017266187
  0
LINE
  5
234
100
AcDbEntity
  8
0
100
AcDbLine
 62
7
  6
BYLAYER
 10
49.3686019753
 20
121.9017266187
 11
50.5233025137
 21
123.9017266187
  0
LINE
  5
235
100
AcDbEntity
  8
0
100
AcDbLine
 62
7
  6
BYLAYER
 10
40.5780030521
 20
44.2017266187
 11
41.5780030521
 21
44.2017266187
  0
LINE
  5
236
100
AcDbEntity
  8
0
100
AcDbLine
 62
7
  6
BYLAYER
 10
51.0780030521
 20
44.2017266187
 11
52.0780030521
 21
44.2017266187
  0
LINE
  5
237
100
AcDbEntity
  8
0
100
AcDbLine
 62
7
  6
BYLAYER
 10
61.5780030521
 20
44.2017266187
 11
62.5780030521
 21
44.2017266187
  0
LINE
  5
238
100
AcDbEntity
  8
0
100
AcDbLine
 62
7
  6
BYLAYER
 10
72.0780030521
 20
44.2017266187
 11
73.0780030521
 21
44.2017266187
  0
LINE
  5
239
100
AcDbEntity
  8
0
100
AcDbLine
 62
7
  6
BYLAYER
 10
26.4194613941
 20
16.1017266187
 11
26.4194613941
 21
14.6017266187
  0
LINE
  5
23A
100
AcDbEntity
  8
0
100
AcDbLine
 62
7
  6
BYLAYER
 10
27.7780030521
 20
131.4017266187
 11
27.7780030521
 21
129.9017266187
  0
LINE
  5
23B
100
AcDbEntity
  8
0
100
AcDbLine
 62
7
  6
BYLAYER
 10
29.4256235779
 20
58.3017266187
 11
29.4256235779
 21
87.7017266187
  0
LINE
  5
23C
100
AcDbEntity
  8
0
100
AcDbLine
 62
7
  6
BYLAYER
 10
53.9874041289
 20
121.9017266187
 11
52.8327035905
 21
119.9017266187
  0
LINE
  5
23D
100
AcDbEntity
  8
0
100
AcDbLine
 62
7
  6
BYLAYER
 10
79.0780030521
 20
47.2017266187
 11
24.2780030521
 21
47.2017266187
  0
LINE
  5
23E
100
AcDbEntity
  8
0
100
AcDbLine
 62
7
  6
BYLAYER
 10
50.5233025137
 20
22.1017266187
 11
49.3686019753
 21
24.1017266187
  0
LINE
  5
23F
100
AcDbEntity
  8
0
100
AcDbLine
 62
7
  6
BYLAYER
 10
33.6780030521
 20
87.7017266187
 11
33.6780030521
 21
58.3017266187
  0
LINE
  5
240
100
AcDbEntity
  8
0
100
AcDbLine
 62
7
  6
BYLAYER
 10
69.1829765356
 20
53.329292623
 11
68.0251431622
 21
53.329292623
  0
LINE
  5
241
100
AcDbEntity
  8
0
100
AcDbLine
 62
7
  6
BYLAYER
 10
67.21856261
 20
53.329292623
 11
66.0086917816
 21
53.329292623
  0
LINE
  5
242
100
AcDbEntity
  8
0
100
AcDbLine
 62
7
  6
BYLAYER
 10
58.5829765356
 20
53.329292623
 11
57.4251431622
 21
53.329292623
  0
LINE
  5
243
100
AcDbEntity
  8
0
100
AcDbLine
 62
7
  6
BYLAYER
 10
56.61856261
 20
53.329292623
 11
55.4086917816
 21
53.329292623
  0
LINE
  5
244
100
AcDbEntity
  8
0
100
AcDbLine
 62
7
  6
BYLAYER
 10
47.9829765356
 20
53.329292623
 11
46.8251431622
 21
53.329292623
  0
LINE
  5
245
100
AcDbEntity
  8
0
100
AcDbLine
 62
7
  6
BYLAYER
 10
46.01856261
 20
53.329292623
 11
44.8086917816
 21
53.329292623
  0
LINE
  5
246
100
AcDbEntity
  8
0
100
AcDbLine
 62
7
  6
BYLAYER
 10
52.8327035905
 20
26.1017266187
 11
53.9874041289
 21
24.1017266187
  0
LINE
  5
247
100
AcDbEntity
  8
0
100
AcDbLine
 62
7
  6
BYLAYER
 10
44.8086917816
 20
54.0214015437
 11
46.01856261
 21
54.0214015437
  0
LINE
  5
248
100
AcDbEntity
  8
0
100
AcDbLine
 62
7
  6
BYLAYER
 10
46.8251431622
 20
54.0214015437
 11
47.9829765356
 21
54.0214015437
  0
LINE
  5
249
100
AcDbEntity
  8
0
100
AcDbLine
 62
7
  6
BYLAYER
 10
55.4086917816
 20
54.0214015437
 11
56.61856261
 21
54.0214015437
  0
LINE
  5
24A
100
AcDbEntity
  8
0
100
AcDbLine
 62
7
  6
BYLAYER
 10
57.4251431622
 20
54.0214015437
 11
58.5829765356
 21
54.0214015437
  0
LINE
  5
24B
100
AcDbEntity
  8
0
100
AcDbLine
 62
7
  6
BYLAYER
 10
66.0086917816
 20
54.0214015437
 11
67.21856261
 21
54.0214015437
  0
LINE
  5
24C
100
AcDbEntity
  8
0
100
AcDbLine
 62
7
  6
BYLAYER
 10
68.0251431622
 20
54.0214015437
 11
69.1829765356
 21
54.0214015437
  0
LINE
  5
24D
100
AcDbEntity
  8
0
100
AcDbLine
 62
7
  6
BYLAYER
 10
44.8086917816
 20
54.1353818282
 11
46.01856261
 21
54.1353818282
  0
LINE
  5
24E
100
AcDbEntity
  8
0
100
AcDbLine
 62
7
  6
BYLAYER
 10
46.8251431622
 20
54.1353818282
 11
47.9829765356
 21
54.1353818282
  0
LINE
  5
24F
100
AcDbEntity
  8
0
100
AcDbLine
 62
7
  6
BYLAYER
 10
55.4086917816
 20
54.1353818282
 11
56.61856261
 21
54.1353818282
  0
LINE
  5
250
100
AcDbEntity
  8
0
100
AcDbLine
 62
7
  6
BYLAYER
 10
57.4251431622
 20
54.1353818282
 11
58.5829765356
 21
54.1353818282
  0
LINE
  5
251
100
AcDbEntity
  8
0
100
AcDbLine
 62
7
  6
BYLAYER
 10
66.0086917816
 20
54.1353818282
 11
67.21856261
 21
54.1353818282
  0
LINE
  5
252
100
AcDbEntity
  8
0
100
AcDbLine
 62
7
  6
BYLAYER
 10
68.0251431622
 20
54.1353818282
 11
69.1829765356
 21
54.1353818282
  0
LINE
  5
253
100
AcDbEntity
  8
0
100
AcDbLine
 62
7
  6
BYLAYER
 10
45.9243680714
 20
17.1755450977
 11
46.178002544
 21
14.6017266187
  0
LINE
  5
254
100
AcDbEntity
  8
0
100
AcDbLine
 62
7
  6
BYLAYER
 10
40.5780030521
 20
44.2017266187
 11
40.5780030521
 21
47.2017266187
  0
LINE
  5
255
100
AcDbEntity
  8
0
100
AcDbLine
 62
7
  6
BYLAYER
 10
40.5780030521
 20
98.8017266187
 11
40.5780030521
 21
101.8017266187
  0
LINE
  5
256
100
AcDbEntity
  8
0
100
AcDbLine
 62
7
  6
BYLAYER
 10
40.6780028339
 20
11.3267330749
 11
40.6780028339
 21
14.6017273364
  0
LINE
  5
257
100
AcDbEntity
  8
0
100
AcDbLine
 62
7
  6
BYLAYER
 10
41.4280030521
 20
32.1017266187
 11
41.4280030521
 21
34.348786616
  0
LINE
  5
258
100
AcDbEntity
  8
0
100
AcDbLine
 62
7
  6
BYLAYER
 10
41.4280030521
 20
111.6546666214
 11
41.4280030521
 21
113.9017266187
  0
LINE
  5
259
100
AcDbEntity
  8
0
100
AcDbLine
 62
7
  6
BYLAYER
 10
41.5780030521
 20
101.8017266187
 11
41.5780030521
 21
98.8017266187
  0
LINE
  5
25A
100
AcDbEntity
  8
0
100
AcDbLine
 62
7
  6
BYLAYER
 10
41.5780030521
 20
47.2017266187
 11
41.5780030521
 21
44.2017266187
  0
LINE
  5
25B
100
AcDbEntity
  8
0
100
AcDbLine
 62
7
  6
BYLAYER
 10
41.6780054399
 20
111.3543551695
 11
41.6780127488
 21
113.9017266309
  0
LINE
  5
25C
100
AcDbEntity
  8
0
100
AcDbLine
 62
7
  6
BYLAYER
 10
41.6780056887
 20
34.6490977178
 11
41.6780127281
 21
31.6017266187
  0
LINE
  5
25D
100
AcDbEntity
  8
0
100
AcDbLine
 62
7
  6
BYLAYER
 10
42.6780030521
 20
10.9222962842
 11
42.6780030521
 21
10.2017266187
  0
LINE
  5
25E
100
AcDbEntity
  8
0
100
AcDbLine
 62
7
  6
BYLAYER
 10
46.1780034801
 20
131.4017266187
 11
45.9243680446
 21
128.8279078679
  0
LINE
  5
25F
100
AcDbEntity
  8
0
100
AcDbLine
 62
7
  6
BYLAYER
 10
66.8686019753
 20
121.9017266187
 11
68.0233025137
 21
123.9017266187
  0
LINE
  5
260
100
AcDbEntity
  8
0
100
AcDbLine
 62
7
  6
BYLAYER
 10
71.4874041289
 20
121.9017266187
 11
70.3327035905
 21
119.9017266187
  0
LINE
  5
261
100
AcDbEntity
  8
0
100
AcDbLine
 62
7
  6
BYLAYER
 10
79.0780030521
 20
58.3017266187
 11
24.2780030521
 21
58.3017266187
  0
LINE
  5
262
100
AcDbEntity
  8
0
100
AcDbLine
 62
7
  6
BYLAYER
 10
33.6780030521
 20
60.9488408098
 11
29.4256235779
 21
60.9488408098
  0
LINE
  5
263
100
AcDbEntity
  8
0
100
AcDbLine
 62
7
  6
BYLAYER
 10
68.0233025137
 20
22.1017266187
 11
66.8686019753
 21
24.1017266187
  0
LINE
  5
264
100
AcDbEntity
  8
0
100
AcDbLine
 62
7
  6
BYLAYER
 10
39.9316380391
 20
128.8279080759
 11
39.6780033405
 21
131.4017266187
  0
LINE
  5
265
100
AcDbEntity
  8
0
100
AcDbLine
 62
7
  6
BYLAYER
 10
41.6319828912
 20
114.4017266187
 11
41.6780127488
 21
113.9017266309
  0
LINE
  5
266
100
AcDbEntity
  8
0
100
AcDbLine
 62
7
  6
BYLAYER
 10
43.4164040503
 20
53.6565112583
 11
43.4164040503
 21
53.3773152847
  0
LINE
  5
267
100
AcDbEntity
  8
0
100
AcDbLine
 62
7
  6
BYLAYER
 10
43.4164040503
 20
92.3469419791
 11
43.4164040503
 21
92.6261379527
  0
LINE
  5
268
100
AcDbEntity
  8
0
100
AcDbLine
 62
7
  6
BYLAYER
 10
44.1779983973
 20
31.6017266187
 11
44.1779983973
 21
34.6490981293
  0
LINE
  5
269
100
AcDbEntity
  8
0
100
AcDbLine
 62
7
  6
BYLAYER
 10
44.177998035
 20
114.4017266187
 11
44.1780016907
 21
111.3543549087
  0
LINE
  5
26A
100
AcDbEntity
  8
0
100
AcDbLine
 62
7
  6
BYLAYER
 10
44.4280030521
 20
113.9017266187
 11
44.4280030521
 21
111.6546666214
  0
LINE
  5
26B
100
AcDbEntity
  8
0
100
AcDbLine
 62
7
  6
BYLAYER
 10
44.4280030521
 20
34.348786616
 11
44.4280030521
 21
32.1017266187
  0
LINE
  5
26C
100
AcDbEntity
  8
0
100
AcDbLine
 62
7
  6
BYLAYER
 10
44.8086917816
 20
54.1353818282
 11
44.8086917816
 21
53.329292623
  0
LINE
  5
26D
100
AcDbEntity
  8
0
100
AcDbLine
 62
7
  6
BYLAYER
 10
44.8730295687
 20
92.8258125489
 11
44.8730295687
 21
92.0197233438
  0
LINE
  5
26E
100
AcDbEntity
  8
0
100
AcDbLine
 62
7
  6
BYLAYER
 10
46.01856261
 20
56.6383302592
 11
46.01856261
 21
54.0214015437
  0
LINE
  5
26F
100
AcDbEntity
  8
0
100
AcDbLine
 62
7
  6
BYLAYER
 10
46.01856261
 20
53.329292623
 11
46.01856261
 21
50.560711973
  0
LINE
  5
270
100
AcDbEntity
  8
0
100
AcDbLine
 62
7
  6
BYLAYER
 10
46.030862942
 20
95.4444023923
 11
46.030862942
 21
92.8258125489
  0
LINE
  5
271
100
AcDbEntity
  8
0
100
AcDbLine
 62
7
  6
BYLAYER
 10
46.030862942
 20
92.1337036282
 11
46.030862942
 21
89.3634618503
  0
LINE
  5
272
100
AcDbEntity
  8
0
100
AcDbLine
 62
7
  6
BYLAYER
 10
46.5780030521
 20
10.3736204014
 11
46.5780030521
 21
10.2017266187
  0
LINE
  5
273
100
AcDbEntity
  8
0
100
AcDbLine
 62
7
  6
BYLAYER
 10
46.8251431622
 20
50.5590508451
 11
46.8251431622
 21
53.329292623
  0
LINE
  5
274
100
AcDbEntity
  8
0
100
AcDbLine
 62
7
  6
BYLAYER
 10
46.8251431622
 20
54.0214015437
 11
46.8251431622
 21
56.6399913871
  0
LINE
  5
275
100
AcDbEntity
  8
0
100
AcDbLine
 62
7
  6
BYLAYER
 10
46.8374434942
 20
89.3651229782
 11
46.8374434942
 21
92.1337036282
  0
LINE
  5
276
100
AcDbEntity
  8
0
100
AcDbLine
 62
7
  6
BYLAYER
 10
46.8374434942
 20
92.8258125489
 11
46.8374434942
 21
95.4427412644
  0
LINE
  5
277
100
AcDbEntity
  8
0
100
AcDbLine
 62
7
  6
BYLAYER
 10
39.678002572
 20
14.6017266187
 11
39.9316380611
 21
17.1755453846
  0
LINE
  5
278
100
AcDbEntity
  8
0
100
AcDbLine
 62
7
  6
BYLAYER
 10
70.3327035905
 20
26.1017266187
 11
71.4874041289
 21
24.1017266187
  0
LINE
  5
279
100
AcDbEntity
  8
0
100
AcDbLine
 62
7
  6
BYLAYER
 10
47.9829765356
 20
53.329292623
 11
47.9829765356
 21
54.1353818282
  0
LINE
  5
27A
100
AcDbEntity
  8
0
100
AcDbLine
 62
7
  6
BYLAYER
 10
48.0473143226
 20
92.0197233438
 11
48.0473143226
 21
92.8258125489
  0
LINE
  5
27B
100
AcDbEntity
  8
0
100
AcDbLine
 62
7
  6
BYLAYER
 10
49.439602054
 20
92.6261379527
 11
49.439602054
 21
92.3469419791
  0
LINE
  5
27C
100
AcDbEntity
  8
0
100
AcDbLine
 62
7
  6
BYLAYER
 10
49.439602054
 20
53.3773152847
 11
49.439602054
 21
53.6565112583
  0
LINE
  5
27D
100
AcDbEntity
  8
0
100
AcDbLine
 62
7
  6
BYLAYER
 10
51.0780030521
 20
44.2017266187
 11
51.0780030521
 21
47.2017266187
  0
LINE
  5
27E
100
AcDbEntity
  8
0
100
AcDbLine
 62
7
  6
BYLAYER
 10
51.0780030521
 20
98.8017266187
 11
51.0780030521
 21
101.8017266187
  0
LINE
  5
27F
100
AcDbEntity
  8
0
100
AcDbLine
 62
7
  6
BYLAYER
 10
52.0780030521
 20
101.8017266187
 11
52.0780030521
 21
98.8017266187
  0
LINE
  5
280
100
AcDbEntity
  8
0
100
AcDbLine
 62
7
  6
BYLAYER
 10
52.0780030521
 20
47.2017266187
 11
52.0780030521
 21
44.2017266187
  0
LINE
  5
281
100
AcDbEntity
  8
0
100
AcDbLine
 62
7
  6
BYLAYER
 10
54.0164040503
 20
53.6565112583
 11
54.0164040503
 21
53.3773152847
  0
LINE
  5
282
100
AcDbEntity
  8
0
100
AcDbLine
 62
7
  6
BYLAYER
 10
54.0164040503
 20
92.3469419791
 11
54.0164040503
 21
92.6261379527
  0
LINE
  5
283
100
AcDbEntity
  8
0
100
AcDbLine
 62
7
  6
BYLAYER
 10
55.4086917816
 20
54.1353818282
 11
55.4086917816
 21
53.329292623
  0
LINE
  5
284
100
AcDbEntity
  8
0
100
AcDbLine
 62
7
  6
BYLAYER
 10
55.4730295687
 20
92.8258125489
 11
55.4730295687
 21
92.0197233438
  0
LINE
  5
285
100
AcDbEntity
  8
0
100
AcDbLine
 62
7
  6
BYLAYER
 10
56.61856261
 20
56.6383302592
 11
56.61856261
 21
54.0214015437
  0
LINE
  5
286
100
AcDbEntity
  8
0
100
AcDbLine
 62
7
  6
BYLAYER
 10
56.61856261
 20
53.329292623
 11
56.61856261
 21
50.560711973
  0
LINE
  5
287
100
AcDbEntity
  8
0
100
AcDbLine
 62
7
  6
BYLAYER
 10
56.630862942
 20
95.4444023923
 11
56.630862942
 21
92.8258125489
  0
LINE
  5
288
100
AcDbEntity
  8
0
100
AcDbLine
 62
7
  6
BYLAYER
 10
56.630862942
 20
92.1337036282
 11
56.630862942
 21
89.3634618503
  0
LINE
  5
289
100
AcDbEntity
  8
0
100
AcDbLine
 62
7
  6
BYLAYER
 10
74.1557219238
 20
74.4017266187
 11
29.4256235779
 21
74.4017266187
  0
LINE
  5
28A
100
AcDbEntity
  8
0
100
AcDbLine
 62
7
  6
BYLAYER
 10
63.4243680651
 20
17.1755451615
 11
63.6780027638
 21
14.6017266187
  0
LINE
  5
28B
100
AcDbEntity
  8
0
100
AcDbLine
 62
7
  6
BYLAYER
 10
61.724023213
 20
31.6017266187
 11
61.6779933605
 21
32.1017265509
  0
LINE
  5
28C
100
AcDbEntity
  8
0
100
AcDbLine
 62
7
  6
BYLAYER
 10
56.7780030521
 20
10.3736204014
 11
56.7780030521
 21
10.2017266187
  0
LINE
  5
28D
100
AcDbEntity
  8
0
100
AcDbLine
 62
7
  6
BYLAYER
 10
57.4251431622
 20
50.5590508451
 11
57.4251431622
 21
53.329292623
  0
LINE
  5
28E
100
AcDbEntity
  8
0
100
AcDbLine
 62
7
  6
BYLAYER
 10
57.4251431622
 20
54.0214015437
 11
57.4251431622
 21
56.6399913871
  0
LINE
  5
28F
100
AcDbEntity
  8
0
100
AcDbLine
 62
7
  6
BYLAYER
 10
57.4374434942
 20
89.3651229782
 11
57.4374434942
 21
92.1337036282
  0
LINE
  5
290
100
AcDbEntity
  8
0
100
AcDbLine
 62
7
  6
BYLAYER
 10
57.4374434942
 20
92.8258125489
 11
57.4374434942
 21
95.4427412644
  0
LINE
  5
291
100
AcDbEntity
  8
0
100
AcDbLine
 62
7
  6
BYLAYER
 10
58.5829765356
 20
53.329292623
 11
58.5829765356
 21
54.1353818282
  0
LINE
  5
292
100
AcDbEntity
  8
0
100
AcDbLine
 62
7
  6
BYLAYER
 10
58.6473143226
 20
92.0197233438
 11
58.6473143226
 21
92.8258125489
  0
LINE
  5
293
100
AcDbEntity
  8
0
100
AcDbLine
 62
7
  6
BYLAYER
 10
58.9280030521
 20
32.1017266187
 11
58.9280030521
 21
34.348786616
  0
LINE
  5
294
100
AcDbEntity
  8
0
100
AcDbLine
 62
7
  6
BYLAYER
 10
58.9280030521
 20
111.6546666214
 11
58.9280030521
 21
113.9017266187
  0
LINE
  5
295
100
AcDbEntity
  8
0
100
AcDbLine
 62
7
  6
BYLAYER
 10
59.1780044135
 20
34.6490981795
 11
59.1780080692
 21
31.6017266187
  0
LINE
  5
296
100
AcDbEntity
  8
0
100
AcDbLine
 62
7
  6
BYLAYER
 10
59.1780077069
 20
111.3543549584
 11
59.1780077069
 21
114.4017266187
  0
LINE
  5
297
100
AcDbEntity
  8
0
100
AcDbLine
 62
7
  6
BYLAYER
 10
60.039602054
 20
92.6261379527
 11
60.039602054
 21
92.3469419791
  0
LINE
  5
298
100
AcDbEntity
  8
0
100
AcDbLine
 62
7
  6
BYLAYER
 10
60.039602054
 20
53.3773152847
 11
60.039602054
 21
53.6565112583
  0
LINE
  5
299
100
AcDbEntity
  8
0
100
AcDbLine
 62
7
  6
BYLAYER
 10
60.6780030521
 20
10.9222962842
 11
60.6780030521
 21
10.2017266187
  0
LINE
  5
29A
100
AcDbEntity
  8
0
100
AcDbLine
 62
7
  6
BYLAYER
 10
63.6780035322
 20
131.4017266187
 11
63.4243680431
 21
128.8279078528
  0
LINE
  5
29B
100
AcDbEntity
  8
0
100
AcDbLine
 62
7
  6
BYLAYER
 10
31.8686019753
 20
24.1017266187
 11
33.0233025137
 21
26.1017266187
  0
LINE
  5
29C
100
AcDbEntity
  8
0
100
AcDbLine
 62
7
  6
BYLAYER
 10
33.0233025137
 20
119.9017266187
 11
31.8686019753
 21
121.9017266187
  0
LINE
  5
29D
100
AcDbEntity
  8
0
100
AcDbLine
 62
7
  6
BYLAYER
 10
57.4316380328
 20
128.8279081397
 11
57.1780035602
 21
131.4017266187
  0
LINE
  5
29E
100
AcDbEntity
  8
0
100
AcDbLine
 62
7
  6
BYLAYER
 10
61.5780030521
 20
44.2017266187
 11
61.5780030521
 21
47.2017266187
  0
LINE
  5
29F
100
AcDbEntity
  8
0
100
AcDbLine
 62
7
  6
BYLAYER
 10
61.5780030521
 20
98.8017266187
 11
61.5780030521
 21
101.8017266187
  0
LINE
  5
2A0
100
AcDbEntity
  8
0
100
AcDbLine
 62
7
  6
BYLAYER
 10
61.6779933761
 20
114.4017266187
 11
61.6780004155
 21
111.3543552327
  0
LINE
  5
2A1
100
AcDbEntity
  8
0
100
AcDbLine
 62
7
  6
BYLAYER
 10
61.6779933554
 20
32.1017266065
 11
61.6780006643
 21
34.6490977634
  0
LINE
  5
2A2
100
AcDbEntity
  8
0
100
AcDbLine
 62
7
  6
BYLAYER
 10
61.9280030521
 20
113.9017266187
 11
61.9280030521
 21
111.6546666214
  0
LINE
  5
2A3
100
AcDbEntity
  8
0
100
AcDbLine
 62
7
  6
BYLAYER
 10
61.9280030521
 20
34.348786616
 11
61.9280030521
 21
32.1017266187
  0
LINE
  5
2A4
100
AcDbEntity
  8
0
100
AcDbLine
 62
7
  6
BYLAYER
 10
62.5780030521
 20
101.8017266187
 11
62.5780030521
 21
98.8017266187
  0
LINE
  5
2A5
100
AcDbEntity
  8
0
100
AcDbLine
 62
7
  6
BYLAYER
 10
62.5780030521
 20
47.2017266187
 11
62.5780030521
 21
44.2017266187
  0
LINE
  5
2A6
100
AcDbEntity
  8
0
100
AcDbLine
 62
7
  6
BYLAYER
 10
62.6780032703
 20
14.6017273364
 11
62.6780032703
 21
11.3267330749
  0
LINE
  5
2A7
100
AcDbEntity
  8
0
100
AcDbLine
 62
7
  6
BYLAYER
 10
64.6164040503
 20
53.6565112583
 11
64.6164040503
 21
53.3773152847
  0
LINE
  5
2A8
100
AcDbEntity
  8
0
100
AcDbLine
 62
7
  6
BYLAYER
 10
64.6164040503
 20
92.3469419791
 11
64.6164040503
 21
92.6261379527
  0
LINE
  5
2A9
100
AcDbEntity
  8
0
100
AcDbLine
 62
7
  6
BYLAYER
 10
57.1780026241
 20
14.6017266187
 11
57.4316380596
 21
17.1755453695
  0
LINE
  5
2AA
100
AcDbEntity
  8
0
100
AcDbLine
 62
7
  6
BYLAYER
 10
36.4874041289
 20
24.1017266187
 11
35.3327035905
 21
22.1017266187
  0
LINE
  5
2AB
100
AcDbEntity
  8
0
100
AcDbLine
 62
7
  6
BYLAYER
 10
35.3327035905
 20
123.9017266187
 11
36.4874041289
 21
121.9017266187
  0
LINE
  5
2AC
100
AcDbEntity
  8
0
100
AcDbLine
 62
7
  6
BYLAYER
 10
66.0086917816
 20
54.1353818282
 11
66.0086917816
 21
53.329292623
  0
LINE
  5
2AD
100
AcDbEntity
  8
0
100
AcDbLine
 62
7
  6
BYLAYER
 10
66.0730295687
 20
92.8258125489
 11
66.0730295687
 21
92.0197233438
  0
LINE
  5
2AE
100
AcDbEntity
  8
0
100
AcDbLine
 62
7
  6
BYLAYER
 10
67.21856261
 20
56.6383302592
 11
67.21856261
 21
54.0214015437
  0
LINE
  5
2AF
100
AcDbEntity
  8
0
100
AcDbLine
 62
7
  6
BYLAYER
 10
67.21856261
 20
53.329292623
 11
67.21856261
 21
50.560711973
  0
LINE
  5
2B0
100
AcDbEntity
  8
0
100
AcDbLine
 62
7
  6
BYLAYER
 10
67.230862942
 20
95.4444023923
 11
67.230862942
 21
92.8258125489
  0
LINE
  5
2B1
100
AcDbEntity
  8
0
100
AcDbLine
 62
7
  6
BYLAYER
 10
67.230862942
 20
92.1337036282
 11
67.230862942
 21
89.3634618503
  0
LINE
  5
2B2
100
AcDbEntity
  8
0
100
AcDbLine
 62
7
  6
BYLAYER
 10
68.0251431622
 20
50.5590508451
 11
68.0251431622
 21
53.329292623
  0
LINE
  5
2B3
100
AcDbEntity
  8
0
100
AcDbLine
 62
7
  6
BYLAYER
 10
68.0251431622
 20
54.0214015437
 11
68.0251431622
 21
56.6399913871
  0
LINE
  5
2B4
100
AcDbEntity
  8
0
100
AcDbLine
 62
7
  6
BYLAYER
 10
68.0374434942
 20
89.3651229782
 11
68.0374434942
 21
92.1337036282
  0
LINE
  5
2B5
100
AcDbEntity
  8
0
100
AcDbLine
 62
7
  6
BYLAYER
 10
68.0374434942
 20
92.8258125489
 11
68.0374434942
 21
95.4427412644
  0
LINE
  5
2B6
100
AcDbEntity
  8
0
100
AcDbLine
 62
7
  6
BYLAYER
 10
69.1829765356
 20
53.329292623
 11
69.1829765356
 21
54.1353818282
  0
LINE
  5
2B7
100
AcDbEntity
  8
0
100
AcDbLine
 62
7
  6
BYLAYER
 10
69.2473143226
 20
92.0197233438
 11
69.2473143226
 21
92.8258125489
  0
LINE
  5
2B8
100
AcDbEntity
  8
0
100
AcDbLine
 62
7
  6
BYLAYER
 10
24.2780030521
 20
87.7017266187
 11
79.0780030521
 21
87.7017266187
  0
LINE
  5
2B9
100
AcDbEntity
  8
0
100
AcDbLine
 62
7
  6
BYLAYER
 10
70.639602054
 20
92.6261379527
 11
70.639602054
 21
92.3469419791
  0
LINE
  5
2BA
100
AcDbEntity
  8
0
100
AcDbLine
 62
7
  6
BYLAYER
 10
70.639602054
 20
53.3773152847
 11
70.639602054
 21
53.6565112583
  0
LINE
  5
2BB
100
AcDbEntity
  8
0
100
AcDbLine
 62
7
  6
BYLAYER
 10
72.0780030521
 20
44.2017266187
 11
72.0780030521
 21
47.2017266187
  0
LINE
  5
2BC
100
AcDbEntity
  8
0
100
AcDbLine
 62
7
  6
BYLAYER
 10
72.0780030521
 20
98.8017266187
 11
72.0780030521
 21
101.8017266187
  0
LINE
  5
2BD
100
AcDbEntity
  8
0
100
AcDbLine
 62
7
  6
BYLAYER
 10
73.0780030521
 20
101.8017266187
 11
73.0780030521
 21
98.8017266187
  0
LINE
  5
2BE
100
AcDbEntity
  8
0
100
AcDbLine
 62
7
  6
BYLAYER
 10
73.0780030521
 20
47.2017266187
 11
73.0780030521
 21
44.2017266187
  0
LINE
  5
2BF
100
AcDbEntity
  8
0
100
AcDbLine
 62
7
  6
BYLAYER
 10
73.1801988689
 20
58.3017266187
 11
73.1801988689
 21
87.7017266187
  0
LINE
  5
2C0
100
AcDbEntity
  8
0
100
AcDbLine
 62
7
  6
BYLAYER
 10
74.1557219238
 20
58.3017266187
 11
74.1557219238
 21
87.7017266187
  0
LINE
  5
2C1
100
AcDbEntity
  8
0
100
AcDbLine
 62
7
  6
BYLAYER
 10
49.3686019753
 20
24.1017266187
 11
50.5233025137
 21
26.1017266187
  0
LINE
  5
2C2
100
AcDbEntity
  8
0
100
AcDbLine
 62
7
  6
BYLAYER
 10
44.8730295687
 20
92.0197233438
 11
46.030862942
 21
92.0197233438
  0
LINE
  5
2C3
100
AcDbEntity
  8
0
100
AcDbLine
 62
7
  6
BYLAYER
 10
46.8374434942
 20
92.0197233438
 11
48.0473143226
 21
92.0197233438
  0
LINE
  5
2C4
100
AcDbEntity
  8
0
100
AcDbLine
 62
7
  6
BYLAYER
 10
55.4730295687
 20
92.0197233438
 11
56.630862942
 21
92.0197233438
  0
LINE
  5
2C5
100
AcDbEntity
  8
0
100
AcDbLine
 62
7
  6
BYLAYER
 10
57.4374434942
 20
92.0197233438
 11
58.6473143226
 21
92.0197233438
  0
LINE
  5
2C6
100
AcDbEntity
  8
0
100
AcDbLine
 62
7
  6
BYLAYER
 10
66.0730295687
 20
92.0197233438
 11
67.230862942
 21
92.0197233438
  0
LINE
  5
2C7
100
AcDbEntity
  8
0
100
AcDbLine
 62
7
  6
BYLAYER
 10
68.0374434942
 20
92.0197233438
 11
69.2473143226
 21
92.0197233438
  0
LINE
  5
2C8
100
AcDbEntity
  8
0
100
AcDbLine
 62
7
  6
BYLAYER
 10
44.8730295687
 20
92.1337036282
 11
46.030862942
 21
92.1337036282
  0
LINE
  5
2C9
100
AcDbEntity
  8
0
100
AcDbLine
 62
7
  6
BYLAYER
 10
46.8374434942
 20
92.1337036282
 11
48.0473143226
 21
92.1337036282
  0
LINE
  5
2CA
100
AcDbEntity
  8
0
100
AcDbLine
 62
7
  6
BYLAYER
 10
55.4730295687
 20
92.1337036282
 11
56.630862942
 21
92.1337036282
  0
LINE
  5
2CB
100
AcDbEntity
  8
0
100
AcDbLine
 62
7
  6
BYLAYER
 10
57.4374434942
 20
92.1337036282
 11
58.6473143226
 21
92.1337036282
  0
LINE
  5
2CC
100
AcDbEntity
  8
0
100
AcDbLine
 62
7
  6
BYLAYER
 10
66.0730295687
 20
92.1337036282
 11
67.230862942
 21
92.1337036282
  0
LINE
  5
2CD
100
AcDbEntity
  8
0
100
AcDbLine
 62
7
  6
BYLAYER
 10
68.0374434942
 20
92.1337036282
 11
69.2473143226
 21
92.1337036282
  0
LINE
  5
2CE
100
AcDbEntity
  8
0
100
AcDbLine
 62
7
  6
BYLAYER
 10
69.2473143226
 20
92.8258125489
 11
68.0374434942
 21
92.8258125489
  0
LINE
  5
2CF
100
AcDbEntity
  8
0
100
AcDbLine
 62
7
  6
BYLAYER
 10
67.230862942
 20
92.8258125489
 11
66.0730295687
 21
92.8258125489
  0
LINE
  5
2D0
100
AcDbEntity
  8
0
100
AcDbLine
 62
7
  6
BYLAYER
 10
58.6473143226
 20
92.8258125489
 11
57.4374434942
 21
92.8258125489
  0
LINE
  5
2D1
100
AcDbEntity
  8
0
100
AcDbLine
 62
7
  6
BYLAYER
 10
56.630862942
 20
92.8258125489
 11
55.4730295687
 21
92.8258125489
  0
LINE
  5
2D2
100
AcDbEntity
  8
0
100
AcDbLine
 62
7
  6
BYLAYER
 10
48.0473143226
 20
92.8258125489
 11
46.8374434942
 21
92.8258125489
  0
LINE
  5
2D3
100
AcDbEntity
  8
0
100
AcDbLine
 62
7
  6
BYLAYER
 10
46.030862942
 20
92.8258125489
 11
44.8730295687
 21
92.8258125489
  0
LINE
  5
2D4
100
AcDbEntity
  8
0
100
AcDbLine
 62
7
  6
BYLAYER
 10
75.5780030521
 20
14.6017266187
 11
75.5780030521
 21
16.1017266187
  0
LINE
  5
2D5
100
AcDbEntity
  8
0
100
AcDbLine
 62
7
  6
BYLAYER
 10
76.9365447101
 20
129.9017266187
 11
76.9365447101
 21
131.4017266187
  0
LINE
  5
2D6
100
AcDbEntity
  8
0
100
AcDbLine
 62
7
  6
BYLAYER
 10
78.2186605198
 20
16.1017266187
 11
78.2186605198
 21
31.6017266187
  0
LINE
  5
2D7
100
AcDbEntity
  8
0
100
AcDbLine
 62
7
  6
BYLAYER
 10
78.2186605198
 20
114.4017266187
 11
78.2186605198
 21
129.9017266187
  0
LINE
  5
2D8
100
AcDbEntity
  8
0
100
AcDbLine
 62
7
  6
BYLAYER
 10
78.6065456802
 20
47.2017266187
 11
78.6065456802
 21
58.3017266187
  0
LINE
  5
2D9
100
AcDbEntity
  8
0
100
AcDbLine
 62
7
  6
BYLAYER
 10
78.6065456802
 20
87.7017266187
 11
78.6065456802
 21
98.8017266187
  0
LINE
  5
2DA
100
AcDbEntity
  8
0
100
AcDbLine
 62
7
  6
BYLAYER
 10
53.9874041289
 20
24.1017266187
 11
52.8327035905
 21
22.1017266187
  0
LINE
  5
2DB
100
AcDbEntity
  8
0
100
AcDbLine
 62
7
  6
BYLAYER
 10
50.5233025137
 20
119.9017266187
 11
49.3686019753
 21
121.9017266187
  0
LINE
  5
2DC
100
AcDbEntity
  8
0
100
AcDbLine
 62
7
  6
BYLAYER
 10
79.0780030521
 20
129.9017266187
 11
79.0780030521
 21
113.9152890238
  0
LINE
  5
2DD
100
AcDbEntity
  8
0
100
AcDbLine
 62
7
  6
BYLAYER
 10
79.0780030521
 20
14.6017273364
 11
79.0780030521
 21
113.9017266187
  0
LINE
  5
2DE
100
AcDbEntity
  8
0
100
AcDbLine
 62
7
  6
BYLAYER
 10
24.2780030521
 20
98.8017266187
 11
79.0780030521
 21
98.8017266187
  0
LINE
  5
2DF
100
AcDbEntity
  8
0
100
AcDbLine
 62
7
  6
BYLAYER
 10
73.0780030521
 20
101.8017266187
 11
72.0780030521
 21
101.8017266187
  0
LINE
  5
2E0
100
AcDbEntity
  8
0
100
AcDbLine
 62
7
  6
BYLAYER
 10
62.5780030521
 20
101.8017266187
 11
61.5780030521
 21
101.8017266187
  0
LINE
  5
2E1
100
AcDbEntity
  8
0
100
AcDbLine
 62
7
  6
BYLAYER
 10
52.0780030521
 20
101.8017266187
 11
51.0780030521
 21
101.8017266187
  0
LINE
  5
2E2
100
AcDbEntity
  8
0
100
AcDbLine
 62
7
  6
BYLAYER
 10
41.5780030521
 20
101.8017266187
 11
40.5780030521
 21
101.8017266187
  0
LINE
  5
2E3
100
AcDbEntity
  8
0
100
AcDbLine
 62
7
  6
BYLAYER
 10
52.8327035905
 20
123.9017266187
 11
53.9874041289
 21
121.9017266187
  0
LINE
  5
2E4
100
AcDbEntity
  8
0
100
AcDbLine
 62
7
  6
BYLAYER
 10
66.8686019753
 20
24.1017266187
 11
68.0233025137
 21
26.1017266187
  0
LINE
  5
2E5
100
AcDbEntity
  8
0
100
AcDbLine
 62
7
  6
BYLAYER
 10
68.0233025137
 20
119.9017266187
 11
66.8686019753
 21
121.9017266187
  0
LINE
  5
2E6
100
AcDbEntity
  8
0
100
AcDbLine
 62
7
  6
BYLAYER
 10
71.4874041289
 20
24.1017266187
 11
70.3327035905
 21
22.1017266187
  0
LINE
  5
2E7
100
AcDbEntity
  8
0
100
AcDbLine
 62
7
  6
BYLAYER
 10
24.2780030521
 20
113.9017266187
 11
41.6780127488
 21
113.9017266187
  0
LINE
  5
2E8
100
AcDbEntity
  8
0
100
AcDbLine
 62
7
  6
BYLAYER
 10
44.1779986348
 20
113.9017266187
 11
59.1780077069
 21
113.9017266187
  0
LINE
  5
2E9
100
AcDbEntity
  8
0
100
AcDbLine
 62
7
  6
BYLAYER
 10
61.6779945311
 20
113.9017266187
 11
79.0780030521
 21
113.9017266187
  0
LINE
  5
2EA
100
AcDbEntity
  8
0
100
AcDbLine
 62
7
  6
BYLAYER
 10
79.0780030521
 20
113.9152890238
 11
61.6779944998
 21
113.9152890238
  0
LINE
  5
2EB
100
AcDbEntity
  8
0
100
AcDbLine
 62
7
  6
BYLAYER
 10
59.1780077069
 20
113.9152890238
 11
44.1779986186
 21
113.9152890238
  0
LINE
  5
2EC
100
AcDbEntity
  8
0
100
AcDbLine
 62
7
  6
BYLAYER
 10
41.6780127488
 20
113.9152890238
 11
24.2780030521
 21
113.9152890238
  0
LINE
  5
2ED
100
AcDbEntity
  8
0
100
AcDbLine
 62
7
  6
BYLAYER
 10
79.0780030521
 20
114.4017266187
 11
61.6779933761
 21
114.4017266187
  0
LINE
  5
2EE
100
AcDbEntity
  8
0
100
AcDbLine
 62
7
  6
BYLAYER
 10
59.1780077069
 20
114.4017266187
 11
44.177998035
 21
114.4017266187
  0
LINE
  5
2EF
100
AcDbEntity
  8
0
100
AcDbLine
 62
7
  6
BYLAYER
 10
41.6319828912
 20
114.4017266187
 11
24.2780030521
 21
114.4017266187
  0
LINE
  5
2F0
100
AcDbEntity
  8
0
100
AcDbLine
 62
7
  6
BYLAYER
 10
70.3327035905
 20
123.9017266187
 11
71.4874041289
 21
121.9017266187
  0
LINE
  5
2F1
100
AcDbEntity
  8
0
100
AcDbLine
 62
7
  6
BYLAYER
 10
70.3327035905
 20
119.9017266187
 11
68.0233025137
 21
119.9017266187
  0
LINE
  5
2F2
100
AcDbEntity
  8
0
100
AcDbLine
 62
7
  6
BYLAYER
 10
52.8327035905
 20
119.9017266187
 11
50.5233025137
 21
119.9017266187
  0
LINE
  5
2F3
100
AcDbEntity
  8
0
100
AcDbLine
 62
7
  6
BYLAYER
 10
35.3327035905
 20
119.9017266187
 11
33.0233025137
 21
119.9017266187
  0
LINE
  5
2F4
100
AcDbEntity
  8
0
100
AcDbLine
 62
7
  6
BYLAYER
 10
33.0233025137
 20
123.9017266187
 11
35.3327035905
 21
123.9017266187
  0
LINE
  5
2F5
100
AcDbEntity
  8
0
100
AcDbLine
 62
7
  6
BYLAYER
 10
50.5233025137
 20
123.9017266187
 11
52.8327035905
 21
123.9017266187
  0
LINE
  5
2F6
100
AcDbEntity
  8
0
100
AcDbLine
 62
7
  6
BYLAYER
 10
68.0233025137
 20
123.9017266187
 11
70.3327035905
 21
123.9017266187
  0
LINE
  5
2F7
100
AcDbEntity
  8
0
100
AcDbLine
 62
7
  6
BYLAYER
 10
24.2780030521
 20
129.9017266187
 11
39.8258195294
 21
129.9017266187
  0
LINE
  5
2F8
100
AcDbEntity
  8
0
100
AcDbLine
 62
7
  6
BYLAYER
 10
46.0301868737
 20
129.9017266187
 11
57.3258196211
 21
129.9017266187
  0
LINE
  5
2F9
100
AcDbEntity
  8
0
100
AcDbLine
 62
7
  6
BYLAYER
 10
63.5301868954
 20
129.9017266187
 11
79.0780030521
 21
129.9017266187
  0
LINE
  5
2FA
100
AcDbEntity
  8
0
100
AcDbLine
 62
7
  6
BYLAYER
 10
27.7780030521
 20
131.4017266187
 11
76.9365447101
 21
131.4017266187
  0
CIRCLE
  5
2FB
100
AcDbEntity
  8
0
100
AcDbCircle
 62
7
  6
BYLAYER
 10
34.1780030521
 20
24.1017266187
 40
3.9
  0
ARC
  5
2FC
100
AcDbEntity
  8
0
100
AcDbCircle
 62
7
  6
BYLAYER
 10
42.462015972
 20
33.2063933351
 40
3.642915117
100
AcDbArc
 50
107.6528204823
 51
108.1563872244
  0
CIRCLE
  5
2FD
100
AcDbEntity
  8
0
100
AcDbCircle
 62
7
  6
BYLAYER
 10
46.3780030521
 20
53.7017266187
 40
3.25
  0
ARC
  5
2FE
100
AcDbEntity
  8
0
100
AcDbCircle
 62
7
  6
BYLAYER
 10
46.4280030065
 20
53.5389158791
 40
3.0133798595
100
AcDbArc
 50
82.4268272769
 51
97.8091701894
  0
ARC
  5
2FF
100
AcDbEntity
  8
0
100
AcDbCircle
 62
7
  6
BYLAYER
 10
46.4280030065
 20
53.5461460686
 40
3.0133798595
100
AcDbArc
 50
262.1908298106
 51
277.5731727231
  0
ARC
  5
300
100
AcDbEntity
  8
0
100
AcDbCircle
 62
7
  6
BYLAYER
 10
46.4292975319
 20
53.6556620356
 40
3.0103839288
100
AcDbArc
 50
0.0161634397
 51
82.4443123959
  0
ARC
  5
301
100
AcDbEntity
  8
0
100
AcDbCircle
 62
7
  6
BYLAYER
 10
46.4292975264
 20
53.6573604846
 40
3.0103839288
100
AcDbArc
 50
277.5556876976
 51
359.9838364929
  0
ARC
  5
302
100
AcDbEntity
  8
0
100
AcDbCircle
 62
7
  6
BYLAYER
 10
46.4266999139
 20
53.6556673077
 40
3.0103741891
100
AcDbArc
 50
97.7917655568
 51
179.9839368583
  0
ARC
  5
303
100
AcDbEntity
  8
0
100
AcDbCircle
 62
7
  6
BYLAYER
 10
46.4266999057
 20
53.6573552037
 40
3.0103741891
100
AcDbArc
 50
180.0160630415
 51
262.2082345834
  0
ARC
  5
304
100
AcDbEntity
  8
0
100
AcDbCircle
 62
7
  6
BYLAYER
 10
46.4253963167
 20
53.3775468749
 40
3.0090030578
100
AcDbArc
 50
180.0044098296
 51
229.4839675326
  0
ARC
  5
305
100
AcDbEntity
  8
0
100
AcDbCircle
 62
7
  6
BYLAYER
 10
46.4313326115
 20
53.3773551937
 40
3.0082683351
100
AcDbArc
 50
332.1658931865
 51
359.9992398897
  0
ARC
  5
306
100
AcDbEntity
  8
0
100
AcDbCircle
 62
7
  6
BYLAYER
 10
42.0799384565
 20
36.9306181808
 40
2.298627141
100
AcDbArc
 50
242.1899507379
 51
245.4741528138
  0
ARC
  5
307
100
AcDbEntity
  8
0
100
AcDbCircle
 62
7
  6
BYLAYER
 10
43.7763238521
 20
36.9300828604
 40
2.2980337765
100
AcDbArc
 50
294.5253871387
 51
297.8267361052
  0
ARC
  5
308
100
AcDbEntity
  8
0
100
AcDbCircle
 62
7
  6
BYLAYER
 10
40.9280030513
 20
34.348786616
 40
0.5000000008
100
AcDbArc
 50
0.0
 51
68.0611581324
  0
ARC
  5
309
100
AcDbEntity
  8
0
100
AcDbCircle
 62
7
  6
BYLAYER
 10
44.9280030525
 20
34.348786616
 40
0.5000000004
100
AcDbArc
 50
111.9391906358
 51
180.0
  0
CIRCLE
  5
30A
100
AcDbEntity
  8
0
100
AcDbCircle
 62
7
  6
BYLAYER
 10
34.1780030521
 20
121.9017266187
 40
3.9
  0
ARC
  5
30B
100
AcDbEntity
  8
0
100
AcDbCircle
 62
7
  6
BYLAYER
 10
42.4619255207
 20
112.7966898104
 40
3.6425351436
100
AcDbArc
 50
251.7277966493
 51
252.4582408451
  0
CIRCLE
  5
30C
100
AcDbEntity
  8
0
100
AcDbCircle
 62
7
  6
BYLAYER
 10
46.3780030521
 20
92.3017266187
 40
3.25
  0
ARC
  5
30D
100
AcDbEntity
  8
0
100
AcDbCircle
 62
7
  6
BYLAYER
 10
46.4280030977
 20
92.4645373583
 40
3.0133798595
100
AcDbArc
 50
262.4268272769
 51
277.8091701894
  0
ARC
  5
30E
100
AcDbEntity
  8
0
100
AcDbCircle
 62
7
  6
BYLAYER
 10
46.4280030977
 20
92.4573071688
 40
3.0133798595
100
AcDbArc
 50
82.1908298106
 51
97.5731727231
  0
ARC
  5
30F
100
AcDbEntity
  8
0
100
AcDbCircle
 62
7
  6
BYLAYER
 10
46.4267085777
 20
92.3477912053
 40
3.0103839288
100
AcDbArc
 50
180.0161635059
 51
262.4443123042
  0
ARC
  5
310
100
AcDbEntity
  8
0
100
AcDbCircle
 62
7
  6
BYLAYER
 10
46.4267085722
 20
92.3460927565
 40
3.0103839288
100
AcDbArc
 50
97.5556876019
 51
179.9838365619
  0
ARC
  5
311
100
AcDbEntity
  8
0
100
AcDbCircle
 62
7
  6
BYLAYER
 10
46.4293065341
 20
92.3477857101
 40
3.0103741891
100
AcDbArc
 50
277.7917596403
 51
359.9839410366
  0
ARC
  5
312
100
AcDbEntity
  8
0
100
AcDbCircle
 62
7
  6
BYLAYER
 10
46.4293065389
 20
92.3460982512
 40
3.0103741891
100
AcDbArc
 50
0.0160589044
 51
82.2082404418
  0
ARC
  5
313
100
AcDbEntity
  8
0
100
AcDbCircle
 62
7
  6
BYLAYER
 10
46.4254016614
 20
92.6259048999
 40
3.0090084791
100
AcDbArc
 50
130.3390807123
 51
179.9955623295
  0
ARC
  5
314
100
AcDbEntity
  8
0
100
AcDbCircle
 62
7
  6
BYLAYER
 10
46.4313312056
 20
92.6260976817
 40
3.0082697139
100
AcDbArc
 50
0.0007670042
 51
27.8201961495
  0
ARC
  5
315
100
AcDbEntity
  8
0
100
AcDbCircle
 62
7
  6
BYLAYER
 10
42.079247608
 20
109.0742734382
 40
2.297031703
100
AcDbArc
 50
114.5266269061
 51
117.8528539609
  0
ARC
  5
316
100
AcDbEntity
  8
0
100
AcDbCircle
 62
7
  6
BYLAYER
 10
43.7788912751
 20
109.0787336903
 40
2.2920886858
100
AcDbArc
 50
62.0058725172
 51
65.478711335
  0
ARC
  5
317
100
AcDbEntity
  8
0
100
AcDbCircle
 62
7
  6
BYLAYER
 10
43.837960902
 20
111.6119646853
 40
2.1647707648
100
AcDbArc
 50
297.018675962
 51
298.5901698753
  0
ARC
  5
318
100
AcDbEntity
  8
0
100
AcDbCircle
 62
7
  6
BYLAYER
 10
40.9280030513
 20
111.6546666214
 40
0.5000000008
100
AcDbArc
 50
291.9388418676
 51
360.0
  0
ARC
  5
319
100
AcDbEntity
  8
0
100
AcDbCircle
 62
7
  6
BYLAYER
 10
44.9280030525
 20
111.6546666214
 40
0.5000000004
100
AcDbArc
 50
180.0
 51
248.060809364
  0
ARC
  5
31A
100
AcDbEntity
  8
0
100
AcDbCircle
 62
7
  6
BYLAYER
 10
51.6780030521
 20
60.1017266187
 40
50.0
100
AcDbArc
 50
257.2909667493
 51
264.9874609009
  0
ARC
  5
31B
100
AcDbEntity
  8
0
100
AcDbCircle
 62
7
  6
BYLAYER
 10
51.6780030521
 20
60.1017266187
 40
50.0
100
AcDbArc
 50
275.0125390991
 51
282.7090332507
  0
CIRCLE
  5
31C
100
AcDbEntity
  8
0
100
AcDbCircle
 62
7
  6
BYLAYER
 10
51.6780030521
 20
24.1017266187
 40
3.9
  0
CIRCLE
  5
31D
100
AcDbEntity
  8
0
100
AcDbCircle
 62
7
  6
BYLAYER
 10
69.1780030521
 20
24.1017266187
 40
3.9
  0
ARC
  5
31E
100
AcDbEntity
  8
0
100
AcDbCircle
 62
7
  6
BYLAYER
 10
59.9613536708
 20
33.2084854346
 40
3.6407207367
100
AcDbArc
 50
107.6090790526
 51
108.2319480774
  0
CIRCLE
  5
31F
100
AcDbEntity
  8
0
100
AcDbCircle
 62
7
  6
BYLAYER
 10
67.5780030521
 20
53.7017266187
 40
3.25
  0
CIRCLE
  5
320
100
AcDbEntity
  8
0
100
AcDbCircle
 62
7
  6
BYLAYER
 10
56.9780030521
 20
53.7017266187
 40
3.25
  0
ARC
  5
321
100
AcDbEntity
  8
0
100
AcDbCircle
 62
7
  6
BYLAYER
 10
57.0280030065
 20
53.5389158791
 40
3.0133798595
100
AcDbArc
 50
82.4268272769
 51
97.8091701894
  0
ARC
  5
322
100
AcDbEntity
  8
0
100
AcDbCircle
 62
7
  6
BYLAYER
 10
57.0280030065
 20
53.5461460686
 40
3.0133798595
100
AcDbArc
 50
262.1908298106
 51
277.5731727231
  0
ARC
  5
323
100
AcDbEntity
  8
0
100
AcDbCircle
 62
7
  6
BYLAYER
 10
67.6280030065
 20
53.5389158791
 40
3.0133798595
100
AcDbArc
 50
82.4268272769
 51
97.8091701895
  0
ARC
  5
324
100
AcDbEntity
  8
0
100
AcDbCircle
 62
7
  6
BYLAYER
 10
67.6280030065
 20
53.5461460686
 40
3.0133798595
100
AcDbArc
 50
262.1908298106
 51
277.5731727231
  0
ARC
  5
325
100
AcDbEntity
  8
0
100
AcDbCircle
 62
7
  6
BYLAYER
 10
57.0292975319
 20
53.6556620356
 40
3.0103839288
100
AcDbArc
 50
0.0161634397
 51
82.4443123959
  0
ARC
  5
326
100
AcDbEntity
  8
0
100
AcDbCircle
 62
7
  6
BYLAYER
 10
57.0292975264
 20
53.6573604846
 40
3.0103839288
100
AcDbArc
 50
277.5556876976
 51
359.9838364929
  0
ARC
  5
327
100
AcDbEntity
  8
0
100
AcDbCircle
 62
7
  6
BYLAYER
 10
67.6292975319
 20
53.6556620356
 40
3.0103839288
100
AcDbArc
 50
0.0161634397
 51
82.4443123958
  0
ARC
  5
328
100
AcDbEntity
  8
0
100
AcDbCircle
 62
7
  6
BYLAYER
 10
67.6292975264
 20
53.6573604846
 40
3.0103839288
100
AcDbArc
 50
277.5556876977
 51
359.9838364929
  0
ARC
  5
329
100
AcDbEntity
  8
0
100
AcDbCircle
 62
7
  6
BYLAYER
 10
57.0266999139
 20
53.6556673077
 40
3.0103741891
100
AcDbArc
 50
97.7917655568
 51
179.9839368583
  0
ARC
  5
32A
100
AcDbEntity
  8
0
100
AcDbCircle
 62
7
  6
BYLAYER
 10
57.0266999057
 20
53.6573552037
 40
3.0103741891
100
AcDbArc
 50
180.0160630415
 51
262.2082345834
  0
ARC
  5
32B
100
AcDbEntity
  8
0
100
AcDbCircle
 62
7
  6
BYLAYER
 10
67.6266999139
 20
53.6556673077
 40
3.0103741891
100
AcDbArc
 50
97.7917655568
 51
179.9839368583
  0
ARC
  5
32C
100
AcDbEntity
  8
0
100
AcDbCircle
 62
7
  6
BYLAYER
 10
67.6266999057
 20
53.6573552037
 40
3.0103741891
100
AcDbArc
 50
180.0160630415
 51
262.2082345833
  0
ARC
  5
32D
100
AcDbEntity
  8
0
100
AcDbCircle
 62
7
  6
BYLAYER
 10
57.0253966797
 20
53.3775469917
 40
3.009003428
100
AcDbArc
 50
180.0044120529
 51
229.4938465229
  0
ARC
  5
32E
100
AcDbEntity
  8
0
100
AcDbCircle
 62
7
  6
BYLAYER
 10
67.6253955704
 20
53.3775466351
 40
3.0090022968
100
AcDbArc
 50
180.004405264
 51
229.4636364995
  0
ARC
  5
32F
100
AcDbEntity
  8
0
100
AcDbCircle
 62
7
  6
BYLAYER
 10
57.0313326454
 20
53.3773551782
 40
3.0082682984
100
AcDbArc
 50
332.1741353234
 51
359.9992401847
  0
ARC
  5
330
100
AcDbEntity
  8
0
100
AcDbCircle
 62
7
  6
BYLAYER
 10
67.6313327644
 20
53.3773551229
 40
3.0082681692
100
AcDbArc
 50
332.2034026926
 51
359.9992412378
  0
ARC
  5
331
100
AcDbEntity
  8
0
100
AcDbCircle
 62
7
  6
BYLAYER
 10
61.2760854013
 20
36.930585795
 40
2.2985902323
100
AcDbArc
 50
294.527701475
 51
297.8091326513
  0
ARC
  5
332
100
AcDbEntity
  8
0
100
AcDbCircle
 62
7
  6
BYLAYER
 10
59.5797780132
 20
36.9302825322
 40
2.2982551874
100
AcDbArc
 50
242.1793207108
 51
245.4746063337
  0
ARC
  5
333
100
AcDbEntity
  8
0
100
AcDbCircle
 62
7
  6
BYLAYER
 10
59.4949782469
 20
34.4344271747
 40
2.1160294863
100
AcDbArc
 50
118.0585454729
 51
118.4932956653
  0
ARC
  5
334
100
AcDbEntity
  8
0
100
AcDbCircle
 62
7
  6
BYLAYER
 10
61.5969236283
 20
62.5517269713
 40
0.866991262
100
AcDbArc
 50
268.7496229799
 51
91.2503780369
  0
ARC
  5
335
100
AcDbEntity
  8
0
100
AcDbCircle
 62
7
  6
BYLAYER
 10
61.5951044481
 20
62.5517262965
 40
0.8669633344
100
AcDbArc
 50
91.1301883426
 51
268.8698108175
  0
ARC
  5
336
100
AcDbEntity
  8
0
100
AcDbCircle
 62
7
  6
BYLAYER
 10
58.4280030521
 20
34.348786616
 40
0.5
100
AcDbArc
 50
0.0
 51
68.0602037906
  0
ARC
  5
337
100
AcDbEntity
  8
0
100
AcDbCircle
 62
7
  6
BYLAYER
 10
62.4280030521
 20
34.348786616
 40
0.5
100
AcDbArc
 50
111.9400637774
 51
179.9999976578
  0
CIRCLE
  5
338
100
AcDbEntity
  8
0
100
AcDbCircle
 62
7
  6
BYLAYER
 10
69.1780030521
 20
121.9017266187
 40
3.9
  0
CIRCLE
  5
339
100
AcDbEntity
  8
0
100
AcDbCircle
 62
7
  6
BYLAYER
 10
51.6780030521
 20
121.9017266187
 40
3.9
  0
ARC
  5
33A
100
AcDbEntity
  8
0
100
AcDbCircle
 62
7
  6
BYLAYER
 10
59.958386709
 20
112.7856246238
 40
3.630918041
100
AcDbArc
 50
251.5147403842
 51
252.5019762321
  0
CIRCLE
  5
33B
100
AcDbEntity
  8
0
100
AcDbCircle
 62
7
  6
BYLAYER
 10
56.9780030521
 20
92.3017266187
 40
3.25
  0
CIRCLE
  5
33C
100
AcDbEntity
  8
0
100
AcDbCircle
 62
7
  6
BYLAYER
 10
67.5780030521
 20
92.3017266187
 40
3.25
  0
ARC
  5
33D
100
AcDbEntity
  8
0
100
AcDbCircle
 62
7
  6
BYLAYER
 10
57.0280030977
 20
92.4645373583
 40
3.0133798595
100
AcDbArc
 50
262.4268272769
 51
277.8091701894
  0
ARC
  5
33E
100
AcDbEntity
  8
0
100
AcDbCircle
 62
7
  6
BYLAYER
 10
57.0280030977
 20
92.4573071688
 40
3.0133798595
100
AcDbArc
 50
82.1908298106
 51
97.5731727231
  0
ARC
  5
33F
100
AcDbEntity
  8
0
100
AcDbCircle
 62
7
  6
BYLAYER
 10
67.6280030977
 20
92.4645373583
 40
3.0133798595
100
AcDbArc
 50
262.4268272769
 51
277.8091701894
  0
ARC
  5
340
100
AcDbEntity
  8
0
100
AcDbCircle
 62
7
  6
BYLAYER
 10
67.6280030977
 20
92.4573071688
 40
3.0133798595
100
AcDbArc
 50
82.1908298105
 51
97.5731727231
  0
ARC
  5
341
100
AcDbEntity
  8
0
100
AcDbCircle
 62
7
  6
BYLAYER
 10
57.0267085777
 20
92.3477912053
 40
3.0103839288
100
AcDbArc
 50
180.0161635059
 51
262.4443123042
  0
ARC
  5
342
100
AcDbEntity
  8
0
100
AcDbCircle
 62
7
  6
BYLAYER
 10
57.0267085722
 20
92.3460927565
 40
3.0103839288
100
AcDbArc
 50
97.5556876019
 51
179.9838365619
  0
ARC
  5
343
100
AcDbEntity
  8
0
100
AcDbCircle
 62
7
  6
BYLAYER
 10
67.6267085777
 20
92.3477912053
 40
3.0103839288
100
AcDbArc
 50
180.0161635059
 51
262.4443123042
  0
ARC
  5
344
100
AcDbEntity
  8
0
100
AcDbCircle
 62
7
  6
BYLAYER
 10
67.6267085722
 20
92.3460927565
 40
3.0103839288
100
AcDbArc
 50
97.555687602
 51
179.9838365619
  0
ARC
  5
345
100
AcDbEntity
  8
0
100
AcDbCircle
 62
7
  6
BYLAYER
 10
57.0293065341
 20
92.3477857101
 40
3.0103741891
100
AcDbArc
 50
277.7917596403
 51
359.9839410366
  0
ARC
  5
346
100
AcDbEntity
  8
0
100
AcDbCircle
 62
7
  6
BYLAYER
 10
57.0293065389
 20
92.3460982512
 40
3.0103741891
100
AcDbArc
 50
0.0160589044
 51
82.2082404418
  0
ARC
  5
347
100
AcDbEntity
  8
0
100
AcDbCircle
 62
7
  6
BYLAYER
 10
67.6293065341
 20
92.3477857101
 40
3.0103741891
100
AcDbArc
 50
277.7917596404
 51
359.9839410366
  0
ARC
  5
348
100
AcDbEntity
  8
0
100
AcDbCircle
 62
7
  6
BYLAYER
 10
67.6293065389
 20
92.3460982512
 40
3.0103741891
100
AcDbArc
 50
0.0160589044
 51
82.2082404418
  0
ARC
  5
349
100
AcDbEntity
  8
0
100
AcDbCircle
 62
7
  6
BYLAYER
 10
57.025401862
 20
92.6259048343
 40
3.009008684
100
AcDbArc
 50
130.3337309585
 51
179.9955610798
  0
ARC
  5
34A
100
AcDbEntity
  8
0
100
AcDbCircle
 62
7
  6
BYLAYER
 10
67.6254014576
 20
92.6259049666
 40
3.009008271
100
AcDbArc
 50
130.3445188353
 51
179.995563599
  0
ARC
  5
34B
100
AcDbEntity
  8
0
100
AcDbCircle
 62
7
  6
BYLAYER
 10
57.0313312305
 20
92.6260976939
 40
3.0082696867
100
AcDbArc
 50
0.0007667729
 51
27.8139118972
  0
ARC
  5
34C
100
AcDbEntity
  8
0
100
AcDbCircle
 62
7
  6
BYLAYER
 10
67.6313313115
 20
92.6260977336
 40
3.0082695986
100
AcDbArc
 50
0.0007660155
 51
27.7934284709
  0
ARC
  5
34D
100
AcDbEntity
  8
0
100
AcDbCircle
 62
7
  6
BYLAYER
 10
59.5791138039
 20
109.0745543021
 40
2.2967206625
100
AcDbArc
 50
114.5258742751
 51
117.8621494991
  0
ARC
  5
34E
100
AcDbEntity
  8
0
100
AcDbCircle
 62
7
  6
BYLAYER
 10
61.2787386447
 20
109.0784153376
 40
2.2924416766
100
AcDbArc
 50
62.0156501299
 51
65.4786578374
  0
ARC
  5
34F
100
AcDbEntity
  8
0
100
AcDbCircle
 62
7
  6
BYLAYER
 10
61.3336721614
 20
111.6202562124
 40
2.1741053098
100
AcDbArc
 50
297.0870168673
 51
298.3453935411
  0
ARC
  5
350
100
AcDbEntity
  8
0
100
AcDbCircle
 62
7
  6
BYLAYER
 10
62.4280030521
 20
111.6546666214
 40
0.5
100
AcDbArc
 50
180.0000023422
 51
248.0599362226
  0
ARC
  5
351
100
AcDbEntity
  8
0
100
AcDbCircle
 62
7
  6
BYLAYER
 10
58.4280030521
 20
111.6546666214
 40
0.5
100
AcDbArc
 50
291.9397962094
 51
360.0
  0
SPLINE
  5
352
100
AcDbEntity
  8
0
100
AcDbSpline
 62
7
  6
BYLAYER
 70
0
 71
3
 72
15
 73
11
 74
0
 42
0.0000001
 43
0.0000001
 44
0.0000000001
 40
0.0
 40
0.0
 40
0.0
 40
0.0
 40
0.125
 40
0.25
 40
0.375
 40
0.5
 40
0.625
 40
0.75
 40
0.875
 40
1.0
 40
1.0
 40
1.0
 40
1.0
 10
39.9316380391
 20
128.8279080759
 30
0.0
 10
39.9503579788
 20
128.6379430274
 30
0.0
 10
40.1340631157
 20
128.2616943931
 30
0.0
 10
40.8090510987
 20
127.7887599138
 30
0.0
 10
41.7869648236
 20
127.4749526509
 30
0.0
 10
42.9280028388
 20
127.3651136224
 30
0.0
 10
44.0690408845
 20
127.4749525717
 30
0.0
 10
45.0469546965
 20
127.7887597668
 30
0.0
 10
45.7219428109
 20
128.2616941991
 30
0.0
 10
45.9056480522
 20
128.6379428207
 30
0.0
 10
45.9243680446
 20
128.8279078679
 30
0.0
  0
SPLINE
  5
353
100
AcDbEntity
  8
0
100
AcDbSpline
 62
7
  6
BYLAYER
 70
0
 71
3
 72
8
 73
4
 74
0
 42
0.0000001
 43
0.0000001
 44
0.0000000001
 40
0.0
 40
0.0
 40
0.0
 40
0.0
 40
1.0
 40
1.0
 40
1.0
 40
1.0
 10
44.1779998463
 20
111.3543553772
 30
0.0
 10
44.3811293285
 20
111.3027537363
 30
0.0
 10
44.5675869019
 20
111.2384661949
 30
0.0
 10
44.7301798606
 20
111.1640923096
 30
0.0
  0
SPLINE
  5
354
100
AcDbEntity
  8
0
100
AcDbSpline
 62
7
  6
BYLAYER
 70
0
 71
3
 72
12
 73
8
 74
0
 42
0.0000001
 43
0.0000001
 44
0.0000000001
 40
0.0
 40
0.0
 40
0.0
 40
0.0
 40
0.2176949679
 40
0.4566357917
 40
0.6955766155
 40
0.9345174392
 40
1.0
 40
1.0
 40
1.0
 40
1.0
 10
44.8547542986
 20
111.1026381591
 30
0.0
 10
45.0130217323
 20
111.0183746814
 30
0.0
 10
45.2848783741
 20
110.8197281319
 30
0.0
 10
45.4675747755
 20
110.4749657853
 30
0.0
 10
45.386305007
 20
110.1118985898
 30
0.0
 10
45.1269157781
 20
109.86000569
 30
0.0
 10
44.9208282147
 20
109.7367452799
 30
0.0
 10
44.8738929385
 20
109.7111550473
 30
0.0
  0
SPLINE
  5
355
100
AcDbEntity
  8
0
100
AcDbSpline
 62
7
  6
BYLAYER
 70
0
 71
3
 72
12
 73
8
 74
0
 42
0.0000001
 43
0.0000001
 44
0.0000000001
 40
0.0
 40
0.0
 40
0.0
 40
0.0
 40
0.1356494986
 40
0.3524308206
 40
0.5692121426
 40
0.7859934645
 40
1.0
 40
1.0
 40
1.0
 40
1.0
 10
44.8213749252
 20
109.6834602588
 30
0.0
 10
44.7099213613
 20
109.6266019372
 30
0.0
 10
44.3860900297
 20
109.4918676341
 30
0.0
 10
43.7460733411
 20
109.3413453786
 30
0.0
 10
42.9280030521
 20
109.2819172388
 30
0.0
 10
42.1134231782
 20
109.3410918198
 30
0.0
 10
41.6286813312
 20
109.4545320753
 30
0.0
 10
41.4144203208
 20
109.5262408996
 30
0.0
  0
SPLINE
  5
356
100
AcDbEntity
  8
0
100
AcDbSpline
 62
7
  6
BYLAYER
 70
0
 71
3
 72
8
 73
4
 74
0
 42
0.0000001
 43
0.0000001
 44
0.0000000001
 40
0.0
 40
0.0
 40
0.0
 40
0.0
 40
1.0
 40
1.0
 40
1.0
 40
1.0
 10
61.677996864
 20
111.3543561349
 30
0.0
 10
61.8811257624
 20
111.3027548079
 30
0.0
 10
62.0675829099
 20
111.2384676609
 30
0.0
 10
62.2301756798
 20
111.164094222
 30
0.0
  0
SPLINE
  5
357
100
AcDbEntity
  8
0
100
AcDbSpline
 62
7
  6
BYLAYER
 70
0
 71
3
 72
12
 73
8
 74
0
 42
0.0000001
 43
0.0000001
 44
0.0000000001
 40
0.0
 40
0.0
 40
0.0
 40
0.0
 40
0.2170107539
 40
0.4550339764
 40
0.693057199
 40
0.9310804216
 40
1.0
 40
1.0
 40
1.0
 40
1.0
 10
62.354421904
 20
111.1028150921
 30
0.0
 10
62.5128402748
 20
111.0185072575
 30
0.0
 10
62.7848383502
 20
110.8198036601
 30
0.0
 10
62.9675747755
 20
110.4749657853
 30
0.0
 10
62.886305007
 20
110.1118985898
 30
0.0
 10
62.6251481924
 20
109.8582891873
 30
0.0
 10
62.4158059295
 20
109.733749484
 30
0.0
 10
62.3659061274
 20
109.7068229271
 30
0.0
  0
SPLINE
  5
358
100
AcDbEntity
  8
0
100
AcDbSpline
 62
7
  6
BYLAYER
 70
0
 71
3
 72
12
 73
8
 74
0
 42
0.0000001
 43
0.0000001
 44
0.0000000001
 40
0.0
 40
0.0
 40
0.0
 40
0.0
 40
0.1365970836
 40
0.3534251761
 40
0.5702532685
 40
0.787081361
 40
1.0
 40
1.0
 40
1.0
 40
1.0
 10
62.3236361754
 20
109.6846154531
 30
0.0
 10
62.2116081012
 20
109.627304214
 30
0.0
 10
61.8871223556
 20
109.4921104215
 30
0.0
 10
61.2460733411
 20
109.3413453786
 30
0.0
 10
60.4280030521
 20
109.2819172388
 30
0.0
 10
59.6148494196
 20
109.3409882116
 30
0.0
 10
59.1312333856
 20
109.4539354442
 30
0.0
 10
58.9178280702
 20
109.5251024358
 30
0.0
  0
SPLINE
  5
359
100
AcDbEntity
  8
0
100
AcDbSpline
 62
7
  6
BYLAYER
 70
0
 71
3
 72
15
 73
11
 74
0
 42
0.0000001
 43
0.0000001
 44
0.0000000001
 40
0.0
 40
0.0
 40
0.0
 40
0.0
 40
0.125
 40
0.25
 40
0.375
 40
0.5
 40
0.625
 40
0.75
 40
0.875
 40
1.0
 40
1.0
 40
1.0
 40
1.0
 10
57.4316380328
 20
128.8279081397
 30
0.0
 10
57.4503579565
 20
128.6379430888
 30
0.0
 10
57.6340630649
 20
128.2616944466
 30
0.0
 10
58.3090510209
 20
127.7887599498
 30
0.0
 10
59.2869647362
 20
127.4749526676
 30
0.0
 10
60.4280027578
 20
127.3651136216
 30
0.0
 10
61.5690408215
 20
127.4749525583
 30
0.0
 10
62.546954657
 20
127.7887597469
 30
0.0
 10
63.2219427942
 20
128.261694179
 30
0.0
 10
63.4056480466
 20
128.6379428037
 30
0.0
 10
63.4243680431
 20
128.8279078528
 30
0.0
  0
SPLINE
  5
35A
100
AcDbEntity
  8
0
100
AcDbSpline
 62
7
  6
BYLAYER
 70
0
 71
3
 72
13
 73
9
 74
0
 42
0.0000001
 43
0.0000001
 44
0.0000000001
 40
0.0
 40
0.0
 40
0.0
 40
0.0
 40
0.0025946989
 40
0.2053066052
 40
0.4080185115
 40
0.6107304177
 40
0.813442324
 40
1.0
 40
1.0
 40
1.0
 40
1.0
 10
41.4144203208
 20
109.5262408996
 30
0.0
 10
41.4116422348
 20
109.5271706687
 30
0.0
 10
41.1921782073
 20
109.6009432727
 30
0.0
 10
40.8118952006
 20
109.77959387
 30
0.0
 10
40.4697010973
 20
110.1118985898
 30
0.0
 10
40.3884313287
 20
110.4749657853
 30
0.0
 10
40.571706758
 20
110.8208208026
 30
0.0
 10
40.8456128229
 20
111.0202920667
 30
0.0
 10
41.0060687774
 20
111.1051948651
 30
0.0
  0
SPLINE
  5
35B
100
AcDbEntity
  8
0
100
AcDbSpline
 62
7
  6
BYLAYER
 70
0
 71
3
 72
8
 73
4
 74
0
 42
0.0000001
 43
0.0000001
 44
0.0000000001
 40
0.0
 40
0.0
 40
0.0
 40
0.0
 40
1.0
 40
1.0
 40
1.0
 40
1.0
 10
41.1257128082
 20
111.1640404181
 30
0.0
 10
41.2883332424
 20
111.2384366426
 30
0.0
 10
41.4748312911
 20
111.3027423411
 30
0.0
 10
41.6780091271
 20
111.3543561061
 30
0.0
  0
SPLINE
  5
35C
100
AcDbEntity
  8
0
100
AcDbSpline
 62
7
  6
BYLAYER
 70
0
 71
3
 72
13
 73
9
 74
0
 42
0.0000001
 43
0.0000001
 44
0.0000000001
 40
0.0
 40
0.0
 40
0.0
 40
0.0
 40
0.0036515143
 40
0.2061736552
 40
0.4086957961
 40
0.6112179371
 40
0.813740078
 40
1.0
 40
1.0
 40
1.0
 40
1.0
 10
58.9178280702
 20
109.5251024358
 30
0.0
 10
58.9139096808
 20
109.5264091511
 30
0.0
 10
58.6931663734
 20
109.6004790487
 30
0.0
 10
58.3118952006
 20
109.77959387
 30
0.0
 10
57.9697010972
 20
110.1118985898
 30
0.0
 10
57.8884313287
 20
110.4749657853
 30
0.0
 10
58.0716686075
 20
110.8207488097
 30
0.0
 10
58.3454394238
 20
111.0201657754
 30
0.0
 10
58.5057508588
 20
111.1050266092
 30
0.0
  0
SPLINE
  5
35D
100
AcDbEntity
  8
0
100
AcDbSpline
 62
7
  6
BYLAYER
 70
0
 71
3
 72
8
 73
4
 74
0
 42
0.0000001
 43
0.0000001
 44
0.0000000001
 40
0.0
 40
0.0
 40
0.0
 40
0.0
 40
1.0
 40
1.0
 40
1.0
 40
1.0
 10
58.6257355693
 20
111.1640508308
 30
0.0
 10
58.7883499756
 20
111.2384423369
 30
0.0
 10
58.9748392362
 20
111.3027442202
 30
0.0
 10
59.1780066202
 20
111.3543554693
 30
0.0
  0
SPLINE
  5
35E
100
AcDbEntity
  8
0
100
AcDbSpline
 62
7
  6
BYLAYER
 70
0
 71
3
 72
15
 73
11
 74
0
 42
0.0000001
 43
0.0000001
 44
0.0000000001
 40
0.0
 40
0.0
 40
0.0
 40
0.0
 40
0.125
 40
0.25
 40
0.375
 40
0.5
 40
0.625
 40
0.75
 40
0.875
 40
1.0
 40
1.0
 40
1.0
 40
1.0
 10
57.4316380596
 20
17.1755453695
 30
0.0
 10
57.450358052
 20
17.3655104167
 30
0.0
 10
57.6340632934
 20
17.7417590383
 30
0.0
 10
58.3090514077
 20
18.2146934706
 30
0.0
 10
59.2869652197
 20
18.5285006657
 30
0.0
 10
60.4280032654
 20
18.638339615
 30
0.0
 10
61.5690412806
 20
18.5285005865
 30
0.0
 10
62.5469550055
 20
18.2146933236
 30
0.0
 10
63.2219429886
 20
17.7417588443
 30
0.0
 10
63.4056481254
 20
17.36551021
 30
0.0
 10
63.4243680651
 20
17.1755451615
 30
0.0
  0
SPLINE
  5
35F
100
AcDbEntity
  8
0
100
AcDbSpline
 62
7
  6
BYLAYER
 70
0
 71
3
 72
15
 73
11
 74
0
 42
0.0000001
 43
0.0000001
 44
0.0000000001
 40
0.0
 40
0.0
 40
0.0
 40
0.0
 40
0.125
 40
0.25
 40
0.375
 40
0.5
 40
0.625
 40
0.75
 40
0.875
 40
1.0
 40
1.0
 40
1.0
 40
1.0
 10
39.9316380611
 20
17.1755453846
 30
0.0
 10
39.9503580576
 20
17.3655104337
 30
0.0
 10
40.13406331
 20
17.7417590584
 30
0.0
 10
40.8090514472
 20
18.2146934905
 30
0.0
 10
41.7869652827
 20
18.5285006791
 30
0.0
 10
42.9280033464
 20
18.6383396158
 30
0.0
 10
44.069041368
 20
18.5285005699
 30
0.0
 10
45.0469550833
 20
18.2146932876
 30
0.0
 10
45.7219430393
 20
17.7417587908
 30
0.0
 10
45.9056481477
 20
17.3655101486
 30
0.0
 10
45.9243680714
 20
17.1755450977
 30
0.0
  0
SPLINE
  5
360
100
AcDbEntity
  8
0
100
AcDbSpline
 62
7
  6
BYLAYER
 70
0
 71
3
 72
8
 73
4
 74
0
 42
0.0000001
 43
0.0000001
 44
0.0000000001
 40
0.0
 40
0.0
 40
0.0
 40
0.0
 40
1.0
 40
1.0
 40
1.0
 40
1.0
 10
44.1779992189
 20
34.6490977008
 30
0.0
 10
44.381149571
 20
34.7007046085
 30
0.0
 10
44.5676246012
 20
34.7650000219
 30
0.0
 10
44.7302293904
 20
34.8393835846
 30
0.0
  0
SPLINE
  5
361
100
AcDbEntity
  8
0
100
AcDbSpline
 62
7
  6
BYLAYER
 70
0
 71
3
 72
16
 73
12
 74
0
 42
0.0000001
 43
0.0000001
 44
0.0000000001
 40
0.0
 40
0.0
 40
0.0
 40
0.0
 40
0.1033532088
 40
0.2154480567
 40
0.3275429046
 40
0.4396377525
 40
0.5517326004
 40
0.6638274483
 40
0.7759222962
 40
0.8880171441
 40
1.0
 40
1.0
 40
1.0
 40
1.0
 10
44.849044558
 20
34.897786247
 30
0.0
 10
45.0099064059
 20
34.9828067154
 30
0.0
 10
45.2841922622
 20
35.1824303589
 30
0.0
 10
45.4675747755
 20
35.5284874521
 30
0.0
 10
45.386305007
 20
35.8915546476
 30
0.0
 10
45.0441109036
 20
36.2238593674
 30
0.0
 10
44.4773138758
 20
36.490131133
 30
0.0
 10
43.7460733411
 20
36.6621078588
 30
0.0
 10
42.9280030521
 20
36.7215359986
 30
0.0
 10
42.1102052031
 20
36.66212765
 30
0.0
 10
41.6229261343
 20
36.5475712355
 30
0.0
 10
41.4067479851
 20
36.4746341692
 30
0.0
  0
SPLINE
  5
362
100
AcDbEntity
  8
0
100
AcDbSpline
 62
7
  6
BYLAYER
 70
0
 71
3
 72
8
 73
4
 74
0
 42
0.0000001
 43
0.0000001
 44
0.0000000001
 40
0.0
 40
0.0
 40
0.0
 40
0.0
 40
1.0
 40
1.0
 40
1.0
 40
1.0
 10
61.6779967383
 20
34.6490970706
 30
0.0
 10
61.8811801207
 20
34.7007122313
 30
0.0
 10
62.0676828101
 20
34.7650200178
 30
0.0
 10
62.2303063912
 20
34.8394188102
 30
0.0
  0
SPLINE
  5
363
100
AcDbEntity
  8
0
100
AcDbSpline
 62
7
  6
BYLAYER
 70
0
 71
3
 72
16
 73
12
 74
0
 42
0.0000001
 43
0.0000001
 44
0.0000000001
 40
0.0
 40
0.0
 40
0.0
 40
0.0
 40
0.1035322493
 40
0.2156811113
 40
0.3278299733
 40
0.4399788353
 40
0.5521276974
 40
0.6642765594
 40
0.7764254214
 40
0.8885742834
 40
1.0
 40
1.0
 40
1.0
 40
1.0
 10
62.3484412594
 20
34.8974675079
 30
0.0
 10
62.509577443
 20
34.9825673484
 30
0.0
 10
62.7841199398
 20
35.1822938808
 30
0.0
 10
62.9675747755
 20
35.5284874521
 30
0.0
 10
62.886305007
 20
35.8915546476
 30
0.0
 10
62.5441109036
 20
36.2238593674
 30
0.0
 10
61.9773138758
 20
36.490131133
 30
0.0
 10
61.2460733411
 20
36.6621078588
 30
0.0
 10
60.4280030521
 20
36.7215359986
 30
0.0
 10
59.6116910922
 20
36.6622355914
 30
0.0
 10
59.125583076
 20
36.5481952088
 30
0.0
 10
58.9102878233
 20
36.4758262638
 30
0.0
  0
SPLINE
  5
364
100
AcDbEntity
  8
0
100
AcDbSpline
 62
7
  6
BYLAYER
 70
0
 71
3
 72
8
 73
4
 74
0
 42
0.0000001
 43
0.0000001
 44
0.0000000001
 40
0.0
 40
0.0
 40
0.0
 40
0.0
 40
1.0
 40
1.0
 40
1.0
 40
1.0
 10
41.4067479851
 20
36.4746341692
 30
0.0
 10
41.2558047563
 20
36.4237069301
 30
0.0
 10
41.1181918925
 20
36.3651307212
 30
0.0
 10
40.9973123497
 20
36.300504199
 30
0.0
  0
SPLINE
  5
365
100
AcDbEntity
  8
0
100
AcDbSpline
 62
7
  6
BYLAYER
 70
0
 71
3
 72
12
 73
8
 74
0
 42
0.0000001
 43
0.0000001
 44
0.0000000001
 40
0.0
 40
0.0
 40
0.0
 40
0.0
 40
0.0717985117
 40
0.3083970783
 40
0.5449956448
 40
0.7815942113
 40
1.0
 40
1.0
 40
1.0
 40
1.0
 10
40.9973123497
 20
36.300504199
 30
0.0
 10
40.9447241366
 20
36.2723886616
 30
0.0
 10
40.7324447235
 20
36.146705003
 30
0.0
 10
40.4697010972
 20
35.8915546476
 30
0.0
 10
40.3884313287
 20
35.5284874521
 30
0.0
 10
40.5718823302
 20
35.1823011163
 30
0.0
 10
40.8464112182
 20
34.9825800382
 30
0.0
 10
41.0075328535
 20
34.8974844036
 30
0.0
  0
SPLINE
  5
366
100
AcDbEntity
  8
0
100
AcDbSpline
 62
7
  6
BYLAYER
 70
0
 71
3
 72
8
 73
4
 74
0
 42
0.0000001
 43
0.0000001
 44
0.0000000001
 40
0.0
 40
0.0
 40
0.0
 40
0.0
 40
1.0
 40
1.0
 40
1.0
 40
1.0
 10
41.1257698235
 20
34.8393867366
 30
0.0
 10
41.2883768432
 20
34.7650015601
 30
0.0
 10
41.4748550586
 20
34.7007048565
 30
0.0
 10
41.6780091647
 20
34.6490971217
 30
0.0
  0
SPLINE
  5
367
100
AcDbEntity
  8
0
100
AcDbSpline
 62
7
  6
BYLAYER
 70
0
 71
3
 72
8
 73
4
 74
0
 42
0.0000001
 43
0.0000001
 44
0.0000000001
 40
0.0
 40
0.0
 40
0.0
 40
0.0
 40
1.0
 40
1.0
 40
1.0
 40
1.0
 10
58.9102878233
 20
36.4758262638
 30
0.0
 10
58.7589310113
 20
36.4249494671
 30
0.0
 10
58.620914035
 20
36.3663904489
 30
0.0
 10
58.4996540019
 20
36.3017542575
 30
0.0
  0
SPLINE
  5
368
100
AcDbEntity
  8
0
100
AcDbSpline
 62
7
  6
BYLAYER
 70
0
 71
3
 72
12
 73
8
 74
0
 42
0.0000001
 43
0.0000001
 44
0.0000000001
 40
0.0
 40
0.0
 40
0.0
 40
0.0
 40
0.066775737
 40
0.304696777
 40
0.5426178171
 40
0.7805388571
 40
1.0
 40
1.0
 40
1.0
 40
1.0
 10
58.4855138446
 20
36.294148231
 30
0.0
 10
58.4373179489
 20
36.2679864621
 30
0.0
 10
58.2298442906
 20
36.1441797225
 30
0.0
 10
57.9697010972
 20
35.8915546476
 30
0.0
 10
57.8884313287
 20
35.5284874521
 30
0.0
 10
58.0718386929
 20
35.1823834633
 30
0.0
 10
58.3462127217
 20
34.9827244636
 30
0.0
 10
58.5071688163
 20
34.8976767128
 30
0.0
  0
SPLINE
  5
369
100
AcDbEntity
  8
0
100
AcDbSpline
 62
7
  6
BYLAYER
 70
0
 71
3
 72
8
 73
4
 74
0
 42
0.0000001
 43
0.0000001
 44
0.0000000001
 40
0.0
 40
0.0
 40
0.0
 40
0.0
 40
1.0
 40
1.0
 40
1.0
 40
1.0
 10
58.6257803298
 20
34.8393819305
 30
0.0
 10
58.7883840897
 20
34.7649991501
 30
0.0
 10
58.9748576313
 20
34.7007043665
 30
0.0
 10
59.1780062189
 20
34.6490978701
 30
0.0
  0
SPLINE
  5
36A
100
AcDbEntity
  8
0
100
AcDbSpline
 62
7
  6
BYLAYER
 70
0
 71
3
 72
13
 73
9
 74
0
 42
0.0000001
 43
0.0000001
 44
0.0000000001
 40
0.0
 40
0.0
 40
0.0
 40
0.0
 40
0.1987757343
 40
0.3975648918
 40
0.5963540494
 40
0.795143207
 40
0.9939323646
 40
1.0
 40
1.0
 40
1.0
 40
1.0
 10
62.241265219
 20
34.8126066139
 30
0.0
 10
62.6422241329
 20
34.9741302696
 30
0.0
 10
63.2179278159
 20
35.4071841408
 30
0.0
 10
63.1035694907
 20
36.1604264194
 30
0.0
 10
62.0503411982
 20
36.7526759245
 30
0.0
 10
60.4280096857
 20
36.9762511318
 30
0.0
 10
59.3299476436
 20
36.824928525
 30
0.0
 10
58.8733920133
 20
36.6828756945
 30
0.0
 10
58.8599594515
 20
36.6786119822
 30
0.0
  0
SPLINE
  5
36B
100
AcDbEntity
  8
0
100
AcDbSpline
 62
7
  6
BYLAYER
 70
0
 71
3
 72
8
 73
4
 74
0
 42
0.0000001
 43
0.0000001
 44
0.0000000001
 40
0.0
 40
0.0
 40
0.0
 40
0.0
 40
1.0
 40
1.0
 40
1.0
 40
1.0
 10
58.8223011302
 20
36.6664337847
 30
0.0
 10
58.6536907041
 20
36.6108893273
 30
0.0
 10
58.4999147967
 20
36.5463995906
 30
0.0
 10
58.364575308
 20
36.474987431
 30
0.0
  0
SPLINE
  5
36C
100
AcDbEntity
  8
0
100
AcDbSpline
 62
7
  6
BYLAYER
 70
0
 71
3
 72
10
 73
6
 74
0
 42
0.0000001
 43
0.0000001
 44
0.0000000001
 40
0.0
 40
0.0
 40
0.0
 40
0.0
 40
0.3413888993
 40
0.6827924382
 40
1.0
 40
1.0
 40
1.0
 40
1.0
 10
58.6147612765
 20
111.1908548379
 30
0.0
 10
58.2137885859
 20
111.0293290878
 30
0.0
 10
57.6380742827
 20
110.5962695479
 30
0.0
 10
57.7497395384
 20
109.8608163258
 30
0.0
 10
58.405620383
 20
109.4763070783
 30
0.0
 10
58.8071653936
 20
109.3420428687
 30
0.0
  0
SPLINE
  5
36D
100
AcDbEntity
  8
0
100
AcDbSpline
 62
7
  6
BYLAYER
 70
0
 71
3
 72
11
 73
7
 74
0
 42
0.0000001
 43
0.0000001
 44
0.0000000001
 40
0.0
 40
0.0
 40
0.0
 40
0.0
 40
0.0103223496
 40
0.4159587978
 40
0.821595246
 40
1.0
 40
1.0
 40
1.0
 40
1.0
 10
58.8666680376
 20
109.3227188839
 30
0.0
 10
58.8778918409
 20
109.3191798087
 30
0.0
 10
59.3326924576
 20
109.1781464529
 30
0.0
 10
60.4280096857
 20
109.0272021056
 30
0.0
 10
61.7474056182
 20
109.2090294429
 30
0.0
 10
62.329393002
 20
109.4437127073
 30
0.0
 10
62.4835797832
 20
109.5243417785
 30
0.0
  0
SPLINE
  5
36E
100
AcDbEntity
  8
0
100
AcDbSpline
 62
7
  6
BYLAYER
 70
0
 71
3
 72
13
 73
9
 74
0
 42
0.0000001
 43
0.0000001
 44
0.0000000001
 40
0.0
 40
0.0
 40
0.0
 40
0.0
 40
0.198701029
 40
0.3974095808
 40
0.5961181325
 40
0.7948266843
 40
0.993535236
 40
1.0
 40
1.0
 40
1.0
 40
1.0
 10
44.7412444258
 20
34.8125982375
 30
0.0
 10
45.1422181522
 20
34.9741243098
 30
0.0
 10
45.7179318869
 20
35.4071839946
 30
0.0
 10
45.6035643034
 20
36.1604312358
 30
0.0
 10
44.5503346559
 20
36.7526774135
 30
0.0
 10
42.9280070827
 20
36.9762507146
 30
0.0
 10
41.8288608621
 20
36.82477865
 30
0.0
 10
41.3716122626
 20
36.6823215785
 30
0.0
 10
41.3573074259
 20
36.6777690822
 30
0.0
  0
SPLINE
  5
36F
100
AcDbEntity
  8
0
100
AcDbSpline
 62
7
  6
BYLAYER
 70
0
 71
3
 72
8
 73
4
 74
0
 42
0.0000001
 43
0.0000001
 44
0.0000000001
 40
0.0
 40
0.0
 40
0.0
 40
0.0
 40
1.0
 40
1.0
 40
1.0
 40
1.0
 10
41.3268409187
 20
36.667925965
 30
0.0
 10
41.1597078822
 20
36.6131137896
 30
0.0
 10
41.0070730533
 20
36.5495222855
 30
0.0
 10
40.8724279479
 20
36.4791123106
 30
0.0
  0
SPLINE
  5
370
100
AcDbEntity
  8
0
100
AcDbSpline
 62
7
  6
BYLAYER
 70
0
 71
3
 72
10
 73
6
 74
0
 42
0.0000001
 43
0.0000001
 44
0.0000000001
 40
0.0
 40
0.0
 40
0.0
 40
0.0
 40
0.3402511501
 40
0.6805195178
 40
1.0
 40
1.0
 40
1.0
 40
1.0
 10
41.1147407266
 20
111.1908465596
 30
0.0
 10
40.7137760141
 20
111.029320643
 30
0.0
 10
40.1380728401
 20
110.5962625578
 30
0.0
 10
40.2501155706
 20
109.8583581316
 30
0.0
 10
40.9122877927
 20
109.4724101014
 30
0.0
 10
41.3198748774
 20
109.3378196769
 30
0.0
  0
SPLINE
  5
371
100
AcDbEntity
  8
0
100
AcDbSpline
 62
7
  6
BYLAYER
 70
0
 71
3
 72
11
 73
7
 74
0
 42
0.0000001
 43
0.0000001
 44
0.0000000001
 40
0.0
 40
0.0
 40
0.0
 40
0.0
 40
0.0110794761
 40
0.4151653253
 40
0.8192511744
 40
1.0
 40
1.0
 40
1.0
 40
1.0
 10
41.3640624356
 20
109.3235415385
 30
0.0
 10
41.3761452581
 20
109.3197217726
 30
0.0
 10
41.8316270842
 20
109.1782933775
 30
0.0
 10
42.9280070827
 20
109.0272025228
 30
0.0
 10
44.251449479
 20
109.2095863953
 30
0.0
 10
44.8354357683
 20
109.4461548238
 30
0.0
 10
44.9914294686
 20
109.5284650971
 30
0.0
  0
SPLINE
  5
372
100
AcDbEntity
  8
0
100
AcDbSpline
 62
7
  6
BYLAYER
 70
0
 71
3
 72
10
 73
6
 74
0
 42
0.0000001
 43
0.0000001
 44
0.0000000001
 40
0.0
 40
0.0
 40
0.0
 40
0.0
 40
0.2165146012
 40
0.6082590754
 40
1.0
 40
1.0
 40
1.0
 40
1.0
 10
58.364575308
 20
36.474987431
 30
0.0
 10
58.1718271086
 20
36.3732834471
 30
0.0
 10
57.7353887591
 20
36.0481193573
 30
0.0
 10
57.6380729934
 20
35.4071751979
 30
0.0
 10
58.2138080568
 20
34.9741095035
 30
0.0
 10
58.6148019607
 20
34.8125820108
 30
0.0
  0
SPLINE
  5
373
100
AcDbEntity
  8
0
100
AcDbSpline
 62
7
  6
BYLAYER
 70
0
 71
3
 72
10
 73
6
 74
0
 42
0.0000001
 43
0.0000001
 44
0.0000000001
 40
0.0
 40
0.0
 40
0.0
 40
0.0
 40
0.2188095582
 40
0.6094114604
 40
1.0
 40
1.0
 40
1.0
 40
1.0
 10
62.4835797832
 20
109.5243417785
 30
0.0
 10
62.6799653767
 20
109.6270379233
 30
0.0
 10
63.1203353477
 20
109.953458239
 30
0.0
 10
63.2179290859
 20
110.5962774615
 30
0.0
 10
62.6422049526
 20
111.0293373954
 30
0.0
 10
62.2412251423
 20
111.1908627678
 30
0.0
  0
SPLINE
  5
374
100
AcDbEntity
  8
0
100
AcDbSpline
 62
7
  6
BYLAYER
 70
0
 71
3
 72
10
 73
6
 74
0
 42
0.0000001
 43
0.0000001
 44
0.0000000001
 40
0.0
 40
0.0
 40
0.0
 40
0.0
 40
0.2188055108
 40
0.6094061452
 40
1.0
 40
1.0
 40
1.0
 40
1.0
 10
40.8724279479
 20
36.4791123106
 30
0.0
 10
40.676045647
 20
36.3764180994
 30
0.0
 10
40.2356766293
 20
36.0500013979
 30
0.0
 10
40.1380715727
 20
35.4071823326
 30
0.0
 10
40.7137951533
 20
34.9741181976
 30
0.0
 10
41.1147807176
 20
34.812590568
 30
0.0
  0
SPLINE
  5
375
100
AcDbEntity
  8
0
100
AcDbSpline
 62
7
  6
BYLAYER
 70
0
 71
3
 72
10
 73
6
 74
0
 42
0.0000001
 43
0.0000001
 44
0.0000000001
 40
0.0
 40
0.0
 40
0.0
 40
0.0
 40
0.2165152713
 40
0.6082584578
 40
1.0
 40
1.0
 40
1.0
 40
1.0
 10
44.9914294686
 20
109.5284650971
 30
0.0
 10
45.1841785424
 20
109.6301693896
 30
0.0
 10
45.6206168409
 20
109.9553333438
 30
0.0
 10
45.7179331702
 20
110.5962776946
 30
0.0
 10
45.1421987725
 20
111.0293435051
 30
0.0
 10
44.7412039323
 20
111.1908713117
 30
0.0
  0
ENDSEC
  0
SECTION
  2
OBJECTS
  0
DICTIONARY
  5
C
100
AcDbDictionary
280
0
281
1
  3
ACAD_GROUP
350
D
  3
ACAD_MLINESTYLE
350
17
  3
ACAD_LAYOUT
350
1A
  3
ACAD_PLOTSETTINGS
350
19
  3
ACAD_PLOTSTYLENAME
350
E
  0
DICTIONARY
  5
D
102
{ACAD_REACTORS
330
C
102
}
100
AcDbDictionary
280
0
281
1
  0
ACDBDICTIONARYWDFLT
  5
E
102
{ACAD_REACTORS
330
C
102
}
100
AcDbDictionary
281
1
  3
Normal
350
F
100
AcDbDictionaryWithDefault
340
F
  0
DICTIONARY
  5
17
102
{ACAD_REACTORS
330
C
102
}
100
AcDbDictionary
280
0
281
1
  3
Standard
350
18
  0
DICTIONARY
  5
19
102
{ACAD_REACTORS
330
C
102
}
100
AcDbDictionary
281
1
  0
DICTIONARY
  5
1A
102
{ACAD_REACTORS
330
C
102
}
100
AcDbDictionary
281
1
  3
Model
350
376
  3
Layout1
350
377
  0
ACDBPLACEHOLDER
  5
F
102
{ACAD_REACTORS
330
E
102
}
  0
MLINESTYLE
  5
18
102
{ACAD_REACTORS
330
17
102
}
100
AcDbMlineStyle
  2
STANDARD
 70
0
  3

 62
256
 51
90.0
 52
90.0
 71
2
 49
0.5
 62
256
  6
BYLAYER
 49
-0.5
 62
256
  6
BYLAYER
  0
LAYOUT
  5
376
102
{ACAD_REACTORS
330
1A
102
}
100
AcDbPlotSettings
  1

  2
none_device
  4

  6

 40
0.0
 41
0.0
 42
0.0
 43
0.0
 44
210.0
 45
297.0
 46
0.0
 47
0.0
 48
0.0
 49
0.0
140
0.0
141
0.0
142
1.0
143
1.0
 70
1024
 72
1
 73
0
 74
0
  7

 75
0
147
1.0
148
0.0
149
0.0
100
AcDbLayout
  1
Model
 70
0
 71
0
 10
0.0
 20
0.0
 11
210.0
 21
297.0
 12
0.0
 22
0.0
 32
0.0
 14
0.0
 24
0.0
 34
0.0
 15
0.0
 25
0.0
 35
0.0
146
0.0
 13
0.0
 23
0.0
 33
0.0
 16
1.0
 26
0.0
 36
0.0
 17
0.0
 27
1.0
 37
0.0
 76
0
330
210
345
0
346
0
  0
LAYOUT
  5
377
102
{ACAD_REACTORS
330
1A
102
}
100
AcDbPlotSettings
  1

  2
none_device
  4

  6

 40
0.0
 41
0.0
 42
0.0
 43
0.0
 44
210.0
 45
297.0
 46
0.0
 47
0.0
 48
0.0
 49
0.0
140
0.0
141
0.0
142
1.0
143
1.0
 70
0
 72
1
 73
0
 74
0
  7

 75
0
147
1.0
148
0.0
149
0.0
100
AcDbLayout
  1
Layout1
 70
0
 71
1
 10
0.0
 20
0.0
 11
210.0
 21
297.0
 12
0.0
 22
0.0
 32
0.0
 14
0.0
 24
0.0
 34
0.0
 15
0.0
 25
0.0
 35
0.0
146
0.0
 13
0.0
 23
0.0
 33
0.0
 16
1.0
 26
0.0
 36
0.0
 17
0.0
 27
1.0
 37
0.0
 76
0
330
211
345
0
346
0
  0
ENDSEC
  0
EOF
