999
DXF file: C:\Users\sesa63760\Dev\_Creo\CAD\MCADID0004915_3D-CAD\drw0001_2.dxf
999
Pro/ENGINEER 2019471 by Parametric Technology Corporation
  0
SECTION
  2
HEADER
  9
$ACADVER
  1
AC1024
  9
$DWGCODEPAGE
  3
ANSI_1252
  9
$EXTMAX
 10
236.6796899739
 20
334.7327043916
 30
0.0
  9
$EXTMIN
 10
0.0
 20
0.0
 30
0.0
  9
$LIMMIN
 10
0.0
 20
0.0
  9
$LIMMAX
 10
236.6796899739
 20
334.7327043916
  9
$VIEWCTR
 10
118.3398449869
 20
167.3663521958
  9
$VIEWSIZE
 40
334.7327043916
  9
$CLAYER
  8
0
  9
$LTSCALE
 40
21.8196133233
  9
$CELTYPE
  6
BYLAYER
  9
$DIMSCALE
 40
1.0
  9
$DIMASZ
 40
2.8176153568
  9
$DIMEXO
 40
1.0
  9
$DIMDLI
 40
15.0753692052
  9
$DIMEXE
 40
1.0
  9
$DIMCEN
 40
3.5704821802
  9
$DIMLFAC
 40
1.0
  9
$DIMBLK
  1
_FILLED
  9
$DIMALT
 70
0
  9
$DIMALTF
 40
0.0393700787
  9
$DIMTXT
 40
3.9446614996
  9
$DIMTOL
 70
1
  9
$DIMLIM
 70
0
  9
$DIMTFAC
 40
1.0
  9
$DIMTP
 40
0.01
  9
$DIMTM
 40
0.01
  9
$DIMGAP
 40
0.625
  9
$DIMDSEP
 70
46
  9
$AUNITS
 70
0
  9
$PDMODE
 70
3
  9
$PDSIZE
 40
0.3125
  9
$HANDSEED
  5
3A6
  9
$TILEMODE
 70
1
  9
$MEASUREMENT
 70
1
  9
$INSUNITS
 70
4
  0
ENDSEC
  0
SECTION
  2
CLASSES
  0
CLASS
  1
ACDBDICTIONARYWDFLT
  2
AcDbDictionaryWithDefault
  3
AutoCAD 2000
 90
0
 91
1
280
0
281
0
  0
CLASS
  1
ACDBPLACEHOLDER
  2
AcDbPlaceHolder
  3
AutoCAD 2000
 90
0
 91
1
280
0
281
0
  0
CLASS
  1
LAYOUT
  2
AcDbLayout
  3
AutoCAD 2000
 90
0
 91
0
280
0
281
0
  0
ENDSEC
  0
SECTION
  2
TABLES
  0
TABLE
  2
VPORT
  5
8
100
AcDbSymbolTable
 70
2
  0
VPORT
  5
1F4
100
AcDbSymbolTableRecord
100
AcDbViewportTableRecord
  2
*ACTIVE
 70
0
 10
0.0
 20
0.0
 11
1.0
 21
1.0
 12
118.3398449869
 22
167.3663521958
 13
0.0
 23
0.0
 14
1.0
 24
1.0
 15
0.0
 25
0.0
 16
0.0
 26
0.0
 36
1.0
 17
0.0
 27
0.0
 37
0.0
 40
334.7327043916
 41
0.7070707071
 42
50.0
 43
0.0
 44
0.0
 50
0.0
 51
0.0
 71
0
 72
100
 73
1
 74
1
 75
0
 76
0
 77
0
 78
0
  0
ENDTAB
  0
TABLE
  2
LTYPE
  5
5
100
AcDbSymbolTable
 70
6
  0
LTYPE
  5
14
100
AcDbSymbolTableRecord
100
AcDbLinetypeTableRecord
  2
BYBLOCK
 70
0
  3

 72
65
 73
0
 40
0.0
  0
LTYPE
  5
15
100
AcDbSymbolTableRecord
100
AcDbLinetypeTableRecord
  2
BYLAYER
 70
0
  3

 72
65
 73
0
 40
0.0
  0
LTYPE
  5
16
100
AcDbSymbolTableRecord
100
AcDbLinetypeTableRecord
  2
CONTINUOUS
 70
64
  3
Solid line
 72
65
 73
0
 40
0.0
  0
LTYPE
  5
1F5
100
AcDbSymbolTableRecord
100
AcDbLinetypeTableRecord
  2
CENTER
 70
64
  3
____ _ ____ _ ____ _ ____ _ ____ _ ____ _ ____
 72
65
 73
4
 40
0.6
 49
0.375
 74
0
 49
-0.075
 74
0
 49
0.075
 74
0
 49
-0.075
 74
0
  0
LTYPE
  5
1F6
100
AcDbSymbolTableRecord
100
AcDbLinetypeTableRecord
  2
HIDDEN
 70
64
  3
- - - - - - - - - - - - - - - - - - - -
 72
65
 73
2
 40
0.2
 49
0.1
 74
0
 49
-0.1
 74
0
  0
LTYPE
  5
1F7
100
AcDbSymbolTableRecord
100
AcDbLinetypeTableRecord
  2
PHANTOM
 70
64
  3
_____ _ _ _____ _ _ _____ _ _ _____
 72
65
 73
6
 40
0.8
 49
0.45
 74
0
 49
-0.05
 74
0
 49
0.1
 74
0
 49
-0.05
 74
0
 49
0.1
 74
0
 49
-0.05
 74
0
  0
LTYPE
  5
1F8
100
AcDbSymbolTableRecord
100
AcDbLinetypeTableRecord
  2
DOT
 70
64
  3
. . . . . . . . . . . . . . . . . . . .
 72
65
 73
2
 40
0.2
 49
0.1
 74
0
 49
-0.1
 74
0
  0
LTYPE
  5
1F9
100
AcDbSymbolTableRecord
100
AcDbLinetypeTableRecord
  2
DASHED
 70
64
  3
- - - - - - - - - - - - - - - - - - - -
 72
65
 73
2
 40
0.2
 49
0.1
 74
0
 49
-0.1
 74
0
  0
ENDTAB
  0
TABLE
  2
LAYER
  5
2
100
AcDbSymbolTable
 70
36
  0
LAYER
  5
10
100
AcDbSymbolTableRecord
100
AcDbLayerTableRecord
  2
0
 70
0
 62
7
  6
CONTINUOUS
370
-3
390
F
  0
LAYER
  5
1FA
100
AcDbSymbolTableRecord
100
AcDbLayerTableRecord
  2
DEFAULT_1
 70
0
 62
7
  6
CENTER
370
-3
390
F
  0
LAYER
  5
1FB
100
AcDbSymbolTableRecord
100
AcDbLayerTableRecord
  2
DEFAULT_2
 70
0
 62
7
  6
HIDDEN
370
-3
390
F
  0
LAYER
  5
1FC
100
AcDbSymbolTableRecord
100
AcDbLayerTableRecord
  2
DEFAULT_3
 70
0
 62
7
  6
PHANTOM
370
-3
390
F
  0
LAYER
  5
1FD
100
AcDbSymbolTableRecord
100
AcDbLayerTableRecord
  2
00_COMPONENTS
 70
0
 62
7
  6
CONTINUOUS
370
-3
390
F
  0
LAYER
  5
1FE
100
AcDbSymbolTableRecord
100
AcDbLayerTableRecord
  2
01_1_DEFAULT_DATUMS
 70
0
 62
7
  6
CONTINUOUS
370
-3
390
F
  0
LAYER
  5
1FF
100
AcDbSymbolTableRecord
100
AcDbLayerTableRecord
  2
01_PLANES
 70
0
 62
7
  6
CONTINUOUS
370
-3
390
F
  0
LAYER
  5
200
100
AcDbSymbolTableRecord
100
AcDbLayerTableRecord
  2
02_COORD_SYS
 70
0
 62
7
  6
CONTINUOUS
370
-3
390
F
  0
LAYER
  5
201
100
AcDbSymbolTableRecord
100
AcDbLayerTableRecord
  2
03_AXES
 70
0
 62
7
  6
CONTINUOUS
370
-3
390
F
  0
LAYER
  5
202
100
AcDbSymbolTableRecord
100
AcDbLayerTableRecord
  2
04_POINTS
 70
0
 62
7
  6
CONTINUOUS
370
-3
390
F
  0
LAYER
  5
203
100
AcDbSymbolTableRecord
100
AcDbLayerTableRecord
  2
05_CURVES
 70
0
 62
7
  6
CONTINUOUS
370
-3
390
F
  0
LAYER
  5
204
100
AcDbSymbolTableRecord
100
AcDbLayerTableRecord
  2
06_SURFS
 70
0
 62
7
  6
CONTINUOUS
370
-3
390
F
  0
LAYER
  5
205
100
AcDbSymbolTableRecord
100
AcDbLayerTableRecord
  2
07_COSMETICS
 70
0
 62
7
  6
CONTINUOUS
370
-3
390
F
  0
LAYER
  5
206
100
AcDbSymbolTableRecord
100
AcDbLayerTableRecord
  2
10_NOTES
 70
0
 62
7
  6
CONTINUOUS
370
-3
390
F
  0
LAYER
  5
207
100
AcDbSymbolTableRecord
100
AcDbLayerTableRecord
  2
11_NOTES_PUB
 70
0
 62
7
  6
CONTINUOUS
370
-3
390
F
  0
LAYER
  5
208
100
AcDbSymbolTableRecord
100
AcDbLayerTableRecord
  2
13_REF_GTOL
 70
0
 62
7
  6
CONTINUOUS
370
-3
390
F
  0
LAYER
  5
209
100
AcDbSymbolTableRecord
100
AcDbLayerTableRecord
  2
16_MISC
 70
0
 62
7
  6
CONTINUOUS
370
-3
390
F
  0
LAYER
  5
20A
100
AcDbSymbolTableRecord
100
AcDbLayerTableRecord
  2
17_NO_PRINT
 70
0
 62
7
  6
CONTINUOUS
370
-3
390
F
  0
LAYER
  5
20B
100
AcDbSymbolTableRecord
100
AcDbLayerTableRecord
  2
18_DATUM_CAMS_JOINTS
 70
0
 62
7
  6
CONTINUOUS
370
-3
390
F
  0
LAYER
  5
20C
100
AcDbSymbolTableRecord
100
AcDbLayerTableRecord
  2
19_DATUM_FUNCTIONAL
 70
0
 62
7
  6
CONTINUOUS
370
-3
390
F
  0
LAYER
  5
20D
100
AcDbSymbolTableRecord
100
AcDbLayerTableRecord
  2
20_DATUM_KINEMATIC_SCHEME
 70
0
 62
7
  6
CONTINUOUS
370
-3
390
F
  0
ENDTAB
  0
TABLE
  2
STYLE
  5
3
100
AcDbSymbolTable
 70
1
  0
STYLE
  5
11
100
AcDbSymbolTableRecord
100
AcDbTextStyleTableRecord
  2
STANDARD
 70
0
 40
0.0
 41
1.0
 50
0.0
 71
0
 42
0.2
  3
ARIAL.TTF
  4

  0
STYLE
  5
20E
100
AcDbSymbolTableRecord
100
AcDbTextStyleTableRecord
  2
TEXTSTYLE_1
 70
0
 40
0.0
 41
0.8
 50
0.0
 71
0
 42
0.2
  3
gdt
  4

  0
ENDTAB
  0
TABLE
  2
VIEW
  5
6
100
AcDbSymbolTable
 70
0
  0
ENDTAB
  0
TABLE
  2
UCS
  5
7
100
AcDbSymbolTable
 70
0
  0
ENDTAB
  0
TABLE
  2
APPID
  5
9
100
AcDbSymbolTable
 70
1
  0
APPID
  5
20F
100
AcDbSymbolTableRecord
100
AcDbRegAppTableRecord
  2
ACAD
 70
0
  0
ENDTAB
  0
TABLE
  2
BLOCK_RECORD
  5
1
100
AcDbSymbolTable
 70
0
  0
BLOCK_RECORD
  5
210
100
AcDbSymbolTableRecord
100
AcDbBlockTableRecord
  2
*Model_Space
  0
BLOCK_RECORD
  5
211
100
AcDbSymbolTableRecord
100
AcDbBlockTableRecord
  2
*Paper_Space
  0
BLOCK_RECORD
  5
212
100
AcDbSymbolTableRecord
100
AcDbBlockTableRecord
  2
_FILLED
  0
ENDTAB
  0
TABLE
  2
DIMSTYLE
  5
A
100
AcDbSymbolTable
 70
1
100
AcDbDimStyleTable
 71
0
  0
DIMSTYLE
105
213
100
AcDbSymbolTableRecord
100
AcDbDimStyleTableRecord
  2
STANDARD
 70
0
  3

  4

 40
1.0
 41
2.8176153568
 42
1.0
 43
0.38
 44
1.0
 45
0.0
 46
0.0
 47
0.01
 48
0.01
140
3.9446614996
141
0.09
142
0.0
143
25.4
144
1.0
145
0.0
146
1.0
147
0.625
 71
1
 72
0
 73
0
 74
0
 75
0
 76
0
 77
1
 78
8
 79
2
170
0
171
1
172
0
173
0
174
0
175
0
176
0
177
0
178
0
270
2
179
2
271
2
272
2
273
2
274
2
275
0
280
0
281
0
282
0
283
1
284
8
285
0
286
0
287
3
288
0
340
11
278
46
341
212
342
212
343
212
344
212
  0
ENDTAB
  0
ENDSEC
  0
SECTION
  2
BLOCKS
  0
BLOCK
  5
20
100
AcDbEntity
  8
0
100
AcDbBlockBegin
  2
*Model_Space
 70
0
 10
0.0
 20
0.0
 30
0.0
  3
*Model_Space
  1

  0
ENDBLK
  5
21
100
AcDbEntity
  8
0
100
AcDbBlockEnd
  0
BLOCK
  5
1C
100
AcDbEntity
  8
0
100
AcDbBlockBegin
  2
*Paper_Space
 70
0
 10
0.0
 20
0.0
 30
0.0
  3
*Paper_Space
  1

  0
ENDBLK
  5
1D
100
AcDbEntity
  8
0
100
AcDbBlockEnd
  0
BLOCK
  5
214
100
AcDbEntity
  8
0
100
AcDbBlockBegin
  2
_FILLED
 70
64
 10
0.0
 20
0.0
  3
_FILLED
  1

  0
SOLID
  5
215
100
AcDbEntity
  8
0
  6
BYBLOCK
 62
0
100
AcDbTrace
 10
0.0
 20
0.0
 11
-1.0
 21
0.25
 12
-1.0
 22
-0.25
 13
-1.0
 23
-0.25
  0
ENDBLK
  5
216
100
AcDbEntity
  8
0
  6
BYBLOCK
 62
0
100
AcDbBlockEnd
  0
ENDSEC
  0
SECTION
  2
ENTITIES
  0
LINE
  5
217
100
AcDbEntity
  8
0
100
AcDbLine
 62
7
  6
BYLAYER
 10
25.9503408984
 20
226.2775364334
 11
25.9503408984
 21
120.1521266918
  0
LINE
  5
218
100
AcDbEntity
  8
0
100
AcDbLine
 62
7
  6
BYLAYER
 10
26.0070254954
 20
120.1521266918
 11
26.0070254954
 21
110.2233705277
  0
LINE
  5
219
100
AcDbEntity
  8
0
100
AcDbLine
 62
7
  6
BYLAYER
 10
26.4503408958
 20
110.827536434
 11
26.4503408958
 21
115.5275364333
  0
LINE
  5
21A
100
AcDbEntity
  8
0
100
AcDbLine
 62
7
  6
BYLAYER
 10
26.4683055279
 20
120.1521266918
 11
26.4682555827
 21
225.8067036444
  0
LINE
  5
21B
100
AcDbEntity
  8
0
100
AcDbLine
 62
7
  6
BYLAYER
 10
26.5747285421
 20
185.8572212068
 11
26.5747285424
 21
121.6978516599
  0
LINE
  5
21C
100
AcDbEntity
  8
0
100
AcDbLine
 62
7
  6
BYLAYER
 10
27.4677570973
 20
224.8072033964
 11
27.4677570973
 21
185.8572212068
  0
LINE
  5
21D
100
AcDbEntity
  8
0
100
AcDbLine
 62
7
  6
BYLAYER
 10
27.4677570973
 20
121.6978516599
 11
27.4677570971
 21
120.1647841305
  0
LINE
  5
21E
100
AcDbEntity
  8
0
100
AcDbLine
 62
7
  6
BYLAYER
 10
31.1952003577
 20
115.569719923
 11
31.195195545
 21
119.1656216275
  0
LINE
  5
21F
100
AcDbEntity
  8
0
100
AcDbLine
 62
7
  6
BYLAYER
 10
32.6786994646
 20
105.713085051
 11
32.6786994646
 21
105.2775364333
  0
LINE
  5
220
100
AcDbEntity
  8
0
100
AcDbLine
 62
7
  6
BYLAYER
 10
32.7079499242
 20
118.2783574404
 11
32.7079499241
 21
112.776715651
  0
LINE
  5
221
100
AcDbEntity
  8
0
100
AcDbLine
 62
7
  6
BYLAYER
 10
31.194364764
 20
110.76270414
 11
31.1946184806
 21
112.2222886831
  0
LINE
  5
222
100
AcDbEntity
  8
0
100
AcDbLine
 62
7
  6
BYLAYER
 10
31.1949505784
 20
114.1327859554
 11
31.1952003577
 21
115.569719923
  0
LINE
  5
223
100
AcDbEntity
  8
0
100
AcDbLine
 62
7
  6
BYLAYER
 10
30.689316391
 20
109.2243087586
 11
30.6844799585
 21
107.7503428863
  0
LINE
  5
224
100
AcDbEntity
  8
0
100
AcDbLine
 62
7
  6
BYLAYER
 10
31.1909564471
 20
109.724137424
 11
31.194364764
 21
110.76270414
  0
LINE
  5
225
100
AcDbEntity
  8
0
100
AcDbLine
 62
7
  6
BYLAYER
 10
48.7553669636
 20
219.5819564937
 11
48.4509500697
 21
219.2775364354
  0
LINE
  5
226
100
AcDbEntity
  8
0
100
AcDbLine
 62
7
  6
BYLAYER
 10
43.145316733
 20
211.9731163776
 11
43.4497317203
 21
212.2775364322
  0
LINE
  5
227
100
AcDbEntity
  8
0
100
AcDbLine
 62
7
  6
BYLAYER
 10
42.4503408956
 20
213.2769272552
 11
42.1459208427
 21
212.9725409792
  0
LINE
  5
228
100
AcDbEntity
  8
0
100
AcDbLine
 62
7
  6
BYLAYER
 10
49.4503408962
 20
218.2781456112
 11
49.7547609493
 21
218.5825318419
  0
LINE
  5
229
100
AcDbEntity
  8
0
100
AcDbLine
 62
7
  6
BYLAYER
 10
37.8951261722
 20
123.7775364334
 11
37.8951261722
 21
183.7775364334
  0
LINE
  5
22A
100
AcDbEntity
  8
0
100
AcDbLine
 62
7
  6
BYLAYER
 10
40.0003408965
 20
183.7775364334
 11
40.0003408965
 21
182.2775364334
  0
LINE
  5
22B
100
AcDbEntity
  8
0
100
AcDbLine
 62
7
  6
BYLAYER
 10
40.0003408965
 20
125.2775364334
 11
40.0003408965
 21
123.7775364334
  0
LINE
  5
22C
100
AcDbEntity
  8
0
100
AcDbLine
 62
7
  6
BYLAYER
 10
42.1459022278
 20
218.5825475813
 11
42.145899019
 21
212.9725539486
  0
LINE
  5
22D
100
AcDbEntity
  8
0
100
AcDbLine
 62
7
  6
BYLAYER
 10
42.4503408959
 20
218.278145611
 11
42.4503408956
 21
213.2769272552
  0
LINE
  5
22E
100
AcDbEntity
  8
0
100
AcDbLine
 62
7
  6
BYLAYER
 10
42.9503408958
 20
112.7767154285
 11
42.9503408958
 21
118.2783572149
  0
LINE
  5
22F
100
AcDbEntity
  8
0
100
AcDbLine
 62
7
  6
BYLAYER
 10
45.0070254951
 20
105.2258380876
 11
45.0070254951
 21
105.3427381649
  0
LINE
  5
230
100
AcDbEntity
  8
0
100
AcDbLine
 62
7
  6
BYLAYER
 10
46.3070254954
 20
226.2778380877
 11
46.3070254954
 21
224.8072033964
  0
LINE
  5
231
100
AcDbEntity
  8
0
100
AcDbLine
 62
7
  6
BYLAYER
 10
46.4503408958
 20
232.2777376464
 11
46.4503408958
 21
226.2778380877
  0
LINE
  5
232
100
AcDbEntity
  8
0
100
AcDbLine
 62
7
  6
BYLAYER
 10
46.9070254954
 20
101.7752230681
 11
46.9070254954
 21
106.1852592015
  0
LINE
  5
233
100
AcDbEntity
  8
0
100
AcDbLine
 62
7
  6
BYLAYER
 10
46.9070254954
 20
101.738078603
 11
46.9070254954
 21
101.7568391931
  0
LINE
  5
234
100
AcDbEntity
  8
0
100
AcDbLine
 62
7
  6
BYLAYER
 10
46.9211272522
 20
226.2778380877
 11
46.9211725456
 21
231.759730703
  0
LINE
  5
235
100
AcDbEntity
  8
0
100
AcDbLine
 62
7
  6
BYLAYER
 10
47.3503408961
 20
163.7775364333
 11
47.3503408961
 21
146.4775364327
  0
LINE
  5
236
100
AcDbEntity
  8
0
100
AcDbLine
 62
7
  6
BYLAYER
 10
47.9206739327
 20
230.7601202318
 11
47.9206739327
 21
226.2778380877
  0
LINE
  5
237
100
AcDbEntity
  8
0
100
AcDbLine
 62
7
  6
BYLAYER
 10
49.4503408968
 20
213.2769272577
 11
49.4503408962
 21
218.2781456112
  0
LINE
  5
238
100
AcDbEntity
  8
0
100
AcDbLine
 62
7
  6
BYLAYER
 10
49.5003408965
 20
121.6978516599
 11
49.5003408965
 21
125.2775364334
  0
LINE
  5
239
100
AcDbEntity
  8
0
100
AcDbLine
 62
7
  6
BYLAYER
 10
49.5003408965
 20
182.2775364334
 11
49.5003408965
 21
185.8572212068
  0
LINE
  5
23A
100
AcDbEntity
  8
0
100
AcDbLine
 62
7
  6
BYLAYER
 10
49.7547609488
 20
218.0953155689
 11
49.7547829299
 21
218.5825183125
  0
LINE
  5
23B
100
AcDbEntity
  8
0
100
AcDbLine
 62
7
  6
BYLAYER
 10
49.7547796689
 20
212.9725235512
 11
49.7547609488
 21
218.0953155689
  0
LINE
  5
23C
100
AcDbEntity
  8
0
100
AcDbLine
 62
7
  6
BYLAYER
 10
193.507025347
 20
101.2258380877
 11
182.0070254954
 21
101.2258380876
  0
LINE
  5
23D
100
AcDbEntity
  8
0
100
AcDbLine
 62
7
  6
BYLAYER
 10
194.0070254953
 20
101.2775364345
 11
181.9503408958
 21
101.2775364345
  0
LINE
  5
23E
100
AcDbEntity
  8
0
100
AcDbLine
 62
7
  6
BYLAYER
 10
187.1351257524
 20
101.2843800436
 11
194.0070254953
 21
101.2843800436
  0
LINE
  5
23F
100
AcDbEntity
  8
0
100
AcDbLine
 62
7
  6
BYLAYER
 10
46.9070254954
 20
101.7129809448
 11
179.6529211546
 21
101.712980945
  0
LINE
  5
240
100
AcDbEntity
  8
0
100
AcDbLine
 62
7
  6
BYLAYER
 10
46.9070254954
 20
101.738078603
 11
179.6380970617
 21
101.7380788828
  0
LINE
  5
241
100
AcDbEntity
  8
0
100
AcDbLine
 62
7
  6
BYLAYER
 10
187.2978633372
 20
101.7820502947
 11
46.9070254954
 21
101.7820583707
  0
LINE
  5
242
100
AcDbEntity
  8
0
100
AcDbLine
 62
7
  6
BYLAYER
 10
46.9070254954
 20
102.2715252431
 11
188.4503924409
 21
102.2715252431
  0
LINE
  5
243
100
AcDbEntity
  8
0
100
AcDbLine
 62
7
  6
BYLAYER
 10
31.0045579355
 20
105.2258380877
 11
45.0070254951
 21
105.2258380877
  0
LINE
  5
244
100
AcDbEntity
  8
0
100
AcDbLine
 62
7
  6
BYLAYER
 10
32.6786994646
 20
105.2775364333
 11
44.9503408966
 21
105.2775364334
  0
LINE
  5
245
100
AcDbEntity
  8
0
100
AcDbLine
 62
7
  6
BYLAYER
 10
46.2884820772
 20
105.6962111321
 11
46.9070254954
 21
105.6962111321
  0
LINE
  5
246
100
AcDbEntity
  8
0
100
AcDbLine
 62
7
  6
BYLAYER
 10
46.9070254954
 20
105.7449164534
 11
32.681328212
 21
105.7449440513
  0
LINE
  5
247
100
AcDbEntity
  8
0
100
AcDbLine
 62
7
  6
BYLAYER
 10
46.9070254954
 20
106.1852592015
 11
31.4302366669
 21
106.1852589985
  0
LINE
  5
248
100
AcDbEntity
  8
0
100
AcDbLine
 62
7
  6
BYLAYER
 10
60.9503408958
 20
227.377536434
 11
60.9503408958
 21
222.1775364329
  0
LINE
  5
249
100
AcDbEntity
  8
0
100
AcDbLine
 62
7
  6
BYLAYER
 10
62.7070254956
 20
222.7258380877
 11
62.7070254956
 21
224.7258380877
  0
LINE
  5
24A
100
AcDbEntity
  8
0
100
AcDbLine
 62
7
  6
BYLAYER
 10
62.7254161819
 20
224.7258380877
 11
62.7254161819
 21
222.7258380877
  0
LINE
  5
24B
100
AcDbEntity
  8
0
100
AcDbLine
 62
7
  6
BYLAYER
 10
63.0144792592
 20
222.7258380877
 11
63.0144792591
 21
224.7258380877
  0
LINE
  5
24C
100
AcDbEntity
  8
0
100
AcDbLine
 62
7
  6
BYLAYER
 10
63.3026124287
 20
225.9452905838
 11
63.3026124281
 21
222.7258380877
  0
LINE
  5
24D
100
AcDbEntity
  8
0
100
AcDbLine
 62
7
  6
BYLAYER
 10
64.0126855208
 20
222.7258380877
 11
64.0126855208
 21
225.450485734
  0
LINE
  5
24E
100
AcDbEntity
  8
0
100
AcDbLine
 62
7
  6
BYLAYER
 10
67.2892936974
 20
224.7258380877
 11
67.2892936974
 21
222.7258380877
  0
LINE
  5
24F
100
AcDbEntity
  8
0
100
AcDbLine
 62
7
  6
BYLAYER
 10
84.7570254954
 20
213.9258380869
 11
85.4570254947
 21
214.6258380881
  0
LINE
  5
250
100
AcDbEntity
  8
0
100
AcDbLine
 62
7
  6
BYLAYER
 10
89.9570254947
 20
216.4758380877
 11
90.1570254958
 21
216.675838087
  0
LINE
  5
251
100
AcDbEntity
  8
0
100
AcDbLine
 62
7
  6
BYLAYER
 10
30.8430993661
 20
109.377536433
 11
188.9633416362
 21
109.377536433
  0
LINE
  5
252
100
AcDbEntity
  8
0
100
AcDbLine
 62
7
  6
BYLAYER
 10
31.1943760338
 20
110.8275373082
 11
26.4503409246
 21
110.827536434
  0
LINE
  5
253
100
AcDbEntity
  8
0
100
AcDbLine
 62
7
  6
BYLAYER
 10
33.7071289184
 20
111.7775364334
 11
41.9511616777
 21
111.7775364333
  0
LINE
  5
254
100
AcDbEntity
  8
0
100
AcDbLine
 62
7
  6
BYLAYER
 10
31.1945965802
 20
111.9773530949
 11
26.4503409177
 21
111.9773522207
  0
LINE
  5
255
100
AcDbEntity
  8
0
100
AcDbLine
 62
7
  6
BYLAYER
 10
31.1946184806
 20
112.2222886831
 11
26.4503408881
 21
112.2222877771
  0
LINE
  5
256
100
AcDbEntity
  8
0
100
AcDbLine
 62
7
  6
BYLAYER
 10
31.1949505784
 20
114.1327859554
 11
26.4503409036
 21
114.1327850884
  0
LINE
  5
257
100
AcDbEntity
  8
0
100
AcDbLine
 62
7
  6
BYLAYER
 10
188.6064193002
 20
110.834273101
 11
193.3503408958
 21
110.8275377065
  0
LINE
  5
258
100
AcDbEntity
  8
0
100
AcDbLine
 62
7
  6
BYLAYER
 10
188.6080517998
 20
111.9840870275
 11
193.3503408958
 21
111.9773539509
  0
LINE
  5
259
100
AcDbEntity
  8
0
100
AcDbLine
 62
7
  6
BYLAYER
 10
188.6083995572
 20
112.2290220526
 11
193.3503408958
 21
112.2222894697
  0
LINE
  5
25A
100
AcDbEntity
  8
0
100
AcDbLine
 62
7
  6
BYLAYER
 10
188.6109114373
 20
113.9982075476
 11
193.3503408958
 21
113.9914791527
  0
LINE
  5
25B
100
AcDbEntity
  8
0
100
AcDbLine
 62
7
  6
BYLAYER
 10
71.6102478064
 20
227.1147385619
 11
71.6936703732
 21
224.7258380877
  0
LINE
  5
25C
100
AcDbEntity
  8
0
100
AcDbLine
 62
7
  6
BYLAYER
 10
73.0934024346
 20
224.6999450345
 11
73.0062067778
 21
227.1969019494
  0
LINE
  5
25D
100
AcDbEntity
  8
0
100
AcDbLine
 62
7
  6
BYLAYER
 10
71.3718080038
 20
224.7434468338
 11
71.3372052358
 21
226.7258380877
  0
LINE
  5
25E
100
AcDbEntity
  8
0
100
AcDbLine
 62
7
  6
BYLAYER
 10
72.0070254954
 20
222.7258380877
 11
72.0070254954
 21
224.7258380877
  0
LINE
  5
25F
100
AcDbEntity
  8
0
100
AcDbLine
 62
7
  6
BYLAYER
 10
49.3503408961
 20
165.7775364333
 11
47.3503408961
 21
163.7775364333
  0
LINE
  5
260
100
AcDbEntity
  8
0
100
AcDbLine
 62
7
  6
BYLAYER
 10
31.1951149794
 20
114.3777215192
 11
26.4503410215
 21
114.3777206448
  0
LINE
  5
261
100
AcDbEntity
  8
0
100
AcDbLine
 62
7
  6
BYLAYER
 10
26.4503408671
 20
115.5275364333
 11
31.1951930252
 21
115.5275373077
  0
LINE
  5
262
100
AcDbEntity
  8
0
100
AcDbLine
 62
7
  6
BYLAYER
 10
41.9511619006
 20
119.2775364333
 11
33.7071291397
 21
119.2775364333
  0
LINE
  5
263
100
AcDbEntity
  8
0
100
AcDbLine
 62
7
  6
BYLAYER
 10
189.6168378804
 20
120.1520359852
 11
194.0070254953
 21
120.1520355081
  0
LINE
  5
264
100
AcDbEntity
  8
0
100
AcDbLine
 62
7
  6
BYLAYER
 10
25.9503408984
 20
120.1521266918
 11
26.9682017486
 21
120.1521266918
  0
LINE
  5
265
100
AcDbEntity
  8
0
100
AcDbLine
 62
7
  6
BYLAYER
 10
30.1960931647
 20
120.164786972
 11
27.4677570971
 21
120.1647841305
  0
LINE
  5
266
100
AcDbEntity
  8
0
100
AcDbLine
 62
7
  6
BYLAYER
 10
26.5747285424
 20
121.6978516599
 11
49.5003408965
 21
121.6978516599
  0
LINE
  5
267
100
AcDbEntity
  8
0
100
AcDbLine
 62
7
  6
BYLAYER
 10
188.6117084221
 20
114.5595456241
 11
193.3503408958
 21
114.5528177392
  0
LINE
  5
268
100
AcDbEntity
  8
0
100
AcDbLine
 62
7
  6
BYLAYER
 10
188.6130923227
 20
115.5342644934
 11
193.3503408958
 21
115.5275385733
  0
LINE
  5
269
100
AcDbEntity
  8
0
100
AcDbLine
 62
7
  6
BYLAYER
 10
75.4692087618
 20
224.7828089704
 11
75.3820131049
 21
227.2797658853
  0
LINE
  5
26A
100
AcDbEntity
  8
0
100
AcDbLine
 62
7
  6
BYLAYER
 10
75.4175040911
 20
227.2809993497
 11
75.5046997479
 21
224.7840424348
  0
LINE
  5
26B
100
AcDbEntity
  8
0
100
AcDbLine
 62
7
  6
BYLAYER
 10
78.9997470131
 20
224.8547833479
 11
78.9125513563
 21
227.3517402628
  0
LINE
  5
26C
100
AcDbEntity
  8
0
100
AcDbLine
 62
7
  6
BYLAYER
 10
76.0070254954
 20
224.7258380877
 11
76.0070254954
 21
222.7258380877
  0
LINE
  5
26D
100
AcDbEntity
  8
0
100
AcDbLine
 62
7
  6
BYLAYER
 10
79.9503408958
 20
222.1775364329
 11
79.9503408958
 21
224.377536434
  0
LINE
  5
26E
100
AcDbEntity
  8
0
100
AcDbLine
 62
7
  6
BYLAYER
 10
81.5773025376
 20
218.7775364334
 11
81.5773025376
 21
170.7775364333
  0
LINE
  5
26F
100
AcDbEntity
  8
0
100
AcDbLine
 62
7
  6
BYLAYER
 10
188.7431181788
 20
129.9073526418
 11
190.170911728
 21
129.9974994112
  0
LINE
  5
270
100
AcDbEntity
  8
0
100
AcDbLine
 62
7
  6
BYLAYER
 10
190.4024044326
 20
121.9775364334
 11
187.682408757
 21
121.9775364334
  0
LINE
  5
271
100
AcDbEntity
  8
0
100
AcDbLine
 62
7
  6
BYLAYER
 10
189.9700562514
 20
122.3912716529
 11
190.1855838015
 21
122.3912716529
  0
LINE
  5
272
100
AcDbEntity
  8
0
100
AcDbLine
 62
7
  6
BYLAYER
 10
188.1014592881
 20
122.4960339694
 11
183.3195817769
 21
122.4960339694
  0
LINE
  5
273
100
AcDbEntity
  8
0
100
AcDbLine
 62
7
  6
BYLAYER
 10
40.0003408965
 20
123.7775364334
 11
37.8951261722
 21
123.7775364334
  0
LINE
  5
274
100
AcDbEntity
  8
0
100
AcDbLine
 62
7
  6
BYLAYER
 10
49.5003408965
 20
125.2775364334
 11
40.0003408965
 21
125.2775364334
  0
LINE
  5
275
100
AcDbEntity
  8
0
100
AcDbLine
 62
7
  6
BYLAYER
 10
82.363345871
 20
227.1023745377
 11
82.3459297847
 21
227.3517402628
  0
LINE
  5
276
100
AcDbEntity
  8
0
100
AcDbLine
 62
7
  6
BYLAYER
 10
82.4418334849
 20
224.854783348
 11
82.363345871
 21
227.1023745377
  0
LINE
  5
277
100
AcDbEntity
  8
0
100
AcDbLine
 62
7
  6
BYLAYER
 10
83.5503408958
 20
170.7775364333
 11
83.5503408958
 21
218.7775364334
  0
LINE
  5
278
100
AcDbEntity
  8
0
100
AcDbLine
 62
7
  6
BYLAYER
 10
84.1070254954
 20
213.925838087
 11
84.1070254954
 21
211.3008380877
  0
LINE
  5
279
100
AcDbEntity
  8
0
100
AcDbLine
 62
7
  6
BYLAYER
 10
84.1070254954
 20
178.1508380884
 11
84.1070254954
 21
175.5258380884
  0
LINE
  5
27A
100
AcDbEntity
  8
0
100
AcDbLine
 62
7
  6
BYLAYER
 10
84.4570254947
 20
177.7008380873
 11
84.4570254947
 21
175.9758380877
  0
LINE
  5
27B
100
AcDbEntity
  8
0
100
AcDbLine
 62
7
  6
BYLAYER
 10
85.4570254947
 20
216.675838087
 11
85.4570254947
 21
214.6258380881
  0
LINE
  5
27C
100
AcDbEntity
  8
0
100
AcDbLine
 62
7
  6
BYLAYER
 10
85.4570254947
 20
211.3008380874
 11
85.4570254947
 21
178.1508380884
  0
LINE
  5
27D
100
AcDbEntity
  8
0
100
AcDbLine
 62
7
  6
BYLAYER
 10
85.4570254947
 20
174.8258380873
 11
85.4570254947
 21
172.7758380884
  0
LINE
  5
27E
100
AcDbEntity
  8
0
100
AcDbLine
 62
7
  6
BYLAYER
 10
85.4570254947
 20
175.9758380877
 11
85.4570254947
 21
177.7008380873
  0
LINE
  5
27F
100
AcDbEntity
  8
0
100
AcDbLine
 62
7
  6
BYLAYER
 10
85.5570254961
 20
179.6258380881
 11
85.5570254961
 21
178.6258380881
  0
LINE
  5
280
100
AcDbEntity
  8
0
100
AcDbLine
 62
7
  6
BYLAYER
 10
86.2070254947
 20
215.2258380877
 11
86.2070254947
 21
174.2258380877
  0
LINE
  5
281
100
AcDbEntity
  8
0
100
AcDbLine
 62
7
  6
BYLAYER
 10
87.1820335037
 20
211.8758382724
 11
87.1820335037
 21
177.5758378284
  0
LINE
  5
282
100
AcDbEntity
  8
0
100
AcDbLine
 62
7
  6
BYLAYER
 10
87.9503408958
 20
224.377536434
 11
87.9503408958
 21
227.377536434
  0
LINE
  5
283
100
AcDbEntity
  8
0
100
AcDbLine
 62
7
  6
BYLAYER
 10
88.8320174871
 20
177.5758378433
 11
88.8320174871
 21
211.8758383469
  0
LINE
  5
284
100
AcDbEntity
  8
0
100
AcDbLine
 62
7
  6
BYLAYER
 10
89.8070254961
 20
175.2258380876
 11
89.8070254961
 21
214.2258380877
  0
LINE
  5
285
100
AcDbEntity
  8
0
100
AcDbLine
 62
7
  6
BYLAYER
 10
89.107025495
 20
174.2258380877
 11
89.8070254961
 21
175.2258380876
  0
LINE
  5
286
100
AcDbEntity
  8
0
100
AcDbLine
 62
7
  6
BYLAYER
 10
121.2553640406
 20
216.5819570803
 11
120.9509511909
 21
216.2775357667
  0
LINE
  5
287
100
AcDbEntity
  8
0
100
AcDbLine
 62
7
  6
BYLAYER
 10
115.6453169784
 20
208.9731152663
 11
115.9497323748
 21
209.2775360422
  0
LINE
  5
288
100
AcDbEntity
  8
0
100
AcDbLine
 62
7
  6
BYLAYER
 10
114.9503406047
 20
210.2769277443
 11
114.6459184728
 21
209.9725420266
  0
LINE
  5
289
100
AcDbEntity
  8
0
100
AcDbLine
 62
7
  6
BYLAYER
 10
121.9503405191
 20
215.2781462444
 11
122.2547612294
 21
215.582531331
  0
LINE
  5
28A
100
AcDbEntity
  8
0
100
AcDbLine
 62
7
  6
BYLAYER
 10
183.3195330996
 20
129.9073526472
 11
188.7431181786
 21
129.9073526472
  0
LINE
  5
28B
100
AcDbEntity
  8
0
100
AcDbLine
 62
7
  6
BYLAYER
 10
190.9503408958
 20
131.7775364334
 11
188.4482823779
 21
131.7775364334
  0
LINE
  5
28C
100
AcDbEntity
  8
0
100
AcDbLine
 62
7
  6
BYLAYER
 10
194.0070254952
 20
135.652035508
 11
191.9800112534
 21
135.6520359825
  0
LINE
  5
28D
100
AcDbEntity
  8
0
100
AcDbLine
 62
7
  6
BYLAYER
 10
214.0070254954
 20
135.7258380876
 11
194.0070254953
 21
135.7258380876
  0
LINE
  5
28E
100
AcDbEntity
  8
0
100
AcDbLine
 62
7
  6
BYLAYER
 10
213.9503408958
 20
135.7775364333
 11
194.0070254953
 21
135.7775364333
  0
LINE
  5
28F
100
AcDbEntity
  8
0
100
AcDbLine
 62
7
  6
BYLAYER
 10
190.9503408958
 20
135.7775364334
 11
188.4482823768
 21
135.7775364334
  0
LINE
  5
290
100
AcDbEntity
  8
0
100
AcDbLine
 62
7
  6
BYLAYER
 10
213.4325369856
 20
136.24836808
 11
194.0070254952
 21
136.2483227861
  0
LINE
  5
291
100
AcDbEntity
  8
0
100
AcDbLine
 62
7
  6
BYLAYER
 10
90.5570254961
 20
177.7008380873
 11
90.5570254961
 21
175.9758380877
  0
LINE
  5
292
100
AcDbEntity
  8
0
100
AcDbLine
 62
7
  6
BYLAYER
 10
90.5570254961
 20
172.7758380884
 11
90.5570254961
 21
174.8258380873
  0
LINE
  5
293
100
AcDbEntity
  8
0
100
AcDbLine
 62
7
  6
BYLAYER
 10
90.5570254961
 20
178.1508380884
 11
90.5570254961
 21
211.3008380877
  0
LINE
  5
294
100
AcDbEntity
  8
0
100
AcDbLine
 62
7
  6
BYLAYER
 10
90.5570254961
 20
214.6258380881
 11
90.5570254961
 21
216.675838087
  0
LINE
  5
295
100
AcDbEntity
  8
0
100
AcDbLine
 62
7
  6
BYLAYER
 10
91.5570254961
 20
175.9758380877
 11
91.5570254961
 21
177.7008380873
  0
LINE
  5
296
100
AcDbEntity
  8
0
100
AcDbLine
 62
7
  6
BYLAYER
 10
91.9070254954
 20
175.5258380884
 11
91.9070254954
 21
178.1508380884
  0
LINE
  5
297
100
AcDbEntity
  8
0
100
AcDbLine
 62
7
  6
BYLAYER
 10
91.9070254954
 20
211.3008380874
 11
91.9070254954
 21
213.925838087
  0
LINE
  5
298
100
AcDbEntity
  8
0
100
AcDbLine
 62
7
  6
BYLAYER
 10
92.3503408961
 20
218.7775364334
 11
92.3503408961
 21
170.7775364333
  0
LINE
  5
299
100
AcDbEntity
  8
0
100
AcDbLine
 62
7
  6
BYLAYER
 10
94.323379254
 20
170.7775364333
 11
94.323379254
 21
218.7775364334
  0
LINE
  5
29A
100
AcDbEntity
  8
0
100
AcDbLine
 62
7
  6
BYLAYER
 10
92.2920906791
 20
172.7756741929
 11
92.3503408959
 21
216.7796749526
  0
LINE
  5
29B
100
AcDbEntity
  8
0
100
AcDbLine
 62
7
  6
BYLAYER
 10
86.0570254962
 20
172.9758380877
 11
85.857025495
 21
172.7758380884
  0
LINE
  5
29C
100
AcDbEntity
  8
0
100
AcDbLine
 62
7
  6
BYLAYER
 10
91.2570254954
 20
175.5258380884
 11
90.5570254961
 21
174.8258380873
  0
LINE
  5
29D
100
AcDbEntity
  8
0
100
AcDbLine
 62
7
  6
BYLAYER
 10
30.689316391
 20
109.2243087586
 11
31.1909564471
 21
109.724137424
  0
LINE
  5
29E
100
AcDbEntity
  8
0
100
AcDbLine
 62
7
  6
BYLAYER
 10
194.0070254952
 20
137.2478694703
 11
212.4329246942
 21
137.2478694703
  0
LINE
  5
29F
100
AcDbEntity
  8
0
100
AcDbLine
 62
7
  6
BYLAYER
 10
26.8677570973
 20
225.4072033955
 11
26.4681448104
 21
225.8067036321
  0
LINE
  5
2A0
100
AcDbEntity
  8
0
100
AcDbLine
 62
7
  6
BYLAYER
 10
45.0070254951
 20
105.2258380877
 11
45.3874038689
 21
105.6823715285
  0
LINE
  5
2A1
100
AcDbEntity
  8
0
100
AcDbLine
 62
7
  6
BYLAYER
 10
44.9503408965
 20
105.2775364334
 11
45.2888247517
 21
105.6668791125
  0
LINE
  5
2A2
100
AcDbEntity
  8
0
100
AcDbLine
 62
7
  6
BYLAYER
 10
48.6503408954
 20
145.1775364337
 11
121.6503408947
 21
145.1775364337
  0
LINE
  5
2A3
100
AcDbEntity
  8
0
100
AcDbLine
 62
7
  6
BYLAYER
 10
25.9503408997
 20
226.2775364334
 11
26.4682555827
 21
225.8067036444
  0
LINE
  5
2A4
100
AcDbEntity
  8
0
100
AcDbLine
 62
7
  6
BYLAYER
 10
85.4570254947
 20
174.8258380873
 11
84.7570254954
 21
175.5258380884
  0
LINE
  5
2A5
100
AcDbEntity
  8
0
100
AcDbLine
 62
7
  6
BYLAYER
 10
42.145920843
 20
218.5825605838
 11
42.4503408959
 21
218.278145611
  0
LINE
  5
2A6
100
AcDbEntity
  8
0
100
AcDbLine
 62
7
  6
BYLAYER
 10
49.7547609514
 20
212.9725100476
 11
49.4503408968
 21
213.2769272577
  0
LINE
  5
2A7
100
AcDbEntity
  8
0
100
AcDbLine
 62
7
  6
BYLAYER
 10
90.1570254958
 20
172.7758380884
 11
89.9570254947
 21
172.9758380877
  0
LINE
  5
2A8
100
AcDbEntity
  8
0
100
AcDbLine
 62
7
  6
BYLAYER
 10
48.4509500761
 20
212.2775364344
 11
48.7553388526
 21
211.9731163801
  0
LINE
  5
2A9
100
AcDbEntity
  8
0
100
AcDbLine
 62
7
  6
BYLAYER
 10
43.4497317139
 20
219.2775364312
 11
43.145345446
 21
219.5819564891
  0
LINE
  5
2AA
100
AcDbEntity
  8
0
100
AcDbLine
 62
7
  6
BYLAYER
 10
63.198042961
 20
226.0265593222
 11
63.068268649
 21
226.2646883381
  0
LINE
  5
2AB
100
AcDbEntity
  8
0
100
AcDbLine
 62
7
  6
BYLAYER
 10
46.4503407957
 20
232.2777376464
 11
46.9211725456
 21
231.759730703
  0
LINE
  5
2AC
100
AcDbEntity
  8
0
100
AcDbLine
 62
7
  6
BYLAYER
 10
114.6459018382
 20
215.5825468353
 11
114.6458972611
 21
209.9725544963
  0
LINE
  5
2AD
100
AcDbEntity
  8
0
100
AcDbLine
 62
7
  6
BYLAYER
 10
114.9503411869
 20
215.2781460983
 11
114.9503406047
 21
210.2769277443
  0
LINE
  5
2AE
100
AcDbEntity
  8
0
100
AcDbLine
 62
7
  6
BYLAYER
 10
121.6503408951
 20
165.7775364333
 11
49.3503408961
 21
165.7775364333
  0
LINE
  5
2AF
100
AcDbEntity
  8
0
100
AcDbLine
 62
7
  6
BYLAYER
 10
47.9206739327
 20
230.7601202318
 11
46.9211736677
 21
231.7596205993
  0
LWPOLYLINE
  5
2B0
100
AcDbEntity
  8
0
100
AcDbPolyline
 62
7
  6
BYLAYER
 90
4
 70
0
 10
47.9206739327
 20
230.7601202318
 10
47.3215665851
 20
231.3590747059
 10
47.1098471887
 20
231.5704480732
 10
46.9211736677
 20
231.7596205993
  0
LINE
  5
2B1
100
AcDbEntity
  8
0
100
AcDbLine
 62
7
  6
BYLAYER
 10
121.9503412726
 20
210.2769278884
 11
121.9503405191
 21
215.2781462444
  0
LINE
  5
2B2
100
AcDbEntity
  8
0
100
AcDbLine
 62
7
  6
BYLAYER
 10
122.2547795617
 20
209.9725246836
 11
122.254782946
 21
215.582517699
  0
LINE
  5
2B3
100
AcDbEntity
  8
0
100
AcDbLine
 62
7
  6
BYLAYER
 10
122.9503408958
 20
146.4775364325
 11
122.9503408958
 21
164.4775364326
  0
LWPOLYLINE
  5
2B4
100
AcDbEntity
  8
0
100
AcDbPolyline
 62
7
  6
BYLAYER
 90
3
 70
0
 10
192.5788331877
 20
231.3591031302
 10
192.7902367751
 20
231.5708428706
 10
192.9795081164
 20
231.7597321909
  0
LINE
  5
2B5
100
AcDbEntity
  8
0
100
AcDbLine
 62
7
  6
BYLAYER
 10
191.9800078588
 20
230.7601202318
 11
192.9795081164
 21
231.7597321909
  0
LINE
  5
2B6
100
AcDbEntity
  8
0
100
AcDbLine
 62
7
  6
BYLAYER
 10
189.9458593466
 20
168.7776928602
 11
200.9503417429
 21
168.7791839502
  0
LINE
  5
2B7
100
AcDbEntity
  8
0
100
AcDbLine
 62
7
  6
BYLAYER
 10
81.5773025376
 20
170.7775364333
 11
83.5503408957
 21
170.7775364333
  0
LINE
  5
2B8
100
AcDbEntity
  8
0
100
AcDbLine
 62
7
  6
BYLAYER
 10
92.3503408961
 20
170.7775364333
 11
94.323379254
 21
170.7775364333
  0
LINE
  5
2B9
100
AcDbEntity
  8
0
100
AcDbLine
 62
7
  6
BYLAYER
 10
84.0484382449
 20
172.2775364333
 11
91.7946962426
 21
172.2782349054
  0
LINE
  5
2BA
100
AcDbEntity
  8
0
100
AcDbLine
 62
7
  6
BYLAYER
 10
85.4570254947
 20
172.7758380884
 11
85.857025495
 21
172.7758380884
  0
LINE
  5
2BB
100
AcDbEntity
  8
0
100
AcDbLine
 62
7
  6
BYLAYER
 10
90.1570254958
 20
172.7758380884
 11
90.5570254961
 21
172.7758380884
  0
LINE
  5
2BC
100
AcDbEntity
  8
0
100
AcDbLine
 62
7
  6
BYLAYER
 10
86.0570254961
 20
172.9758380877
 11
89.9570254947
 21
172.9758380877
  0
LINE
  5
2BD
100
AcDbEntity
  8
0
100
AcDbLine
 62
7
  6
BYLAYER
 10
86.2070254947
 20
174.2258380877
 11
89.107025495
 21
174.2258380877
  0
LINE
  5
2BE
100
AcDbEntity
  8
0
100
AcDbLine
 62
7
  6
BYLAYER
 10
188.6097253438
 20
109.7241374206
 11
189.1053586246
 21
109.238336884
  0
LINE
  5
2BF
100
AcDbEntity
  8
0
100
AcDbLine
 62
7
  6
BYLAYER
 10
182.0070254954
 20
101.2258380876
 11
181.9639510308
 21
101.2775364345
  0
LINE
  5
2C0
100
AcDbEntity
  8
0
100
AcDbLine
 62
7
  6
BYLAYER
 10
181.9503408958
 20
101.2775364345
 11
181.6373672659
 21
101.6735357965
  0
LINE
  5
2C1
100
AcDbEntity
  8
0
100
AcDbLine
 62
7
  6
BYLAYER
 10
89.8070254961
 20
214.2258380877
 11
89.107025495
 21
215.2258380877
  0
LINE
  5
2C2
100
AcDbEntity
  8
0
100
AcDbLine
 62
7
  6
BYLAYER
 10
132.451033615
 20
213.7752759863
 11
132.4522747613
 21
123.7775353525
  0
LINE
  5
2C3
100
AcDbEntity
  8
0
100
AcDbLine
 62
7
  6
BYLAYER
 10
193.4503409961
 20
232.2775366538
 11
192.9795081165
 21
231.7596217429
  0
LINE
  5
2C4
100
AcDbEntity
  8
0
100
AcDbLine
 62
7
  6
BYLAYER
 10
84.1070254953
 20
175.5258380884
 11
84.7570254954
 21
175.5258380884
  0
LINE
  5
2C5
100
AcDbEntity
  8
0
100
AcDbLine
 62
7
  6
BYLAYER
 10
91.2570254954
 20
175.5258380884
 11
91.9070254954
 21
175.5258380884
  0
LINE
  5
2C6
100
AcDbEntity
  8
0
100
AcDbLine
 62
7
  6
BYLAYER
 10
84.4570254947
 20
175.9758380877
 11
85.4570254947
 21
175.9758380877
  0
LINE
  5
2C7
100
AcDbEntity
  8
0
100
AcDbLine
 62
7
  6
BYLAYER
 10
90.5570254961
 20
175.9758380877
 11
91.5570254961
 21
175.9758380877
  0
LINE
  5
2C8
100
AcDbEntity
  8
0
100
AcDbLine
 62
7
  6
BYLAYER
 10
87.1820335037
 20
177.5758378284
 11
88.8320174871
 21
177.5758378433
  0
LINE
  5
2C9
100
AcDbEntity
  8
0
100
AcDbLine
 62
7
  6
BYLAYER
 10
91.5570254961
 20
177.7008380873
 11
90.5570254961
 21
177.7008380873
  0
LINE
  5
2CA
100
AcDbEntity
  8
0
100
AcDbLine
 62
7
  6
BYLAYER
 10
85.4570254947
 20
177.7008380873
 11
84.4570254947
 21
177.7008380873
  0
LINE
  5
2CB
100
AcDbEntity
  8
0
100
AcDbLine
 62
7
  6
BYLAYER
 10
91.9070254956
 20
178.1508380884
 11
90.5570254961
 21
178.1508380884
  0
LINE
  5
2CC
100
AcDbEntity
  8
0
100
AcDbLine
 62
7
  6
BYLAYER
 10
85.4570254947
 20
178.1508380884
 11
84.1070254954
 21
178.1508380884
  0
LINE
  5
2CD
100
AcDbEntity
  8
0
100
AcDbLine
 62
7
  6
BYLAYER
 10
85.5570254961
 20
178.6258380881
 11
85.4570254947
 21
178.6258380881
  0
LINE
  5
2CE
100
AcDbEntity
  8
0
100
AcDbLine
 62
7
  6
BYLAYER
 10
85.4570254947
 20
179.6258380881
 11
85.5570254961
 21
179.6258380881
  0
LINE
  5
2CF
100
AcDbEntity
  8
0
100
AcDbLine
 62
7
  6
BYLAYER
 10
40.0003408965
 20
182.2775364334
 11
49.5003408965
 21
182.2775364334
  0
LINE
  5
2D0
100
AcDbEntity
  8
0
100
AcDbLine
 62
7
  6
BYLAYER
 10
64.0126855208
 20
225.450485734
 11
63.3026124287
 21
225.9452905838
  0
LINE
  5
2D1
100
AcDbEntity
  8
0
100
AcDbLine
 62
7
  6
BYLAYER
 10
85.857025495
 20
216.6758380869
 11
86.0570254961
 21
216.4758380877
  0
LINE
  5
2D2
100
AcDbEntity
  8
0
100
AcDbLine
 62
7
  6
BYLAYER
 10
90.5570254961
 20
214.6258380881
 11
91.2570254954
 21
213.925838087
  0
LINE
  5
2D3
100
AcDbEntity
  8
0
100
AcDbLine
 62
7
  6
BYLAYER
 10
213.9503408958
 20
226.2775364333
 11
213.4325354501
 21
225.806704788
  0
LINE
  5
2D4
100
AcDbEntity
  8
0
100
AcDbLine
 62
7
  6
BYLAYER
 10
37.8951261722
 20
183.7775364334
 11
40.0003408965
 21
183.7775364334
  0
LINE
  5
2D5
100
AcDbEntity
  8
0
100
AcDbLine
 62
7
  6
BYLAYER
 10
26.5747285424
 20
185.8572212068
 11
49.5003408965
 21
185.8572212068
  0
LINE
  5
2D6
100
AcDbEntity
  8
0
100
AcDbLine
 62
7
  6
BYLAYER
 10
213.0329246943
 20
225.4072033962
 11
213.4324250905
 21
225.8068279893
  0
LINE
  5
2D7
100
AcDbEntity
  8
0
100
AcDbLine
 62
7
  6
BYLAYER
 10
206.7553638004
 20
219.5819582063
 11
206.4334901866
 21
219.260075751
  0
LINE
  5
2D8
100
AcDbEntity
  8
0
100
AcDbLine
 62
7
  6
BYLAYER
 10
201.1453169843
 20
211.9731152679
 11
201.4671927556
 21
212.2949964295
  0
LINE
  5
2D9
100
AcDbEntity
  8
0
100
AcDbLine
 62
7
  6
BYLAYER
 10
200.4678009949
 20
213.29438812
 11
200.1459184676
 21
212.9725420365
  0
LINE
  5
2DA
100
AcDbEntity
  8
0
100
AcDbLine
 62
7
  6
BYLAYER
 10
207.4328811765
 20
218.260684109
 11
207.7547630445
 21
218.5825313865
  0
LINE
  5
2DB
100
AcDbEntity
  8
0
100
AcDbLine
 62
7
  6
BYLAYER
 10
120.9509507303
 20
209.2775368243
 11
121.255343419
 21
208.9731161426
  0
LINE
  5
2DC
100
AcDbEntity
  8
0
100
AcDbLine
 62
7
  6
BYLAYER
 10
114.6459191266
 20
215.5825593431
 11
114.9503411869
 21
215.2781460983
  0
LINE
  5
2DD
100
AcDbEntity
  8
0
100
AcDbLine
 62
7
  6
BYLAYER
 10
203.4489068652
 20
199.1775364337
 11
210.4793628909
 21
199.1775364337
  0
LINE
  5
2DE
100
AcDbEntity
  8
0
100
AcDbLine
 62
7
  6
BYLAYER
 10
210.4696030606
 20
205.3285718674
 11
195.6000430735
 21
205.3285718674
  0
LINE
  5
2DF
100
AcDbEntity
  8
0
100
AcDbLine
 62
7
  6
BYLAYER
 10
189.9561634012
 20
204.7773850789
 11
200.9503408959
 21
204.7758887623
  0
LINE
  5
2E0
100
AcDbEntity
  8
0
100
AcDbLine
 62
7
  6
BYLAYER
 10
122.2547620755
 20
209.9725125026
 11
121.9503412726
 21
210.2769278884
  0
LINE
  5
2E1
100
AcDbEntity
  8
0
100
AcDbLine
 62
7
  6
BYLAYER
 10
115.9497328372
 20
216.2775370999
 11
115.6453459354
 21
216.5819585773
  0
LINE
  5
2E2
100
AcDbEntity
  8
0
100
AcDbLine
 62
7
  6
BYLAYER
 10
159.9503408958
 20
227.377536434
 11
159.9503408958
 21
222.1775364329
  0
LINE
  5
2E3
100
AcDbEntity
  8
0
100
AcDbLine
 62
7
  6
BYLAYER
 10
164.0070254945
 20
222.725838034
 11
164.076845754
 21
226.7258380212
  0
LINE
  5
2E4
100
AcDbEntity
  8
0
100
AcDbLine
 62
7
  6
BYLAYER
 10
167.0075391307
 20
222.7258380877
 11
167.0773380663
 21
226.7258380877
  0
LINE
  5
2E5
100
AcDbEntity
  8
0
100
AcDbLine
 62
7
  6
BYLAYER
 10
115.6453294467
 20
208.9730977759
 11
121.2553312371
 21
208.9730936375
  0
LINE
  5
2E6
100
AcDbEntity
  8
0
100
AcDbLine
 62
7
  6
BYLAYER
 10
115.9497323748
 20
209.2775360422
 11
120.9509507303
 21
209.2775368243
  0
LINE
  5
2E7
100
AcDbEntity
  8
0
100
AcDbLine
 62
7
  6
BYLAYER
 10
84.1070254953
 20
211.3008380877
 11
85.4570254947
 21
211.3008380877
  0
LINE
  5
2E8
100
AcDbEntity
  8
0
100
AcDbLine
 62
7
  6
BYLAYER
 10
90.5570254961
 20
211.3008380877
 11
91.9070254954
 21
211.3008380877
  0
LINE
  5
2E9
100
AcDbEntity
  8
0
100
AcDbLine
 62
7
  6
BYLAYER
 10
88.8320174871
 20
211.875838347
 11
87.1820335037
 21
211.8758382725
  0
LINE
  5
2EA
100
AcDbEntity
  8
0
100
AcDbLine
 62
7
  6
BYLAYER
 10
43.1453297007
 20
211.9730978379
 11
48.7553253471
 21
211.9730943866
  0
LINE
  5
2EB
100
AcDbEntity
  8
0
100
AcDbLine
 62
7
  6
BYLAYER
 10
201.1453294533
 20
211.97309778
 11
206.7553250318
 21
211.9730943287
  0
LINE
  5
2EC
100
AcDbEntity
  8
0
100
AcDbLine
 62
7
  6
BYLAYER
 10
43.4497317203
 20
212.2775364322
 11
48.4509500761
 21
212.2775364344
  0
LINE
  5
2ED
100
AcDbEntity
  8
0
100
AcDbLine
 62
7
  6
BYLAYER
 10
201.4671927556
 20
212.2949964295
 11
206.4334903437
 21
212.2949972078
  0
LINE
  5
2EE
100
AcDbEntity
  8
0
100
AcDbLine
 62
7
  6
BYLAYER
 10
213.9503408958
 20
135.7775364333
 11
213.4324262072
 21
136.2483692113
  0
LINE
  5
2EF
100
AcDbEntity
  8
0
100
AcDbLine
 62
7
  6
BYLAYER
 10
213.0329246944
 20
136.64786947
 11
213.4325369856
 21
136.2483692113
  0
LINE
  5
2F0
100
AcDbEntity
  8
0
100
AcDbLine
 62
7
  6
BYLAYER
 10
173.236540102
 20
226.7258380876
 11
173.3063767661
 21
222.7258380876
  0
LINE
  5
2F1
100
AcDbEntity
  8
0
100
AcDbLine
 62
7
  6
BYLAYER
 10
91.9070254956
 20
213.925838087
 11
91.2570254954
 21
213.925838087
  0
LINE
  5
2F2
100
AcDbEntity
  8
0
100
AcDbLine
 62
7
  6
BYLAYER
 10
84.7570254954
 20
213.925838087
 11
84.1070254954
 21
213.925838087
  0
LINE
  5
2F3
100
AcDbEntity
  8
0
100
AcDbLine
 62
7
  6
BYLAYER
 10
89.107025495
 20
215.2258380877
 11
86.2070254947
 21
215.2258380877
  0
LINE
  5
2F4
100
AcDbEntity
  8
0
100
AcDbLine
 62
7
  6
BYLAYER
 10
120.9509511909
 20
216.2775357667
 11
115.9497328372
 21
216.2775370999
  0
LINE
  5
2F5
100
AcDbEntity
  8
0
100
AcDbLine
 62
7
  6
BYLAYER
 10
89.9570254947
 20
216.4758380877
 11
86.0570254961
 21
216.4758380877
  0
LINE
  5
2F6
100
AcDbEntity
  8
0
100
AcDbLine
 62
7
  6
BYLAYER
 10
121.2553504102
 20
216.5819754229
 11
115.6453584446
 21
216.5819798939
  0
LINE
  5
2F7
100
AcDbEntity
  8
0
100
AcDbLine
 62
7
  6
BYLAYER
 10
90.5570254961
 20
216.675838087
 11
90.1570254958
 21
216.675838087
  0
LINE
  5
2F8
100
AcDbEntity
  8
0
100
AcDbLine
 62
7
  6
BYLAYER
 10
85.857025495
 20
216.675838087
 11
85.4570254947
 21
216.675838087
  0
LINE
  5
2F9
100
AcDbEntity
  8
0
100
AcDbLine
 62
7
  6
BYLAYER
 10
91.8522591976
 20
217.2775370548
 11
84.048438245
 21
217.2775364333
  0
LINE
  5
2FA
100
AcDbEntity
  8
0
100
AcDbLine
 62
7
  6
BYLAYER
 10
94.323379254
 20
218.7775364334
 11
92.3503408961
 21
218.7775364334
  0
LINE
  5
2FB
100
AcDbEntity
  8
0
100
AcDbLine
 62
7
  6
BYLAYER
 10
83.5503408957
 20
218.7775364334
 11
81.5773025376
 21
218.7775364334
  0
LINE
  5
2FC
100
AcDbEntity
  8
0
100
AcDbLine
 62
7
  6
BYLAYER
 10
206.4334901866
 20
219.260075751
 11
201.4671926005
 21
219.2600763449
  0
LINE
  5
2FD
100
AcDbEntity
  8
0
100
AcDbLine
 62
7
  6
BYLAYER
 10
48.4509500697
 20
219.2775364354
 11
43.4497317139
 21
219.2775364312
  0
LINE
  5
2FE
100
AcDbEntity
  8
0
100
AcDbLine
 62
7
  6
BYLAYER
 10
48.755353433
 20
219.5819751086
 11
43.1453584501
 21
219.5819783871
  0
LINE
  5
2FF
100
AcDbEntity
  8
0
100
AcDbLine
 62
7
  6
BYLAYER
 10
206.7553507713
 20
219.5819754916
 11
201.145359038
 21
219.5819800909
  0
LINE
  5
300
100
AcDbEntity
  8
0
100
AcDbLine
 62
7
  6
BYLAYER
 10
177.2372052378
 20
226.7258380016
 11
177.3070254983
 21
222.7258379555
  0
LINE
  5
301
100
AcDbEntity
  8
0
100
AcDbLine
 62
7
  6
BYLAYER
 10
178.9503408958
 20
222.1775364329
 11
178.9503408958
 21
227.377536434
  0
LINE
  5
302
100
AcDbEntity
  8
0
100
AcDbLine
 62
7
  6
BYLAYER
 10
182.0070254954
 20
101.2258380876
 11
182.0070254954
 21
101.2775364345
  0
LINE
  5
303
100
AcDbEntity
  8
0
100
AcDbLine
 62
7
  6
BYLAYER
 10
78.9149014842
 20
224.7319205537
 11
76.0070254954
 21
224.6303752866
  0
LINE
  5
304
100
AcDbEntity
  8
0
100
AcDbLine
 62
7
  6
BYLAYER
 10
78.9149014842
 20
224.7319205537
 11
82.4418334849
 21
224.854783348
  0
LINE
  5
305
100
AcDbEntity
  8
0
100
AcDbLine
 62
7
  6
BYLAYER
 10
74.6060884296
 20
224.752704855
 11
75.5046997479
 21
224.7840424348
  0
LINE
  5
306
100
AcDbEntity
  8
0
100
AcDbLine
 62
7
  6
BYLAYER
 10
75.4175040911
 20
227.2809993497
 11
73.0062067778
 21
227.1969019494
  0
LINE
  5
307
100
AcDbEntity
  8
0
100
AcDbLine
 62
7
  6
BYLAYER
 10
71.3718080038
 20
224.7434468338
 11
70.363003613
 21
224.7258380876
  0
LINE
  5
308
100
AcDbEntity
  8
0
100
AcDbLine
 62
7
  6
BYLAYER
 10
63.068268649
 20
226.2646883381
 11
71.3427335764
 21
226.4091196609
  0
LINE
  5
309
100
AcDbEntity
  8
0
100
AcDbLine
 62
7
  6
BYLAYER
 10
62.7524365354
 20
226.5759903926
 11
71.3372052357
 21
226.7258380877
  0
LINE
  5
30A
100
AcDbEntity
  8
0
100
AcDbLine
 62
7
  6
BYLAYER
 10
60.9503408958
 20
222.1775364329
 11
79.9503408958
 21
222.1775364329
  0
LINE
  5
30B
100
AcDbEntity
  8
0
100
AcDbLine
 62
7
  6
BYLAYER
 10
159.9503408958
 20
222.1775364329
 11
178.9503408958
 21
222.1775364329
  0
LINE
  5
30C
100
AcDbEntity
  8
0
100
AcDbLine
 62
7
  6
BYLAYER
 10
62.7078465032
 20
222.7258380877
 11
76.0070254954
 21
222.7258380877
  0
LINE
  5
30D
100
AcDbEntity
  8
0
100
AcDbLine
 62
7
  6
BYLAYER
 10
164.0070254945
 20
222.7258380877
 11
177.3070254983
 21
222.7258380877
  0
LINE
  5
30E
100
AcDbEntity
  8
0
100
AcDbLine
 62
7
  6
BYLAYER
 10
79.9503408958
 20
224.377536434
 11
87.9503408958
 21
224.377536434
  0
LINE
  5
30F
100
AcDbEntity
  8
0
100
AcDbLine
 62
7
  6
BYLAYER
 10
76.0070254954
 20
224.7258380877
 11
66.0888520042
 21
224.7258380877
  0
LINE
  5
310
100
AcDbEntity
  8
0
100
AcDbLine
 62
7
  6
BYLAYER
 10
63.1480823106
 20
224.7258380877
 11
62.7070259354
 21
224.7258380877
  0
LINE
  5
311
100
AcDbEntity
  8
0
100
AcDbLine
 62
7
  6
BYLAYER
 10
212.4329246942
 20
224.8072033962
 11
194.0070254952
 21
224.8072033962
  0
LINE
  5
312
100
AcDbEntity
  8
0
100
AcDbLine
 62
7
  6
BYLAYER
 10
46.3070254954
 20
224.8072033964
 11
27.4677570973
 21
224.8072033964
  0
LINE
  5
313
100
AcDbEntity
  8
0
100
AcDbLine
 62
7
  6
BYLAYER
 10
82.4418334847
 20
224.8547833479
 11
78.9997470131
 21
224.8547833479
  0
LINE
  5
314
100
AcDbEntity
  8
0
100
AcDbLine
 62
7
  6
BYLAYER
 10
26.4681448104
 20
225.8067047879
 11
46.3070254954
 21
225.8067500831
  0
LINE
  5
315
100
AcDbEntity
  8
0
100
AcDbLine
 62
7
  6
BYLAYER
 10
194.0070254952
 20
225.8067500832
 11
213.4325354501
 21
225.806704788
  0
LINE
  5
316
100
AcDbEntity
  8
0
100
AcDbLine
 62
7
  6
BYLAYER
 10
214.0070254954
 20
226.2258380877
 11
213.9503408958
 21
226.2258380877
  0
LINE
  5
317
100
AcDbEntity
  8
0
100
AcDbLine
 62
7
  6
BYLAYER
 10
25.9503408984
 20
226.2775364333
 11
46.3070254954
 21
226.2775365701
  0
LINE
  5
318
100
AcDbEntity
  8
0
100
AcDbLine
 62
7
  6
BYLAYER
 10
46.3070254954
 20
226.2778380877
 11
47.9206739327
 21
226.2778380877
  0
LINE
  5
319
100
AcDbEntity
  8
0
100
AcDbLine
 62
7
  6
BYLAYER
 10
213.9503408958
 20
226.2775364333
 11
191.9800078588
 21
226.2778380877
  0
LINE
  5
31A
100
AcDbEntity
  8
0
100
AcDbLine
 62
7
  6
BYLAYER
 10
177.2372052379
 20
226.7258380877
 11
164.076845754
 21
226.7258380877
  0
LINE
  5
31B
100
AcDbEntity
  8
0
100
AcDbLine
 62
7
  6
BYLAYER
 10
78.9125513563
 20
227.3517402628
 11
82.3459297846
 21
227.3517402628
  0
LINE
  5
31C
100
AcDbEntity
  8
0
100
AcDbLine
 62
7
  6
BYLAYER
 10
178.9503408958
 20
227.377536434
 11
159.9503408958
 21
227.377536434
  0
LINE
  5
31D
100
AcDbEntity
  8
0
100
AcDbLine
 62
7
  6
BYLAYER
 10
87.9503408958
 20
227.377536434
 11
60.9503408958
 21
227.377536434
  0
LINE
  5
31E
100
AcDbEntity
  8
0
100
AcDbLine
 62
7
  6
BYLAYER
 10
189.1292271014
 20
103.7807225801
 11
189.1053586246
 21
109.238336884
  0
LINE
  5
31F
100
AcDbEntity
  8
0
100
AcDbLine
 62
7
  6
BYLAYER
 10
188.6063176484
 20
110.7626770245
 11
188.6097253438
 21
109.7241374206
  0
LINE
  5
320
100
AcDbEntity
  8
0
100
AcDbLine
 62
7
  6
BYLAYER
 10
188.4501202151
 20
206.2780165034
 11
188.4487977918
 21
213.7775371949
  0
LINE
  5
321
100
AcDbEntity
  8
0
100
AcDbLine
 62
7
  6
BYLAYER
 10
182.3205246819
 20
123.495042379
 11
182.3205246819
 21
128.9082955394
  0
LINE
  5
322
100
AcDbEntity
  8
0
100
AcDbLine
 62
7
  6
BYLAYER
 10
187.1351257524
 20
101.2843800436
 11
187.1351257524
 21
101.7637331819
  0
LINE
  5
323
100
AcDbEntity
  8
0
100
AcDbLine
 62
7
  6
BYLAYER
 10
188.4482823778
 20
122.4778340566
 11
188.4482823776
 21
121.9775364334
  0
LINE
  5
324
100
AcDbEntity
  8
0
100
AcDbLine
 62
7
  6
BYLAYER
 10
188.4482823781
 20
129.9073526472
 11
188.4482823781
 21
131.7775364334
  0
LINE
  5
325
100
AcDbEntity
  8
0
100
AcDbLine
 62
7
  6
BYLAYER
 10
188.4482823768
 20
135.7775364334
 11
188.4502891115
 21
167.2736060421
  0
LINE
  5
326
100
AcDbEntity
  8
0
100
AcDbLine
 62
7
  6
BYLAYER
 10
188.6182307696
 20
119.1534125075
 11
188.6109114373
 21
113.9982075476
  0
LINE
  5
327
100
AcDbEntity
  8
0
100
AcDbLine
 62
7
  6
BYLAYER
 10
188.6083995572
 20
112.2290220526
 11
188.6063176484
 21
110.7626770245
  0
LINE
  5
328
100
AcDbEntity
  8
0
100
AcDbLine
 62
7
  6
BYLAYER
 10
191.9800078588
 20
230.7601202318
 11
47.9206739327
 21
230.7601202318
  0
LINE
  5
329
100
AcDbEntity
  8
0
100
AcDbLine
 62
7
  6
BYLAYER
 10
46.9211736769
 20
231.7596217393
 11
192.9795081165
 21
231.7596217429
  0
LINE
  5
32A
100
AcDbEntity
  8
0
100
AcDbLine
 62
7
  6
BYLAYER
 10
193.5070254954
 20
232.2258380877
 11
193.4503409961
 21
232.2258380877
  0
LINE
  5
32B
100
AcDbEntity
  8
0
100
AcDbLine
 62
7
  6
BYLAYER
 10
193.4503409961
 20
232.277637095
 11
46.4503408958
 21
232.2777376464
  0
LINE
  5
32C
100
AcDbEntity
  8
0
100
AcDbLine
 62
7
  6
BYLAYER
 10
189.9648747753
 20
129.9844908319
 11
189.9648747752
 21
131.7775364334
  0
LINE
  5
32D
100
AcDbEntity
  8
0
100
AcDbLine
 62
7
  6
BYLAYER
 10
190.4024042472
 20
122.4148824457
 11
190.4024044326
 21
121.9775364334
  0
LINE
  5
32E
100
AcDbEntity
  8
0
100
AcDbLine
 62
7
  6
BYLAYER
 10
190.4024044326
 20
131.7775364334
 11
190.4024042473
 21
129.9884746877
  0
LINE
  5
32F
100
AcDbEntity
  8
0
100
AcDbLine
 62
7
  6
BYLAYER
 10
190.9503408958
 20
131.7775364334
 11
190.9503408958
 21
135.7775364334
  0
LINE
  5
330
100
AcDbEntity
  8
0
100
AcDbLine
 62
7
  6
BYLAYER
 10
191.1849194164
 20
123.3896218098
 11
191.1849194185
 21
129.0138107439
  0
LINE
  5
331
100
AcDbEntity
  8
0
100
AcDbLine
 62
7
  6
BYLAYER
 10
191.9800078588
 20
226.2778380877
 11
191.9800078588
 21
230.7601202318
  0
LINE
  5
332
100
AcDbEntity
  8
0
100
AcDbLine
 62
7
  6
BYLAYER
 10
191.9800077433
 20
120.1520359826
 11
191.9800112534
 21
135.6520359825
  0
LINE
  5
333
100
AcDbEntity
  8
0
100
AcDbLine
 62
7
  6
BYLAYER
 10
192.9795543137
 20
120.1520357486
 11
192.9795579423
 21
135.6520357486
  0
LINE
  5
334
100
AcDbEntity
  8
0
100
AcDbLine
 62
7
  6
BYLAYER
 10
192.9795092478
 20
231.7597321909
 11
192.979554543
 21
226.2778380877
  0
LINE
  5
335
100
AcDbEntity
  8
0
100
AcDbLine
 62
7
  6
BYLAYER
 10
193.3503408958
 20
110.8275377065
 11
193.3503408958
 21
115.5275385733
  0
LINE
  5
336
100
AcDbEntity
  8
0
100
AcDbLine
 62
7
  6
BYLAYER
 10
193.4503409961
 20
232.277637095
 11
193.4503408958
 21
226.2778380877
  0
LINE
  5
337
100
AcDbEntity
  8
0
100
AcDbLine
 62
7
  6
BYLAYER
 10
193.4503407576
 20
120.1520356383
 11
193.4503443861
 21
135.6520356384
  0
LINE
  5
338
100
AcDbEntity
  8
0
100
AcDbLine
 62
7
  6
BYLAYER
 10
193.5070254954
 20
232.2258380877
 11
193.5070254954
 21
226.2778380877
  0
LINE
  5
339
100
AcDbEntity
  8
0
100
AcDbLine
 62
7
  6
BYLAYER
 10
193.507025347
 20
101.2258380877
 11
193.5070253471
 21
101.2775364345
  0
LINE
  5
33A
100
AcDbEntity
  8
0
100
AcDbLine
 62
7
  6
BYLAYER
 10
194.0070254952
 20
226.2778380877
 11
194.0070254952
 21
224.8072033962
  0
LINE
  5
33B
100
AcDbEntity
  8
0
100
AcDbLine
 62
7
  6
BYLAYER
 10
194.0070254953
 20
101.2843800435
 11
194.0070254954
 21
137.2478694703
  0
LINE
  5
33C
100
AcDbEntity
  8
0
100
AcDbLine
 62
7
  6
BYLAYER
 10
195.6000430735
 20
205.3285718674
 11
195.6000430735
 21
204.7766169422
  0
LINE
  5
33D
100
AcDbEntity
  8
0
100
AcDbLine
 62
7
  6
BYLAYER
 10
189.9648747752
 20
121.9775364334
 11
189.9665139379
 21
122.3916837939
  0
LINE
  5
33E
100
AcDbEntity
  8
0
100
AcDbLine
 62
7
  6
BYLAYER
 10
203.4484992025
 20
202.2775327022
 11
203.4489068652
 21
199.1775364337
  0
LINE
  5
33F
100
AcDbEntity
  8
0
100
AcDbLine
 62
7
  6
BYLAYER
 10
200.1459018248
 20
218.582546776
 11
200.1458972601
 21
212.9725545069
  0
LINE
  5
340
100
AcDbEntity
  8
0
100
AcDbLine
 62
7
  6
BYLAYER
 10
200.4678015674
 20
218.2606857061
 11
200.4678009949
 21
213.29438812
  0
LINE
  5
341
100
AcDbEntity
  8
0
100
AcDbLine
 62
7
  6
BYLAYER
 10
210.4793628909
 20
199.1775364337
 11
210.4696030606
 21
205.3285718674
  0
LINE
  5
342
100
AcDbEntity
  8
0
100
AcDbLine
 62
7
  6
BYLAYER
 10
207.4328798446
 20
213.2943865231
 11
207.4328811765
 21
218.260684109
  0
LINE
  5
343
100
AcDbEntity
  8
0
100
AcDbLine
 62
7
  6
BYLAYER
 10
207.754780057
 20
212.9725267626
 11
207.7547843572
 21
218.5825183559
  0
LINE
  5
344
100
AcDbEntity
  8
0
100
AcDbLine
 62
7
  6
BYLAYER
 10
212.4329246942
 20
137.2478694703
 11
212.4329246942
 21
224.8072033962
  0
LINE
  5
345
100
AcDbEntity
  8
0
100
AcDbLine
 62
7
  6
BYLAYER
 10
213.4324262069
 20
225.8067036579
 11
213.4324262072
 21
136.2483692113
  0
LINE
  5
346
100
AcDbEntity
  8
0
100
AcDbLine
 62
7
  6
BYLAYER
 10
213.9503408958
 20
226.2775364333
 11
213.9503408958
 21
135.7775364333
  0
LINE
  5
347
100
AcDbEntity
  8
0
100
AcDbLine
 62
7
  6
BYLAYER
 10
214.0070254954
 20
226.2258380877
 11
214.0070254954
 21
135.7258380876
  0
LINE
  5
348
100
AcDbEntity
  8
0
100
AcDbLine
 62
7
  6
BYLAYER
 10
200.145919115
 20
218.5825593344
 11
200.4678015674
 21
218.2606857061
  0
LINE
  5
349
100
AcDbEntity
  8
0
100
AcDbLine
 62
7
  6
BYLAYER
 10
207.7547615382
 20
212.9725131668
 11
207.4328798446
 21
213.2943865231
  0
LINE
  5
34A
100
AcDbEntity
  8
0
100
AcDbLine
 62
7
  6
BYLAYER
 10
206.4334903437
 20
212.2949972078
 11
206.755338629
 21
211.9731161482
  0
LINE
  5
34B
100
AcDbEntity
  8
0
100
AcDbLine
 62
7
  6
BYLAYER
 10
201.4671926005
 20
219.2600763449
 11
201.1453464782
 21
219.581958878
  0
ARC
  5
34C
100
AcDbEntity
  8
0
100
AcDbCircle
 62
7
  6
BYLAYER
 10
-105864.5468175046
 20
186.7791428305
 40
106067.996449
100
AcDbArc
 50
359.9916263518
 51
0.0066973607
  0
ARC
  5
34D
100
AcDbEntity
  8
0
100
AcDbCircle
 62
7
  6
BYLAYER
 10
160.4476986725
 20
-274213.5462919124
 40
274429.823118
100
AcDbArc
 50
89.9946755301
 51
90.0053233676
  0
ARC
  5
34E
100
AcDbEntity
  8
0
100
AcDbCircle
 62
7
  6
BYLAYER
 10
-167.0832288936
 20
234.2201736589
 40
230.4269926012
100
AcDbArc
 50
357.6385605251
 51
357.9622249153
  0
ARC
  5
34F
100
AcDbEntity
  8
0
100
AcDbCircle
 62
7
  6
BYLAYER
 10
175.6219726031
 20
-118.6305551073
 40
241.449310514
100
AcDbArc
 50
86.5940348636
 51
87.0373050442
  0
ARC
  5
350
100
AcDbEntity
  8
0
100
AcDbCircle
 62
7
  6
BYLAYER
 10
80.4219458539
 20
82.5546200342
 40
142.3143980969
100
AcDbArc
 50
91.7768617156
 51
91.9800774964
  0
CIRCLE
  5
351
100
AcDbEntity
  8
0
100
AcDbCircle
 62
7
  6
BYLAYER
 10
39.5070254954
 20
115.2258380877
 40
2.8
  0
ARC
  5
352
100
AcDbEntity
  8
0
100
AcDbCircle
 62
7
  6
BYLAYER
 10
32.6807281343
 20
107.7411940467
 40
1.9961549253
100
AcDbArc
 50
231.3372368359
 51
270.0172234131
  0
ARC
  5
353
100
AcDbEntity
  8
0
100
AcDbCircle
 62
7
  6
BYLAYER
 10
32.6807281343
 20
107.7411940467
 40
1.9961549253
100
AcDbArc
 50
179.7510211657
 51
231.2117078857
  0
CIRCLE
  5
354
100
AcDbEntity
  8
0
100
AcDbCircle
 62
7
  6
BYLAYER
 10
39.5070254954
 20
115.2258380877
 40
1.7999890534
  0
ARC
  5
355
100
AcDbEntity
  8
0
100
AcDbCircle
 62
7
  6
BYLAYER
 10
48.6508794164
 20
146.478074954
 40
1.3005386318
100
AcDbArc
 50
180.0237247811
 51
269.9762752275
  0
ARC
  5
356
100
AcDbEntity
  8
0
100
AcDbCircle
 62
7
  6
BYLAYER
 10
41.9511616773
 20
118.2783572149
 40
0.9991792409
100
AcDbArc
 50
0.0000000029
 51
89.9999871991
  0
ARC
  5
357
100
AcDbEntity
  8
0
100
AcDbCircle
 62
7
  6
BYLAYER
 10
41.9511616773
 20
112.7767156518
 40
0.9991792409
100
AcDbArc
 50
270.00000002
 51
359.9999871954
  0
ARC
  5
358
100
AcDbEntity
  8
0
100
AcDbCircle
 62
7
  6
BYLAYER
 10
33.7071291417
 20
112.776715651
 40
0.99917924
100
AcDbArc
 50
180.0
 51
269.9999871913
  0
ARC
  5
359
100
AcDbEntity
  8
0
100
AcDbCircle
 62
7
  6
BYLAYER
 10
33.7071291398
 20
118.2783572177
 40
0.999179238
100
AcDbArc
 50
90.0000000086
 51
179.9999872283
  0
ARC
  5
35A
100
AcDbEntity
  8
0
100
AcDbCircle
 62
7
  6
BYLAYER
 10
30.196072997
 20
119.1656742058
 40
0.9991144064
100
AcDbArc
 50
359.9969848429
 51
89.9988434528
  0
CIRCLE
  5
35B
100
AcDbEntity
  8
0
100
AcDbCircle
 62
7
  6
BYLAYER
 10
46.0070254954
 20
215.7258380877
 40
2.8
  0
CIRCLE
  5
35C
100
AcDbEntity
  8
0
100
AcDbCircle
 62
7
  6
BYLAYER
 10
46.0070254954
 20
215.7258380877
 40
1.8
  0
ARC
  5
35D
100
AcDbEntity
  8
0
100
AcDbCircle
 62
7
  6
BYLAYER
 10
48.4513022105
 20
218.2785026415
 40
0.9990125636
100
AcDbArc
 50
359.9790518897
 51
90.0206676693
  0
ARC
  5
35E
100
AcDbEntity
  8
0
100
AcDbCircle
 62
7
  6
BYLAYER
 10
43.4493744893
 20
218.2784980766
 40
0.9990123418
100
AcDbArc
 50
89.9790398203
 51
180.0206873399
  0
ARC
  5
35F
100
AcDbEntity
  8
0
100
AcDbCircle
 62
7
  6
BYLAYER
 10
43.4493506375
 20
213.2765428912
 40
0.9989779192
100
AcDbArc
 50
179.9773579967
 51
270.0224538947
  0
ARC
  5
360
100
AcDbEntity
  8
0
100
AcDbCircle
 62
7
  6
BYLAYER
 10
48.451334852
 20
213.2765457532
 40
0.9989772959
100
AcDbArc
 50
269.9773343667
 51
0.0224781108
  0
ARC
  5
361
100
AcDbEntity
  8
0
100
AcDbCircle
 62
7
  6
BYLAYER
 10
43.1448321076
 20
212.9720309395
 40
0.9989332255
100
AcDbArc
 50
179.9700017829
 51
270.0285404349
  0
ARC
  5
362
100
AcDbEntity
  8
0
100
AcDbCircle
 62
7
  6
BYLAYER
 10
43.1448324558
 20
218.5830481721
 40
0.9989303535
100
AcDbArc
 50
89.9698304764
 51
180.0287124481
  0
ARC
  5
363
100
AcDbEntity
  8
0
100
AcDbCircle
 62
7
  6
BYLAYER
 10
48.7558530239
 20
218.5830451886
 40
0.998930045
100
AcDbArc
 50
359.9697798894
 51
90.0286551105
  0
ARC
  5
364
100
AcDbEntity
  8
0
100
AcDbCircle
 62
7
  6
BYLAYER
 10
48.7558502495
 20
212.9720237931
 40
0.9989295444
100
AcDbArc
 50
269.9698930797
 51
0.0286647133
  0
ARC
  5
365
100
AcDbEntity
  8
0
100
AcDbCircle
 62
7
  6
BYLAYER
 10
84.0484382373
 20
172.7756337748
 40
0.4980973416
100
AcDbArc
 50
179.9999997488
 51
270.0000008671
  0
ARC
  5
366
100
AcDbEntity
  8
0
100
AcDbCircle
 62
7
  6
BYLAYER
 10
84.0477797501
 20
216.7800975791
 40
0.4974392901
100
AcDbArc
 50
89.9241535801
 51
179.9995003043
  0
ARC
  5
367
100
AcDbEntity
  8
0
100
AcDbCircle
 62
7
  6
BYLAYER
 10
91.8529020413
 20
216.7800994433
 40
0.4974392901
100
AcDbArc
 50
0.0757984323
 51
90.0740438817
  0
ARC
  5
368
100
AcDbEntity
  8
0
100
AcDbCircle
 62
7
  6
BYLAYER
 10
91.794651389
 20
172.7756741935
 40
0.4974392901
100
AcDbArc
 50
270.0051663032
 51
359.9999999373
  0
ARC
  5
369
100
AcDbEntity
  8
0
100
AcDbCircle
 62
7
  6
BYLAYER
 10
62.7032281976
 20
226.3373477759
 40
0.2377775657
100
AcDbArc
 50
78.9240346904
 51
85.2656112596
  0
CIRCLE
  5
36A
100
AcDbEntity
  8
0
100
AcDbCircle
 62
7
  6
BYLAYER
 10
186.0070254954
 20
126.2258380877
 40
2.8
  0
ARC
  5
36B
100
AcDbEntity
  8
0
100
AcDbCircle
 62
7
  6
BYLAYER
 10
185.9501302868
 20
123.7778855083
 40
2.4984085915
100
AcDbArc
 50
270.0047398204
 51
313.8960976759
  0
ARC
  5
36C
100
AcDbEntity
  8
0
100
AcDbCircle
 62
7
  6
BYLAYER
 10
134.9505161911
 20
123.7776737928
 40
2.4982414336
100
AcDbArc
 50
180.0031750505
 51
269.9961276669
  0
ARC
  5
36D
100
AcDbEntity
  8
0
100
AcDbCircle
 62
7
  6
BYLAYER
 10
187.1324776618
 20
103.7719899425
 40
1.9967685353
100
AcDbArc
 50
274.751062247
 51
0.2505773031
  0
CIRCLE
  5
36E
100
AcDbEntity
  8
0
100
AcDbCircle
 62
7
  6
BYLAYER
 10
186.0070254954
 20
126.2258380877
 40
1.8
  0
ARC
  5
36F
100
AcDbEntity
  8
0
100
AcDbCircle
 62
7
  6
BYLAYER
 10
121.6498023755
 20
146.478074954
 40
1.3005386318
100
AcDbArc
 50
270.0237246901
 51
359.9762752086
  0
ARC
  5
370
100
AcDbEntity
  8
0
100
AcDbCircle
 62
7
  6
BYLAYER
 10
190.2822520972
 20
128.7969600603
 40
1.2056912571
100
AcDbArc
 50
87.7220848542
 51
95.2985649376
  0
ARC
  5
371
100
AcDbEntity
  8
0
100
AcDbCircle
 62
7
  6
BYLAYER
 10
189.6168456773
 20
119.153422649
 40
0.9986138868
100
AcDbArc
 50
90.000447354
 51
180.0005818681
  0
ARC
  5
372
100
AcDbEntity
  8
0
100
AcDbCircle
 62
7
  6
BYLAYER
 10
183.3188812156
 20
123.4943904263
 40
0.9983570123
100
AcDbArc
 50
179.999978175
 51
269.9996823223
  0
ARC
  5
373
100
AcDbEntity
  8
0
100
AcDbCircle
 62
7
  6
BYLAYER
 10
183.3188811468
 20
128.9089961135
 40
0.9983570123
100
AcDbArc
 50
89.9999804644
 51
179.9996861349
  0
ARC
  5
374
100
AcDbEntity
  8
0
100
AcDbCircle
 62
7
  6
BYLAYER
 10
190.1865629532
 20
123.3896281866
 40
0.9983570123
100
AcDbArc
 50
269.9438081125
 51
359.9996340391
  0
ARC
  5
375
100
AcDbEntity
  8
0
100
AcDbCircle
 62
7
  6
BYLAYER
 10
190.1866572422
 20
129.0138046312
 40
0.9982627017
100
AcDbArc
 50
0.0003508443
 51
81.7338823376
  0
CIRCLE
  5
376
100
AcDbEntity
  8
0
100
AcDbCircle
 62
7
  6
BYLAYER
 10
118.5070254954
 20
212.7258380877
 40
2.8
  0
ARC
  5
377
100
AcDbEntity
  8
0
100
AcDbCircle
 62
7
  6
BYLAYER
 10
134.9514111938
 20
213.7752625779
 40
2.500378644
100
AcDbArc
 50
90.0244617325
 51
179.9996927478
  0
ARC
  5
378
100
AcDbEntity
  8
0
100
AcDbCircle
 62
7
  6
BYLAYER
 10
185.9498841647
 20
213.7767267847
 40
2.4989137584
100
AcDbArc
 50
0.0185813079
 51
89.9897042799
  0
CIRCLE
  5
379
100
AcDbEntity
  8
0
100
AcDbCircle
 62
7
  6
BYLAYER
 10
118.5070254954
 20
212.7258380877
 40
1.7999890534
  0
ARC
  5
37A
100
AcDbEntity
  8
0
100
AcDbCircle
 62
7
  6
BYLAYER
 10
189.9507648953
 20
206.2780203556
 40
1.5006449872
100
AcDbArc
 50
180.0001470766
 51
270.2061195508
  0
ARC
  5
37B
100
AcDbEntity
  8
0
100
AcDbCircle
 62
7
  6
BYLAYER
 10
189.9506555934
 20
167.2773234346
 40
1.5003770917
100
AcDbArc
 50
90.1831573992
 51
180.141958958
  0
ARC
  5
37C
100
AcDbEntity
  8
0
100
AcDbCircle
 62
7
  6
BYLAYER
 10
121.6498023755
 20
164.4769979131
 40
1.3005386318
100
AcDbArc
 50
0.0237247089
 51
89.9762752915
  0
ARC
  5
37D
100
AcDbEntity
  8
0
100
AcDbCircle
 62
7
  6
BYLAYER
 10
115.9493900586
 20
210.2765801028
 40
0.9990240703
100
AcDbArc
 50
179.979465024
 51
270.0202296844
  0
ARC
  5
37E
100
AcDbEntity
  8
0
100
AcDbCircle
 62
7
  6
BYLAYER
 10
115.9493845697
 20
215.2784878225
 40
0.9990237011
100
AcDbArc
 50
89.979523471
 51
180.0201013773
  0
ARC
  5
37F
100
AcDbEntity
  8
0
100
AcDbCircle
 62
7
  6
BYLAYER
 10
120.9513026507
 20
215.2785028174
 40
0.9990120376
100
AcDbArc
 50
359.9790845192
 51
90.0206223277
  0
ARC
  5
380
100
AcDbEntity
  8
0
100
AcDbCircle
 62
7
  6
BYLAYER
 10
120.9513245538
 20
210.2765567069
 40
0.9989894165
100
AcDbArc
 50
269.9779628038
 51
0.0218857538
  0
ARC
  5
381
100
AcDbEntity
  8
0
100
AcDbCircle
 62
7
  6
BYLAYER
 10
115.6448640793
 20
215.5830176643
 40
0.998962352
100
AcDbArc
 50
89.971645532
 51
180.0270045368
  0
ARC
  5
382
100
AcDbEntity
  8
0
100
AcDbCircle
 62
7
  6
BYLAYER
 10
115.6448590808
 20
209.9720596075
 40
0.9989619423
100
AcDbArc
 50
179.9716154948
 51
270.0269779833
  0
ARC
  5
383
100
AcDbEntity
  8
0
100
AcDbCircle
 62
7
  6
BYLAYER
 10
121.2558202475
 20
209.9720529433
 40
0.9989594255
100
AcDbArc
 50
269.9719525795
 51
0.0270568808
  0
ARC
  5
384
100
AcDbEntity
  8
0
100
AcDbCircle
 62
7
  6
BYLAYER
 10
121.255848987
 20
215.583041451
 40
0.9989340963
100
AcDbArc
 50
359.9699591998
 51
90.0285968294
  0
ARC
  5
385
100
AcDbEntity
  8
0
100
AcDbCircle
 62
7
  6
BYLAYER
 10
160.2149754373
 20
269500.3487460877
 40
269379.0704990001
100
AcDbArc
 50
269.9946263213
 51
270.0054738017
  0
ARC
  5
386
100
AcDbEntity
  8
0
100
AcDbCircle
 62
7
  6
BYLAYER
 10
552.4228503408
 20
222.1702285843
 40
489.7198003037
100
AcDbArc
 50
179.4847279789
 51
179.7009998307
  0
CIRCLE
  5
387
100
AcDbEntity
  8
0
100
AcDbCircle
 62
7
  6
BYLAYER
 10
204.0070273001
 20
215.7258398924
 40
2.8000018047
  0
ARC
  5
388
100
AcDbEntity
  8
0
100
AcDbCircle
 62
7
  6
BYLAYER
 10
200.9496726566
 20
202.2770630144
 40
2.4988258373
100
AcDbArc
 50
0.0107695071
 51
89.9846778838
  0
ARC
  5
389
100
AcDbEntity
  8
0
100
AcDbCircle
 62
7
  6
BYLAYER
 10
200.9496727121
 20
171.2780091727
 40
2.4988253121
100
AcDbArc
 50
270.0153402629
 51
359.9893776556
  0
CIRCLE
  5
38A
100
AcDbEntity
  8
0
100
AcDbCircle
 62
7
  6
BYLAYER
 10
204.0070273001
 20
215.7258398924
 40
1.8000018047
  0
ARC
  5
38B
100
AcDbEntity
  8
0
100
AcDbCircle
 62
7
  6
BYLAYER
 10
201.4668534094
 20
213.2940434531
 40
0.9990267786
100
AcDbArc
 50
179.9796357223
 51
270.0200592582
  0
ARC
  5
38C
100
AcDbEntity
  8
0
100
AcDbCircle
 62
7
  6
BYLAYER
 10
206.4338289291
 20
218.2610294101
 40
0.9990264118
100
AcDbArc
 50
359.9796936876
 51
90.0199302906
  0
ARC
  5
38D
100
AcDbEntity
  8
0
100
AcDbCircle
 62
7
  6
BYLAYER
 10
201.4668474271
 20
218.2610247613
 40
0.9990258971
100
AcDbArc
 50
89.9797043274
 51
180.0199449032
  0
ARC
  5
38E
100
AcDbEntity
  8
0
100
AcDbCircle
 62
7
  6
BYLAYER
 10
206.4338746488
 20
213.2940056754
 40
0.9989759624
100
AcDbArc
 50
269.9775202668
 51
0.0222815074
  0
ARC
  5
38F
100
AcDbEntity
  8
0
100
AcDbCircle
 62
7
  6
BYLAYER
 10
201.1448642569
 20
218.5830176704
 40
0.9989625431
100
AcDbArc
 50
89.9716216857
 51
180.0270082809
  0
ARC
  5
390
100
AcDbEntity
  8
0
100
AcDbCircle
 62
7
  6
BYLAYER
 10
206.7558223239
 20
218.5830134469
 40
0.998962156
100
AcDbArc
 50
359.971603906
 51
90.027046046
  0
ARC
  5
391
100
AcDbEntity
  8
0
100
AcDbCircle
 62
7
  6
BYLAYER
 10
201.1448590756
 20
212.9720596074
 40
0.9989619381
100
AcDbArc
 50
179.9716148767
 51
270.0269786616
  0
ARC
  5
392
100
AcDbEntity
  8
0
100
AcDbCircle
 62
7
  6
BYLAYER
 10
206.7558496389
 20
212.9720247353
 40
0.9989305443
100
AcDbArc
 50
269.9699100456
 51
0.0287948394
  0
SPLINE
  5
393
100
AcDbEntity
  8
0
100
AcDbSpline
 62
7
  6
BYLAYER
 70
0
 71
3
 72
10
 73
6
 74
0
 42
0.0000001
 43
0.0000001
 44
0.0000000001
 40
0.0
 40
0.0
 40
0.0
 40
0.0
 40
0.6061503535
 40
0.8407050404
 40
1.0
 40
1.0
 40
1.0
 40
1.0
 10
73.0062067778
 20
227.1969019494
 30
0.0
 10
72.7237881063
 20
227.1870595875
 30
0.0
 10
72.3321278411
 20
227.1702707131
 30
0.0
 10
71.8669619172
 20
227.1396566861
 30
0.0
 10
71.6839303711
 20
227.1240124928
 30
0.0
 10
71.6102480065
 20
227.1147357039
 30
0.0
  0
SPLINE
  5
394
100
AcDbEntity
  8
0
100
AcDbSpline
 62
7
  6
BYLAYER
 70
0
 71
3
 72
9
 73
5
 74
0
 42
0.0000001
 43
0.0000001
 44
0.0000000001
 40
0.0
 40
0.0
 40
0.0
 40
0.0
 40
0.4587214757
 40
1.0
 40
1.0
 40
1.0
 40
1.0
 10
78.9125513505
 20
227.3517402628
 30
0.0
 10
78.3780066353
 20
227.3517514656
 30
0.0
 10
77.2127332887
 20
227.3355182637
 30
0.0
 10
76.0478753106
 20
227.3027926676
 30
0.0
 10
75.4175040911
 20
227.2809993497
 30
0.0
  0
SPLINE
  5
395
100
AcDbEntity
  8
0
100
AcDbSpline
 62
7
  6
BYLAYER
 70
0
 71
3
 72
9
 73
5
 74
0
 42
0.0000001
 43
0.0000001
 44
0.0000000001
 40
0.0
 40
0.0
 40
0.0
 40
0.0
 40
0.2035779091
 40
1.0
 40
1.0
 40
1.0
 40
1.0
 10
62.7228537201
 20
226.5743140816
 30
0.0
 10
62.7248493681
 20
226.574564289
 30
0.0
 10
62.7346830287
 20
226.5755459057
 30
0.0
 10
62.7445697287
 20
226.5758530166
 30
0.0
 10
62.752436875
 20
226.5759903986
 30
0.0
  0
SPLINE
  5
396
100
AcDbEntity
  8
0
100
AcDbSpline
 62
7
  6
BYLAYER
 70
0
 71
3
 72
9
 73
5
 74
0
 42
0.0000001
 43
0.0000001
 44
0.0000000001
 40
0.0
 40
0.0
 40
0.0
 40
0.0
 40
0.5589067073
 40
1.0
 40
1.0
 40
1.0
 40
1.0
 10
179.6529211546
 20
101.712980945
 30
0.0
 10
179.9508575351
 20
101.7129809196
 30
0.0
 10
180.4839164607
 20
101.7092145417
 30
0.0
 10
181.0169361667
 20
101.6976995723
 30
0.0
 10
181.2518645793
 20
101.6878789361
 30
0.0
  0
SPLINE
  5
397
100
AcDbEntity
  8
0
100
AcDbSpline
 62
7
  6
BYLAYER
 70
0
 71
3
 72
11
 73
7
 74
0
 42
0.0000001
 43
0.0000001
 44
0.0000000001
 40
0.0
 40
0.0
 40
0.0
 40
0.0
 40
0.4002190878
 40
0.704167035
 40
0.9050274255
 40
1.0
 40
1.0
 40
1.0
 40
1.0
 10
181.2518645793
 20
101.6878789361
 30
0.0
 10
181.3052547532
 20
101.6856470839
 30
0.0
 10
181.3989168363
 20
101.6808334537
 30
0.0
 10
181.5203334118
 20
101.6740758268
 30
0.0
 10
181.5984063742
 20
101.6637519354
 30
0.0
 10
181.6395086405
 20
101.6599669251
 30
0.0
 10
181.6502868012
 20
101.6532863816
 30
0.0
  0
SPLINE
  5
398
100
AcDbEntity
  8
0
100
AcDbSpline
 62
7
  6
BYLAYER
 70
0
 71
3
 72
18
 73
14
 74
0
 42
0.0000001
 43
0.0000001
 44
0.0000000001
 40
0.0
 40
0.0
 40
0.0
 40
0.0
 40
0.1915556109
 40
0.3763319192
 40
0.5468878831
 40
0.6971108386
 40
0.8215214894
 40
0.8725176899
 40
0.9154342808
 40
0.9498619968
 40
0.975477529
 40
0.9921567906
 40
1.0
 40
1.0
 40
1.0
 40
1.0
 10
179.6383869873
 20
101.7380786034
 30
0.0
 10
179.7662352857
 20
101.738078546
 30
0.0
 10
180.0174083494
 20
101.7372803239
 30
0.0
 10
180.3823970673
 20
101.733750291
 30
0.0
 10
180.7197754304
 20
101.728030586
 30
0.0
 10
181.0167947357
 20
101.7203333487
 30
0.0
 10
181.2340189808
 20
101.7122296981
 30
0.0
 10
181.3794820951
 20
101.7045857737
 30
0.0
 10
181.465081061
 20
101.6990726593
 30
0.0
 10
181.53323709
 20
101.6931242417
 30
0.0
 10
181.5849067025
 20
101.6877620535
 30
0.0
 10
181.6163728657
 20
101.681230575
 30
0.0
 10
181.6341214103
 20
101.6776427137
 30
0.0
 10
181.6373672659
 20
101.6735357965
 30
0.0
  0
LINE
  5
399
100
AcDbEntity
  8
0
100
AcDbLine
 62
7
  6
BYLAYER
 10
27.4677570973
 20
224.8072033964
 11
26.8677570977
 21
225.4072033955
  0
SPLINE
  5
39A
100
AcDbEntity
  8
0
100
AcDbSpline
 62
7
  6
BYLAYER
 70
0
 71
3
 72
9
 73
5
 74
0
 42
0.0000001
 43
0.0000001
 44
0.0000000001
 40
0.0
 40
0.0
 40
0.0
 40
0.0
 40
0.5812673458
 40
1.0
 40
1.0
 40
1.0
 40
1.0
 10
63.068268649
 20
226.2646883382
 30
0.0
 10
63.0263356497
 20
226.3416339002
 30
0.0
 10
62.9444265399
 20
226.4697622072
 30
0.0
 10
62.8108624302
 20
226.5585887052
 30
0.0
 10
62.74890772
 20
226.5706963392
 30
0.0
  0
SPLINE
  5
39B
100
AcDbEntity
  8
0
100
AcDbSpline
 62
7
  6
BYLAYER
 70
0
 71
3
 72
9
 73
5
 74
0
 42
0.0000001
 43
0.0000001
 44
0.0000000001
 40
0.0
 40
0.0
 40
0.0
 40
0.0
 40
0.2772073361
 40
1.0
 40
1.0
 40
1.0
 40
1.0
 10
76.0091867251
 20
224.800588211
 30
0.0
 10
76.285439469
 20
224.8091580105
 30
0.0
 10
77.2820748285
 20
224.8369642983
 30
0.0
 10
78.2790968503
 20
224.854798451
 30
0.0
 10
78.9997470073
 20
224.8547833479
 30
0.0
  0
SPLINE
  5
39C
100
AcDbEntity
  8
0
100
AcDbSpline
 62
7
  6
BYLAYER
 70
0
 71
3
 72
9
 73
5
 74
0
 42
0.0000001
 43
0.0000001
 44
0.0000000001
 40
0.0
 40
0.0
 40
0.0
 40
0.0
 40
0.2577438548
 40
1.0
 40
1.0
 40
1.0
 40
1.0
 10
63.3026124287
 20
225.9452905838
 30
0.0
 10
63.2932746804
 20
225.9517974752
 30
0.0
 10
63.257367628
 20
225.9774992465
 30
0.0
 10
63.2227568615
 20
226.0050305158
 30
0.0
 10
63.198042961
 20
226.0265593222
 30
0.0
  0
LINE
  5
39D
100
AcDbEntity
  8
0
100
AcDbLine
 62
7
  6
BYLAYER
 10
212.4329246942
 20
224.8072033962
 11
213.0329246942
 21
225.4072033961
  0
LINE
  5
39E
100
AcDbEntity
  8
0
100
AcDbLine
 62
7
  6
BYLAYER
 10
212.4329246942
 20
137.2478694703
 11
213.0329246944
 21
136.64786947
  0
SPLINE
  5
39F
100
AcDbEntity
  8
0
100
AcDbSpline
 62
7
  6
BYLAYER
 70
0
 71
3
 72
9
 73
5
 74
0
 42
0.0000001
 43
0.0000001
 44
0.0000000001
 40
0.0
 40
0.0
 40
0.0
 40
0.0
 40
0.5483478894
 40
1.0
 40
1.0
 40
1.0
 40
1.0
 10
66.0888518194
 20
224.7258380802
 30
0.0
 10
65.6882733052
 20
224.7818788203
 30
0.0
 10
64.9652435113
 20
224.9466770842
 30
0.0
 10
64.2860213954
 20
225.2600158253
 30
0.0
 10
64.0126855208
 20
225.450485734
 30
0.0
  0
ELLIPSE
  5
3A0
100
AcDbEntity
  8
0
100
AcDbEllipse
 62
7
  6
BYLAYER
 10
46.2884859505
 20
105.6660905304
 30
0.0
 11
1.0000039766
 21
-0.0
 31
0.0
 40
0.0301204819
 41
1.5708002002
 42
3.1154088401
  0
ELLIPSE
  5
3A1
100
AcDbEntity
  8
0
100
AcDbEllipse
 62
7
  6
BYLAYER
 10
31.0094942737
 20
110.2283068659
 30
0.0
 11
3.5390244245
 21
3.5390244245
 31
0.0
 40
0.999013706
 41
2.3566878805
 42
2.8519128491
  0
ELLIPSE
  5
3A2
100
AcDbEntity
  8
0
100
AcDbEllipse
 62
7
  6
BYLAYER
 10
31.0094942737
 20
110.2283068659
 30
0.0
 11
3.5390244245
 21
3.5390244245
 31
0.0
 40
0.999013706
 41
-2.8519124219
 42
-2.3566878805
  0
ELLIPSE
  5
3A3
100
AcDbEntity
  8
0
100
AcDbEllipse
 62
7
  6
BYLAYER
 10
31.0094942737
 20
110.2283068659
 30
0.0
 11
-3.5390244245
 21
-3.5390244245
 31
0.0
 40
0.999013706
 41
-0.2896798045
 42
0.2896802317
  0
ENDSEC
  0
SECTION
  2
OBJECTS
  0
DICTIONARY
  5
C
100
AcDbDictionary
280
0
281
1
  3
ACAD_GROUP
350
D
  3
ACAD_MLINESTYLE
350
17
  3
ACAD_LAYOUT
350
1A
  3
ACAD_PLOTSETTINGS
350
19
  3
ACAD_PLOTSTYLENAME
350
E
  0
DICTIONARY
  5
D
102
{ACAD_REACTORS
330
C
102
}
100
AcDbDictionary
280
0
281
1
  0
ACDBDICTIONARYWDFLT
  5
E
102
{ACAD_REACTORS
330
C
102
}
100
AcDbDictionary
281
1
  3
Normal
350
F
100
AcDbDictionaryWithDefault
340
F
  0
DICTIONARY
  5
17
102
{ACAD_REACTORS
330
C
102
}
100
AcDbDictionary
280
0
281
1
  3
Standard
350
18
  0
DICTIONARY
  5
19
102
{ACAD_REACTORS
330
C
102
}
100
AcDbDictionary
281
1
  0
DICTIONARY
  5
1A
102
{ACAD_REACTORS
330
C
102
}
100
AcDbDictionary
281
1
  3
Model
350
3A4
  3
Layout1
350
3A5
  0
ACDBPLACEHOLDER
  5
F
102
{ACAD_REACTORS
330
E
102
}
  0
MLINESTYLE
  5
18
102
{ACAD_REACTORS
330
17
102
}
100
AcDbMlineStyle
  2
STANDARD
 70
0
  3

 62
256
 51
90.0
 52
90.0
 71
2
 49
0.5
 62
256
  6
BYLAYER
 49
-0.5
 62
256
  6
BYLAYER
  0
LAYOUT
  5
3A4
102
{ACAD_REACTORS
330
1A
102
}
100
AcDbPlotSettings
  1

  2
none_device
  4

  6

 40
0.0
 41
0.0
 42
0.0
 43
0.0
 44
210.0
 45
297.0
 46
0.0
 47
0.0
 48
0.0
 49
0.0
140
0.0
141
0.0
142
1.0
143
1.0
 70
1024
 72
1
 73
0
 74
0
  7

 75
0
147
1.0
148
0.0
149
0.0
100
AcDbLayout
  1
Model
 70
0
 71
0
 10
0.0
 20
0.0
 11
210.0
 21
297.0
 12
0.0
 22
0.0
 32
0.0
 14
0.0
 24
0.0
 34
0.0
 15
0.0
 25
0.0
 35
0.0
146
0.0
 13
0.0
 23
0.0
 33
0.0
 16
1.0
 26
0.0
 36
0.0
 17
0.0
 27
1.0
 37
0.0
 76
0
330
210
345
0
346
0
  0
LAYOUT
  5
3A5
102
{ACAD_REACTORS
330
1A
102
}
100
AcDbPlotSettings
  1

  2
none_device
  4

  6

 40
0.0
 41
0.0
 42
0.0
 43
0.0
 44
210.0
 45
297.0
 46
0.0
 47
0.0
 48
0.0
 49
0.0
140
0.0
141
0.0
142
1.0
143
1.0
 70
0
 72
1
 73
0
 74
0
  7

 75
0
147
1.0
148
0.0
149
0.0
100
AcDbLayout
  1
Layout1
 70
0
 71
1
 10
0.0
 20
0.0
 11
210.0
 21
297.0
 12
0.0
 22
0.0
 32
0.0
 14
0.0
 24
0.0
 34
0.0
 15
0.0
 25
0.0
 35
0.0
146
0.0
 13
0.0
 23
0.0
 33
0.0
 16
1.0
 26
0.0
 36
0.0
 17
0.0
 27
1.0
 37
0.0
 76
0
330
211
345
0
346
0
  0
ENDSEC
  0
EOF
