999
DXF file: C:\Users\sesa63760\Dev\_Creo\CAD\MCADID0004246_3D-CAD\drw0001_6.dxf
999
Pro/ENGINEER 2019471 by Parametric Technology Corporation
  0
SECTION
  2
HEADER
  9
$ACADVER
  1
AC1024
  9
$DWGCODEPAGE
  3
ANSI_1252
  9
$EXTMAX
 10
1223.2009105851
 20
1729.9555735418
 30
0.0
  9
$EXTMIN
 10
0.0
 20
0.0
 30
0.0
  9
$LIMMIN
 10
0.0
 20
0.0
  9
$LIMMAX
 10
1223.2009105851
 20
1729.9555735418
  9
$VIEWCTR
 10
611.6004552926
 20
864.9777867709
  9
$VIEWSIZE
 40
1729.9555735418
  9
$CLAYER
  8
0
  9
$LTSCALE
 40
112.7674744235
  9
$CELTYPE
  6
BYLAYER
  9
$DIMSCALE
 40
1.0
  9
$DIMASZ
 40
14.5619156022
  9
$DIMEXO
 40
1.0
  9
$DIMDLI
 40
77.912073238
  9
$DIMEXE
 40
1.0
  9
$DIMCEN
 40
18.4528594511
  9
$DIMLFAC
 40
1.0
  9
$DIMBLK
  1
_FILLED
  9
$DIMALT
 70
0
  9
$DIMALTF
 40
0.0393700787
  9
$DIMTXT
 40
20.3866818431
  9
$DIMTOL
 70
1
  9
$DIMLIM
 70
0
  9
$DIMTFAC
 40
1.0
  9
$DIMTP
 40
0.01
  9
$DIMTM
 40
0.01
  9
$DIMGAP
 40
0.625
  9
$DIMDSEP
 70
46
  9
$AUNITS
 70
0
  9
$PDMODE
 70
3
  9
$PDSIZE
 40
0.3125
  9
$HANDSEED
  5
333
  9
$TILEMODE
 70
1
  9
$MEASUREMENT
 70
1
  9
$INSUNITS
 70
4
  0
ENDSEC
  0
SECTION
  2
CLASSES
  0
CLASS
  1
ACDBDICTIONARYWDFLT
  2
AcDbDictionaryWithDefault
  3
AutoCAD 2000
 90
0
 91
1
280
0
281
0
  0
CLASS
  1
ACDBPLACEHOLDER
  2
AcDbPlaceHolder
  3
AutoCAD 2000
 90
0
 91
1
280
0
281
0
  0
CLASS
  1
LAYOUT
  2
AcDbLayout
  3
AutoCAD 2000
 90
0
 91
0
280
0
281
0
  0
ENDSEC
  0
SECTION
  2
TABLES
  0
TABLE
  2
VPORT
  5
8
100
AcDbSymbolTable
 70
2
  0
VPORT
  5
1F4
100
AcDbSymbolTableRecord
100
AcDbViewportTableRecord
  2
*ACTIVE
 70
0
 10
0.0
 20
0.0
 11
1.0
 21
1.0
 12
611.6004552926
 22
864.9777867709
 13
0.0
 23
0.0
 14
1.0
 24
1.0
 15
0.0
 25
0.0
 16
0.0
 26
0.0
 36
1.0
 17
0.0
 27
0.0
 37
0.0
 40
1729.9555735418
 41
0.7070707071
 42
50.0
 43
0.0
 44
0.0
 50
0.0
 51
0.0
 71
0
 72
100
 73
1
 74
1
 75
0
 76
0
 77
0
 78
0
  0
ENDTAB
  0
TABLE
  2
LTYPE
  5
5
100
AcDbSymbolTable
 70
6
  0
LTYPE
  5
14
100
AcDbSymbolTableRecord
100
AcDbLinetypeTableRecord
  2
BYBLOCK
 70
0
  3

 72
65
 73
0
 40
0.0
  0
LTYPE
  5
15
100
AcDbSymbolTableRecord
100
AcDbLinetypeTableRecord
  2
BYLAYER
 70
0
  3

 72
65
 73
0
 40
0.0
  0
LTYPE
  5
16
100
AcDbSymbolTableRecord
100
AcDbLinetypeTableRecord
  2
CONTINUOUS
 70
64
  3
Solid line
 72
65
 73
0
 40
0.0
  0
LTYPE
  5
1F5
100
AcDbSymbolTableRecord
100
AcDbLinetypeTableRecord
  2
CENTER
 70
64
  3
____ _ ____ _ ____ _ ____ _ ____ _ ____ _ ____
 72
65
 73
4
 40
0.6
 49
0.375
 74
0
 49
-0.075
 74
0
 49
0.075
 74
0
 49
-0.075
 74
0
  0
LTYPE
  5
1F6
100
AcDbSymbolTableRecord
100
AcDbLinetypeTableRecord
  2
HIDDEN
 70
64
  3
- - - - - - - - - - - - - - - - - - - -
 72
65
 73
2
 40
0.2
 49
0.1
 74
0
 49
-0.1
 74
0
  0
LTYPE
  5
1F7
100
AcDbSymbolTableRecord
100
AcDbLinetypeTableRecord
  2
PHANTOM
 70
64
  3
_____ _ _ _____ _ _ _____ _ _ _____
 72
65
 73
6
 40
0.8
 49
0.45
 74
0
 49
-0.05
 74
0
 49
0.1
 74
0
 49
-0.05
 74
0
 49
0.1
 74
0
 49
-0.05
 74
0
  0
LTYPE
  5
1F8
100
AcDbSymbolTableRecord
100
AcDbLinetypeTableRecord
  2
DOT
 70
64
  3
. . . . . . . . . . . . . . . . . . . .
 72
65
 73
2
 40
0.2
 49
0.1
 74
0
 49
-0.1
 74
0
  0
LTYPE
  5
1F9
100
AcDbSymbolTableRecord
100
AcDbLinetypeTableRecord
  2
DASHED
 70
64
  3
- - - - - - - - - - - - - - - - - - - -
 72
65
 73
2
 40
0.2
 49
0.1
 74
0
 49
-0.1
 74
0
  0
ENDTAB
  0
TABLE
  2
LAYER
  5
2
100
AcDbSymbolTable
 70
36
  0
LAYER
  5
10
100
AcDbSymbolTableRecord
100
AcDbLayerTableRecord
  2
0
 70
0
 62
7
  6
CONTINUOUS
370
-3
390
F
  0
LAYER
  5
1FA
100
AcDbSymbolTableRecord
100
AcDbLayerTableRecord
  2
DEFAULT_1
 70
0
 62
7
  6
CENTER
370
-3
390
F
  0
LAYER
  5
1FB
100
AcDbSymbolTableRecord
100
AcDbLayerTableRecord
  2
DEFAULT_2
 70
0
 62
7
  6
HIDDEN
370
-3
390
F
  0
LAYER
  5
1FC
100
AcDbSymbolTableRecord
100
AcDbLayerTableRecord
  2
DEFAULT_3
 70
0
 62
7
  6
PHANTOM
370
-3
390
F
  0
LAYER
  5
1FD
100
AcDbSymbolTableRecord
100
AcDbLayerTableRecord
  2
00_COMPONENTS
 70
0
 62
7
  6
CONTINUOUS
370
-3
390
F
  0
LAYER
  5
1FE
100
AcDbSymbolTableRecord
100
AcDbLayerTableRecord
  2
01_1_DEFAULT_DATUMS
 70
0
 62
7
  6
CONTINUOUS
370
-3
390
F
  0
LAYER
  5
1FF
100
AcDbSymbolTableRecord
100
AcDbLayerTableRecord
  2
01_PLANES
 70
0
 62
7
  6
CONTINUOUS
370
-3
390
F
  0
LAYER
  5
200
100
AcDbSymbolTableRecord
100
AcDbLayerTableRecord
  2
02_COORD_SYS
 70
0
 62
7
  6
CONTINUOUS
370
-3
390
F
  0
LAYER
  5
201
100
AcDbSymbolTableRecord
100
AcDbLayerTableRecord
  2
03_AXES
 70
0
 62
7
  6
CONTINUOUS
370
-3
390
F
  0
LAYER
  5
202
100
AcDbSymbolTableRecord
100
AcDbLayerTableRecord
  2
04_POINTS
 70
0
 62
7
  6
CONTINUOUS
370
-3
390
F
  0
LAYER
  5
203
100
AcDbSymbolTableRecord
100
AcDbLayerTableRecord
  2
05_CURVES
 70
0
 62
7
  6
CONTINUOUS
370
-3
390
F
  0
LAYER
  5
204
100
AcDbSymbolTableRecord
100
AcDbLayerTableRecord
  2
06_SURFS
 70
0
 62
7
  6
CONTINUOUS
370
-3
390
F
  0
LAYER
  5
205
100
AcDbSymbolTableRecord
100
AcDbLayerTableRecord
  2
07_COSMETICS
 70
0
 62
7
  6
CONTINUOUS
370
-3
390
F
  0
LAYER
  5
206
100
AcDbSymbolTableRecord
100
AcDbLayerTableRecord
  2
10_NOTES
 70
0
 62
7
  6
CONTINUOUS
370
-3
390
F
  0
LAYER
  5
207
100
AcDbSymbolTableRecord
100
AcDbLayerTableRecord
  2
11_NOTES_PUB
 70
0
 62
7
  6
CONTINUOUS
370
-3
390
F
  0
LAYER
  5
208
100
AcDbSymbolTableRecord
100
AcDbLayerTableRecord
  2
13_REF_GTOL
 70
0
 62
7
  6
CONTINUOUS
370
-3
390
F
  0
LAYER
  5
209
100
AcDbSymbolTableRecord
100
AcDbLayerTableRecord
  2
16_MISC
 70
0
 62
7
  6
CONTINUOUS
370
-3
390
F
  0
LAYER
  5
20A
100
AcDbSymbolTableRecord
100
AcDbLayerTableRecord
  2
17_NO_PRINT
 70
0
 62
7
  6
CONTINUOUS
370
-3
390
F
  0
LAYER
  5
20B
100
AcDbSymbolTableRecord
100
AcDbLayerTableRecord
  2
18_DATUM_CAMS_JOINTS
 70
0
 62
7
  6
CONTINUOUS
370
-3
390
F
  0
LAYER
  5
20C
100
AcDbSymbolTableRecord
100
AcDbLayerTableRecord
  2
19_DATUM_FUNCTIONAL
 70
0
 62
7
  6
CONTINUOUS
370
-3
390
F
  0
LAYER
  5
20D
100
AcDbSymbolTableRecord
100
AcDbLayerTableRecord
  2
20_DATUM_KINEMATIC_SCHEME
 70
0
 62
7
  6
CONTINUOUS
370
-3
390
F
  0
LAYER
  5
20E
100
AcDbSymbolTableRecord
100
AcDbLayerTableRecord
  2
3
 70
0
 62
7
  6
CONTINUOUS
370
-3
390
F
  0
LAYER
  5
20F
100
AcDbSymbolTableRecord
100
AcDbLayerTableRecord
  2
4
 70
0
 62
7
  6
CONTINUOUS
370
-3
390
F
  0
ENDTAB
  0
TABLE
  2
STYLE
  5
3
100
AcDbSymbolTable
 70
1
  0
STYLE
  5
11
100
AcDbSymbolTableRecord
100
AcDbTextStyleTableRecord
  2
STANDARD
 70
0
 40
0.0
 41
1.0
 50
0.0
 71
0
 42
0.2
  3
ARIAL.TTF
  4

  0
STYLE
  5
210
100
AcDbSymbolTableRecord
100
AcDbTextStyleTableRecord
  2
TEXTSTYLE_1
 70
0
 40
0.0
 41
0.8
 50
0.0
 71
0
 42
0.2
  3
gdt
  4

  0
ENDTAB
  0
TABLE
  2
VIEW
  5
6
100
AcDbSymbolTable
 70
0
  0
ENDTAB
  0
TABLE
  2
UCS
  5
7
100
AcDbSymbolTable
 70
0
  0
ENDTAB
  0
TABLE
  2
APPID
  5
9
100
AcDbSymbolTable
 70
1
  0
APPID
  5
211
100
AcDbSymbolTableRecord
100
AcDbRegAppTableRecord
  2
ACAD
 70
0
  0
ENDTAB
  0
TABLE
  2
BLOCK_RECORD
  5
1
100
AcDbSymbolTable
 70
0
  0
BLOCK_RECORD
  5
212
100
AcDbSymbolTableRecord
100
AcDbBlockTableRecord
  2
*Model_Space
  0
BLOCK_RECORD
  5
213
100
AcDbSymbolTableRecord
100
AcDbBlockTableRecord
  2
*Paper_Space
  0
BLOCK_RECORD
  5
214
100
AcDbSymbolTableRecord
100
AcDbBlockTableRecord
  2
_FILLED
  0
ENDTAB
  0
TABLE
  2
DIMSTYLE
  5
A
100
AcDbSymbolTable
 70
1
100
AcDbDimStyleTable
 71
0
  0
DIMSTYLE
105
215
100
AcDbSymbolTableRecord
100
AcDbDimStyleTableRecord
  2
STANDARD
 70
0
  3

  4

 40
1.0
 41
14.5619156022
 42
1.0
 43
0.38
 44
1.0
 45
0.0
 46
0.0
 47
0.01
 48
0.01
140
20.3866818431
141
0.09
142
0.0
143
25.4
144
1.0
145
0.0
146
1.0
147
0.625
 71
1
 72
0
 73
0
 74
0
 75
0
 76
0
 77
1
 78
8
 79
2
170
0
171
1
172
0
173
0
174
0
175
0
176
0
177
0
178
0
270
2
179
2
271
2
272
2
273
2
274
2
275
0
280
0
281
0
282
0
283
1
284
8
285
0
286
0
287
3
288
0
340
11
278
46
341
214
342
214
343
214
344
214
  0
ENDTAB
  0
ENDSEC
  0
SECTION
  2
BLOCKS
  0
BLOCK
  5
20
100
AcDbEntity
  8
0
100
AcDbBlockBegin
  2
*Model_Space
 70
0
 10
0.0
 20
0.0
 30
0.0
  3
*Model_Space
  1

  0
ENDBLK
  5
21
100
AcDbEntity
  8
0
100
AcDbBlockEnd
  0
BLOCK
  5
1C
100
AcDbEntity
  8
0
100
AcDbBlockBegin
  2
*Paper_Space
 70
0
 10
0.0
 20
0.0
 30
0.0
  3
*Paper_Space
  1

  0
ENDBLK
  5
1D
100
AcDbEntity
  8
0
100
AcDbBlockEnd
  0
BLOCK
  5
216
100
AcDbEntity
  8
0
100
AcDbBlockBegin
  2
_FILLED
 70
64
 10
0.0
 20
0.0
  3
_FILLED
  1

  0
SOLID
  5
217
100
AcDbEntity
  8
0
  6
BYBLOCK
 62
0
100
AcDbTrace
 10
0.0
 20
0.0
 11
-1.0
 21
0.25
 12
-1.0
 22
-0.25
 13
-1.0
 23
-0.25
  0
ENDBLK
  5
218
100
AcDbEntity
  8
0
  6
BYBLOCK
 62
0
100
AcDbBlockEnd
  0
ENDSEC
  0
SECTION
  2
ENTITIES
  0
LINE
  5
219
100
AcDbEntity
  8
0
100
AcDbLine
 62
7
  6
BYLAYER
 10
622.3716520263
 20
142.9277860637
 11
617.771828724
 21
142.9277860637
  0
LINE
  5
21A
100
AcDbEntity
  8
0
100
AcDbLine
 62
7
  6
BYLAYER
 10
582.3716639051
 20
142.9277860637
 11
577.7718406028
 21
142.9277860637
  0
LINE
  5
21B
100
AcDbEntity
  8
0
100
AcDbLine
 62
7
  6
BYLAYER
 10
577.3989623433
 20
143.0276759253
 11
570.5717446254
 21
143.0276759253
  0
LINE
  5
21C
100
AcDbEntity
  8
0
100
AcDbLine
 62
7
  6
BYLAYER
 10
582.7445506652
 20
143.0276759253
 11
617.3989504645
 21
143.0276759253
  0
LINE
  5
21D
100
AcDbEntity
  8
0
100
AcDbLine
 62
7
  6
BYLAYER
 10
622.7445387864
 20
143.0276759253
 11
623.5717446254
 21
143.0276759253
  0
LINE
  5
21E
100
AcDbEntity
  8
0
100
AcDbLine
 62
7
  6
BYLAYER
 10
601.2131928055
 20
143.5276759253
 11
592.9312609712
 21
143.5276759253
  0
LINE
  5
21F
100
AcDbEntity
  8
0
100
AcDbLine
 62
7
  6
BYLAYER
 10
623.3717446254
 20
143.9277860637
 11
616.7717446254
 21
143.9277860637
  0
LINE
  5
220
100
AcDbEntity
  8
0
100
AcDbLine
 62
7
  6
BYLAYER
 10
583.3717565042
 20
143.9277860637
 11
576.7717565042
 21
143.9277860637
  0
LINE
  5
221
100
AcDbEntity
  8
0
100
AcDbLine
 62
7
  6
BYLAYER
 10
624.5717446254
 20
144.0276759253
 11
623.3717446254
 21
144.0276759253
  0
LINE
  5
222
100
AcDbEntity
  8
0
100
AcDbLine
 62
7
  6
BYLAYER
 10
616.7717446254
 20
144.0276759253
 11
601.0717446254
 21
144.0276759319
  0
LINE
  5
223
100
AcDbEntity
  8
0
100
AcDbLine
 62
7
  6
BYLAYER
 10
593.0717446254
 20
144.0276759253
 11
583.3717565042
 21
144.0276759253
  0
LINE
  5
224
100
AcDbEntity
  8
0
100
AcDbLine
 62
7
  6
BYLAYER
 10
576.7717565042
 20
144.0276759253
 11
569.5717446254
 21
144.0276759253
  0
LINE
  5
225
100
AcDbEntity
  8
0
100
AcDbLine
 62
7
  6
BYLAYER
 10
576.1594293959
 20
145.0276759253
 11
576.7717565042
 21
145.0276759253
  0
LINE
  5
226
100
AcDbEntity
  8
0
100
AcDbLine
 62
7
  6
BYLAYER
 10
583.3717565042
 20
145.0276759253
 11
584.5717446254
 21
145.0276758681
  0
LINE
  5
227
100
AcDbEntity
  8
0
100
AcDbLine
 62
7
  6
BYLAYER
 10
615.5717446254
 20
145.0276758564
 11
616.7717446254
 21
145.0276759253
  0
LINE
  5
228
100
AcDbEntity
  8
0
100
AcDbLine
 62
7
  6
BYLAYER
 10
623.3717446254
 20
145.0276759253
 11
624.5717446254
 21
145.0276758563
  0
LINE
  5
229
100
AcDbEntity
  8
0
100
AcDbLine
 62
7
  6
BYLAYER
 10
617.0717446254
 20
145.5276759253
 11
624.0717446254
 21
145.5276759253
  0
LINE
  5
22A
100
AcDbEntity
  8
0
100
AcDbLine
 62
7
  6
BYLAYER
 10
576.5219911318
 20
145.5276759253
 11
583.0717446254
 21
145.5276759253
  0
LINE
  5
22B
100
AcDbEntity
  8
0
100
AcDbLine
 62
7
  6
BYLAYER
 10
624.5717446254
 20
146.0276759253
 11
617.0717446254
 21
146.0276759253
  0
LINE
  5
22C
100
AcDbEntity
  8
0
100
AcDbLine
 62
7
  6
BYLAYER
 10
583.0717446254
 20
146.0276759253
 11
574.6596629336
 21
146.0276759253
  0
LINE
  5
22D
100
AcDbEntity
  8
0
100
AcDbLine
 62
7
  6
BYLAYER
 10
569.5717446254
 20
160.5276759253
 11
601.0712458362
 21
160.5276759253
  0
LINE
  5
22E
100
AcDbEntity
  8
0
100
AcDbLine
 62
7
  6
BYLAYER
 10
601.0717446254
 20
160.5276759253
 11
624.5717446254
 21
160.5276759253
  0
LINE
  5
22F
100
AcDbEntity
  8
3
100
AcDbLine
 62
7
  6
BYLAYER
 10
569.5646645653
 20
160.5277988723
 11
624.5712631511
 21
160.5277988723
  0
LINE
  5
230
100
AcDbEntity
  8
4
100
AcDbLine
 62
7
  6
BYLAYER
 10
669.8131647033
 20
187.875961187
 11
624.8131647033
 21
187.875961187
  0
LINE
  5
231
100
AcDbEntity
  8
4
100
AcDbLine
 62
7
  6
BYLAYER
 10
653.1131647033
 20
194.625961187
 11
666.6131647033
 21
194.625961187
  0
LINE
  5
232
100
AcDbEntity
  8
4
100
AcDbLine
 62
7
  6
BYLAYER
 10
624.8131647033
 20
194.875961187
 11
624.5712631511
 21
194.875961187
  0
LINE
  5
233
100
AcDbEntity
  8
4
100
AcDbLine
 62
7
  6
BYLAYER
 10
624.8131647033
 20
200.875961187
 11
624.5712631511
 21
200.875961187
  0
LINE
  5
234
100
AcDbEntity
  8
4
100
AcDbLine
 62
7
  6
BYLAYER
 10
666.6131647033
 20
201.125961187
 11
653.1131647033
 21
201.125961187
  0
LINE
  5
235
100
AcDbEntity
  8
4
100
AcDbLine
 62
7
  6
BYLAYER
 10
653.1131647033
 20
224.625961187
 11
666.6131647033
 21
224.625961187
  0
LINE
  5
236
100
AcDbEntity
  8
4
100
AcDbLine
 62
7
  6
BYLAYER
 10
624.8131647033
 20
224.875961187
 11
624.5712631511
 21
224.875961187
  0
LINE
  5
237
100
AcDbEntity
  8
4
100
AcDbLine
 62
7
  6
BYLAYER
 10
624.8131647033
 20
230.875961187
 11
624.5712631511
 21
230.875961187
  0
LINE
  5
238
100
AcDbEntity
  8
4
100
AcDbLine
 62
7
  6
BYLAYER
 10
666.6131647033
 20
231.125961187
 11
653.1131647033
 21
231.125961187
  0
LINE
  5
239
100
AcDbEntity
  8
4
100
AcDbLine
 62
7
  6
BYLAYER
 10
624.8131647033
 20
237.875961187
 11
669.8131647033
 21
237.875961187
  0
LINE
  5
23A
100
AcDbEntity
  8
0
100
AcDbLine
 62
7
  6
BYLAYER
 10
581.071503324
 20
1587.0277874781
 11
580.5715023403
 21
1586.5277866743
  0
LINE
  5
23B
100
AcDbEntity
  8
0
100
AcDbLine
 62
7
  6
BYLAYER
 10
579.3215038882
 20
1583.0277860637
 11
578.8215038882
 21
1582.5277860637
  0
LINE
  5
23C
100
AcDbEntity
  8
0
100
AcDbLine
 62
7
  6
BYLAYER
 10
579.3215038882
 20
1578.0277860637
 11
578.8215038882
 21
1577.5277860637
  0
LINE
  5
23D
100
AcDbEntity
  8
0
100
AcDbLine
 62
7
  6
BYLAYER
 10
594.3215038882
 20
1576.7277860637
 11
594.1215038882
 21
1576.5277860637
  0
LINE
  5
23E
100
AcDbEntity
  8
0
100
AcDbLine
 62
7
  6
BYLAYER
 10
601.8215038882
 20
1583.0277860637
 11
601.3215038882
 21
1582.5277860637
  0
LINE
  5
23F
100
AcDbEntity
  8
3
100
AcDbLine
 62
7
  6
BYLAYER
 10
569.5712458362
 20
1559.0277988723
 11
569.5712458362
 21
160.5277988723
  0
LINE
  5
240
100
AcDbEntity
  8
0
100
AcDbLine
 62
7
  6
BYLAYER
 10
569.5715038882
 20
1575.5277860637
 11
569.5715038882
 21
1559.0277860637
  0
LINE
  5
241
100
AcDbEntity
  8
0
100
AcDbLine
 62
7
  6
BYLAYER
 10
569.5717446254
 20
160.5276759253
 11
569.5717446254
 21
144.0276759253
  0
LINE
  5
242
100
AcDbEntity
  8
3
100
AcDbLine
 62
7
  6
BYLAYER
 10
571.0218035804
 20
160.5277988723
 11
571.0218035804
 21
1559.0277988723
  0
LINE
  5
243
100
AcDbEntity
  8
0
100
AcDbLine
 62
7
  6
BYLAYER
 10
571.0220616324
 20
1559.0277860637
 11
571.0220616324
 21
1575.5277860637
  0
LINE
  5
244
100
AcDbEntity
  8
0
100
AcDbLine
 62
7
  6
BYLAYER
 10
571.0223023696
 20
144.0276759253
 11
571.0223023696
 21
160.5276759253
  0
LINE
  5
245
100
AcDbEntity
  8
0
100
AcDbLine
 62
7
  6
BYLAYER
 10
574.6594221964
 20
1575.5277860637
 11
574.6594221964
 21
1573.5277860637
  0
LINE
  5
246
100
AcDbEntity
  8
0
100
AcDbLine
 62
7
  6
BYLAYER
 10
574.6596629336
 20
146.0276759253
 11
574.6596629336
 21
144.0276759253
  0
LINE
  5
247
100
AcDbEntity
  8
3
100
AcDbLine
 62
7
  6
BYLAYER
 10
575.2245840037
 20
1559.0277988723
 11
575.2245840037
 21
160.5277988723
  0
LINE
  5
248
100
AcDbEntity
  8
0
100
AcDbLine
 62
7
  6
BYLAYER
 10
575.2248420557
 20
1573.5277860637
 11
575.2248420557
 21
1559.0277860637
  0
LINE
  5
249
100
AcDbEntity
  8
0
100
AcDbLine
 62
7
  6
BYLAYER
 10
575.2250827928
 20
160.5276759253
 11
575.2250827928
 21
146.0276759253
  0
LINE
  5
24A
100
AcDbEntity
  8
0
100
AcDbLine
 62
7
  6
BYLAYER
 10
576.5715038882
 20
1574.5277860637
 11
576.5715038882
 21
1575.5277860637
  0
LINE
  5
24B
100
AcDbEntity
  8
0
100
AcDbLine
 62
7
  6
BYLAYER
 10
576.5717446254
 20
144.0276759253
 11
576.5717446254
 21
145.0276759253
  0
LINE
  5
24C
100
AcDbEntity
  8
0
100
AcDbLine
 62
7
  6
BYLAYER
 10
576.7715038882
 20
1574.1293849404
 11
576.7715038882
 21
1575.6277860637
  0
LINE
  5
24D
100
AcDbEntity
  8
0
100
AcDbLine
 62
7
  6
BYLAYER
 10
576.7717565042
 20
145.4260889274
 11
576.7717565042
 21
143.9277860637
  0
LINE
  5
24E
100
AcDbEntity
  8
3
100
AcDbLine
 62
7
  6
BYLAYER
 10
577.9717952826
 20
160.5277988723
 11
577.9717952826
 21
1559.0277988723
  0
LINE
  5
24F
100
AcDbEntity
  8
0
100
AcDbLine
 62
7
  6
BYLAYER
 10
577.9720533346
 20
1559.0277860637
 11
577.9720533346
 21
1574.0277860637
  0
LINE
  5
250
100
AcDbEntity
  8
0
100
AcDbLine
 62
7
  6
BYLAYER
 10
577.9722940718
 20
145.5276759253
 11
577.9722940718
 21
160.5276759253
  0
LINE
  5
251
100
AcDbEntity
  8
0
100
AcDbLine
 62
7
  6
BYLAYER
 10
578.8215038882
 20
1576.6277860637
 11
578.8215038882
 21
1582.5277860637
  0
LINE
  5
252
100
AcDbEntity
  8
0
100
AcDbLine
 62
7
  6
BYLAYER
 10
580.5715038882
 20
1579.0277860637
 11
580.5715038882
 21
1586.5277851263
  0
LINE
  5
253
100
AcDbEntity
  8
0
100
AcDbLine
 62
7
  6
BYLAYER
 10
581.0715038882
 20
1578.0277860637
 11
581.0715038882
 21
1579.0277860637
  0
LINE
  5
254
100
AcDbEntity
  8
0
100
AcDbLine
 62
7
  6
BYLAYER
 10
583.0715038154
 20
1574.0277860637
 11
583.0715038154
 21
1573.5277860637
  0
LINE
  5
255
100
AcDbEntity
  8
0
100
AcDbLine
 62
7
  6
BYLAYER
 10
583.0717445579
 20
146.0276759253
 11
583.0717445579
 21
145.5276759253
  0
LINE
  5
256
100
AcDbEntity
  8
0
100
AcDbLine
 62
7
  6
BYLAYER
 10
583.3715038882
 20
1574.131968499
 11
583.3715038882
 21
1575.6277860637
  0
LINE
  5
257
100
AcDbEntity
  8
0
100
AcDbLine
 62
7
  6
BYLAYER
 10
583.3717565042
 20
145.4236131803
 11
583.3717565042
 21
143.9277860637
  0
LINE
  5
258
100
AcDbEntity
  8
0
100
AcDbLine
 62
7
  6
BYLAYER
 10
583.5715038882
 20
1575.5277860637
 11
583.5715038882
 21
1574.5277860637
  0
LINE
  5
259
100
AcDbEntity
  8
0
100
AcDbLine
 62
7
  6
BYLAYER
 10
583.5717446254
 20
145.0276759253
 11
583.5717446254
 21
144.0276759253
  0
LINE
  5
25A
100
AcDbEntity
  8
0
100
AcDbLine
 62
7
  6
BYLAYER
 10
584.5715038882
 20
1574.5277860637
 11
584.5715038882
 21
1576.5277860637
  0
LINE
  5
25B
100
AcDbEntity
  8
0
100
AcDbLine
 62
7
  6
BYLAYER
 10
584.5717446254
 20
143.0276759253
 11
584.5717446254
 21
145.0276759253
  0
LINE
  5
25C
100
AcDbEntity
  8
0
100
AcDbLine
 62
7
  6
BYLAYER
 10
592.0715038882
 20
1579.0277860637
 11
592.0715038882
 21
1578.0277860637
  0
LINE
  5
25D
100
AcDbEntity
  8
3
100
AcDbLine
 62
7
  6
BYLAYER
 10
592.5712458362
 20
1559.0277988723
 11
592.5712458362
 21
160.5277988723
  0
LINE
  5
25E
100
AcDbEntity
  8
0
100
AcDbLine
 62
7
  6
BYLAYER
 10
592.5715038882
 20
1575.5277860637
 11
592.5715038882
 21
1559.0277860637
  0
LINE
  5
25F
100
AcDbEntity
  8
0
100
AcDbLine
 62
7
  6
BYLAYER
 10
592.5715038882
 20
1579.0277860637
 11
592.5715038882
 21
1586.5277851263
  0
LINE
  5
260
100
AcDbEntity
  8
0
100
AcDbLine
 62
7
  6
BYLAYER
 10
592.5717446254
 20
160.5276759253
 11
592.5717446254
 21
144.0276759253
  0
LINE
  5
261
100
AcDbEntity
  8
3
100
AcDbLine
 62
7
  6
BYLAYER
 10
593.0712458362
 20
160.5277988723
 11
593.0712458362
 21
1559.0277988723
  0
LINE
  5
262
100
AcDbEntity
  8
0
100
AcDbLine
 62
7
  6
BYLAYER
 10
593.0715038882
 20
1559.0277860637
 11
593.0715038882
 21
1575.5277860637
  0
LINE
  5
263
100
AcDbEntity
  8
0
100
AcDbLine
 62
7
  6
BYLAYER
 10
593.0717446254
 20
144.0276759253
 11
593.0717446254
 21
160.5276759253
  0
LINE
  5
264
100
AcDbEntity
  8
0
100
AcDbLine
 62
7
  6
BYLAYER
 10
594.3215038882
 20
1576.5277860637
 11
594.3215038882
 21
1582.5277860637
  0
LINE
  5
265
100
AcDbEntity
  8
3
100
AcDbLine
 62
7
  6
BYLAYER
 10
601.0712458362
 20
1559.0277988723
 11
601.0712458362
 21
160.5277988723
  0
LINE
  5
266
100
AcDbEntity
  8
0
100
AcDbLine
 62
7
  6
BYLAYER
 10
601.0715038882
 20
1575.5277860637
 11
601.0715038882
 21
1559.0277860637
  0
LINE
  5
267
100
AcDbEntity
  8
0
100
AcDbLine
 62
7
  6
BYLAYER
 10
601.0717446254
 20
160.5276759253
 11
601.0717446254
 21
144.0276759253
  0
LINE
  5
268
100
AcDbEntity
  8
0
100
AcDbLine
 62
7
  6
BYLAYER
 10
601.3215038882
 20
1576.5277860637
 11
601.3215038882
 21
1582.5277860637
  0
LINE
  5
269
100
AcDbEntity
  8
3
100
AcDbLine
 62
7
  6
BYLAYER
 10
601.5712458362
 20
160.5277988723
 11
601.5712458362
 21
1559.0277988723
  0
LINE
  5
26A
100
AcDbEntity
  8
0
100
AcDbLine
 62
7
  6
BYLAYER
 10
601.5715038882
 20
1559.0277860637
 11
601.5715038882
 21
1575.5277860637
  0
LINE
  5
26B
100
AcDbEntity
  8
0
100
AcDbLine
 62
7
  6
BYLAYER
 10
601.5717446254
 20
144.0276759253
 11
601.5717446254
 21
160.5276759253
  0
LINE
  5
26C
100
AcDbEntity
  8
0
100
AcDbLine
 62
7
  6
BYLAYER
 10
604.9452438882
 20
1584.2277860637
 11
604.9452438882
 21
1583.0277860637
  0
LINE
  5
26D
100
AcDbEntity
  8
0
100
AcDbLine
 62
7
  6
BYLAYER
 10
613.1952438882
 20
1584.2277860637
 11
613.1952438882
 21
1583.0277860637
  0
LINE
  5
26E
100
AcDbEntity
  8
0
100
AcDbLine
 62
7
  6
BYLAYER
 10
615.5715038882
 20
1576.5277860637
 11
615.5715038882
 21
1574.5277860637
  0
LINE
  5
26F
100
AcDbEntity
  8
0
100
AcDbLine
 62
7
  6
BYLAYER
 10
615.5717446254
 20
145.0276759253
 11
615.5717446254
 21
143.0276759253
  0
LINE
  5
270
100
AcDbEntity
  8
0
100
AcDbLine
 62
7
  6
BYLAYER
 10
616.5715038882
 20
1574.5277860637
 11
616.5715038882
 21
1575.5277860637
  0
LINE
  5
271
100
AcDbEntity
  8
0
100
AcDbLine
 62
7
  6
BYLAYER
 10
616.5717446254
 20
144.0276759253
 11
616.5717446254
 21
145.0276759253
  0
LINE
  5
272
100
AcDbEntity
  8
0
100
AcDbLine
 62
7
  6
BYLAYER
 10
616.7715038882
 20
1574.1318530583
 11
616.7715038882
 21
1575.6277860637
  0
LINE
  5
273
100
AcDbEntity
  8
0
100
AcDbLine
 62
7
  6
BYLAYER
 10
616.7717446254
 20
145.4234934904
 11
616.7717446254
 21
143.9277860637
  0
LINE
  5
274
100
AcDbEntity
  8
0
100
AcDbLine
 62
7
  6
BYLAYER
 10
616.8215038882
 20
1576.5277860637
 11
616.8215038882
 21
1582.5277860637
  0
LINE
  5
275
100
AcDbEntity
  8
0
100
AcDbLine
 62
7
  6
BYLAYER
 10
617.0715039608
 20
1573.5277860637
 11
617.0715039608
 21
1574.0277860637
  0
LINE
  5
276
100
AcDbEntity
  8
0
100
AcDbLine
 62
7
  6
BYLAYER
 10
617.0717446983
 20
145.5276759253
 11
617.0717446983
 21
146.0276759253
  0
LINE
  5
277
100
AcDbEntity
  8
3
100
AcDbLine
 62
7
  6
BYLAYER
 10
620.5712631511
 20
1559.0277988723
 11
620.5712631511
 21
160.5277988723
  0
LINE
  5
278
100
AcDbEntity
  8
0
100
AcDbLine
 62
7
  6
BYLAYER
 10
620.5715038882
 20
1574.0277860637
 11
620.5715038882
 21
1559.0277860637
  0
LINE
  5
279
100
AcDbEntity
  8
0
100
AcDbLine
 62
7
  6
BYLAYER
 10
620.5717446254
 20
160.5276759253
 11
620.5717446254
 21
145.5276759253
  0
LINE
  5
27A
100
AcDbEntity
  8
0
100
AcDbLine
 62
7
  6
BYLAYER
 10
623.3715038882
 20
1574.0277860637
 11
623.3715038882
 21
1575.6277860637
  0
LINE
  5
27B
100
AcDbEntity
  8
0
100
AcDbLine
 62
7
  6
BYLAYER
 10
623.3717446254
 20
145.5277860637
 11
623.3717446254
 21
143.9277860637
  0
LINE
  5
27C
100
AcDbEntity
  8
0
100
AcDbLine
 62
7
  6
BYLAYER
 10
623.5715038882
 20
1576.5277860637
 11
623.5715038899
 21
1574.5277860637
  0
LINE
  5
27D
100
AcDbEntity
  8
0
100
AcDbLine
 62
7
  6
BYLAYER
 10
623.5717446271
 20
145.0276759253
 11
623.5717446254
 21
143.0276759253
  0
LINE
  5
27E
100
AcDbEntity
  8
3
100
AcDbLine
 62
7
  6
BYLAYER
 10
624.5712631511
 20
160.5277988723
 11
624.5712631511
 21
1559.0277988723
  0
LINE
  5
27F
100
AcDbEntity
  8
0
100
AcDbLine
 62
7
  6
BYLAYER
 10
624.5715038882
 20
1559.0277860637
 11
624.5715038882
 21
1575.5277860637
  0
LINE
  5
280
100
AcDbEntity
  8
0
100
AcDbLine
 62
7
  6
BYLAYER
 10
624.5717446254
 20
144.0276759253
 11
624.5717446254
 21
160.5276759253
  0
LINE
  5
281
100
AcDbEntity
  8
4
100
AcDbLine
 62
7
  6
BYLAYER
 10
624.8131647033
 20
1534.2108636478
 11
624.8131647033
 21
1484.2108636478
  0
LINE
  5
282
100
AcDbEntity
  8
4
100
AcDbLine
 62
7
  6
BYLAYER
 10
624.8131647033
 20
885.1601020268
 11
624.8131647033
 21
835.1601020268
  0
LINE
  5
283
100
AcDbEntity
  8
4
100
AcDbLine
 62
7
  6
BYLAYER
 10
624.8131647033
 20
237.875961187
 11
624.8131647033
 21
187.875961187
  0
LINE
  5
284
100
AcDbEntity
  8
4
100
AcDbLine
 62
7
  6
BYLAYER
 10
669.8131647033
 20
835.1601020268
 11
624.8131647033
 21
835.1601020268
  0
LINE
  5
285
100
AcDbEntity
  8
4
100
AcDbLine
 62
7
  6
BYLAYER
 10
653.1131647033
 20
841.9101020268
 11
666.6131647033
 21
841.9101020268
  0
LINE
  5
286
100
AcDbEntity
  8
4
100
AcDbLine
 62
7
  6
BYLAYER
 10
624.8131647033
 20
842.1601020268
 11
624.5712631511
 21
842.1601020268
  0
LINE
  5
287
100
AcDbEntity
  8
4
100
AcDbLine
 62
7
  6
BYLAYER
 10
624.8131647033
 20
848.1601020268
 11
624.5712631511
 21
848.1601020268
  0
LINE
  5
288
100
AcDbEntity
  8
4
100
AcDbLine
 62
7
  6
BYLAYER
 10
666.6131647033
 20
848.4101020268
 11
653.1131647033
 21
848.4101020268
  0
LINE
  5
289
100
AcDbEntity
  8
4
100
AcDbLine
 62
7
  6
BYLAYER
 10
631.8131647033
 20
187.875961187
 11
631.8131647033
 21
237.875961187
  0
LINE
  5
28A
100
AcDbEntity
  8
4
100
AcDbLine
 62
7
  6
BYLAYER
 10
631.8131647033
 20
835.1601020268
 11
631.8131647033
 21
885.1601020268
  0
LINE
  5
28B
100
AcDbEntity
  8
4
100
AcDbLine
 62
7
  6
BYLAYER
 10
631.8131647033
 20
1484.2108636478
 11
631.8131647033
 21
1534.2108636478
  0
LINE
  5
28C
100
AcDbEntity
  8
4
100
AcDbLine
 62
7
  6
BYLAYER
 10
674.8131647033
 20
1529.2108636478
 11
674.8131647033
 21
1489.2108636478
  0
LINE
  5
28D
100
AcDbEntity
  8
4
100
AcDbLine
 62
7
  6
BYLAYER
 10
674.8131647033
 20
880.1601020268
 11
674.8131647033
 21
840.1601020268
  0
LINE
  5
28E
100
AcDbEntity
  8
4
100
AcDbLine
 62
7
  6
BYLAYER
 10
674.8131647033
 20
232.875961187
 11
674.8131647033
 21
192.875961187
  0
LINE
  5
28F
100
AcDbEntity
  8
4
100
AcDbLine
 62
7
  6
BYLAYER
 10
653.1131647033
 20
871.9101020268
 11
666.6131647033
 21
871.9101020268
  0
LINE
  5
290
100
AcDbEntity
  8
4
100
AcDbLine
 62
7
  6
BYLAYER
 10
624.8131647033
 20
872.1601020268
 11
624.5712631511
 21
872.1601020268
  0
LINE
  5
291
100
AcDbEntity
  8
4
100
AcDbLine
 62
7
  6
BYLAYER
 10
624.8131647033
 20
878.1601020268
 11
624.5712631511
 21
878.1601020268
  0
LINE
  5
292
100
AcDbEntity
  8
4
100
AcDbLine
 62
7
  6
BYLAYER
 10
666.6131647033
 20
878.4101020268
 11
653.1131647033
 21
878.4101020268
  0
LINE
  5
293
100
AcDbEntity
  8
4
100
AcDbLine
 62
7
  6
BYLAYER
 10
624.8131647033
 20
885.1601020268
 11
669.8131647033
 21
885.1601020268
  0
LINE
  5
294
100
AcDbEntity
  8
0
100
AcDbLine
 62
7
  6
BYLAYER
 10
578.9215038882
 20
1576.6277860637
 11
578.8215038882
 21
1576.7277860637
  0
LINE
  5
295
100
AcDbEntity
  8
0
100
AcDbLine
 62
7
  6
BYLAYER
 10
594.3215038882
 20
1577.5277860637
 11
593.8215038882
 21
1578.0277860637
  0
LINE
  5
296
100
AcDbEntity
  8
0
100
AcDbLine
 62
7
  6
BYLAYER
 10
594.3215038882
 20
1582.5277860637
 11
593.8215038882
 21
1583.0277860637
  0
LINE
  5
297
100
AcDbEntity
  8
0
100
AcDbLine
 62
7
  6
BYLAYER
 10
592.5715054362
 20
1586.5277866743
 11
592.0715044525
 21
1587.0277874781
  0
LINE
  5
298
100
AcDbEntity
  8
0
100
AcDbLine
 62
7
  6
BYLAYER
 10
616.8215038882
 20
1582.5277860637
 11
616.3215038882
 21
1583.0277860637
  0
LINE
  5
299
100
AcDbEntity
  8
4
100
AcDbLine
 62
7
  6
BYLAYER
 10
669.8131647033
 20
1484.2108636478
 11
624.8131647033
 21
1484.2108636478
  0
LINE
  5
29A
100
AcDbEntity
  8
4
100
AcDbLine
 62
7
  6
BYLAYER
 10
653.1131647033
 20
1490.9608636478
 11
666.6131647033
 21
1490.9608636478
  0
LINE
  5
29B
100
AcDbEntity
  8
4
100
AcDbLine
 62
7
  6
BYLAYER
 10
624.8131647033
 20
1491.2108636478
 11
624.5712631511
 21
1491.2108636478
  0
LINE
  5
29C
100
AcDbEntity
  8
4
100
AcDbLine
 62
7
  6
BYLAYER
 10
624.8131647033
 20
1497.2108636478
 11
624.5712631511
 21
1497.2108636478
  0
LINE
  5
29D
100
AcDbEntity
  8
4
100
AcDbLine
 62
7
  6
BYLAYER
 10
666.6131647033
 20
1497.4608636478
 11
653.1131647033
 21
1497.4608636478
  0
LINE
  5
29E
100
AcDbEntity
  8
4
100
AcDbLine
 62
7
  6
BYLAYER
 10
653.1131647033
 20
1520.9608636478
 11
666.6131647033
 21
1520.9608636478
  0
LINE
  5
29F
100
AcDbEntity
  8
4
100
AcDbLine
 62
7
  6
BYLAYER
 10
624.8131647033
 20
1521.2108636478
 11
624.5712631511
 21
1521.2108636478
  0
LINE
  5
2A0
100
AcDbEntity
  8
4
100
AcDbLine
 62
7
  6
BYLAYER
 10
624.8131647033
 20
1527.2108636478
 11
624.5712631511
 21
1527.2108636478
  0
LINE
  5
2A1
100
AcDbEntity
  8
4
100
AcDbLine
 62
7
  6
BYLAYER
 10
666.6131647033
 20
1527.4608636478
 11
653.1131647033
 21
1527.4608636478
  0
LINE
  5
2A2
100
AcDbEntity
  8
4
100
AcDbLine
 62
7
  6
BYLAYER
 10
624.8131647033
 20
1534.2108636478
 11
669.8131647033
 21
1534.2108636478
  0
LINE
  5
2A3
100
AcDbEntity
  8
0
100
AcDbLine
 62
7
  6
BYLAYER
 10
569.5715038882
 20
1559.0277860637
 11
624.5715038882
 21
1559.0277860637
  0
LINE
  5
2A4
100
AcDbEntity
  8
3
100
AcDbLine
 62
7
  6
BYLAYER
 10
569.5712458362
 20
1559.0277988723
 11
624.5712631511
 21
1559.0277988723
  0
LINE
  5
2A5
100
AcDbEntity
  8
0
100
AcDbLine
 62
7
  6
BYLAYER
 10
609.0879057967
 20
1572.5277860637
 11
601.0715038882
 21
1572.5277860637
  0
LINE
  5
2A6
100
AcDbEntity
  8
0
100
AcDbLine
 62
7
  6
BYLAYER
 10
586.5551019797
 20
1572.5277860637
 11
594.5715038882
 21
1572.5277860637
  0
LINE
  5
2A7
100
AcDbEntity
  8
0
100
AcDbLine
 62
7
  6
BYLAYER
 10
609.0876899138
 20
1572.5389991466
 11
601.1768003729
 21
1572.5389991466
  0
LINE
  5
2A8
100
AcDbEntity
  8
0
100
AcDbLine
 62
7
  6
BYLAYER
 10
586.5553176833
 20
1572.5389803147
 11
594.4662948594
 21
1572.5389803147
  0
LINE
  5
2A9
100
AcDbEntity
  8
0
100
AcDbLine
 62
7
  6
BYLAYER
 10
609.0881216797
 20
1573.5165729808
 11
600.9662074036
 21
1573.5165729808
  0
LINE
  5
2AA
100
AcDbEntity
  8
0
100
AcDbLine
 62
7
  6
BYLAYER
 10
586.5548862761
 20
1573.5165918127
 11
594.6767129171
 21
1573.5165918127
  0
LINE
  5
2AB
100
AcDbEntity
  8
0
100
AcDbLine
 62
7
  6
BYLAYER
 10
574.6594221964
 20
1573.5277860637
 11
583.0715038882
 21
1573.5277860637
  0
LINE
  5
2AC
100
AcDbEntity
  8
0
100
AcDbLine
 62
7
  6
BYLAYER
 10
617.0715038882
 20
1573.5277860637
 11
624.5715038882
 21
1573.5277860637
  0
LINE
  5
2AD
100
AcDbEntity
  8
0
100
AcDbLine
 62
7
  6
BYLAYER
 10
576.5217503958
 20
1574.0277860637
 11
583.0715038882
 21
1574.0277860637
  0
LINE
  5
2AE
100
AcDbEntity
  8
0
100
AcDbLine
 62
7
  6
BYLAYER
 10
617.0715038882
 20
1574.0277860637
 11
624.0715038882
 21
1574.0277860637
  0
LINE
  5
2AF
100
AcDbEntity
  8
0
100
AcDbLine
 62
7
  6
BYLAYER
 10
624.5715038882
 20
1574.5277861326
 11
623.3715038882
 21
1574.5277860637
  0
LINE
  5
2B0
100
AcDbEntity
  8
0
100
AcDbLine
 62
7
  6
BYLAYER
 10
616.7715038882
 20
1574.5277860637
 11
615.5715038882
 21
1574.5277861327
  0
LINE
  5
2B1
100
AcDbEntity
  8
0
100
AcDbLine
 62
7
  6
BYLAYER
 10
584.5715038882
 20
1574.5277861326
 11
583.3715038882
 21
1574.5277860637
  0
LINE
  5
2B2
100
AcDbEntity
  8
0
100
AcDbLine
 62
7
  6
BYLAYER
 10
576.7715038882
 20
1574.5277860637
 11
576.1591886794
 21
1574.5277860637
  0
LINE
  5
2B3
100
AcDbEntity
  8
0
100
AcDbLine
 62
7
  6
BYLAYER
 10
569.5715038882
 20
1575.5277860637
 11
576.7715038882
 21
1575.5277860637
  0
LINE
  5
2B4
100
AcDbEntity
  8
0
100
AcDbLine
 62
7
  6
BYLAYER
 10
583.3715038882
 20
1575.5277860637
 11
593.0715038882
 21
1575.5277860571
  0
LINE
  5
2B5
100
AcDbEntity
  8
0
100
AcDbLine
 62
7
  6
BYLAYER
 10
601.0715038882
 20
1575.5277860637
 11
616.7715038882
 21
1575.5277860637
  0
LINE
  5
2B6
100
AcDbEntity
  8
0
100
AcDbLine
 62
7
  6
BYLAYER
 10
623.3715038882
 20
1575.5277860637
 11
624.5715038882
 21
1575.5277860637
  0
LINE
  5
2B7
100
AcDbEntity
  8
0
100
AcDbLine
 62
7
  6
BYLAYER
 10
576.7715038882
 20
1575.6277860637
 11
583.3715038882
 21
1575.6277860637
  0
LINE
  5
2B8
100
AcDbEntity
  8
0
100
AcDbLine
 62
7
  6
BYLAYER
 10
616.7715038882
 20
1575.6277860637
 11
623.3715038882
 21
1575.6277860637
  0
LINE
  5
2B9
100
AcDbEntity
  8
0
100
AcDbLine
 62
7
  6
BYLAYER
 10
592.9300557082
 20
1576.0277860637
 11
601.2119875424
 21
1576.0277860637
  0
LINE
  5
2BA
100
AcDbEntity
  8
0
100
AcDbLine
 62
7
  6
BYLAYER
 10
623.5715038882
 20
1576.5277860637
 11
622.7447090917
 21
1576.5277860637
  0
LINE
  5
2BB
100
AcDbEntity
  8
0
100
AcDbLine
 62
7
  6
BYLAYER
 10
570.5715038882
 20
1576.5277860637
 11
577.3982986847
 21
1576.5277860637
  0
LINE
  5
2BC
100
AcDbEntity
  8
0
100
AcDbLine
 62
7
  6
BYLAYER
 10
582.7447090917
 20
1576.5277860637
 11
617.3982986847
 21
1576.5277860637
  0
LINE
  5
2BD
100
AcDbEntity
  8
0
100
AcDbLine
 62
7
  6
BYLAYER
 10
577.7715879868
 20
1576.6277860637
 11
582.3714112891
 21
1576.6277860637
  0
LINE
  5
2BE
100
AcDbEntity
  8
0
100
AcDbLine
 62
7
  6
BYLAYER
 10
617.7715879868
 20
1576.6277860637
 11
622.3714112891
 21
1576.6277860637
  0
LINE
  5
2BF
100
AcDbEntity
  8
0
100
AcDbLine
 62
7
  6
BYLAYER
 10
594.3215038882
 20
1576.7277860637
 11
578.8215038882
 21
1576.7277860637
  0
LINE
  5
2C0
100
AcDbEntity
  8
0
100
AcDbLine
 62
7
  6
BYLAYER
 10
578.8215038882
 20
1577.5277860637
 11
594.3215038882
 21
1577.5277860637
  0
LINE
  5
2C1
100
AcDbEntity
  8
0
100
AcDbLine
 62
7
  6
BYLAYER
 10
616.8214395914
 20
1578.0277860637
 11
601.3215681851
 21
1578.0277860637
  0
LINE
  5
2C2
100
AcDbEntity
  8
0
100
AcDbLine
 62
7
  6
BYLAYER
 10
578.8215681851
 20
1578.0277860637
 11
594.3214395914
 21
1578.0277860637
  0
LINE
  5
2C3
100
AcDbEntity
  8
0
100
AcDbLine
 62
7
  6
BYLAYER
 10
592.5714973049
 20
1579.0277860637
 11
580.5715104716
 21
1579.0277860637
  0
LINE
  5
2C4
100
AcDbEntity
  8
0
100
AcDbLine
 62
7
  6
BYLAYER
 10
616.8215038882
 20
1581.0277860637
 11
601.3215038882
 21
1581.0277860637
  0
LINE
  5
2C5
100
AcDbEntity
  8
0
100
AcDbLine
 62
7
  6
BYLAYER
 10
594.3215038882
 20
1581.0277860637
 11
592.5715038882
 21
1581.0277860637
  0
LINE
  5
2C6
100
AcDbEntity
  8
0
100
AcDbLine
 62
7
  6
BYLAYER
 10
580.5715038882
 20
1581.0277860637
 11
578.8215038882
 21
1581.0277860637
  0
LINE
  5
2C7
100
AcDbEntity
  8
0
100
AcDbLine
 62
7
  6
BYLAYER
 10
578.8215038882
 20
1582.5277860637
 11
580.5715038882
 21
1582.5277860637
  0
LINE
  5
2C8
100
AcDbEntity
  8
0
100
AcDbLine
 62
7
  6
BYLAYER
 10
592.5715038882
 20
1582.5277860637
 11
594.3215038882
 21
1582.5277860637
  0
LINE
  5
2C9
100
AcDbEntity
  8
0
100
AcDbLine
 62
7
  6
BYLAYER
 10
601.3215038882
 20
1582.5277860637
 11
616.8215038882
 21
1582.5277860637
  0
LINE
  5
2CA
100
AcDbEntity
  8
0
100
AcDbLine
 62
7
  6
BYLAYER
 10
579.3215038882
 20
1583.0277860637
 11
580.5715038882
 21
1583.0277860637
  0
LINE
  5
2CB
100
AcDbEntity
  8
0
100
AcDbLine
 62
7
  6
BYLAYER
 10
592.5715038882
 20
1583.0277860637
 11
593.8215038882
 21
1583.0277860637
  0
LINE
  5
2CC
100
AcDbEntity
  8
0
100
AcDbLine
 62
7
  6
BYLAYER
 10
601.8215038882
 20
1583.0277860637
 11
616.3215038882
 21
1583.0277860637
  0
LINE
  5
2CD
100
AcDbEntity
  8
0
100
AcDbLine
 62
7
  6
BYLAYER
 10
604.9452438882
 20
1584.2277860637
 11
613.1952438882
 21
1584.2277860637
  0
LINE
  5
2CE
100
AcDbEntity
  8
0
100
AcDbLine
 62
7
  6
BYLAYER
 10
605.2451835203
 20
1584.5277860637
 11
612.8952657795
 21
1584.5277860637
  0
LINE
  5
2CF
100
AcDbEntity
  8
0
100
AcDbLine
 62
7
  6
BYLAYER
 10
580.5715038882
 20
1586.5277851263
 11
592.5715038882
 21
1586.5277851263
  0
LINE
  5
2D0
100
AcDbEntity
  8
0
100
AcDbLine
 62
7
  6
BYLAYER
 10
581.071503324
 20
1587.0277860637
 11
592.0715044525
 21
1587.0277860637
  0
ARC
  5
2D1
100
AcDbEntity
  8
0
100
AcDbCircle
 62
7
  6
BYLAYER
 10
582.3717565042
 20
143.9277860637
 40
1.0
100
AcDbArc
 50
270.0
 51
360.0
  0
ARC
  5
2D2
100
AcDbEntity
  8
0
100
AcDbCircle
 62
7
  6
BYLAYER
 10
577.7717565042
 20
143.9277860637
 40
1.0
100
AcDbArc
 50
180.0
 51
270.0
  0
ARC
  5
2D3
100
AcDbEntity
  8
0
100
AcDbCircle
 62
7
  6
BYLAYER
 10
584.5717446254
 20
144.0276759253
 40
1.0
100
AcDbArc
 50
180.0
 51
270.0
  0
ARC
  5
2D4
100
AcDbEntity
  8
0
100
AcDbCircle
 62
7
  6
BYLAYER
 10
592.0717446254
 20
144.0276759253
 40
1.0
100
AcDbArc
 50
270.0
 51
360.0
  0
ARC
  5
2D5
100
AcDbEntity
  8
0
100
AcDbCircle
 62
7
  6
BYLAYER
 10
575.5717446254
 20
144.0276759253
 40
1.0
100
AcDbArc
 50
270.0000000002
 51
359.9999999998
  0
ARC
  5
2D6
100
AcDbEntity
  8
0
100
AcDbCircle
 62
7
  6
BYLAYER
 10
570.5717446254
 20
144.0276759253
 40
1.0
100
AcDbArc
 50
180.0000000002
 51
270.0000000009
  0
ARC
  5
2D7
100
AcDbEntity
  8
0
100
AcDbCircle
 62
7
  6
BYLAYER
 10
577.0717446254
 20
145.0276759253
 40
0.5
100
AcDbArc
 50
90.0
 51
180.0
  0
ARC
  5
2D8
100
AcDbEntity
  8
0
100
AcDbCircle
 62
7
  6
BYLAYER
 10
583.0717446254
 20
145.0276759253
 40
0.5
100
AcDbArc
 50
0.0
 51
90.0
  0
ARC
  5
2D9
100
AcDbEntity
  8
0
100
AcDbCircle
 62
7
  6
BYLAYER
 10
598.2987327205
 20
130.4962961424
 40
27.6896077781
100
AcDbArc
 50
146.3934359329
 51
146.9026052152
  0
ARC
  5
2DA
100
AcDbEntity
  8
0
100
AcDbCircle
 62
7
  6
BYLAYER
 10
617.7717446254
 20
143.9277860637
 40
1.0
100
AcDbArc
 50
180.0
 51
270.0
  0
ARC
  5
2DB
100
AcDbEntity
  8
0
100
AcDbCircle
 62
7
  6
BYLAYER
 10
615.5717446254
 20
144.0276759253
 40
1.0
100
AcDbArc
 50
270.0
 51
360.0
  0
ARC
  5
2DC
100
AcDbEntity
  8
0
100
AcDbCircle
 62
7
  6
BYLAYER
 10
602.0717446254
 20
144.0276759253
 40
1.0
100
AcDbArc
 50
179.9999999984
 51
270.0
  0
ARC
  5
2DD
100
AcDbEntity
  8
0
100
AcDbCircle
 62
7
  6
BYLAYER
 10
617.0717446254
 20
145.0276759253
 40
0.5
100
AcDbArc
 50
90.0
 51
180.0
  0
ARC
  5
2DE
100
AcDbEntity
  8
0
100
AcDbCircle
 62
7
  6
BYLAYER
 10
582.3715038882
 20
1575.6277860637
 40
1.0
100
AcDbArc
 50
0.0
 51
90.0
  0
ARC
  5
2DF
100
AcDbEntity
  8
0
100
AcDbCircle
 62
7
  6
BYLAYER
 10
577.7715038882
 20
1575.6277860637
 40
1.0
100
AcDbArc
 50
90.0
 51
180.0
  0
ARC
  5
2E0
100
AcDbEntity
  8
0
100
AcDbCircle
 62
7
  6
BYLAYER
 10
584.5715038882
 20
1575.5277860637
 40
1.0
100
AcDbArc
 50
90.0
 51
180.0
  0
ARC
  5
2E1
100
AcDbEntity
  8
0
100
AcDbCircle
 62
7
  6
BYLAYER
 10
592.0715038882
 20
1575.5277860637
 40
1.0
100
AcDbArc
 50
0.0
 51
90.0
  0
ARC
  5
2E2
100
AcDbEntity
  8
0
100
AcDbCircle
 62
7
  6
BYLAYER
 10
570.5715038883
 20
1575.5277860637
 40
1.0
100
AcDbArc
 50
90.0000000017
 51
180.0000000003
  0
ARC
  5
2E3
100
AcDbEntity
  8
0
100
AcDbCircle
 62
7
  6
BYLAYER
 10
575.5715038882
 20
1575.5277860637
 40
1.0
100
AcDbArc
 50
0.0
 51
90.0
  0
ARC
  5
2E4
100
AcDbEntity
  8
0
100
AcDbCircle
 62
7
  6
BYLAYER
 10
577.0715038882
 20
1574.5277860637
 40
0.5
100
AcDbArc
 50
180.0
 51
270.0
  0
ARC
  5
2E5
100
AcDbEntity
  8
0
100
AcDbCircle
 62
7
  6
BYLAYER
 10
583.0715038882
 20
1574.5277860637
 40
0.5
100
AcDbArc
 50
270.0
 51
359.9999999999
  0
ARC
  5
2E6
100
AcDbEntity
  8
0
100
AcDbCircle
 62
7
  6
BYLAYER
 10
617.7715038882
 20
1575.6277860637
 40
1.0
100
AcDbArc
 50
90.0
 51
180.0
  0
ARC
  5
2E7
100
AcDbEntity
  8
0
100
AcDbCircle
 62
7
  6
BYLAYER
 10
615.5715038882
 20
1575.5277860637
 40
1.0
100
AcDbArc
 50
0.0
 51
90.0
  0
ARC
  5
2E8
100
AcDbEntity
  8
0
100
AcDbCircle
 62
7
  6
BYLAYER
 10
602.0715038882
 20
1575.5277860637
 40
1.0
100
AcDbArc
 50
90.0
 51
180.0000000008
  0
ARC
  5
2E9
100
AcDbEntity
  8
0
100
AcDbCircle
 62
7
  6
BYLAYER
 10
617.0715038882
 20
1574.5277860637
 40
0.5
100
AcDbArc
 50
180.0000000001
 51
270.0
  0
ARC
  5
2EA
100
AcDbEntity
  8
0
100
AcDbCircle
 62
7
  6
BYLAYER
 10
594.5715038882
 20
1573.0277860637
 40
0.5
100
AcDbArc
 50
257.8531473856
 51
77.8531473857
  0
ARC
  5
2EB
100
AcDbEntity
  8
0
100
AcDbCircle
 62
7
  6
BYLAYER
 10
601.0715038882
 20
1573.0277860637
 40
0.5
100
AcDbArc
 50
102.1803352402
 51
282.1803352402
  0
ARC
  5
2EC
100
AcDbEntity
  8
0
100
AcDbCircle
 62
7
  6
BYLAYER
 10
596.8447012849
 20
1588.1023147395
 40
25.9492033362
100
AcDbArc
 50
213.0803197524
 51
213.6236390969
  0
ARC
  5
2ED
100
AcDbEntity
  8
0
100
AcDbCircle
 62
7
  6
BYLAYER
 10
605.2452438882
 20
1584.2277860637
 40
0.3
100
AcDbArc
 50
90.0
 51
180.0
  0
ARC
  5
2EE
100
AcDbEntity
  8
0
100
AcDbCircle
 62
7
  6
BYLAYER
 10
612.8952438882
 20
1584.2277860637
 40
0.3
100
AcDbArc
 50
0.0
 51
90.0
  0
ARC
  5
2EF
100
AcDbEntity
  8
4
100
AcDbCircle
 62
7
  6
BYLAYER
 10
669.8131647033
 20
840.1601020268
 40
5.0
100
AcDbArc
 50
270.0
 51
360.0
  0
ARC
  5
2F0
100
AcDbEntity
  8
4
100
AcDbCircle
 62
7
  6
BYLAYER
 10
669.8131647033
 20
232.875961187
 40
5.0
100
AcDbArc
 50
0.0
 51
90.0
  0
ARC
  5
2F1
100
AcDbEntity
  8
4
100
AcDbCircle
 62
7
  6
BYLAYER
 10
669.8131647033
 20
192.875961187
 40
5.0
100
AcDbArc
 50
270.0
 51
360.0
  0
ARC
  5
2F2
100
AcDbEntity
  8
4
100
AcDbCircle
 62
7
  6
BYLAYER
 10
653.1131647033
 20
845.1601020268
 40
3.25
100
AcDbArc
 50
90.0
 51
270.0
  0
ARC
  5
2F3
100
AcDbEntity
  8
4
100
AcDbCircle
 62
7
  6
BYLAYER
 10
666.6131647033
 20
845.1601020268
 40
3.25
100
AcDbArc
 50
270.0
 51
90.0
  0
ARC
  5
2F4
100
AcDbEntity
  8
4
100
AcDbCircle
 62
7
  6
BYLAYER
 10
666.6131647033
 20
227.875961187
 40
3.25
100
AcDbArc
 50
270.0
 51
90.0
  0
ARC
  5
2F5
100
AcDbEntity
  8
4
100
AcDbCircle
 62
7
  6
BYLAYER
 10
653.1131647033
 20
227.875961187
 40
3.25
100
AcDbArc
 50
90.0
 51
270.0
  0
ARC
  5
2F6
100
AcDbEntity
  8
4
100
AcDbCircle
 62
7
  6
BYLAYER
 10
653.1131647033
 20
197.875961187
 40
3.25
100
AcDbArc
 50
90.0
 51
270.0
  0
ARC
  5
2F7
100
AcDbEntity
  8
4
100
AcDbCircle
 62
7
  6
BYLAYER
 10
666.6131647033
 20
197.875961187
 40
3.25
100
AcDbArc
 50
270.0
 51
90.0
  0
ARC
  5
2F8
100
AcDbEntity
  8
0
100
AcDbCircle
 62
7
  6
BYLAYER
 10
622.3717446254
 20
143.9277860637
 40
1.0
100
AcDbArc
 50
270.0
 51
360.0
  0
ARC
  5
2F9
100
AcDbEntity
  8
0
100
AcDbCircle
 62
7
  6
BYLAYER
 10
623.5717446254
 20
144.0276759253
 40
1.0
100
AcDbArc
 50
270.0
 51
360.0
  0
ARC
  5
2FA
100
AcDbEntity
  8
0
100
AcDbCircle
 62
7
  6
BYLAYER
 10
624.0717446254
 20
146.0276759253
 40
0.5
100
AcDbArc
 50
270.0
 51
360.0
  0
ARC
  5
2FB
100
AcDbEntity
  8
0
100
AcDbCircle
 62
7
  6
BYLAYER
 10
622.3715038882
 20
1575.6277860637
 40
1.0
100
AcDbArc
 50
0.0
 51
90.0
  0
ARC
  5
2FC
100
AcDbEntity
  8
0
100
AcDbCircle
 62
7
  6
BYLAYER
 10
623.5715038882
 20
1575.5277860637
 40
1.0
100
AcDbArc
 50
0.0
 51
90.0
  0
ARC
  5
2FD
100
AcDbEntity
  8
0
100
AcDbCircle
 62
7
  6
BYLAYER
 10
624.0715038882
 20
1573.5277860637
 40
0.5
100
AcDbArc
 50
0.0
 51
90.0
  0
ARC
  5
2FE
100
AcDbEntity
  8
4
100
AcDbCircle
 62
7
  6
BYLAYER
 10
669.8131647033
 20
880.1601020268
 40
5.0
100
AcDbArc
 50
0.0
 51
90.0
  0
ARC
  5
2FF
100
AcDbEntity
  8
4
100
AcDbCircle
 62
7
  6
BYLAYER
 10
666.6131647033
 20
875.1601020268
 40
3.25
100
AcDbArc
 50
270.0
 51
90.0
  0
ARC
  5
300
100
AcDbEntity
  8
4
100
AcDbCircle
 62
7
  6
BYLAYER
 10
653.1131647033
 20
875.1601020268
 40
3.25
100
AcDbArc
 50
90.0
 51
270.0
  0
ARC
  5
301
100
AcDbEntity
  8
4
100
AcDbCircle
 62
7
  6
BYLAYER
 10
669.8131647033
 20
1529.2108636478
 40
5.0
100
AcDbArc
 50
0.0
 51
90.0
  0
ARC
  5
302
100
AcDbEntity
  8
4
100
AcDbCircle
 62
7
  6
BYLAYER
 10
669.8131647033
 20
1489.2108636478
 40
5.0
100
AcDbArc
 50
270.0
 51
360.0
  0
ARC
  5
303
100
AcDbEntity
  8
4
100
AcDbCircle
 62
7
  6
BYLAYER
 10
666.6131647033
 20
1524.2108636478
 40
3.25
100
AcDbArc
 50
270.0
 51
90.0
  0
ARC
  5
304
100
AcDbEntity
  8
4
100
AcDbCircle
 62
7
  6
BYLAYER
 10
653.1131647033
 20
1524.2108636478
 40
3.25
100
AcDbArc
 50
90.0
 51
270.0
  0
ARC
  5
305
100
AcDbEntity
  8
4
100
AcDbCircle
 62
7
  6
BYLAYER
 10
653.1131647033
 20
1494.2108636478
 40
3.25
100
AcDbArc
 50
90.0
 51
270.0
  0
ARC
  5
306
100
AcDbEntity
  8
4
100
AcDbCircle
 62
7
  6
BYLAYER
 10
666.6131647033
 20
1494.2108636478
 40
3.25
100
AcDbArc
 50
270.0
 51
90.0
  0
SPLINE
  5
307
100
AcDbEntity
  8
0
100
AcDbSpline
 62
7
  6
BYLAYER
 70
0
 71
3
 72
11
 73
7
 74
0
 42
0.0000001
 43
0.0000001
 44
0.0000000001
 40
0.0
 40
0.0
 40
0.0
 40
0.0
 40
0.2478324097
 40
0.4979557222
 40
0.7486362922
 40
1.0
 40
1.0
 40
1.0
 40
1.0
 10
584.5717446254
 20
145.0276759253
 30
0.0
 10
584.5717443571
 20
145.1917973451
 30
0.0
 10
584.4395848089
 20
145.5218760031
 30
0.0
 10
584.0520678044
 20
145.8484044076
 30
0.0
 10
583.5735015587
 20
146.0211501365
 30
0.0
 10
583.2382045678
 20
146.027675933
 30
0.0
 10
583.0717446254
 20
146.0276759253
 30
0.0
  0
SPLINE
  5
308
100
AcDbEntity
  8
0
100
AcDbSpline
 62
7
  6
BYLAYER
 70
0
 71
3
 72
11
 73
7
 74
0
 42
0.0000001
 43
0.0000001
 44
0.0000000001
 40
0.0
 40
0.0
 40
0.0
 40
0.0
 40
0.3404385698
 40
0.6266185405
 40
0.8401374976
 40
1.0
 40
1.0
 40
1.0
 40
1.0
 10
601.5717460486
 20
144.0276759253
 30
0.0
 10
601.571746049
 20
143.8910749071
 30
0.0
 10
601.596607563
 20
143.6384271171
 30
0.0
 10
601.7043571331
 20
143.3161637891
 30
0.0
 10
601.8588373982
 20
143.0932590799
 30
0.0
 10
602.0076027191
 20
143.0276904185
 30
0.0
 10
602.0717475662
 20
143.0276759248
 30
0.0
  0
SPLINE
  5
309
100
AcDbEntity
  8
0
100
AcDbSpline
 62
7
  6
BYLAYER
 70
0
 71
3
 72
11
 73
7
 74
0
 42
0.0000001
 43
0.0000001
 44
0.0000000001
 40
0.0
 40
0.0
 40
0.0
 40
0.0
 40
0.1598605771
 40
0.3733762137
 40
0.6595504004
 40
1.0
 40
1.0
 40
1.0
 40
1.0
 10
592.0717425912
 20
143.0276759249
 30
0.0
 10
592.1358866723
 20
143.0276890553
 30
0.0
 10
592.2846500818
 20
143.0932581335
 30
0.0
 10
592.4391293961
 20
143.3161568049
 30
0.0
 10
592.5468820053
 20
143.6384205107
 30
0.0
 10
592.5717434397
 20
143.8910704682
 30
0.0
 10
592.5717440846
 20
144.0276759252
 30
0.0
  0
SPLINE
  5
30A
100
AcDbEntity
  8
0
100
AcDbSpline
 62
7
  6
BYLAYER
 70
0
 71
3
 72
11
 73
7
 74
0
 42
0.0000001
 43
0.0000001
 44
0.0000000001
 40
0.0
 40
0.0
 40
0.0
 40
0.0
 40
0.2478327053
 40
0.4979558062
 40
0.7486361583
 40
1.0
 40
1.0
 40
1.0
 40
1.0
 10
615.5717446254
 20
145.0276759253
 30
0.0
 10
615.5717450609
 20
145.1917975407
 30
0.0
 10
615.7039045392
 20
145.5218762547
 30
0.0
 10
616.0914216523
 20
145.8484044317
 30
0.0
 10
616.5699876425
 20
146.0211501517
 30
0.0
 10
616.9052845946
 20
146.0276759666
 30
0.0
 10
617.0717446254
 20
146.0276759253
 30
0.0
  0
SPLINE
  5
30B
100
AcDbEntity
  8
0
100
AcDbSpline
 62
7
  6
BYLAYER
 70
0
 71
3
 72
15
 73
11
 74
0
 42
0.0000001
 43
0.0000001
 44
0.0000000001
 40
0.0
 40
0.0
 40
0.0
 40
0.0
 40
0.2636784782
 40
0.5741051372
 40
0.7239517191
 40
0.8562958621
 40
0.9120219732
 40
0.9572544159
 40
0.9883481867
 40
1.0
 40
1.0
 40
1.0
 40
1.0
 10
623.5717446137
 20
145.0276759253
 30
0.0
 10
623.5717447687
 20
145.09096994
 30
0.0
 10
623.6660616907
 20
145.2132645753
 30
0.0
 10
623.793045704
 20
145.3234661677
 30
0.0
 10
623.9044738954
 20
145.4131333472
 30
0.0
 10
623.9694937927
 20
145.4615071903
 30
0.0
 10
624.0152361092
 20
145.4937720873
 30
0.0
 10
624.0425348749
 20
145.5101810101
 30
0.0
 10
624.0592873735
 20
145.5226528836
 30
0.0
 10
624.0700086438
 20
145.5254829314
 30
0.0
 10
624.0717446171
 20
145.5276759224
 30
0.0
  0
SPLINE
  5
30C
100
AcDbEntity
  8
0
100
AcDbSpline
 62
7
  6
BYLAYER
 70
0
 71
3
 72
12
 73
8
 74
0
 42
0.0000001
 43
0.0000001
 44
0.0000000001
 40
0.0
 40
0.0
 40
0.0
 40
0.0
 40
0.3555601317
 40
0.6614267398
 40
0.7831217149
 40
0.8795320322
 40
1.0
 40
1.0
 40
1.0
 40
1.0
 10
574.6596629336
 20
144.0276759253
 30
0.0
 10
574.6596629336
 20
143.8999186439
 30
0.0
 10
574.6722494633
 20
143.6618941454
 30
0.0
 10
574.7173823793
 20
143.3840245221
 30
0.0
 10
574.7765914972
 20
143.2029293472
 30
0.0
 10
574.8261879759
 20
143.0963540434
 30
0.0
 10
574.8910983872
 20
143.0276759253
 30
0.0
 10
574.9343840615
 20
143.0276759253
 30
0.0
  0
SPLINE
  5
30D
100
AcDbEntity
  8
0
100
AcDbSpline
 62
7
  6
BYLAYER
 70
0
 71
3
 72
10
 73
6
 74
0
 42
0.0000001
 43
0.0000001
 44
0.0000000001
 40
0.0
 40
0.0
 40
0.0
 40
0.0
 40
0.5192781373
 40
0.7706703291
 40
1.0
 40
1.0
 40
1.0
 40
1.0
 10
575.2372258422
 20
145.8221330155
 30
0.0
 10
575.452940122
 20
145.7456298273
 30
0.0
 10
575.7787437574
 20
145.6465868396
 30
0.0
 10
576.2093356379
 20
145.552690934
 30
0.0
 10
576.4209110286
 20
145.5276761627
 30
0.0
 10
576.5219910426
 20
145.5276759253
 30
0.0
  0
SPLINE
  5
30E
100
AcDbEntity
  8
0
100
AcDbSpline
 62
7
  6
BYLAYER
 70
0
 71
3
 72
9
 73
5
 74
0
 42
0.0000001
 43
0.0000001
 44
0.0000000001
 40
0.0
 40
0.0
 40
0.0
 40
0.0
 40
0.7591341819
 40
1.0
 40
1.0
 40
1.0
 40
1.0
 10
575.2250827928
 20
146.0276759253
 30
0.0
 10
575.2250827928
 20
145.9755552038
 30
0.0
 10
575.2279537154
 20
145.9068282278
 30
0.0
 10
575.2351926976
 20
145.8385451512
 30
0.0
 10
575.2372259016
 20
145.8221332212
 30
0.0
  0
SPLINE
  5
30F
100
AcDbEntity
  8
0
100
AcDbSpline
 62
7
  6
BYLAYER
 70
0
 71
3
 72
11
 73
7
 74
0
 42
0.0000001
 43
0.0000001
 44
0.0000000001
 40
0.0
 40
0.0
 40
0.0
 40
0.0
 40
0.2742864213
 40
0.5514542927
 40
0.7962818329
 40
1.0
 40
1.0
 40
1.0
 40
1.0
 10
576.159429395
 20
145.0276759253
 30
0.0
 10
576.1594294016
 20
145.0896090786
 30
0.0
 10
576.1761230808
 20
145.214810842
 30
0.0
 10
576.2518808531
 20
145.3813952365
 30
0.0
 10
576.3735082092
 20
145.4990358903
 30
0.0
 10
576.4759920116
 20
145.5276759256
 30
0.0
 10
576.5219910386
 20
145.5276759253
 30
0.0
  0
SPLINE
  5
310
100
AcDbEntity
  8
0
100
AcDbSpline
 62
7
  6
BYLAYER
 70
0
 71
3
 72
10
 73
6
 74
0
 42
0.0000001
 43
0.0000001
 44
0.0000000001
 40
0.0
 40
0.0
 40
0.0
 40
0.0
 40
0.2114258548
 40
0.4596612947
 40
1.0
 40
1.0
 40
1.0
 40
1.0
 10
576.1594293959
 20
145.0276759253
 30
0.0
 10
576.0730283928
 20
145.0276765118
 30
0.0
 10
575.8877342853
 20
145.0834308866
 30
0.0
 10
575.5287940296
 20
145.2768125909
 30
0.0
 10
575.2685882356
 20
145.4717179702
 30
0.0
 10
575.1019424912
 20
145.6165905172
 30
0.0
  0
SPLINE
  5
311
100
AcDbEntity
  8
0
100
AcDbSpline
 62
7
  6
BYLAYER
 70
0
 71
3
 72
8
 73
4
 74
0
 42
0.0000001
 43
0.0000001
 44
0.0000000001
 40
0.0
 40
0.0
 40
0.0
 40
0.0
 40
1.0
 40
1.0
 40
1.0
 40
1.0
 10
575.1019423973
 20
145.6165904092
 30
0.0
 10
574.9500563639
 20
145.7486586236
 30
0.0
 10
574.8033767194
 20
145.8867584659
 30
0.0
 10
574.6596628392
 20
146.0276758212
 30
0.0
  0
SPLINE
  5
312
100
AcDbEntity
  8
0
100
AcDbSpline
 62
7
  6
BYLAYER
 70
0
 71
3
 72
9
 73
5
 74
0
 42
0.0000001
 43
0.0000001
 44
0.0000000001
 40
0.0
 40
0.0
 40
0.0
 40
0.0
 40
0.2472785885
 40
1.0
 40
1.0
 40
1.0
 40
1.0
 10
574.6596629336
 20
146.0276759253
 30
0.0
 10
574.7070918605
 20
146.0102416395
 30
0.0
 10
574.8990061663
 20
145.9400433885
 30
0.0
 10
575.091582449
 20
145.8716155071
 30
0.0
 10
575.2372259016
 20
145.8221332212
 30
0.0
  0
SPLINE
  5
313
100
AcDbEntity
  8
0
100
AcDbSpline
 62
7
  6
BYLAYER
 70
0
 71
3
 72
12
 73
8
 74
0
 42
0.0000001
 43
0.0000001
 44
0.0000000001
 40
0.0
 40
0.0
 40
0.0
 40
0.0
 40
0.1204115357
 40
0.2167519688
 40
0.3384069038
 40
0.6443218671
 40
1.0
 40
1.0
 40
1.0
 40
1.0
 10
571.2970234975
 20
143.0276759253
 30
0.0
 10
571.2537579442
 20
143.0276759253
 30
0.0
 10
571.1888715092
 20
143.0962918379
 30
0.0
 10
571.1392790258
 20
143.2028104134
 30
0.0
 10
571.0800515288
 20
143.3838755764
 30
0.0
 10
571.0348970493
 20
143.6617910118
 30
0.0
 10
571.0223023696
 20
143.8998757843
 30
0.0
 10
571.0223023696
 20
144.0276759253
 30
0.0
  0
SPLINE
  5
314
100
AcDbEntity
  8
0
100
AcDbSpline
 62
7
  6
BYLAYER
 70
0
 71
3
 72
8
 73
4
 74
0
 42
0.0000001
 43
0.0000001
 44
0.0000000001
 40
0.0
 40
0.0
 40
0.0
 40
0.0
 40
1.0
 40
1.0
 40
1.0
 40
1.0
 10
574.6594220642
 20
1573.5277862095
 30
0.0
 10
574.8031359827
 20
1573.6687035263
 30
0.0
 10
574.94981559
 20
1573.806803407
 30
0.0
 10
575.1017016225
 20
1573.938871623
 30
0.0
  0
SPLINE
  5
315
100
AcDbEntity
  8
0
100
AcDbSpline
 62
7
  6
BYLAYER
 70
0
 71
3
 72
9
 73
5
 74
0
 42
0.0000001
 43
0.0000001
 44
0.0000000001
 40
0.0
 40
0.0
 40
0.0
 40
0.0
 40
0.2472783312
 40
1.0
 40
1.0
 40
1.0
 40
1.0
 10
574.6594221964
 20
1573.5277860637
 30
0.0
 10
574.7068510758
 20
1573.545220319
 30
0.0
 10
574.8987679596
 20
1573.6154114701
 30
0.0
 10
575.091341667
 20
1573.6838464754
 30
0.0
 10
575.2369851644
 20
1573.7333287678
 30
0.0
  0
SPLINE
  5
316
100
AcDbEntity
  8
0
100
AcDbSpline
 62
7
  6
BYLAYER
 70
0
 71
3
 72
10
 73
6
 74
0
 42
0.0000001
 43
0.0000001
 44
0.0000000001
 40
0.0
 40
0.0
 40
0.0
 40
0.0
 40
0.2114262679
 40
0.4596614222
 40
1.0
 40
1.0
 40
1.0
 40
1.0
 10
576.1591886794
 20
1574.5277860637
 30
0.0
 10
576.0727875067
 20
1574.5277854814
 30
0.0
 10
575.8874933577
 20
1574.4720309897
 30
0.0
 10
575.5285531336
 20
1574.2786492586
 30
0.0
 10
575.2683474475
 20
1574.0837440011
 30
0.0
 10
575.101701754
 20
1573.9388714717
 30
0.0
  0
SPLINE
  5
317
100
AcDbEntity
  8
0
100
AcDbSpline
 62
7
  6
BYLAYER
 70
0
 71
3
 72
11
 73
7
 74
0
 42
0.0000001
 43
0.0000001
 44
0.0000000001
 40
0.0
 40
0.0
 40
0.0
 40
0.0
 40
0.2037181708
 40
0.4485457117
 40
0.7257135813
 40
1.0
 40
1.0
 40
1.0
 40
1.0
 10
576.5217503195
 20
1574.0277860637
 30
0.0
 10
576.4757512916
 20
1574.0277860634
 30
0.0
 10
576.3732674879
 20
1574.0564260985
 30
0.0
 10
576.2516401311
 20
1574.1740667531
 30
0.0
 10
576.1758823607
 20
1574.340651148
 30
0.0
 10
576.1591886838
 20
1574.4658529109
 30
0.0
 10
576.1591886783
 20
1574.5277860637
 30
0.0
  0
SPLINE
  5
318
100
AcDbEntity
  8
0
100
AcDbSpline
 62
7
  6
BYLAYER
 70
0
 71
3
 72
10
 73
6
 74
0
 42
0.0000001
 43
0.0000001
 44
0.0000000001
 40
0.0
 40
0.0
 40
0.0
 40
0.0
 40
0.2293296864
 40
0.4807218845
 40
1.0
 40
1.0
 40
1.0
 40
1.0
 10
576.5217502988
 20
1574.0277860637
 30
0.0
 10
576.4206702785
 20
1574.0277858273
 30
0.0
 10
576.2090948787
 20
1574.0027710562
 30
0.0
 10
575.7785030003
 20
1573.9088751509
 30
0.0
 10
575.4526993707
 20
1573.8098321717
 30
0.0
 10
575.2369851019
 20
1573.7333289842
 30
0.0
  0
SPLINE
  5
319
100
AcDbEntity
  8
0
100
AcDbSpline
 62
7
  6
BYLAYER
 70
0
 71
3
 72
9
 73
5
 74
0
 42
0.0000001
 43
0.0000001
 44
0.0000000001
 40
0.0
 40
0.0
 40
0.0
 40
0.0
 40
0.2408658181
 40
1.0
 40
1.0
 40
1.0
 40
1.0
 10
575.2369851644
 20
1573.7333287678
 30
0.0
 10
575.2349519604
 20
1573.7169168378
 30
0.0
 10
575.2277129782
 20
1573.6486337612
 30
0.0
 10
575.2248420557
 20
1573.5799067852
 30
0.0
 10
575.2248420557
 20
1573.5277860637
 30
0.0
  0
SPLINE
  5
31A
100
AcDbEntity
  8
0
100
AcDbSpline
 62
7
  6
BYLAYER
 70
0
 71
3
 72
11
 73
7
 74
0
 42
0.0000001
 43
0.0000001
 44
0.0000000001
 40
0.0
 40
0.0
 40
0.0
 40
0.0
 40
0.3404385908
 40
0.6266185619
 40
0.8401375074
 40
1.0
 40
1.0
 40
1.0
 40
1.0
 10
592.5715025805
 20
1575.5277860637
 30
0.0
 10
592.5715025801
 20
1575.6643870925
 30
0.0
 10
592.5466410628
 20
1575.9170348957
 30
0.0
 10
592.4388914841
 20
1576.2392982304
 30
0.0
 10
592.2844112121
 20
1576.4622029328
 30
0.0
 10
592.1356458896
 20
1576.5277715762
 30
0.0
 10
592.0715010454
 20
1576.5277860642
 30
0.0
  0
SPLINE
  5
31B
100
AcDbEntity
  8
0
100
AcDbSpline
 62
7
  6
BYLAYER
 70
0
 71
3
 72
11
 73
7
 74
0
 42
0.0000001
 43
0.0000001
 44
0.0000000001
 40
0.0
 40
0.0
 40
0.0
 40
0.0
 40
0.1598605678
 40
0.3733761936
 40
0.6595503807
 40
1.0
 40
1.0
 40
1.0
 40
1.0
 10
602.0715058301
 20
1576.5277860641
 30
0.0
 10
602.0073617517
 20
1576.527772939
 30
0.0
 10
601.8585983407
 20
1576.4622038779
 30
0.0
 10
601.7041190198
 20
1576.2393052128
 30
0.0
 10
601.5963664027
 20
1575.9170415006
 30
0.0
 10
601.5715049652
 20
1575.6643915309
 30
0.0
 10
601.5715043202
 20
1575.5277860638
 30
0.0
  0
SPLINE
  5
31C
100
AcDbEntity
  8
0
100
AcDbSpline
 62
7
  6
BYLAYER
 70
0
 71
3
 72
15
 73
11
 74
0
 42
0.0000001
 43
0.0000001
 44
0.0000000001
 40
0.0
 40
0.0
 40
0.0
 40
0.0
 40
0.0116518133
 40
0.0427455841
 40
0.0879780268
 40
0.143704138
 40
0.2760482811
 40
0.4258948631
 40
0.7363215223
 40
1.0
 40
1.0
 40
1.0
 40
1.0
 10
624.0715038808
 20
1574.0277860666
 30
0.0
 10
624.0697678404
 20
1574.0299790046
 30
0.0
 10
624.0590467226
 20
1574.0328091731
 30
0.0
 10
624.0422940925
 20
1574.0452809424
 30
0.0
 10
624.0149953905
 20
1574.0616899156
 30
0.0
 10
623.9692530434
 20
1574.0939547884
 30
0.0
 10
623.9042331645
 20
1574.1423286461
 30
0.0
 10
623.7928049648
 20
1574.231995819
 30
0.0
 10
623.6658209561
 20
1574.3421974149
 30
0.0
 10
623.5715040332
 20
1574.4644920492
 30
0.0
 10
623.5715038783
 20
1574.5277860637
 30
0.0
  0
SPLINE
  5
31D
100
AcDbEntity
  8
0
100
AcDbSpline
 62
7
  6
BYLAYER
 70
0
 71
3
 72
11
 73
7
 74
0
 42
0.0000001
 43
0.0000001
 44
0.0000000001
 40
0.0
 40
0.0
 40
0.0
 40
0.0
 40
0.2478325037
 40
0.497955658
 40
0.7486362695
 40
1.0
 40
1.0
 40
1.0
 40
1.0
 10
615.5715038882
 20
1574.5277860637
 30
0.0
 10
615.5715043239
 20
1574.3636645815
 30
0.0
 10
615.7036636503
 20
1574.0335859616
 30
0.0
 10
616.0911807408
 20
1573.7070575992
 30
0.0
 10
616.5697468889
 20
1573.5343118619
 30
0.0
 10
616.9050439308
 20
1573.5277860224
 30
0.0
 10
617.0715038882
 20
1573.5277860637
 30
0.0
  0
SPLINE
  5
31E
100
AcDbEntity
  8
0
100
AcDbSpline
 62
7
  6
BYLAYER
 70
0
 71
3
 72
11
 73
7
 74
0
 42
0.0000001
 43
0.0000001
 44
0.0000000001
 40
0.0
 40
0.0
 40
0.0
 40
0.0
 40
0.2478327053
 40
0.4979558062
 40
0.7486361583
 40
1.0
 40
1.0
 40
1.0
 40
1.0
 10
584.5715038882
 20
1574.5277860637
 30
0.0
 10
584.5715034526
 20
1574.3636644483
 30
0.0
 10
584.4393439745
 20
1574.0335857343
 30
0.0
 10
584.0518268614
 20
1573.7070575573
 30
0.0
 10
583.5732608711
 20
1573.5343118373
 30
0.0
 10
583.237963919
 20
1573.5277860223
 30
0.0
 10
583.0715038882
 20
1573.5277860637
 30
0.0
  0
SPLINE
  5
31F
100
AcDbEntity
  8
0
100
AcDbSpline
 62
7
  6
BYLAYER
 70
0
 71
3
 72
12
 73
8
 74
0
 42
0.0000001
 43
0.0000001
 44
0.0000000001
 40
0.0
 40
0.0
 40
0.0
 40
0.0
 40
0.3555601317
 40
0.6614267398
 40
0.7831217149
 40
0.8795320322
 40
1.0
 40
1.0
 40
1.0
 40
1.0
 10
571.0220616324
 20
1575.5277860637
 30
0.0
 10
571.0220616324
 20
1575.6555433451
 30
0.0
 10
571.0346481621
 20
1575.8935678436
 30
0.0
 10
571.0797810782
 20
1576.1714374669
 30
0.0
 10
571.1389901961
 20
1576.3525326418
 30
0.0
 10
571.1885866748
 20
1576.4591079456
 30
0.0
 10
571.253497086
 20
1576.5277860637
 30
0.0
 10
571.2967827603
 20
1576.5277860637
 30
0.0
  0
SPLINE
  5
320
100
AcDbEntity
  8
0
100
AcDbSpline
 62
7
  6
BYLAYER
 70
0
 71
3
 72
12
 73
8
 74
0
 42
0.0000001
 43
0.0000001
 44
0.0000000001
 40
0.0
 40
0.0
 40
0.0
 40
0.0
 40
0.1204115357
 40
0.2167519688
 40
0.3384069038
 40
0.6443218671
 40
1.0
 40
1.0
 40
1.0
 40
1.0
 10
574.9341433243
 20
1576.5277860637
 30
0.0
 10
574.8908777709
 20
1576.5277860637
 30
0.0
 10
574.825991336
 20
1576.4591701511
 30
0.0
 10
574.7763988525
 20
1576.3526515756
 30
0.0
 10
574.7171713556
 20
1576.1715864126
 30
0.0
 10
574.672016876
 20
1575.8936709772
 30
0.0
 10
574.6594221964
 20
1575.6555862047
 30
0.0
 10
574.6594221964
 20
1575.5277860637
 30
0.0
  0
SPLINE
  5
321
100
AcDbEntity
  8
0
100
AcDbSpline
 62
7
  6
BYLAYER
 70
0
 71
3
 72
16
 73
12
 74
0
 42
0.0000001
 43
0.0000001
 44
0.0000000001
 40
0.0
 40
0.0
 40
0.0
 40
0.0
 40
0.0660819509
 40
0.1837076052
 40
0.3386899351
 40
0.5123359223
 40
0.6837013925
 40
0.8321172397
 40
0.9396824817
 40
0.9934236715
 40
1.0
 40
1.0
 40
1.0
 40
1.0
 10
586.5881215003
 20
1573.5165918127
 30
0.0
 10
586.5883293469
 20
1573.4947717922
 30
0.0
 10
586.5885041988
 20
1573.4341184912
 30
0.0
 10
586.5887711906
 20
1573.3222009935
 30
0.0
 10
586.5888897497
 20
1573.1752735824
 30
0.0
 10
586.5890004263
 20
1573.0083042861
 30
0.0
 10
586.5887102944
 20
1572.8520693831
 30
0.0
 10
586.589196531
 20
1572.6911276062
 30
0.0
 10
586.587471544
 20
1572.6339681241
 30
0.0
 10
586.5893755098
 20
1572.5132896913
 30
0.0
 10
586.5877107776
 20
1572.5368088349
 30
0.0
 10
586.5876900931
 20
1572.5389803147
 30
0.0
  0
SPLINE
  5
322
100
AcDbEntity
  8
0
100
AcDbSpline
 62
7
  6
BYLAYER
 70
0
 71
3
 72
16
 73
12
 74
0
 42
0.0000001
 43
0.0000001
 44
0.0000000001
 40
0.0
 40
0.0
 40
0.0
 40
0.0
 40
0.0660819509
 40
0.1837076052
 40
0.3386899351
 40
0.5123359223
 40
0.6837013925
 40
0.8321172397
 40
0.9396824817
 40
0.9934236715
 40
1.0
 40
1.0
 40
1.0
 40
1.0
 10
586.5548862761
 20
1573.5165918127
 30
0.0
 10
586.5546784296
 20
1573.4947717922
 30
0.0
 10
586.5545035777
 20
1573.4341184912
 30
0.0
 10
586.5542365859
 20
1573.3222009935
 30
0.0
 10
586.5541180267
 20
1573.1752735824
 30
0.0
 10
586.5540073502
 20
1573.0083042861
 30
0.0
 10
586.554297482
 20
1572.8520693831
 30
0.0
 10
586.5538112455
 20
1572.6911276062
 30
0.0
 10
586.5555362324
 20
1572.6339681241
 30
0.0
 10
586.5536322667
 20
1572.5132896913
 30
0.0
 10
586.5552969989
 20
1572.5368088349
 30
0.0
 10
586.5553176833
 20
1572.5389803147
 30
0.0
  0
SPLINE
  5
323
100
AcDbEntity
  8
0
100
AcDbSpline
 62
7
  6
BYLAYER
 70
0
 71
3
 72
16
 73
12
 74
0
 42
0.0000001
 43
0.0000001
 44
0.0000000001
 40
0.0
 40
0.0
 40
0.0
 40
0.0
 40
0.0660819509
 40
0.1837076052
 40
0.3386899351
 40
0.5123359223
 40
0.6837013925
 40
0.8321172397
 40
0.9396824817
 40
0.9934236715
 40
1.0
 40
1.0
 40
1.0
 40
1.0
 10
586.5881215003
 20
1573.5165918127
 30
0.0
 10
586.5883293469
 20
1573.4947717922
 30
0.0
 10
586.5885041988
 20
1573.4341184912
 30
0.0
 10
586.5887711906
 20
1573.3222009935
 30
0.0
 10
586.5888897497
 20
1573.1752735824
 30
0.0
 10
586.5890004263
 20
1573.0083042861
 30
0.0
 10
586.5887102944
 20
1572.8520693831
 30
0.0
 10
586.589196531
 20
1572.6911276062
 30
0.0
 10
586.587471544
 20
1572.6339681241
 30
0.0
 10
586.5893755098
 20
1572.5132896913
 30
0.0
 10
586.5877107776
 20
1572.5368088349
 30
0.0
 10
586.5876900931
 20
1572.5389803147
 30
0.0
  0
SPLINE
  5
324
100
AcDbEntity
  8
0
100
AcDbSpline
 62
7
  6
BYLAYER
 70
0
 71
3
 72
16
 73
12
 74
0
 42
0.0000001
 43
0.0000001
 44
0.0000000001
 40
0.0
 40
0.0
 40
0.0
 40
0.0
 40
0.0660819509
 40
0.1837076052
 40
0.3386899351
 40
0.5123359223
 40
0.6837013925
 40
0.8321172397
 40
0.9396824817
 40
0.9934236715
 40
1.0
 40
1.0
 40
1.0
 40
1.0
 10
586.5548862761
 20
1573.5165918127
 30
0.0
 10
586.5546784296
 20
1573.4947717922
 30
0.0
 10
586.5545035777
 20
1573.4341184912
 30
0.0
 10
586.5542365859
 20
1573.3222009935
 30
0.0
 10
586.5541180267
 20
1573.1752735824
 30
0.0
 10
586.5540073502
 20
1573.0083042861
 30
0.0
 10
586.554297482
 20
1572.8520693831
 30
0.0
 10
586.5538112455
 20
1572.6911276062
 30
0.0
 10
586.5555362324
 20
1572.6339681241
 30
0.0
 10
586.5536322667
 20
1572.5132896913
 30
0.0
 10
586.5552969989
 20
1572.5368088349
 30
0.0
 10
586.5553176833
 20
1572.5389803147
 30
0.0
  0
SPLINE
  5
325
100
AcDbEntity
  8
0
100
AcDbSpline
 62
7
  6
BYLAYER
 70
0
 71
3
 72
16
 73
12
 74
0
 42
0.0000001
 43
0.0000001
 44
0.0000000001
 40
0.0
 40
0.0
 40
0.0
 40
0.0
 40
0.066109371
 40
0.1837553808
 40
0.338748546
 40
0.5123945412
 40
0.6837491914
 40
0.8321446955
 40
0.9396825251
 40
0.9933925399
 40
1.0
 40
1.0
 40
1.0
 40
1.0
 10
609.0548860968
 20
1573.5165729808
 30
0.0
 10
609.0546783396
 20
1573.4947433672
 30
0.0
 10
609.0545033964
 20
1573.4340728006
 30
0.0
 10
609.0542365255
 20
1573.3221331939
 30
0.0
 10
609.0541178934
 20
1573.1751917898
 30
0.0
 10
609.0540076706
 20
1573.0082188893
 30
0.0
 10
609.0542964512
 20
1572.851987956
 30
0.0
 10
609.0538144867
 20
1572.6910710485
 30
0.0
 10
609.0555296241
 20
1572.6339068493
 30
0.0
 10
609.0536400787
 20
1572.5132796375
 30
0.0
 10
609.0552970978
 20
1572.5368173334
 30
0.0
 10
609.0553178626
 20
1572.5389991466
 30
0.0
  0
SPLINE
  5
326
100
AcDbEntity
  8
0
100
AcDbSpline
 62
7
  6
BYLAYER
 70
0
 71
3
 72
16
 73
12
 74
0
 42
0.0000001
 43
0.0000001
 44
0.0000000001
 40
0.0
 40
0.0
 40
0.0
 40
0.0
 40
0.066109371
 40
0.1837553808
 40
0.338748546
 40
0.5123945412
 40
0.6837491914
 40
0.8321446955
 40
0.9396825251
 40
0.9933925399
 40
1.0
 40
1.0
 40
1.0
 40
1.0
 10
609.0881216797
 20
1573.5165729808
 30
0.0
 10
609.0883294369
 20
1573.4947433672
 30
0.0
 10
609.0885043801
 20
1573.4340728006
 30
0.0
 10
609.0887712509
 20
1573.3221331939
 30
0.0
 10
609.0888898831
 20
1573.1751917898
 30
0.0
 10
609.0890001058
 20
1573.0082188893
 30
0.0
 10
609.0887113253
 20
1572.851987956
 30
0.0
 10
609.0891932898
 20
1572.6910710485
 30
0.0
 10
609.0874781524
 20
1572.6339068493
 30
0.0
 10
609.0893676978
 20
1572.5132796375
 30
0.0
 10
609.0877106786
 20
1572.5368173334
 30
0.0
 10
609.0876899138
 20
1572.5389991466
 30
0.0
  0
SPLINE
  5
327
100
AcDbEntity
  8
0
100
AcDbSpline
 62
7
  6
BYLAYER
 70
0
 71
3
 72
16
 73
12
 74
0
 42
0.0000001
 43
0.0000001
 44
0.0000000001
 40
0.0
 40
0.0
 40
0.0
 40
0.0
 40
0.0661715043
 40
0.1838636386
 40
0.3388813558
 40
0.5125273691
 40
0.6838575011
 40
0.8322069082
 40
0.9396826219
 40
0.9933219952
 40
1.0
 40
1.0
 40
1.0
 40
1.0
 10
609.0548856905
 20
1573.516530247
 30
0.0
 10
609.0546781352
 20
1573.4946788965
 30
0.0
 10
609.054502986
 20
1573.4339692109
 30
0.0
 10
609.0542363882
 20
1573.321979515
 30
0.0
 10
609.054117594
 20
1573.1750064175
 30
0.0
 10
609.0540083862
 20
1573.0080253713
 30
0.0
 10
609.0542941527
 20
1572.8518034461
 30
0.0
 10
609.0538217235
 20
1572.6909429288
 30
0.0
 10
609.055514884
 20
1572.633768038
 30
0.0
 10
609.0536575164
 20
1572.513256926
 30
0.0
 10
609.0552973225
 20
1572.5368366499
 30
0.0
 10
609.0553182689
 20
1572.5390418805
 30
0.0
  0
SPLINE
  5
328
100
AcDbEntity
  8
0
100
AcDbSpline
 62
7
  6
BYLAYER
 70
0
 71
3
 72
16
 73
12
 74
0
 42
0.0000001
 43
0.0000001
 44
0.0000000001
 40
0.0
 40
0.0
 40
0.0
 40
0.0
 40
0.0661715043
 40
0.1838636386
 40
0.3388813558
 40
0.5125273691
 40
0.6838575011
 40
0.8322069082
 40
0.9396826219
 40
0.9933219952
 40
1.0
 40
1.0
 40
1.0
 40
1.0
 10
609.088122086
 20
1573.516530247
 30
0.0
 10
609.0883296412
 20
1573.4946788965
 30
0.0
 10
609.0885047904
 20
1573.4339692109
 30
0.0
 10
609.0887713883
 20
1573.321979515
 30
0.0
 10
609.0888901825
 20
1573.1750064175
 30
0.0
 10
609.0889993903
 20
1573.0080253713
 30
0.0
 10
609.0887136238
 20
1572.8518034461
 30
0.0
 10
609.089186053
 20
1572.6909429288
 30
0.0
 10
609.0874928924
 20
1572.633768038
 30
0.0
 10
609.0893502601
 20
1572.513256926
 30
0.0
 10
609.0877104539
 20
1572.5368366499
 30
0.0
 10
609.0876895075
 20
1572.5390418805
 30
0.0
  0
SPLINE
  5
329
100
AcDbEntity
  8
0
100
AcDbSpline
 62
7
  6
BYLAYER
 70
0
 71
3
 72
16
 73
12
 74
0
 42
0.0000001
 43
0.0000001
 44
0.0000000001
 40
0.0
 40
0.0
 40
0.0
 40
0.0
 40
0.0660819509
 40
0.1837076052
 40
0.3386899351
 40
0.5123359223
 40
0.6837013925
 40
0.8321172397
 40
0.9396824817
 40
0.9934236715
 40
1.0
 40
1.0
 40
1.0
 40
1.0
 10
586.5881215003
 20
1573.5165918127
 30
0.0
 10
586.5883293469
 20
1573.4947717922
 30
0.0
 10
586.5885041988
 20
1573.4341184912
 30
0.0
 10
586.5887711906
 20
1573.3222009935
 30
0.0
 10
586.5888897497
 20
1573.1752735824
 30
0.0
 10
586.5890004263
 20
1573.0083042861
 30
0.0
 10
586.5887102944
 20
1572.8520693831
 30
0.0
 10
586.589196531
 20
1572.6911276062
 30
0.0
 10
586.587471544
 20
1572.6339681241
 30
0.0
 10
586.5893755098
 20
1572.5132896913
 30
0.0
 10
586.5877107776
 20
1572.5368088349
 30
0.0
 10
586.5876900931
 20
1572.5389803147
 30
0.0
  0
SPLINE
  5
32A
100
AcDbEntity
  8
0
100
AcDbSpline
 62
7
  6
BYLAYER
 70
0
 71
3
 72
16
 73
12
 74
0
 42
0.0000001
 43
0.0000001
 44
0.0000000001
 40
0.0
 40
0.0
 40
0.0
 40
0.0
 40
0.0660819509
 40
0.1837076052
 40
0.3386899351
 40
0.5123359223
 40
0.6837013925
 40
0.8321172397
 40
0.9396824817
 40
0.9934236715
 40
1.0
 40
1.0
 40
1.0
 40
1.0
 10
586.5548862761
 20
1573.5165918127
 30
0.0
 10
586.5546784296
 20
1573.4947717922
 30
0.0
 10
586.5545035777
 20
1573.4341184912
 30
0.0
 10
586.5542365859
 20
1573.3222009935
 30
0.0
 10
586.5541180267
 20
1573.1752735824
 30
0.0
 10
586.5540073502
 20
1573.0083042861
 30
0.0
 10
586.554297482
 20
1572.8520693831
 30
0.0
 10
586.5538112455
 20
1572.6911276062
 30
0.0
 10
586.5555362324
 20
1572.6339681241
 30
0.0
 10
586.5536322667
 20
1572.5132896913
 30
0.0
 10
586.5552969989
 20
1572.5368088349
 30
0.0
 10
586.5553176833
 20
1572.5389803147
 30
0.0
  0
SPLINE
  5
32B
100
AcDbEntity
  8
0
100
AcDbSpline
 62
7
  6
BYLAYER
 70
0
 71
3
 72
16
 73
12
 74
0
 42
0.0000001
 43
0.0000001
 44
0.0000000001
 40
0.0
 40
0.0
 40
0.0
 40
0.0
 40
0.0660819509
 40
0.1837076052
 40
0.3386899351
 40
0.5123359223
 40
0.6837013925
 40
0.8321172397
 40
0.9396824817
 40
0.9934236715
 40
1.0
 40
1.0
 40
1.0
 40
1.0
 10
586.5881215003
 20
1573.5165918127
 30
0.0
 10
586.5883293469
 20
1573.4947717922
 30
0.0
 10
586.5885041988
 20
1573.4341184912
 30
0.0
 10
586.5887711906
 20
1573.3222009935
 30
0.0
 10
586.5888897497
 20
1573.1752735824
 30
0.0
 10
586.5890004263
 20
1573.0083042861
 30
0.0
 10
586.5887102944
 20
1572.8520693831
 30
0.0
 10
586.589196531
 20
1572.6911276062
 30
0.0
 10
586.587471544
 20
1572.6339681241
 30
0.0
 10
586.5893755098
 20
1572.5132896913
 30
0.0
 10
586.5877107776
 20
1572.5368088349
 30
0.0
 10
586.5876900931
 20
1572.5389803147
 30
0.0
  0
SPLINE
  5
32C
100
AcDbEntity
  8
0
100
AcDbSpline
 62
7
  6
BYLAYER
 70
0
 71
3
 72
16
 73
12
 74
0
 42
0.0000001
 43
0.0000001
 44
0.0000000001
 40
0.0
 40
0.0
 40
0.0
 40
0.0
 40
0.0660819509
 40
0.1837076052
 40
0.3386899351
 40
0.5123359223
 40
0.6837013925
 40
0.8321172397
 40
0.9396824817
 40
0.9934236715
 40
1.0
 40
1.0
 40
1.0
 40
1.0
 10
586.5548862761
 20
1573.5165918127
 30
0.0
 10
586.5546784296
 20
1573.4947717922
 30
0.0
 10
586.5545035777
 20
1573.4341184912
 30
0.0
 10
586.5542365859
 20
1573.3222009935
 30
0.0
 10
586.5541180267
 20
1573.1752735824
 30
0.0
 10
586.5540073502
 20
1573.0083042861
 30
0.0
 10
586.554297482
 20
1572.8520693831
 30
0.0
 10
586.5538112455
 20
1572.6911276062
 30
0.0
 10
586.5555362324
 20
1572.6339681241
 30
0.0
 10
586.5536322667
 20
1572.5132896913
 30
0.0
 10
586.5552969989
 20
1572.5368088349
 30
0.0
 10
586.5553176833
 20
1572.5389803147
 30
0.0
  0
SPLINE
  5
32D
100
AcDbEntity
  8
0
100
AcDbSpline
 62
7
  6
BYLAYER
 70
0
 71
3
 72
16
 73
12
 74
0
 42
0.0000001
 43
0.0000001
 44
0.0000000001
 40
0.0
 40
0.0
 40
0.0
 40
0.0
 40
0.066109371
 40
0.1837553808
 40
0.338748546
 40
0.5123945412
 40
0.6837491914
 40
0.8321446955
 40
0.9396825251
 40
0.9933925399
 40
1.0
 40
1.0
 40
1.0
 40
1.0
 10
609.0548860968
 20
1573.5165729808
 30
0.0
 10
609.0546783396
 20
1573.4947433672
 30
0.0
 10
609.0545033964
 20
1573.4340728006
 30
0.0
 10
609.0542365255
 20
1573.3221331939
 30
0.0
 10
609.0541178934
 20
1573.1751917898
 30
0.0
 10
609.0540076706
 20
1573.0082188893
 30
0.0
 10
609.0542964512
 20
1572.851987956
 30
0.0
 10
609.0538144867
 20
1572.6910710485
 30
0.0
 10
609.0555296241
 20
1572.6339068493
 30
0.0
 10
609.0536400787
 20
1572.5132796375
 30
0.0
 10
609.0552970978
 20
1572.5368173334
 30
0.0
 10
609.0553178626
 20
1572.5389991466
 30
0.0
  0
SPLINE
  5
32E
100
AcDbEntity
  8
0
100
AcDbSpline
 62
7
  6
BYLAYER
 70
0
 71
3
 72
16
 73
12
 74
0
 42
0.0000001
 43
0.0000001
 44
0.0000000001
 40
0.0
 40
0.0
 40
0.0
 40
0.0
 40
0.066109371
 40
0.1837553808
 40
0.338748546
 40
0.5123945412
 40
0.6837491914
 40
0.8321446955
 40
0.9396825251
 40
0.9933925399
 40
1.0
 40
1.0
 40
1.0
 40
1.0
 10
609.0881216797
 20
1573.5165729808
 30
0.0
 10
609.0883294369
 20
1573.4947433672
 30
0.0
 10
609.0885043801
 20
1573.4340728006
 30
0.0
 10
609.0887712509
 20
1573.3221331939
 30
0.0
 10
609.0888898831
 20
1573.1751917898
 30
0.0
 10
609.0890001058
 20
1573.0082188893
 30
0.0
 10
609.0887113253
 20
1572.851987956
 30
0.0
 10
609.0891932898
 20
1572.6910710485
 30
0.0
 10
609.0874781524
 20
1572.6339068493
 30
0.0
 10
609.0893676978
 20
1572.5132796375
 30
0.0
 10
609.0877106786
 20
1572.5368173334
 30
0.0
 10
609.0876899138
 20
1572.5389991466
 30
0.0
  0
SPLINE
  5
32F
100
AcDbEntity
  8
0
100
AcDbSpline
 62
7
  6
BYLAYER
 70
0
 71
3
 72
16
 73
12
 74
0
 42
0.0000001
 43
0.0000001
 44
0.0000000001
 40
0.0
 40
0.0
 40
0.0
 40
0.0
 40
0.0661715043
 40
0.1838636386
 40
0.3388813558
 40
0.5125273691
 40
0.6838575011
 40
0.8322069082
 40
0.9396826219
 40
0.9933219952
 40
1.0
 40
1.0
 40
1.0
 40
1.0
 10
609.0548856905
 20
1573.516530247
 30
0.0
 10
609.0546781352
 20
1573.4946788965
 30
0.0
 10
609.054502986
 20
1573.4339692109
 30
0.0
 10
609.0542363882
 20
1573.321979515
 30
0.0
 10
609.054117594
 20
1573.1750064175
 30
0.0
 10
609.0540083862
 20
1573.0080253713
 30
0.0
 10
609.0542941527
 20
1572.8518034461
 30
0.0
 10
609.0538217235
 20
1572.6909429288
 30
0.0
 10
609.055514884
 20
1572.633768038
 30
0.0
 10
609.0536575164
 20
1572.513256926
 30
0.0
 10
609.0552973225
 20
1572.5368366499
 30
0.0
 10
609.0553182689
 20
1572.5390418805
 30
0.0
  0
SPLINE
  5
330
100
AcDbEntity
  8
0
100
AcDbSpline
 62
7
  6
BYLAYER
 70
0
 71
3
 72
16
 73
12
 74
0
 42
0.0000001
 43
0.0000001
 44
0.0000000001
 40
0.0
 40
0.0
 40
0.0
 40
0.0
 40
0.0661715043
 40
0.1838636386
 40
0.3388813558
 40
0.5125273691
 40
0.6838575011
 40
0.8322069082
 40
0.9396826219
 40
0.9933219952
 40
1.0
 40
1.0
 40
1.0
 40
1.0
 10
609.088122086
 20
1573.516530247
 30
0.0
 10
609.0883296412
 20
1573.4946788965
 30
0.0
 10
609.0885047904
 20
1573.4339692109
 30
0.0
 10
609.0887713883
 20
1573.321979515
 30
0.0
 10
609.0888901825
 20
1573.1750064175
 30
0.0
 10
609.0889993903
 20
1573.0080253713
 30
0.0
 10
609.0887136238
 20
1572.8518034461
 30
0.0
 10
609.089186053
 20
1572.6909429288
 30
0.0
 10
609.0874928924
 20
1572.633768038
 30
0.0
 10
609.0893502601
 20
1572.513256926
 30
0.0
 10
609.0877104539
 20
1572.5368366499
 30
0.0
 10
609.0876895075
 20
1572.5390418805
 30
0.0
  0
ENDSEC
  0
SECTION
  2
OBJECTS
  0
DICTIONARY
  5
C
100
AcDbDictionary
280
0
281
1
  3
ACAD_GROUP
350
D
  3
ACAD_MLINESTYLE
350
17
  3
ACAD_LAYOUT
350
1A
  3
ACAD_PLOTSETTINGS
350
19
  3
ACAD_PLOTSTYLENAME
350
E
  0
DICTIONARY
  5
D
102
{ACAD_REACTORS
330
C
102
}
100
AcDbDictionary
280
0
281
1
  0
ACDBDICTIONARYWDFLT
  5
E
102
{ACAD_REACTORS
330
C
102
}
100
AcDbDictionary
281
1
  3
Normal
350
F
100
AcDbDictionaryWithDefault
340
F
  0
DICTIONARY
  5
17
102
{ACAD_REACTORS
330
C
102
}
100
AcDbDictionary
280
0
281
1
  3
Standard
350
18
  0
DICTIONARY
  5
19
102
{ACAD_REACTORS
330
C
102
}
100
AcDbDictionary
281
1
  0
DICTIONARY
  5
1A
102
{ACAD_REACTORS
330
C
102
}
100
AcDbDictionary
281
1
  3
Model
350
331
  3
Layout1
350
332
  0
ACDBPLACEHOLDER
  5
F
102
{ACAD_REACTORS
330
E
102
}
  0
MLINESTYLE
  5
18
102
{ACAD_REACTORS
330
17
102
}
100
AcDbMlineStyle
  2
STANDARD
 70
0
  3

 62
256
 51
90.0
 52
90.0
 71
2
 49
0.5
 62
256
  6
BYLAYER
 49
-0.5
 62
256
  6
BYLAYER
  0
LAYOUT
  5
331
102
{ACAD_REACTORS
330
1A
102
}
100
AcDbPlotSettings
  1

  2
none_device
  4

  6

 40
0.0
 41
0.0
 42
0.0
 43
0.0
 44
210.0
 45
297.0
 46
0.0
 47
0.0
 48
0.0
 49
0.0
140
0.0
141
0.0
142
1.0
143
1.0
 70
1024
 72
1
 73
0
 74
0
  7

 75
0
147
1.0
148
0.0
149
0.0
100
AcDbLayout
  1
Model
 70
0
 71
0
 10
0.0
 20
0.0
 11
210.0
 21
297.0
 12
0.0
 22
0.0
 32
0.0
 14
0.0
 24
0.0
 34
0.0
 15
0.0
 25
0.0
 35
0.0
146
0.0
 13
0.0
 23
0.0
 33
0.0
 16
1.0
 26
0.0
 36
0.0
 17
0.0
 27
1.0
 37
0.0
 76
0
330
212
345
0
346
0
  0
LAYOUT
  5
332
102
{ACAD_REACTORS
330
1A
102
}
100
AcDbPlotSettings
  1

  2
none_device
  4

  6

 40
0.0
 41
0.0
 42
0.0
 43
0.0
 44
210.0
 45
297.0
 46
0.0
 47
0.0
 48
0.0
 49
0.0
140
0.0
141
0.0
142
1.0
143
1.0
 70
0
 72
1
 73
0
 74
0
  7

 75
0
147
1.0
148
0.0
149
0.0
100
AcDbLayout
  1
Layout1
 70
0
 71
1
 10
0.0
 20
0.0
 11
210.0
 21
297.0
 12
0.0
 22
0.0
 32
0.0
 14
0.0
 24
0.0
 34
0.0
 15
0.0
 25
0.0
 35
0.0
146
0.0
 13
0.0
 23
0.0
 33
0.0
 16
1.0
 26
0.0
 36
0.0
 17
0.0
 27
1.0
 37
0.0
 76
0
330
213
345
0
346
0
  0
ENDSEC
  0
EOF
