999
DXF file: C:\Users\sesa63760\Dev\_Creo\CAD\MCADID0004247_3D-CAD\drw0001_5.dxf
999
Pro/ENGINEER 2019471 by Parametric Technology Corporation
  0
SECTION
  2
HEADER
  9
$ACADVER
  1
AC1024
  9
$DWGCODEPAGE
  3
ANSI_1252
  9
$EXTMAX
 10
1342.382705788
 20
1898.5126839002
 30
0.0
  9
$EXTMIN
 10
0.0
 20
0.0
 30
0.0
  9
$LIMMIN
 10
0.0
 20
0.0
  9
$LIMMAX
 10
1342.382705788
 20
1898.5126839002
  9
$VIEWCTR
 10
671.191352894
 20
949.2563419501
  9
$VIEWSIZE
 40
1898.5126839002
  9
$CLAYER
  8
0
  9
$LTSCALE
 40
123.7549008765
  9
$CELTYPE
  6
BYLAYER
  9
$DIMSCALE
 40
1.0
  9
$DIMASZ
 40
15.9807464975
  9
$DIMEXO
 40
1.0
  9
$DIMDLI
 40
85.5033860601
  9
$DIMEXE
 40
1.0
  9
$DIMCEN
 40
20.2508019616
  9
$DIMLFAC
 40
1.0
  9
$DIMBLK
  1
_FILLED
  9
$DIMALT
 70
0
  9
$DIMALTF
 40
0.0393700787
  9
$DIMTXT
 40
22.3730450965
  9
$DIMTOL
 70
1
  9
$DIMLIM
 70
0
  9
$DIMTFAC
 40
1.0
  9
$DIMTP
 40
0.01
  9
$DIMTM
 40
0.01
  9
$DIMGAP
 40
0.625
  9
$DIMDSEP
 70
46
  9
$AUNITS
 70
0
  9
$PDMODE
 70
3
  9
$PDSIZE
 40
0.3125
  9
$HANDSEED
  5
3A0
  9
$TILEMODE
 70
1
  9
$MEASUREMENT
 70
1
  9
$INSUNITS
 70
4
  0
ENDSEC
  0
SECTION
  2
CLASSES
  0
CLASS
  1
ACDBDICTIONARYWDFLT
  2
AcDbDictionaryWithDefault
  3
AutoCAD 2000
 90
0
 91
1
280
0
281
0
  0
CLASS
  1
ACDBPLACEHOLDER
  2
AcDbPlaceHolder
  3
AutoCAD 2000
 90
0
 91
1
280
0
281
0
  0
CLASS
  1
LAYOUT
  2
AcDbLayout
  3
AutoCAD 2000
 90
0
 91
0
280
0
281
0
  0
ENDSEC
  0
SECTION
  2
TABLES
  0
TABLE
  2
VPORT
  5
8
100
AcDbSymbolTable
 70
2
  0
VPORT
  5
1F4
100
AcDbSymbolTableRecord
100
AcDbViewportTableRecord
  2
*ACTIVE
 70
0
 10
0.0
 20
0.0
 11
1.0
 21
1.0
 12
671.191352894
 22
949.2563419501
 13
0.0
 23
0.0
 14
1.0
 24
1.0
 15
0.0
 25
0.0
 16
0.0
 26
0.0
 36
1.0
 17
0.0
 27
0.0
 37
0.0
 40
1898.5126839002
 41
0.7070707071
 42
50.0
 43
0.0
 44
0.0
 50
0.0
 51
0.0
 71
0
 72
100
 73
1
 74
1
 75
0
 76
0
 77
0
 78
0
  0
ENDTAB
  0
TABLE
  2
LTYPE
  5
5
100
AcDbSymbolTable
 70
6
  0
LTYPE
  5
14
100
AcDbSymbolTableRecord
100
AcDbLinetypeTableRecord
  2
BYBLOCK
 70
0
  3

 72
65
 73
0
 40
0.0
  0
LTYPE
  5
15
100
AcDbSymbolTableRecord
100
AcDbLinetypeTableRecord
  2
BYLAYER
 70
0
  3

 72
65
 73
0
 40
0.0
  0
LTYPE
  5
16
100
AcDbSymbolTableRecord
100
AcDbLinetypeTableRecord
  2
CONTINUOUS
 70
64
  3
Solid line
 72
65
 73
0
 40
0.0
  0
LTYPE
  5
1F5
100
AcDbSymbolTableRecord
100
AcDbLinetypeTableRecord
  2
CENTER
 70
64
  3
____ _ ____ _ ____ _ ____ _ ____ _ ____ _ ____
 72
65
 73
4
 40
0.6
 49
0.375
 74
0
 49
-0.075
 74
0
 49
0.075
 74
0
 49
-0.075
 74
0
  0
LTYPE
  5
1F6
100
AcDbSymbolTableRecord
100
AcDbLinetypeTableRecord
  2
HIDDEN
 70
64
  3
- - - - - - - - - - - - - - - - - - - -
 72
65
 73
2
 40
0.2
 49
0.1
 74
0
 49
-0.1
 74
0
  0
LTYPE
  5
1F7
100
AcDbSymbolTableRecord
100
AcDbLinetypeTableRecord
  2
PHANTOM
 70
64
  3
_____ _ _ _____ _ _ _____ _ _ _____
 72
65
 73
6
 40
0.8
 49
0.45
 74
0
 49
-0.05
 74
0
 49
0.1
 74
0
 49
-0.05
 74
0
 49
0.1
 74
0
 49
-0.05
 74
0
  0
LTYPE
  5
1F8
100
AcDbSymbolTableRecord
100
AcDbLinetypeTableRecord
  2
DOT
 70
64
  3
. . . . . . . . . . . . . . . . . . . .
 72
65
 73
2
 40
0.2
 49
0.1
 74
0
 49
-0.1
 74
0
  0
LTYPE
  5
1F9
100
AcDbSymbolTableRecord
100
AcDbLinetypeTableRecord
  2
DASHED
 70
64
  3
- - - - - - - - - - - - - - - - - - - -
 72
65
 73
2
 40
0.2
 49
0.1
 74
0
 49
-0.1
 74
0
  0
ENDTAB
  0
TABLE
  2
LAYER
  5
2
100
AcDbSymbolTable
 70
36
  0
LAYER
  5
10
100
AcDbSymbolTableRecord
100
AcDbLayerTableRecord
  2
0
 70
0
 62
7
  6
CONTINUOUS
370
-3
390
F
  0
LAYER
  5
1FA
100
AcDbSymbolTableRecord
100
AcDbLayerTableRecord
  2
DEFAULT_1
 70
0
 62
7
  6
CENTER
370
-3
390
F
  0
LAYER
  5
1FB
100
AcDbSymbolTableRecord
100
AcDbLayerTableRecord
  2
DEFAULT_2
 70
0
 62
7
  6
HIDDEN
370
-3
390
F
  0
LAYER
  5
1FC
100
AcDbSymbolTableRecord
100
AcDbLayerTableRecord
  2
DEFAULT_3
 70
0
 62
7
  6
PHANTOM
370
-3
390
F
  0
LAYER
  5
1FD
100
AcDbSymbolTableRecord
100
AcDbLayerTableRecord
  2
00_COMPONENTS
 70
0
 62
7
  6
CONTINUOUS
370
-3
390
F
  0
LAYER
  5
1FE
100
AcDbSymbolTableRecord
100
AcDbLayerTableRecord
  2
01_1_DEFAULT_DATUMS
 70
0
 62
7
  6
CONTINUOUS
370
-3
390
F
  0
LAYER
  5
1FF
100
AcDbSymbolTableRecord
100
AcDbLayerTableRecord
  2
01_PLANES
 70
0
 62
7
  6
CONTINUOUS
370
-3
390
F
  0
LAYER
  5
200
100
AcDbSymbolTableRecord
100
AcDbLayerTableRecord
  2
02_COORD_SYS
 70
0
 62
7
  6
CONTINUOUS
370
-3
390
F
  0
LAYER
  5
201
100
AcDbSymbolTableRecord
100
AcDbLayerTableRecord
  2
03_AXES
 70
0
 62
7
  6
CONTINUOUS
370
-3
390
F
  0
LAYER
  5
202
100
AcDbSymbolTableRecord
100
AcDbLayerTableRecord
  2
04_POINTS
 70
0
 62
7
  6
CONTINUOUS
370
-3
390
F
  0
LAYER
  5
203
100
AcDbSymbolTableRecord
100
AcDbLayerTableRecord
  2
05_CURVES
 70
0
 62
7
  6
CONTINUOUS
370
-3
390
F
  0
LAYER
  5
204
100
AcDbSymbolTableRecord
100
AcDbLayerTableRecord
  2
06_SURFS
 70
0
 62
7
  6
CONTINUOUS
370
-3
390
F
  0
LAYER
  5
205
100
AcDbSymbolTableRecord
100
AcDbLayerTableRecord
  2
07_COSMETICS
 70
0
 62
7
  6
CONTINUOUS
370
-3
390
F
  0
LAYER
  5
206
100
AcDbSymbolTableRecord
100
AcDbLayerTableRecord
  2
10_NOTES
 70
0
 62
7
  6
CONTINUOUS
370
-3
390
F
  0
LAYER
  5
207
100
AcDbSymbolTableRecord
100
AcDbLayerTableRecord
  2
11_NOTES_PUB
 70
0
 62
7
  6
CONTINUOUS
370
-3
390
F
  0
LAYER
  5
208
100
AcDbSymbolTableRecord
100
AcDbLayerTableRecord
  2
13_REF_GTOL
 70
0
 62
7
  6
CONTINUOUS
370
-3
390
F
  0
LAYER
  5
209
100
AcDbSymbolTableRecord
100
AcDbLayerTableRecord
  2
16_MISC
 70
0
 62
7
  6
CONTINUOUS
370
-3
390
F
  0
LAYER
  5
20A
100
AcDbSymbolTableRecord
100
AcDbLayerTableRecord
  2
17_NO_PRINT
 70
0
 62
7
  6
CONTINUOUS
370
-3
390
F
  0
LAYER
  5
20B
100
AcDbSymbolTableRecord
100
AcDbLayerTableRecord
  2
18_DATUM_CAMS_JOINTS
 70
0
 62
7
  6
CONTINUOUS
370
-3
390
F
  0
LAYER
  5
20C
100
AcDbSymbolTableRecord
100
AcDbLayerTableRecord
  2
19_DATUM_FUNCTIONAL
 70
0
 62
7
  6
CONTINUOUS
370
-3
390
F
  0
LAYER
  5
20D
100
AcDbSymbolTableRecord
100
AcDbLayerTableRecord
  2
20_DATUM_KINEMATIC_SCHEME
 70
0
 62
7
  6
CONTINUOUS
370
-3
390
F
  0
LAYER
  5
20E
100
AcDbSymbolTableRecord
100
AcDbLayerTableRecord
  2
3
 70
0
 62
7
  6
CONTINUOUS
370
-3
390
F
  0
LAYER
  5
20F
100
AcDbSymbolTableRecord
100
AcDbLayerTableRecord
  2
4
 70
0
 62
7
  6
CONTINUOUS
370
-3
390
F
  0
ENDTAB
  0
TABLE
  2
STYLE
  5
3
100
AcDbSymbolTable
 70
1
  0
STYLE
  5
11
100
AcDbSymbolTableRecord
100
AcDbTextStyleTableRecord
  2
STANDARD
 70
0
 40
0.0
 41
1.0
 50
0.0
 71
0
 42
0.2
  3
ARIAL.TTF
  4

  0
STYLE
  5
210
100
AcDbSymbolTableRecord
100
AcDbTextStyleTableRecord
  2
TEXTSTYLE_1
 70
0
 40
0.0
 41
0.8
 50
0.0
 71
0
 42
0.2
  3
gdt
  4

  0
ENDTAB
  0
TABLE
  2
VIEW
  5
6
100
AcDbSymbolTable
 70
0
  0
ENDTAB
  0
TABLE
  2
UCS
  5
7
100
AcDbSymbolTable
 70
0
  0
ENDTAB
  0
TABLE
  2
APPID
  5
9
100
AcDbSymbolTable
 70
1
  0
APPID
  5
211
100
AcDbSymbolTableRecord
100
AcDbRegAppTableRecord
  2
ACAD
 70
0
  0
ENDTAB
  0
TABLE
  2
BLOCK_RECORD
  5
1
100
AcDbSymbolTable
 70
0
  0
BLOCK_RECORD
  5
212
100
AcDbSymbolTableRecord
100
AcDbBlockTableRecord
  2
*Model_Space
  0
BLOCK_RECORD
  5
213
100
AcDbSymbolTableRecord
100
AcDbBlockTableRecord
  2
*Paper_Space
  0
BLOCK_RECORD
  5
214
100
AcDbSymbolTableRecord
100
AcDbBlockTableRecord
  2
_FILLED
  0
ENDTAB
  0
TABLE
  2
DIMSTYLE
  5
A
100
AcDbSymbolTable
 70
1
100
AcDbDimStyleTable
 71
0
  0
DIMSTYLE
105
215
100
AcDbSymbolTableRecord
100
AcDbDimStyleTableRecord
  2
STANDARD
 70
0
  3

  4

 40
1.0
 41
15.9807464975
 42
1.0
 43
0.38
 44
1.0
 45
0.0
 46
0.0
 47
0.01
 48
0.01
140
22.3730450965
141
0.09
142
0.0
143
25.4
144
1.0
145
0.0
146
1.0
147
0.625
 71
1
 72
0
 73
0
 74
0
 75
0
 76
0
 77
1
 78
8
 79
2
170
0
171
1
172
0
173
0
174
0
175
0
176
0
177
0
178
0
270
2
179
2
271
2
272
2
273
2
274
2
275
0
280
0
281
0
282
0
283
1
284
8
285
0
286
0
287
3
288
0
340
11
278
46
341
214
342
214
343
214
344
214
  0
ENDTAB
  0
ENDSEC
  0
SECTION
  2
BLOCKS
  0
BLOCK
  5
20
100
AcDbEntity
  8
0
100
AcDbBlockBegin
  2
*Model_Space
 70
0
 10
0.0
 20
0.0
 30
0.0
  3
*Model_Space
  1

  0
ENDBLK
  5
21
100
AcDbEntity
  8
0
100
AcDbBlockEnd
  0
BLOCK
  5
1C
100
AcDbEntity
  8
0
100
AcDbBlockBegin
  2
*Paper_Space
 70
0
 10
0.0
 20
0.0
 30
0.0
  3
*Paper_Space
  1

  0
ENDBLK
  5
1D
100
AcDbEntity
  8
0
100
AcDbBlockEnd
  0
BLOCK
  5
216
100
AcDbEntity
  8
0
100
AcDbBlockBegin
  2
_FILLED
 70
64
 10
0.0
 20
0.0
  3
_FILLED
  1

  0
SOLID
  5
217
100
AcDbEntity
  8
0
  6
BYBLOCK
 62
0
100
AcDbTrace
 10
0.0
 20
0.0
 11
-1.0
 21
0.25
 12
-1.0
 22
-0.25
 13
-1.0
 23
-0.25
  0
ENDBLK
  5
218
100
AcDbEntity
  8
0
  6
BYBLOCK
 62
0
100
AcDbBlockEnd
  0
ENDSEC
  0
SECTION
  2
ENTITIES
  0
LINE
  5
219
100
AcDbEntity
  8
0
100
AcDbLine
 62
7
  6
BYLAYER
 10
734.197809144
 20
154.5301021779
 11
729.5979858417
 21
154.5301021779
  0
LINE
  5
21A
100
AcDbEntity
  8
0
100
AcDbLine
 62
7
  6
BYLAYER
 10
694.1977972708
 20
154.5301021779
 11
689.5979739685
 21
154.5301021779
  0
LINE
  5
21B
100
AcDbEntity
  8
0
100
AcDbLine
 62
7
  6
BYLAYER
 10
741.3973944533
 20
154.6299920394
 11
734.5706874035
 21
154.6299920394
  0
LINE
  5
21C
100
AcDbEntity
  8
0
100
AcDbLine
 62
7
  6
BYLAYER
 10
688.3973944533
 20
154.6299920394
 11
689.2250872084
 21
154.6299920394
  0
LINE
  5
21D
100
AcDbEntity
  8
0
100
AcDbLine
 62
7
  6
BYLAYER
 10
694.5706755303
 20
154.6299920394
 11
729.2250990816
 21
154.6299920394
  0
LINE
  5
21E
100
AcDbEntity
  8
0
100
AcDbLine
 62
7
  6
BYLAYER
 10
719.0388426335
 20
155.1299920394
 11
710.7569107992
 21
155.1299920394
  0
LINE
  5
21F
100
AcDbEntity
  8
0
100
AcDbLine
 62
7
  6
BYLAYER
 10
735.1978932426
 20
155.5301021779
 11
728.5978932426
 21
155.5301021779
  0
LINE
  5
220
100
AcDbEntity
  8
0
100
AcDbLine
 62
7
  6
BYLAYER
 10
695.1978813694
 20
155.5301021779
 11
688.5978813694
 21
155.5301021779
  0
LINE
  5
221
100
AcDbEntity
  8
0
100
AcDbLine
 62
7
  6
BYLAYER
 10
742.3973944533
 20
155.6299920394
 11
735.1978932426
 21
155.6299920394
  0
LINE
  5
222
100
AcDbEntity
  8
0
100
AcDbLine
 62
7
  6
BYLAYER
 10
728.5978932426
 20
155.6299920394
 11
718.8973944533
 21
155.6299920461
  0
LINE
  5
223
100
AcDbEntity
  8
0
100
AcDbLine
 62
7
  6
BYLAYER
 10
710.8973944533
 20
155.6299920395
 11
695.1978813694
 21
155.6299920394
  0
LINE
  5
224
100
AcDbEntity
  8
0
100
AcDbLine
 62
7
  6
BYLAYER
 10
688.5978813694
 20
155.6299920394
 11
687.3973944533
 21
155.6299920394
  0
LINE
  5
225
100
AcDbEntity
  8
0
100
AcDbLine
 62
7
  6
BYLAYER
 10
687.3973944533
 20
156.6299919705
 11
688.5978813694
 21
156.6299920394
  0
LINE
  5
226
100
AcDbEntity
  8
0
100
AcDbLine
 62
7
  6
BYLAYER
 10
695.1978813694
 20
156.6299920394
 11
696.3973944533
 21
156.6299919705
  0
LINE
  5
227
100
AcDbEntity
  8
0
100
AcDbLine
 62
7
  6
BYLAYER
 10
727.3973944533
 20
156.6299919705
 11
728.5978932426
 21
156.6299920394
  0
LINE
  5
228
100
AcDbEntity
  8
0
100
AcDbLine
 62
7
  6
BYLAYER
 10
735.1978932426
 20
156.6299920394
 11
735.8097096622
 21
156.6299920394
  0
LINE
  5
229
100
AcDbEntity
  8
0
100
AcDbLine
 62
7
  6
BYLAYER
 10
687.8973944533
 20
157.1299920394
 11
694.8973944533
 21
157.1299920394
  0
LINE
  5
22A
100
AcDbEntity
  8
0
100
AcDbLine
 62
7
  6
BYLAYER
 10
728.8973944533
 20
157.1299920394
 11
735.4471479458
 21
157.1299920394
  0
LINE
  5
22B
100
AcDbEntity
  8
0
100
AcDbLine
 62
7
  6
BYLAYER
 10
737.3094761452
 20
157.6299920394
 11
728.8973944533
 21
157.6299920394
  0
LINE
  5
22C
100
AcDbEntity
  8
0
100
AcDbLine
 62
7
  6
BYLAYER
 10
694.8973944533
 20
157.6299920394
 11
687.3973944533
 21
157.6299920394
  0
LINE
  5
22D
100
AcDbEntity
  8
0
100
AcDbLine
 62
7
  6
BYLAYER
 10
687.3973944533
 20
172.1299920394
 11
710.8973944533
 21
172.1299920394
  0
LINE
  5
22E
100
AcDbEntity
  8
0
100
AcDbLine
 62
7
  6
BYLAYER
 10
710.8978932426
 20
172.1299920394
 11
742.3973944533
 21
172.1299920394
  0
LINE
  5
22F
100
AcDbEntity
  8
3
100
AcDbLine
 62
7
  6
BYLAYER
 10
687.3978759277
 20
172.1301149864
 11
742.4037763853
 21
172.1301149864
  0
LINE
  5
230
100
AcDbEntity
  8
3
100
AcDbLine
 62
7
  6
BYLAYER
 10
642.1559743755
 20
199.4782773012
 11
687.1559743755
 21
199.4782773012
  0
LINE
  5
231
100
AcDbEntity
  8
3
100
AcDbLine
 62
7
  6
BYLAYER
 10
682.8192596916
 20
203.1257773012
 11
684.0638589534
 21
203.1257773012
  0
LINE
  5
232
100
AcDbEntity
  8
3
100
AcDbLine
 62
7
  6
BYLAYER
 10
687.1559743755
 20
204.4782773012
 11
684.1559743755
 21
204.4782773012
  0
LINE
  5
233
100
AcDbEntity
  8
3
100
AcDbLine
 62
7
  6
BYLAYER
 10
682.7157747577
 20
204.8017401207
 11
679.7157747577
 21
204.8017401207
  0
LINE
  5
234
100
AcDbEntity
  8
3
100
AcDbLine
 62
7
  6
BYLAYER
 10
645.3559743755
 20
206.2282773012
 11
658.8559743755
 21
206.2282773012
  0
LINE
  5
235
100
AcDbEntity
  8
3
100
AcDbLine
 62
7
  6
BYLAYER
 10
675.4453193502
 20
206.4782773012
 11
679.7157747577
 21
206.4782773012
  0
LINE
  5
236
100
AcDbEntity
  8
3
100
AcDbLine
 62
7
  6
BYLAYER
 10
682.7157747577
 20
206.4782773012
 11
682.8192596916
 21
206.4782773012
  0
LINE
  5
237
100
AcDbEntity
  8
3
100
AcDbLine
 62
7
  6
BYLAYER
 10
684.0638589534
 20
206.4782773012
 11
684.1559743755
 21
206.4782773012
  0
LINE
  5
238
100
AcDbEntity
  8
3
100
AcDbLine
 62
7
  6
BYLAYER
 10
687.1559743755
 20
206.4782773012
 11
687.3978759277
 21
206.4782773012
  0
LINE
  5
239
100
AcDbEntity
  8
3
100
AcDbLine
 62
7
  6
BYLAYER
 10
682.7157747577
 20
209.4782773012
 11
679.7157747577
 21
209.4782773012
  0
LINE
  5
23A
100
AcDbEntity
  8
3
100
AcDbLine
 62
7
  6
BYLAYER
 10
675.4453193502
 20
212.4782773012
 11
679.7157747577
 21
212.4782773012
  0
LINE
  5
23B
100
AcDbEntity
  8
3
100
AcDbLine
 62
7
  6
BYLAYER
 10
682.7157747577
 20
212.4782773012
 11
682.8192596916
 21
212.4782773012
  0
LINE
  5
23C
100
AcDbEntity
  8
3
100
AcDbLine
 62
7
  6
BYLAYER
 10
684.0638589534
 20
212.4782773012
 11
684.1559743755
 21
212.4782773012
  0
LINE
  5
23D
100
AcDbEntity
  8
3
100
AcDbLine
 62
7
  6
BYLAYER
 10
687.1559743755
 20
212.4782773012
 11
687.3978759277
 21
212.4782773012
  0
LINE
  5
23E
100
AcDbEntity
  8
3
100
AcDbLine
 62
7
  6
BYLAYER
 10
658.8559743755
 20
212.7282773012
 11
645.3559743755
 21
212.7282773012
  0
LINE
  5
23F
100
AcDbEntity
  8
3
100
AcDbLine
 62
7
  6
BYLAYER
 10
682.7157747577
 20
214.1548144816
 11
679.7157747577
 21
214.1548144816
  0
LINE
  5
240
100
AcDbEntity
  8
3
100
AcDbLine
 62
7
  6
BYLAYER
 10
684.0638589534
 20
215.8307773012
 11
682.8192596916
 21
215.8307773012
  0
LINE
  5
241
100
AcDbEntity
  8
3
100
AcDbLine
 62
7
  6
BYLAYER
 10
682.8192596916
 20
233.1257773012
 11
684.0638589534
 21
233.1257773012
  0
LINE
  5
242
100
AcDbEntity
  8
3
100
AcDbLine
 62
7
  6
BYLAYER
 10
682.7157747577
 20
234.8017401207
 11
679.7157747577
 21
234.8017401207
  0
LINE
  5
243
100
AcDbEntity
  8
3
100
AcDbLine
 62
7
  6
BYLAYER
 10
645.3559743755
 20
236.2282773012
 11
658.8559743755
 21
236.2282773012
  0
LINE
  5
244
100
AcDbEntity
  8
3
100
AcDbLine
 62
7
  6
BYLAYER
 10
675.4453193502
 20
236.4782773012
 11
679.7157747577
 21
236.4782773012
  0
LINE
  5
245
100
AcDbEntity
  8
3
100
AcDbLine
 62
7
  6
BYLAYER
 10
682.7157747577
 20
236.4782773012
 11
682.8192596916
 21
236.4782773012
  0
LINE
  5
246
100
AcDbEntity
  8
3
100
AcDbLine
 62
7
  6
BYLAYER
 10
684.0638589534
 20
236.4782773012
 11
684.1559743755
 21
236.4782773012
  0
LINE
  5
247
100
AcDbEntity
  8
3
100
AcDbLine
 62
7
  6
BYLAYER
 10
687.1559743755
 20
236.4782773012
 11
687.3978759277
 21
236.4782773012
  0
LINE
  5
248
100
AcDbEntity
  8
3
100
AcDbLine
 62
7
  6
BYLAYER
 10
682.7157747577
 20
239.4782773012
 11
679.7157747577
 21
239.4782773012
  0
LINE
  5
249
100
AcDbEntity
  8
3
100
AcDbLine
 62
7
  6
BYLAYER
 10
675.4453193502
 20
242.4782773012
 11
679.7157747577
 21
242.4782773012
  0
LINE
  5
24A
100
AcDbEntity
  8
3
100
AcDbLine
 62
7
  6
BYLAYER
 10
682.7157747577
 20
242.4782773012
 11
682.8192596916
 21
242.4782773012
  0
LINE
  5
24B
100
AcDbEntity
  8
3
100
AcDbLine
 62
7
  6
BYLAYER
 10
684.0638589534
 20
242.4782773012
 11
684.1559743755
 21
242.4782773012
  0
LINE
  5
24C
100
AcDbEntity
  8
3
100
AcDbLine
 62
7
  6
BYLAYER
 10
687.1559743755
 20
242.4782773012
 11
687.3978759277
 21
242.4782773012
  0
LINE
  5
24D
100
AcDbEntity
  8
3
100
AcDbLine
 62
7
  6
BYLAYER
 10
658.8559743755
 20
242.7282773012
 11
645.3559743755
 21
242.7282773012
  0
LINE
  5
24E
100
AcDbEntity
  8
3
100
AcDbLine
 62
7
  6
BYLAYER
 10
682.7157747577
 20
244.1548144816
 11
679.7157747577
 21
244.1548144816
  0
LINE
  5
24F
100
AcDbEntity
  8
3
100
AcDbLine
 62
7
  6
BYLAYER
 10
684.1559743755
 20
244.4782773012
 11
687.1559743755
 21
244.4782773012
  0
LINE
  5
250
100
AcDbEntity
  8
3
100
AcDbLine
 62
7
  6
BYLAYER
 10
684.0638589534
 20
245.8307773012
 11
682.8192596916
 21
245.8307773012
  0
LINE
  5
251
100
AcDbEntity
  8
3
100
AcDbLine
 62
7
  6
BYLAYER
 10
642.1559743755
 20
249.4782773012
 11
687.1559743755
 21
249.4782773012
  0
LINE
  5
252
100
AcDbEntity
  8
0
100
AcDbLine
 62
7
  6
BYLAYER
 10
695.1476351905
 20
1744.1301021779
 11
695.6476351905
 21
1744.6301021779
  0
LINE
  5
253
100
AcDbEntity
  8
0
100
AcDbLine
 62
7
  6
BYLAYER
 10
719.3976336426
 20
1748.1301027885
 11
719.8976346263
 21
1748.6301035923
  0
LINE
  5
254
100
AcDbEntity
  8
0
100
AcDbLine
 62
7
  6
BYLAYER
 10
717.6476351905
 20
1744.1301021779
 11
718.1476351905
 21
1744.6301021779
  0
LINE
  5
255
100
AcDbEntity
  8
3
100
AcDbLine
 62
7
  6
BYLAYER
 10
637.1559743755
 20
1690.813179762
 11
637.1559743755
 21
1650.813179762
  0
LINE
  5
256
100
AcDbEntity
  8
3
100
AcDbLine
 62
7
  6
BYLAYER
 10
637.1559743755
 20
966.7624181409
 11
637.1559743755
 21
926.7624181409
  0
LINE
  5
257
100
AcDbEntity
  8
3
100
AcDbLine
 62
7
  6
BYLAYER
 10
637.1559743755
 20
244.4782773012
 11
637.1559743755
 21
204.4782773012
  0
LINE
  5
258
100
AcDbEntity
  8
3
100
AcDbLine
 62
7
  6
BYLAYER
 10
675.4453193502
 20
206.4784002771
 11
675.4453193502
 21
212.4781543252
  0
LINE
  5
259
100
AcDbEntity
  8
3
100
AcDbLine
 62
7
  6
BYLAYER
 10
675.4453193502
 20
236.4784002771
 11
675.4453193502
 21
242.4781543252
  0
LINE
  5
25A
100
AcDbEntity
  8
3
100
AcDbLine
 62
7
  6
BYLAYER
 10
675.4453193502
 20
928.7625411169
 11
675.4453193502
 21
934.762295165
  0
LINE
  5
25B
100
AcDbEntity
  8
3
100
AcDbLine
 62
7
  6
BYLAYER
 10
675.4453193502
 20
958.7625411169
 11
675.4453193502
 21
964.762295165
  0
LINE
  5
25C
100
AcDbEntity
  8
3
100
AcDbLine
 62
7
  6
BYLAYER
 10
675.4453193502
 20
1652.813302738
 11
675.4453193502
 21
1658.8130567861
  0
LINE
  5
25D
100
AcDbEntity
  8
3
100
AcDbLine
 62
7
  6
BYLAYER
 10
675.4453193502
 20
1682.813302738
 11
675.4453193502
 21
1688.8130567861
  0
LINE
  5
25E
100
AcDbEntity
  8
3
100
AcDbLine
 62
7
  6
BYLAYER
 10
679.7157747577
 20
204.8017401207
 11
679.7157747577
 21
214.1548144816
  0
LINE
  5
25F
100
AcDbEntity
  8
3
100
AcDbLine
 62
7
  6
BYLAYER
 10
679.7157747577
 20
234.8017401207
 11
679.7157747577
 21
244.1548144816
  0
LINE
  5
260
100
AcDbEntity
  8
3
100
AcDbLine
 62
7
  6
BYLAYER
 10
679.7157747577
 20
927.0858809605
 11
679.7157747577
 21
936.4389553214
  0
LINE
  5
261
100
AcDbEntity
  8
3
100
AcDbLine
 62
7
  6
BYLAYER
 10
679.7157747577
 20
957.0858809605
 11
679.7157747577
 21
966.4389553214
  0
LINE
  5
262
100
AcDbEntity
  8
3
100
AcDbLine
 62
7
  6
BYLAYER
 10
679.7157747577
 20
1651.1366425816
 11
679.7157747577
 21
1660.4897169424
  0
LINE
  5
263
100
AcDbEntity
  8
3
100
AcDbLine
 62
7
  6
BYLAYER
 10
679.7157747577
 20
1681.1366425816
 11
679.7157747577
 21
1690.4897169424
  0
LINE
  5
264
100
AcDbEntity
  8
3
100
AcDbLine
 62
7
  6
BYLAYER
 10
680.1559743755
 20
1695.813179762
 11
680.1559743755
 21
1690.4897169424
  0
LINE
  5
265
100
AcDbEntity
  8
3
100
AcDbLine
 62
7
  6
BYLAYER
 10
680.1559743755
 20
1681.1366425816
 11
680.1559743755
 21
1660.4897169424
  0
LINE
  5
266
100
AcDbEntity
  8
3
100
AcDbLine
 62
7
  6
BYLAYER
 10
680.1559743755
 20
1651.1366425816
 11
680.1559743755
 21
1645.813179762
  0
LINE
  5
267
100
AcDbEntity
  8
3
100
AcDbLine
 62
7
  6
BYLAYER
 10
680.1559743755
 20
971.7624181409
 11
680.1559743755
 21
966.4389553214
  0
LINE
  5
268
100
AcDbEntity
  8
3
100
AcDbLine
 62
7
  6
BYLAYER
 10
680.1559743755
 20
957.0858809605
 11
680.1559743755
 21
936.4389553214
  0
LINE
  5
269
100
AcDbEntity
  8
3
100
AcDbLine
 62
7
  6
BYLAYER
 10
680.1559743755
 20
927.0858809605
 11
680.1559743755
 21
921.7624181409
  0
LINE
  5
26A
100
AcDbEntity
  8
3
100
AcDbLine
 62
7
  6
BYLAYER
 10
680.1559743755
 20
249.4782773012
 11
680.1559743755
 21
244.1548144816
  0
LINE
  5
26B
100
AcDbEntity
  8
3
100
AcDbLine
 62
7
  6
BYLAYER
 10
680.1559743755
 20
234.8017401207
 11
680.1559743755
 21
214.1548144816
  0
LINE
  5
26C
100
AcDbEntity
  8
3
100
AcDbLine
 62
7
  6
BYLAYER
 10
680.1559743755
 20
204.8017401207
 11
680.1559743755
 21
199.4782773012
  0
LINE
  5
26D
100
AcDbEntity
  8
3
100
AcDbLine
 62
7
  6
BYLAYER
 10
682.7157747577
 20
1690.4897169424
 11
682.7157747577
 21
1681.1366425816
  0
LINE
  5
26E
100
AcDbEntity
  8
3
100
AcDbLine
 62
7
  6
BYLAYER
 10
682.7157747577
 20
1660.4897169424
 11
682.7157747577
 21
1651.1366425816
  0
LINE
  5
26F
100
AcDbEntity
  8
3
100
AcDbLine
 62
7
  6
BYLAYER
 10
682.7157747577
 20
966.4389553214
 11
682.7157747577
 21
957.0858809605
  0
LINE
  5
270
100
AcDbEntity
  8
3
100
AcDbLine
 62
7
  6
BYLAYER
 10
682.7157747577
 20
936.4389553214
 11
682.7157747577
 21
927.0858809605
  0
LINE
  5
271
100
AcDbEntity
  8
3
100
AcDbLine
 62
7
  6
BYLAYER
 10
682.7157747577
 20
244.1548144816
 11
682.7157747577
 21
234.8017401207
  0
LINE
  5
272
100
AcDbEntity
  8
3
100
AcDbLine
 62
7
  6
BYLAYER
 10
682.7157747577
 20
214.1548144816
 11
682.7157747577
 21
204.8017401207
  0
LINE
  5
273
100
AcDbEntity
  8
3
100
AcDbLine
 62
7
  6
BYLAYER
 10
682.8192596916
 20
203.1257773012
 11
682.8192596916
 21
215.8307773012
  0
LINE
  5
274
100
AcDbEntity
  8
3
100
AcDbLine
 62
7
  6
BYLAYER
 10
682.8192596916
 20
233.1257773012
 11
682.8192596916
 21
245.8307773012
  0
LINE
  5
275
100
AcDbEntity
  8
3
100
AcDbLine
 62
7
  6
BYLAYER
 10
682.8192596916
 20
925.4099181409
 11
682.8192596916
 21
938.1149181409
  0
LINE
  5
276
100
AcDbEntity
  8
3
100
AcDbLine
 62
7
  6
BYLAYER
 10
682.8192596916
 20
955.4099181409
 11
682.8192596916
 21
968.1149181409
  0
LINE
  5
277
100
AcDbEntity
  8
3
100
AcDbLine
 62
7
  6
BYLAYER
 10
682.8192596916
 20
1649.460679762
 11
682.8192596916
 21
1662.165679762
  0
LINE
  5
278
100
AcDbEntity
  8
3
100
AcDbLine
 62
7
  6
BYLAYER
 10
682.8192596916
 20
1679.460679762
 11
682.8192596916
 21
1692.165679762
  0
LINE
  5
279
100
AcDbEntity
  8
3
100
AcDbLine
 62
7
  6
BYLAYER
 10
684.0638589534
 20
1692.165679762
 11
684.0638589534
 21
1679.460679762
  0
LINE
  5
27A
100
AcDbEntity
  8
3
100
AcDbLine
 62
7
  6
BYLAYER
 10
684.0638589534
 20
1662.165679762
 11
684.0638589534
 21
1649.460679762
  0
LINE
  5
27B
100
AcDbEntity
  8
3
100
AcDbLine
 62
7
  6
BYLAYER
 10
684.0638589534
 20
968.1149181409
 11
684.0638589534
 21
955.4099181409
  0
LINE
  5
27C
100
AcDbEntity
  8
3
100
AcDbLine
 62
7
  6
BYLAYER
 10
684.0638589534
 20
938.1149181409
 11
684.0638589534
 21
925.4099181409
  0
LINE
  5
27D
100
AcDbEntity
  8
3
100
AcDbLine
 62
7
  6
BYLAYER
 10
684.0638589534
 20
245.8307773012
 11
684.0638589534
 21
233.1257773012
  0
LINE
  5
27E
100
AcDbEntity
  8
3
100
AcDbLine
 62
7
  6
BYLAYER
 10
684.0638589534
 20
215.8307773012
 11
684.0638589534
 21
203.1257773012
  0
LINE
  5
27F
100
AcDbEntity
  8
3
100
AcDbLine
 62
7
  6
BYLAYER
 10
684.1559743755
 20
199.4782773012
 11
684.1559743755
 21
249.4782773012
  0
LINE
  5
280
100
AcDbEntity
  8
3
100
AcDbLine
 62
7
  6
BYLAYER
 10
684.1559743755
 20
921.7624181409
 11
684.1559743755
 21
971.7624181409
  0
LINE
  5
281
100
AcDbEntity
  8
3
100
AcDbLine
 62
7
  6
BYLAYER
 10
684.1559743755
 20
1645.813179762
 11
684.1559743755
 21
1695.813179762
  0
LINE
  5
282
100
AcDbEntity
  8
3
100
AcDbLine
 62
7
  6
BYLAYER
 10
687.1559743755
 20
1695.813179762
 11
687.1559743755
 21
1645.813179762
  0
LINE
  5
283
100
AcDbEntity
  8
3
100
AcDbLine
 62
7
  6
BYLAYER
 10
687.1559743755
 20
971.7624181409
 11
687.1559743755
 21
921.7624181409
  0
LINE
  5
284
100
AcDbEntity
  8
3
100
AcDbLine
 62
7
  6
BYLAYER
 10
687.1559743755
 20
249.4782773012
 11
687.1559743755
 21
199.4782773012
  0
LINE
  5
285
100
AcDbEntity
  8
0
100
AcDbLine
 62
7
  6
BYLAYER
 10
687.3976369109
 20
1736.1301433278
 11
687.3976351894
 21
1735.3316496456
  0
LINE
  5
286
100
AcDbEntity
  8
0
100
AcDbLine
 62
7
  6
BYLAYER
 10
687.3973944533
 20
155.6299920394
 11
687.3973944533
 21
172.1299920394
  0
LINE
  5
287
100
AcDbEntity
  8
0
100
AcDbLine
 62
7
  6
BYLAYER
 10
687.3976351905
 20
1735.1301021779
 11
687.3976351905
 21
1720.6301021779
  0
LINE
  5
288
100
AcDbEntity
  8
0
100
AcDbLine
 62
7
  6
BYLAYER
 10
687.3976351905
 20
1737.1301021779
 11
687.3976351905
 21
1735.1420922241
  0
LINE
  5
289
100
AcDbEntity
  8
3
100
AcDbLine
 62
7
  6
BYLAYER
 10
687.3978759277
 20
1720.6301149864
 11
687.3978759277
 21
172.1301149864
  0
LINE
  5
28A
100
AcDbEntity
  8
0
100
AcDbLine
 62
7
  6
BYLAYER
 10
688.3973944533
 20
154.6299920394
 11
688.3973944517
 21
156.6299920394
  0
LINE
  5
28B
100
AcDbEntity
  8
0
100
AcDbLine
 62
7
  6
BYLAYER
 10
688.3976351888
 20
1736.1301021779
 11
688.3976351905
 21
1738.1301021779
  0
LINE
  5
28C
100
AcDbEntity
  8
0
100
AcDbLine
 62
7
  6
BYLAYER
 10
688.5976351905
 20
1735.6301021779
 11
688.5976351905
 21
1737.2301021779
  0
LINE
  5
28D
100
AcDbEntity
  8
0
100
AcDbLine
 62
7
  6
BYLAYER
 10
688.5978813694
 20
157.1301021779
 11
688.5978813694
 21
155.5301021779
  0
LINE
  5
28E
100
AcDbEntity
  8
0
100
AcDbLine
 62
7
  6
BYLAYER
 10
691.3973944533
 20
157.1299920394
 11
691.3973944533
 21
172.1299920394
  0
LINE
  5
28F
100
AcDbEntity
  8
0
100
AcDbLine
 62
7
  6
BYLAYER
 10
691.3976351905
 20
1720.6301021779
 11
691.3976351905
 21
1735.6301021779
  0
LINE
  5
290
100
AcDbEntity
  8
3
100
AcDbLine
 62
7
  6
BYLAYER
 10
691.3978759277
 20
172.1301149864
 11
691.3978759277
 21
1720.6301149864
  0
LINE
  5
291
100
AcDbEntity
  8
0
100
AcDbLine
 62
7
  6
BYLAYER
 10
694.8973943808
 20
157.6299920394
 11
694.8973943808
 21
157.1299920394
  0
LINE
  5
292
100
AcDbEntity
  8
0
100
AcDbLine
 62
7
  6
BYLAYER
 10
694.8976351177
 20
1735.6301021779
 11
694.8976351177
 21
1735.1301021779
  0
LINE
  5
293
100
AcDbEntity
  8
0
100
AcDbLine
 62
7
  6
BYLAYER
 10
695.1476351905
 20
1738.1301021779
 11
695.1476351905
 21
1744.1301021779
  0
LINE
  5
294
100
AcDbEntity
  8
0
100
AcDbLine
 62
7
  6
BYLAYER
 10
695.1976351905
 20
1735.7342846127
 11
695.1976351905
 21
1737.2301021779
  0
LINE
  5
295
100
AcDbEntity
  8
0
100
AcDbLine
 62
7
  6
BYLAYER
 10
695.1978813694
 20
157.0279062467
 11
695.1978813694
 21
155.5301021779
  0
LINE
  5
296
100
AcDbEntity
  8
0
100
AcDbLine
 62
7
  6
BYLAYER
 10
695.3973944533
 20
156.6299920394
 11
695.3973944533
 21
155.6299920394
  0
LINE
  5
297
100
AcDbEntity
  8
0
100
AcDbLine
 62
7
  6
BYLAYER
 10
695.3976351905
 20
1737.1301021779
 11
695.3976351905
 21
1736.1301021779
  0
LINE
  5
298
100
AcDbEntity
  8
0
100
AcDbLine
 62
7
  6
BYLAYER
 10
696.3973944533
 20
154.6299920394
 11
696.3973944533
 21
156.6299920394
  0
LINE
  5
299
100
AcDbEntity
  8
0
100
AcDbLine
 62
7
  6
BYLAYER
 10
696.3976351905
 20
1736.1301021779
 11
696.3976351905
 21
1738.1301021779
  0
LINE
  5
29A
100
AcDbEntity
  8
3
100
AcDbLine
 62
7
  6
BYLAYER
 10
642.1559743755
 20
921.7624181409
 11
687.1559743755
 21
921.7624181409
  0
LINE
  5
29B
100
AcDbEntity
  8
3
100
AcDbLine
 62
7
  6
BYLAYER
 10
682.8192596916
 20
925.4099181409
 11
684.0638589534
 21
925.4099181409
  0
LINE
  5
29C
100
AcDbEntity
  8
3
100
AcDbLine
 62
7
  6
BYLAYER
 10
687.1559743755
 20
926.7624181409
 11
684.1559743755
 21
926.7624181409
  0
LINE
  5
29D
100
AcDbEntity
  8
3
100
AcDbLine
 62
7
  6
BYLAYER
 10
682.7157747577
 20
927.0858809605
 11
679.7157747577
 21
927.0858809605
  0
LINE
  5
29E
100
AcDbEntity
  8
3
100
AcDbLine
 62
7
  6
BYLAYER
 10
645.3559743755
 20
928.5124181409
 11
658.8559743755
 21
928.5124181409
  0
LINE
  5
29F
100
AcDbEntity
  8
3
100
AcDbLine
 62
7
  6
BYLAYER
 10
675.4453193502
 20
928.7624181409
 11
679.7157747577
 21
928.7624181409
  0
LINE
  5
2A0
100
AcDbEntity
  8
3
100
AcDbLine
 62
7
  6
BYLAYER
 10
682.7157747577
 20
928.7624181409
 11
682.8192596916
 21
928.7624181409
  0
LINE
  5
2A1
100
AcDbEntity
  8
3
100
AcDbLine
 62
7
  6
BYLAYER
 10
684.0638589534
 20
928.7624181409
 11
684.1559743755
 21
928.7624181409
  0
LINE
  5
2A2
100
AcDbEntity
  8
3
100
AcDbLine
 62
7
  6
BYLAYER
 10
687.1559743755
 20
928.7624181409
 11
687.3978759277
 21
928.7624181409
  0
LINE
  5
2A3
100
AcDbEntity
  8
3
100
AcDbLine
 62
7
  6
BYLAYER
 10
682.7157747577
 20
931.7624181409
 11
679.7157747577
 21
931.7624181409
  0
LINE
  5
2A4
100
AcDbEntity
  8
3
100
AcDbLine
 62
7
  6
BYLAYER
 10
675.4453193502
 20
934.7624181409
 11
679.7157747577
 21
934.7624181409
  0
LINE
  5
2A5
100
AcDbEntity
  8
3
100
AcDbLine
 62
7
  6
BYLAYER
 10
682.7157747577
 20
934.7624181409
 11
682.8192596916
 21
934.7624181409
  0
LINE
  5
2A6
100
AcDbEntity
  8
3
100
AcDbLine
 62
7
  6
BYLAYER
 10
684.0638589534
 20
934.7624181409
 11
684.1559743755
 21
934.7624181409
  0
LINE
  5
2A7
100
AcDbEntity
  8
3
100
AcDbLine
 62
7
  6
BYLAYER
 10
687.1559743755
 20
934.7624181409
 11
687.3978759277
 21
934.7624181409
  0
LINE
  5
2A8
100
AcDbEntity
  8
3
100
AcDbLine
 62
7
  6
BYLAYER
 10
658.8559743755
 20
935.0124181409
 11
645.3559743755
 21
935.0124181409
  0
LINE
  5
2A9
100
AcDbEntity
  8
3
100
AcDbLine
 62
7
  6
BYLAYER
 10
682.7157747577
 20
936.4389553214
 11
679.7157747577
 21
936.4389553214
  0
LINE
  5
2AA
100
AcDbEntity
  8
3
100
AcDbLine
 62
7
  6
BYLAYER
 10
684.0638589534
 20
938.1149181409
 11
682.8192596916
 21
938.1149181409
  0
LINE
  5
2AB
100
AcDbEntity
  8
3
100
AcDbLine
 62
7
  6
BYLAYER
 10
682.8192596916
 20
955.4099181409
 11
684.0638589534
 21
955.4099181409
  0
LINE
  5
2AC
100
AcDbEntity
  8
3
100
AcDbLine
 62
7
  6
BYLAYER
 10
682.7157747577
 20
957.0858809605
 11
679.7157747577
 21
957.0858809605
  0
LINE
  5
2AD
100
AcDbEntity
  8
3
100
AcDbLine
 62
7
  6
BYLAYER
 10
645.3559743755
 20
958.5124181409
 11
658.8559743755
 21
958.5124181409
  0
LINE
  5
2AE
100
AcDbEntity
  8
0
100
AcDbLine
 62
7
  6
BYLAYER
 10
698.7738951905
 20
1745.8301021779
 11
698.7738951905
 21
1744.6301021779
  0
LINE
  5
2AF
100
AcDbEntity
  8
0
100
AcDbLine
 62
7
  6
BYLAYER
 10
707.0238951905
 20
1745.8301021779
 11
707.0238951905
 21
1744.6301021779
  0
LINE
  5
2B0
100
AcDbEntity
  8
0
100
AcDbLine
 62
7
  6
BYLAYER
 10
710.3973944533
 20
172.1299920394
 11
710.3973944533
 21
155.6299920394
  0
LINE
  5
2B1
100
AcDbEntity
  8
0
100
AcDbLine
 62
7
  6
BYLAYER
 10
710.3976351905
 20
1737.1301021779
 11
710.3976351905
 21
1720.6301021779
  0
LINE
  5
2B2
100
AcDbEntity
  8
3
100
AcDbLine
 62
7
  6
BYLAYER
 10
710.3978932426
 20
1720.6301149864
 11
710.3978932426
 21
172.1301149864
  0
LINE
  5
2B3
100
AcDbEntity
  8
0
100
AcDbLine
 62
7
  6
BYLAYER
 10
710.6476351905
 20
1738.1301021779
 11
710.6476351905
 21
1744.1301021779
  0
LINE
  5
2B4
100
AcDbEntity
  8
0
100
AcDbLine
 62
7
  6
BYLAYER
 10
710.8973944533
 20
155.6299920395
 11
710.8973944533
 21
172.1299920394
  0
LINE
  5
2B5
100
AcDbEntity
  8
0
100
AcDbLine
 62
7
  6
BYLAYER
 10
710.8976351905
 20
1720.6301021779
 11
710.8976351905
 21
1737.1301021779
  0
LINE
  5
2B6
100
AcDbEntity
  8
3
100
AcDbLine
 62
7
  6
BYLAYER
 10
710.8978932426
 20
172.1301149864
 11
710.8978932426
 21
1720.6301149864
  0
LINE
  5
2B7
100
AcDbEntity
  8
0
100
AcDbLine
 62
7
  6
BYLAYER
 10
717.6476351905
 20
1738.1301021779
 11
717.6476351905
 21
1744.1301021779
  0
LINE
  5
2B8
100
AcDbEntity
  8
0
100
AcDbLine
 62
7
  6
BYLAYER
 10
718.8973944533
 20
172.1299920394
 11
718.8973944533
 21
155.6299920395
  0
LINE
  5
2B9
100
AcDbEntity
  8
0
100
AcDbLine
 62
7
  6
BYLAYER
 10
718.8976351905
 20
1737.1301021779
 11
718.8976351905
 21
1720.6301021779
  0
LINE
  5
2BA
100
AcDbEntity
  8
3
100
AcDbLine
 62
7
  6
BYLAYER
 10
718.8978932426
 20
1720.6301149864
 11
718.8978932426
 21
172.1301149864
  0
LINE
  5
2BB
100
AcDbEntity
  8
0
100
AcDbLine
 62
7
  6
BYLAYER
 10
719.3973944533
 20
155.6299920394
 11
719.3973944533
 21
172.1299920394
  0
LINE
  5
2BC
100
AcDbEntity
  8
0
100
AcDbLine
 62
7
  6
BYLAYER
 10
719.3976351905
 20
1720.6301021779
 11
719.3976351905
 21
1737.1301021779
  0
LINE
  5
2BD
100
AcDbEntity
  8
0
100
AcDbLine
 62
7
  6
BYLAYER
 10
719.3976351905
 20
1744.6301021779
 11
719.3976351905
 21
1748.1301012405
  0
LINE
  5
2BE
100
AcDbEntity
  8
3
100
AcDbLine
 62
7
  6
BYLAYER
 10
719.3978932426
 20
172.1301149864
 11
719.3978932426
 21
1720.6301149864
  0
LINE
  5
2BF
100
AcDbEntity
  8
0
100
AcDbLine
 62
7
  6
BYLAYER
 10
721.2732151905
 20
1745.8301021779
 11
721.2732151905
 21
1744.6301021779
  0
LINE
  5
2C0
100
AcDbEntity
  8
0
100
AcDbLine
 62
7
  6
BYLAYER
 10
727.3973944533
 20
156.6299920394
 11
727.3973944533
 21
154.6299920394
  0
LINE
  5
2C1
100
AcDbEntity
  8
0
100
AcDbLine
 62
7
  6
BYLAYER
 10
727.3976351905
 20
1738.1301021779
 11
727.3976351905
 21
1736.1301021779
  0
LINE
  5
2C2
100
AcDbEntity
  8
0
100
AcDbLine
 62
7
  6
BYLAYER
 10
728.3973944533
 20
155.6299920394
 11
728.3973944533
 21
156.6299920394
  0
LINE
  5
2C3
100
AcDbEntity
  8
0
100
AcDbLine
 62
7
  6
BYLAYER
 10
728.3976351905
 20
1736.1301021779
 11
728.3976351905
 21
1737.1301021779
  0
LINE
  5
2C4
100
AcDbEntity
  8
0
100
AcDbLine
 62
7
  6
BYLAYER
 10
728.5976351905
 20
1735.7317010546
 11
728.5976351905
 21
1737.2301021779
  0
LINE
  5
2C5
100
AcDbEntity
  8
0
100
AcDbLine
 62
7
  6
BYLAYER
 10
728.5978932426
 20
157.028891952
 11
728.5978932426
 21
155.5301021779
  0
LINE
  5
2C6
100
AcDbEntity
  8
0
100
AcDbLine
 62
7
  6
BYLAYER
 10
728.8973945262
 20
157.1299920394
 11
728.8973945262
 21
157.6299920394
  0
LINE
  5
2C7
100
AcDbEntity
  8
0
100
AcDbLine
 62
7
  6
BYLAYER
 10
728.897635258
 20
1735.1301021779
 11
728.897635258
 21
1735.6301021779
  0
LINE
  5
2C8
100
AcDbEntity
  8
0
100
AcDbLine
 62
7
  6
BYLAYER
 10
729.4633873886
 20
1744.6301021779
 11
729.4633873886
 21
1745.8301021779
  0
LINE
  5
2C9
100
AcDbEntity
  8
0
100
AcDbLine
 62
7
  6
BYLAYER
 10
731.3976351905
 20
1744.6301021779
 11
731.3976351905
 21
1748.1301012405
  0
LINE
  5
2CA
100
AcDbEntity
  8
0
100
AcDbLine
 62
7
  6
BYLAYER
 10
733.1476351905
 20
1738.2301021779
 11
733.1476351905
 21
1744.1301021779
  0
LINE
  5
2CB
100
AcDbEntity
  8
0
100
AcDbLine
 62
7
  6
BYLAYER
 10
733.9968450069
 20
172.1299920394
 11
733.9968450069
 21
157.1299920394
  0
LINE
  5
2CC
100
AcDbEntity
  8
0
100
AcDbLine
 62
7
  6
BYLAYER
 10
733.9970857441
 20
1735.6301021779
 11
733.9970857441
 21
1720.6301021779
  0
LINE
  5
2CD
100
AcDbEntity
  8
3
100
AcDbLine
 62
7
  6
BYLAYER
 10
733.9973437962
 20
1720.6301149864
 11
733.9973437962
 21
172.1301149864
  0
LINE
  5
2CE
100
AcDbEntity
  8
0
100
AcDbLine
 62
7
  6
BYLAYER
 10
735.1976351905
 20
1735.7317010546
 11
735.1976351905
 21
1737.2301021779
  0
LINE
  5
2CF
100
AcDbEntity
  8
0
100
AcDbLine
 62
7
  6
BYLAYER
 10
735.1978932426
 20
157.0278943736
 11
735.1978932426
 21
155.5301021779
  0
LINE
  5
2D0
100
AcDbEntity
  8
0
100
AcDbLine
 62
7
  6
BYLAYER
 10
735.3973944533
 20
156.6299920394
 11
735.3973944533
 21
155.6299920394
  0
LINE
  5
2D1
100
AcDbEntity
  8
0
100
AcDbLine
 62
7
  6
BYLAYER
 10
735.3976351905
 20
1737.1301021779
 11
735.3976351905
 21
1736.1301021779
  0
LINE
  5
2D2
100
AcDbEntity
  8
0
100
AcDbLine
 62
7
  6
BYLAYER
 10
736.7440562859
 20
157.6299920394
 11
736.7440562859
 21
172.1299920394
  0
LINE
  5
2D3
100
AcDbEntity
  8
0
100
AcDbLine
 62
7
  6
BYLAYER
 10
736.7442970231
 20
1720.6301021779
 11
736.7442970231
 21
1735.1301021779
  0
LINE
  5
2D4
100
AcDbEntity
  8
3
100
AcDbLine
 62
7
  6
BYLAYER
 10
736.7445550752
 20
172.1301149864
 11
736.7445550752
 21
1720.6301149864
  0
LINE
  5
2D5
100
AcDbEntity
  8
0
100
AcDbLine
 62
7
  6
BYLAYER
 10
737.3094761452
 20
155.6299920394
 11
737.3094761452
 21
157.6299920394
  0
LINE
  5
2D6
100
AcDbEntity
  8
0
100
AcDbLine
 62
7
  6
BYLAYER
 10
737.3097168824
 20
1735.1301021779
 11
737.3097168824
 21
1737.1301021779
  0
LINE
  5
2D7
100
AcDbEntity
  8
0
100
AcDbLine
 62
7
  6
BYLAYER
 10
740.9468367091
 20
172.1299920394
 11
740.9468367091
 21
155.6299920394
  0
LINE
  5
2D8
100
AcDbEntity
  8
0
100
AcDbLine
 62
7
  6
BYLAYER
 10
740.9470774463
 20
1737.1301021779
 11
740.9470774463
 21
1720.6301021779
  0
LINE
  5
2D9
100
AcDbEntity
  8
3
100
AcDbLine
 62
7
  6
BYLAYER
 10
740.9473354983
 20
1720.6301149864
 11
740.9473354983
 21
172.1301149864
  0
LINE
  5
2DA
100
AcDbEntity
  8
0
100
AcDbLine
 62
7
  6
BYLAYER
 10
742.3973944533
 20
155.6299920394
 11
742.3973944533
 21
172.1299920394
  0
LINE
  5
2DB
100
AcDbEntity
  8
0
100
AcDbLine
 62
7
  6
BYLAYER
 10
742.3976351905
 20
1720.6301021779
 11
742.3976351905
 21
1737.1301021779
  0
LINE
  5
2DC
100
AcDbEntity
  8
3
100
AcDbLine
 62
7
  6
BYLAYER
 10
742.3978932426
 20
1720.6301149864
 11
742.3978932426
 21
172.1301149864
  0
LINE
  5
2DD
100
AcDbEntity
  8
3
100
AcDbLine
 62
7
  6
BYLAYER
 10
675.4453193502
 20
958.7624181409
 11
679.7157747577
 21
958.7624181409
  0
LINE
  5
2DE
100
AcDbEntity
  8
3
100
AcDbLine
 62
7
  6
BYLAYER
 10
682.7157747577
 20
958.7624181409
 11
682.8192596916
 21
958.7624181409
  0
LINE
  5
2DF
100
AcDbEntity
  8
3
100
AcDbLine
 62
7
  6
BYLAYER
 10
684.0638589534
 20
958.7624181409
 11
684.1559743755
 21
958.7624181409
  0
LINE
  5
2E0
100
AcDbEntity
  8
3
100
AcDbLine
 62
7
  6
BYLAYER
 10
687.1559743755
 20
958.7624181409
 11
687.3978759277
 21
958.7624181409
  0
LINE
  5
2E1
100
AcDbEntity
  8
3
100
AcDbLine
 62
7
  6
BYLAYER
 10
682.7157747577
 20
961.7624181409
 11
679.7157747577
 21
961.7624181409
  0
LINE
  5
2E2
100
AcDbEntity
  8
3
100
AcDbLine
 62
7
  6
BYLAYER
 10
675.4453193502
 20
964.7624181409
 11
679.7157747577
 21
964.7624181409
  0
LINE
  5
2E3
100
AcDbEntity
  8
3
100
AcDbLine
 62
7
  6
BYLAYER
 10
682.7157747577
 20
964.7624181409
 11
682.8192596916
 21
964.7624181409
  0
LINE
  5
2E4
100
AcDbEntity
  8
3
100
AcDbLine
 62
7
  6
BYLAYER
 10
684.0638589534
 20
964.7624181409
 11
684.1559743755
 21
964.7624181409
  0
LINE
  5
2E5
100
AcDbEntity
  8
3
100
AcDbLine
 62
7
  6
BYLAYER
 10
687.1559743755
 20
964.7624181409
 11
687.3978759277
 21
964.7624181409
  0
LINE
  5
2E6
100
AcDbEntity
  8
3
100
AcDbLine
 62
7
  6
BYLAYER
 10
658.8559743755
 20
965.0124181409
 11
645.3559743755
 21
965.0124181409
  0
LINE
  5
2E7
100
AcDbEntity
  8
3
100
AcDbLine
 62
7
  6
BYLAYER
 10
682.7157747577
 20
966.4389553214
 11
679.7157747577
 21
966.4389553214
  0
LINE
  5
2E8
100
AcDbEntity
  8
3
100
AcDbLine
 62
7
  6
BYLAYER
 10
684.1559743755
 20
966.7624181409
 11
687.1559743755
 21
966.7624181409
  0
LINE
  5
2E9
100
AcDbEntity
  8
3
100
AcDbLine
 62
7
  6
BYLAYER
 10
684.0638589534
 20
968.1149181409
 11
682.8192596916
 21
968.1149181409
  0
LINE
  5
2EA
100
AcDbEntity
  8
3
100
AcDbLine
 62
7
  6
BYLAYER
 10
642.1559743755
 20
971.7624181409
 11
687.1559743755
 21
971.7624181409
  0
LINE
  5
2EB
100
AcDbEntity
  8
0
100
AcDbLine
 62
7
  6
BYLAYER
 10
710.1476351905
 20
1744.6301021779
 11
710.6476351905
 21
1744.1301021779
  0
LINE
  5
2EC
100
AcDbEntity
  8
0
100
AcDbLine
 62
7
  6
BYLAYER
 10
732.6476351905
 20
1744.6301021779
 11
733.1476351905
 21
1744.1301021779
  0
LINE
  5
2ED
100
AcDbEntity
  8
0
100
AcDbLine
 62
7
  6
BYLAYER
 10
730.8976357548
 20
1748.6301035923
 11
731.3976367385
 21
1748.1301027885
  0
LINE
  5
2EE
100
AcDbEntity
  8
3
100
AcDbLine
 62
7
  6
BYLAYER
 10
642.1559743755
 20
1645.813179762
 11
687.1559743755
 21
1645.813179762
  0
LINE
  5
2EF
100
AcDbEntity
  8
3
100
AcDbLine
 62
7
  6
BYLAYER
 10
682.8192596916
 20
1649.460679762
 11
684.0638589534
 21
1649.460679762
  0
LINE
  5
2F0
100
AcDbEntity
  8
3
100
AcDbLine
 62
7
  6
BYLAYER
 10
687.1559743755
 20
1650.813179762
 11
684.1559743755
 21
1650.813179762
  0
LINE
  5
2F1
100
AcDbEntity
  8
3
100
AcDbLine
 62
7
  6
BYLAYER
 10
682.7157747577
 20
1651.1366425816
 11
679.7157747577
 21
1651.1366425816
  0
LINE
  5
2F2
100
AcDbEntity
  8
3
100
AcDbLine
 62
7
  6
BYLAYER
 10
645.3559743755
 20
1652.563179762
 11
658.8559743755
 21
1652.563179762
  0
LINE
  5
2F3
100
AcDbEntity
  8
3
100
AcDbLine
 62
7
  6
BYLAYER
 10
675.4453193502
 20
1652.813179762
 11
679.7157747577
 21
1652.813179762
  0
LINE
  5
2F4
100
AcDbEntity
  8
3
100
AcDbLine
 62
7
  6
BYLAYER
 10
682.7157747577
 20
1652.813179762
 11
682.8192596916
 21
1652.813179762
  0
LINE
  5
2F5
100
AcDbEntity
  8
3
100
AcDbLine
 62
7
  6
BYLAYER
 10
684.0638589534
 20
1652.813179762
 11
684.1559743755
 21
1652.813179762
  0
LINE
  5
2F6
100
AcDbEntity
  8
3
100
AcDbLine
 62
7
  6
BYLAYER
 10
687.1559743755
 20
1652.813179762
 11
687.3978759277
 21
1652.813179762
  0
LINE
  5
2F7
100
AcDbEntity
  8
3
100
AcDbLine
 62
7
  6
BYLAYER
 10
682.7157747577
 20
1655.813179762
 11
679.7157747577
 21
1655.813179762
  0
LINE
  5
2F8
100
AcDbEntity
  8
3
100
AcDbLine
 62
7
  6
BYLAYER
 10
675.4453193502
 20
1658.813179762
 11
679.7157747577
 21
1658.813179762
  0
LINE
  5
2F9
100
AcDbEntity
  8
3
100
AcDbLine
 62
7
  6
BYLAYER
 10
682.7157747577
 20
1658.813179762
 11
682.8192596916
 21
1658.813179762
  0
LINE
  5
2FA
100
AcDbEntity
  8
3
100
AcDbLine
 62
7
  6
BYLAYER
 10
684.0638589534
 20
1658.813179762
 11
684.1559743755
 21
1658.813179762
  0
LINE
  5
2FB
100
AcDbEntity
  8
3
100
AcDbLine
 62
7
  6
BYLAYER
 10
687.1559743755
 20
1658.813179762
 11
687.3978759277
 21
1658.813179762
  0
LINE
  5
2FC
100
AcDbEntity
  8
3
100
AcDbLine
 62
7
  6
BYLAYER
 10
658.8559743755
 20
1659.063179762
 11
645.3559743755
 21
1659.063179762
  0
LINE
  5
2FD
100
AcDbEntity
  8
3
100
AcDbLine
 62
7
  6
BYLAYER
 10
682.7157747577
 20
1660.4897169424
 11
679.7157747577
 21
1660.4897169424
  0
LINE
  5
2FE
100
AcDbEntity
  8
3
100
AcDbLine
 62
7
  6
BYLAYER
 10
684.0638589534
 20
1662.165679762
 11
682.8192596916
 21
1662.165679762
  0
LINE
  5
2FF
100
AcDbEntity
  8
3
100
AcDbLine
 62
7
  6
BYLAYER
 10
682.8192596916
 20
1679.460679762
 11
684.0638589534
 21
1679.460679762
  0
LINE
  5
300
100
AcDbEntity
  8
3
100
AcDbLine
 62
7
  6
BYLAYER
 10
682.7157747577
 20
1681.1366425816
 11
679.7157747577
 21
1681.1366425816
  0
LINE
  5
301
100
AcDbEntity
  8
3
100
AcDbLine
 62
7
  6
BYLAYER
 10
645.3559743755
 20
1682.563179762
 11
658.8559743755
 21
1682.563179762
  0
LINE
  5
302
100
AcDbEntity
  8
3
100
AcDbLine
 62
7
  6
BYLAYER
 10
675.4453193502
 20
1682.813179762
 11
679.7157747577
 21
1682.813179762
  0
LINE
  5
303
100
AcDbEntity
  8
3
100
AcDbLine
 62
7
  6
BYLAYER
 10
682.7157747577
 20
1682.813179762
 11
682.8192596916
 21
1682.813179762
  0
LINE
  5
304
100
AcDbEntity
  8
3
100
AcDbLine
 62
7
  6
BYLAYER
 10
684.0638589534
 20
1682.813179762
 11
684.1559743755
 21
1682.813179762
  0
LINE
  5
305
100
AcDbEntity
  8
3
100
AcDbLine
 62
7
  6
BYLAYER
 10
687.1559743755
 20
1682.813179762
 11
687.3978759277
 21
1682.813179762
  0
LINE
  5
306
100
AcDbEntity
  8
3
100
AcDbLine
 62
7
  6
BYLAYER
 10
682.7157747577
 20
1685.813179762
 11
679.7157747577
 21
1685.813179762
  0
LINE
  5
307
100
AcDbEntity
  8
3
100
AcDbLine
 62
7
  6
BYLAYER
 10
675.4453193502
 20
1688.813179762
 11
679.7157747577
 21
1688.813179762
  0
LINE
  5
308
100
AcDbEntity
  8
3
100
AcDbLine
 62
7
  6
BYLAYER
 10
682.7157747577
 20
1688.813179762
 11
682.8192596916
 21
1688.813179762
  0
LINE
  5
309
100
AcDbEntity
  8
3
100
AcDbLine
 62
7
  6
BYLAYER
 10
684.0638589534
 20
1688.813179762
 11
684.1559743755
 21
1688.813179762
  0
LINE
  5
30A
100
AcDbEntity
  8
3
100
AcDbLine
 62
7
  6
BYLAYER
 10
687.1559743755
 20
1688.813179762
 11
687.3978759277
 21
1688.813179762
  0
LINE
  5
30B
100
AcDbEntity
  8
3
100
AcDbLine
 62
7
  6
BYLAYER
 10
658.8559743755
 20
1689.063179762
 11
645.3559743755
 21
1689.063179762
  0
LINE
  5
30C
100
AcDbEntity
  8
3
100
AcDbLine
 62
7
  6
BYLAYER
 10
682.7157747577
 20
1690.4897169424
 11
679.7157747577
 21
1690.4897169424
  0
LINE
  5
30D
100
AcDbEntity
  8
3
100
AcDbLine
 62
7
  6
BYLAYER
 10
684.1559743755
 20
1690.813179762
 11
687.1559743755
 21
1690.813179762
  0
LINE
  5
30E
100
AcDbEntity
  8
3
100
AcDbLine
 62
7
  6
BYLAYER
 10
684.0638589534
 20
1692.165679762
 11
682.8192596916
 21
1692.165679762
  0
LINE
  5
30F
100
AcDbEntity
  8
3
100
AcDbLine
 62
7
  6
BYLAYER
 10
642.1559743755
 20
1695.813179762
 11
687.1559743755
 21
1695.813179762
  0
LINE
  5
310
100
AcDbEntity
  8
0
100
AcDbLine
 62
7
  6
BYLAYER
 10
687.3976351905
 20
1720.6301021779
 11
742.3976351905
 21
1720.6301021779
  0
LINE
  5
311
100
AcDbEntity
  8
3
100
AcDbLine
 62
7
  6
BYLAYER
 10
687.3978759277
 20
1720.6301149864
 11
742.3978932426
 21
1720.6301149864
  0
LINE
  5
312
100
AcDbEntity
  8
0
100
AcDbLine
 62
7
  6
BYLAYER
 10
725.414037099
 20
1734.1301021779
 11
717.3976351905
 21
1734.1301021779
  0
LINE
  5
313
100
AcDbEntity
  8
0
100
AcDbLine
 62
7
  6
BYLAYER
 10
702.881233282
 20
1734.1301021779
 11
710.8976351905
 21
1734.1301021779
  0
LINE
  5
314
100
AcDbEntity
  8
0
100
AcDbLine
 62
7
  6
BYLAYER
 10
725.4138213954
 20
1734.1412964289
 11
717.5028442194
 21
1734.1412964289
  0
LINE
  5
315
100
AcDbEntity
  8
0
100
AcDbLine
 62
7
  6
BYLAYER
 10
702.8814491649
 20
1734.1413152608
 11
710.7923387059
 21
1734.1413152608
  0
LINE
  5
316
100
AcDbEntity
  8
0
100
AcDbLine
 62
7
  6
BYLAYER
 10
702.8810169928
 20
1735.1188463612
 11
711.0031298507
 21
1735.1188463612
  0
LINE
  5
317
100
AcDbEntity
  8
0
100
AcDbLine
 62
7
  6
BYLAYER
 10
725.4142528026
 20
1735.1189079269
 11
717.2924261617
 21
1735.1189079269
  0
LINE
  5
318
100
AcDbEntity
  8
0
100
AcDbLine
 62
7
  6
BYLAYER
 10
687.3976351905
 20
1735.1301021779
 11
694.8976351905
 21
1735.1301021779
  0
LINE
  5
319
100
AcDbEntity
  8
0
100
AcDbLine
 62
7
  6
BYLAYER
 10
728.8976351905
 20
1735.1301021779
 11
737.3097168824
 21
1735.1301021779
  0
LINE
  5
31A
100
AcDbEntity
  8
0
100
AcDbLine
 62
7
  6
BYLAYER
 10
687.8976351905
 20
1735.6301021779
 11
694.8976351905
 21
1735.6301021779
  0
LINE
  5
31B
100
AcDbEntity
  8
0
100
AcDbLine
 62
7
  6
BYLAYER
 10
728.8976351905
 20
1735.6301021779
 11
735.4473886841
 21
1735.6301021779
  0
LINE
  5
31C
100
AcDbEntity
  8
0
100
AcDbLine
 62
7
  6
BYLAYER
 10
735.80995042
 20
1736.1301021779
 11
735.1976351905
 21
1736.1301021779
  0
LINE
  5
31D
100
AcDbEntity
  8
0
100
AcDbLine
 62
7
  6
BYLAYER
 10
728.5976351905
 20
1736.1301021779
 11
727.3976351905
 21
1736.1301022351
  0
LINE
  5
31E
100
AcDbEntity
  8
0
100
AcDbLine
 62
7
  6
BYLAYER
 10
696.3976351905
 20
1736.1301022468
 11
695.1976351905
 21
1736.1301021779
  0
LINE
  5
31F
100
AcDbEntity
  8
0
100
AcDbLine
 62
7
  6
BYLAYER
 10
688.5976351905
 20
1736.1301021779
 11
687.3976351905
 21
1736.1301022469
  0
LINE
  5
320
100
AcDbEntity
  8
0
100
AcDbLine
 62
7
  6
BYLAYER
 10
687.3976351905
 20
1737.1301021779
 11
688.5976351905
 21
1737.1301021779
  0
LINE
  5
321
100
AcDbEntity
  8
0
100
AcDbLine
 62
7
  6
BYLAYER
 10
695.1976351905
 20
1737.1301021779
 11
710.8976351905
 21
1737.1301021713
  0
LINE
  5
322
100
AcDbEntity
  8
0
100
AcDbLine
 62
7
  6
BYLAYER
 10
718.8976351905
 20
1737.1301021779
 11
728.5976351905
 21
1737.1301021779
  0
LINE
  5
323
100
AcDbEntity
  8
0
100
AcDbLine
 62
7
  6
BYLAYER
 10
735.1976351905
 20
1737.1301021779
 11
742.3976351905
 21
1737.1301021779
  0
LINE
  5
324
100
AcDbEntity
  8
0
100
AcDbLine
 62
7
  6
BYLAYER
 10
688.5976351905
 20
1737.2301021779
 11
695.1976351905
 21
1737.2301021779
  0
LINE
  5
325
100
AcDbEntity
  8
0
100
AcDbLine
 62
7
  6
BYLAYER
 10
728.5976351905
 20
1737.2301021779
 11
735.1976351905
 21
1737.2301021779
  0
LINE
  5
326
100
AcDbEntity
  8
0
100
AcDbLine
 62
7
  6
BYLAYER
 10
710.7561870104
 20
1737.6301021779
 11
719.0381188447
 21
1737.6301021779
  0
LINE
  5
327
100
AcDbEntity
  8
0
100
AcDbLine
 62
7
  6
BYLAYER
 10
689.224429987
 20
1738.1301021779
 11
688.3976351905
 21
1738.1301021779
  0
LINE
  5
328
100
AcDbEntity
  8
0
100
AcDbLine
 62
7
  6
BYLAYER
 10
694.570840394
 20
1738.1301021779
 11
729.224429987
 21
1738.1301021779
  0
LINE
  5
329
100
AcDbEntity
  8
0
100
AcDbLine
 62
7
  6
BYLAYER
 10
734.570840394
 20
1738.1301021779
 11
741.3976351905
 21
1738.1301021779
  0
LINE
  5
32A
100
AcDbEntity
  8
0
100
AcDbLine
 62
7
  6
BYLAYER
 10
689.5977277896
 20
1738.2301021779
 11
694.1975510919
 21
1738.2301021779
  0
LINE
  5
32B
100
AcDbEntity
  8
0
100
AcDbLine
 62
7
  6
BYLAYER
 10
729.5977277896
 20
1738.2301021779
 11
734.1975510919
 21
1738.2301021779
  0
LINE
  5
32C
100
AcDbEntity
  8
0
100
AcDbLine
 62
7
  6
BYLAYER
 10
733.1475708937
 20
1739.6301021779
 11
717.6476994874
 21
1739.6301021779
  0
LINE
  5
32D
100
AcDbEntity
  8
0
100
AcDbLine
 62
7
  6
BYLAYER
 10
710.6475708937
 20
1739.6301021779
 11
695.1476994874
 21
1739.6301021779
  0
LINE
  5
32E
100
AcDbEntity
  8
0
100
AcDbLine
 62
7
  6
BYLAYER
 10
733.1476351905
 20
1742.6301021779
 11
717.6476351905
 21
1742.6301021779
  0
LINE
  5
32F
100
AcDbEntity
  8
0
100
AcDbLine
 62
7
  6
BYLAYER
 10
710.6476351905
 20
1742.6301021779
 11
695.1476351905
 21
1742.6301021779
  0
LINE
  5
330
100
AcDbEntity
  8
0
100
AcDbLine
 62
7
  6
BYLAYER
 10
695.1476351905
 20
1744.1301021779
 11
710.6476351905
 21
1744.1301021779
  0
LINE
  5
331
100
AcDbEntity
  8
0
100
AcDbLine
 62
7
  6
BYLAYER
 10
717.6476351905
 20
1744.1301021779
 11
733.1476351905
 21
1744.1301021779
  0
LINE
  5
332
100
AcDbEntity
  8
0
100
AcDbLine
 62
7
  6
BYLAYER
 10
695.6476351905
 20
1744.6301021779
 11
710.1476351905
 21
1744.6301021779
  0
LINE
  5
333
100
AcDbEntity
  8
0
100
AcDbLine
 62
7
  6
BYLAYER
 10
718.1476351905
 20
1744.6301021779
 11
732.6476351905
 21
1744.6301021779
  0
LINE
  5
334
100
AcDbEntity
  8
0
100
AcDbLine
 62
7
  6
BYLAYER
 10
698.7738951905
 20
1745.8301021779
 11
707.0238951905
 21
1745.8301021779
  0
LINE
  5
335
100
AcDbEntity
  8
0
100
AcDbLine
 62
7
  6
BYLAYER
 10
721.2732151905
 20
1745.8301021779
 11
729.4633873886
 21
1745.8301021779
  0
LINE
  5
336
100
AcDbEntity
  8
0
100
AcDbLine
 62
7
  6
BYLAYER
 10
699.0739826666
 20
1746.1301021779
 11
706.7239138077
 21
1746.1301021779
  0
LINE
  5
337
100
AcDbEntity
  8
0
100
AcDbLine
 62
7
  6
BYLAYER
 10
721.5732238548
 20
1746.1301021779
 11
729.1586098245
 21
1746.1301021779
  0
LINE
  5
338
100
AcDbEntity
  8
0
100
AcDbLine
 62
7
  6
BYLAYER
 10
719.3976351905
 20
1748.1301012405
 11
731.3976351905
 21
1748.1301012405
  0
LINE
  5
339
100
AcDbEntity
  8
0
100
AcDbLine
 62
7
  6
BYLAYER
 10
719.8976346263
 20
1748.6301021779
 11
730.8976357548
 21
1748.6301021779
  0
ARC
  5
33A
100
AcDbEntity
  8
3
100
AcDbCircle
 62
7
  6
BYLAYER
 10
642.1559743755
 20
926.7624181409
 40
5.0
100
AcDbArc
 50
180.0
 51
270.0
  0
ARC
  5
33B
100
AcDbEntity
  8
3
100
AcDbCircle
 62
7
  6
BYLAYER
 10
642.1559743755
 20
244.4782773012
 40
5.0
100
AcDbArc
 50
90.0
 51
180.0
  0
ARC
  5
33C
100
AcDbEntity
  8
3
100
AcDbCircle
 62
7
  6
BYLAYER
 10
642.1559743755
 20
204.4782773012
 40
5.0
100
AcDbArc
 50
180.0
 51
270.0
  0
ARC
  5
33D
100
AcDbEntity
  8
3
100
AcDbCircle
 62
7
  6
BYLAYER
 10
645.3559743755
 20
931.7624181409
 40
3.25
100
AcDbArc
 50
90.0
 51
270.0
  0
ARC
  5
33E
100
AcDbEntity
  8
3
100
AcDbCircle
 62
7
  6
BYLAYER
 10
658.8559743755
 20
931.7624181409
 40
3.25
100
AcDbArc
 50
270.0
 51
90.0
  0
ARC
  5
33F
100
AcDbEntity
  8
3
100
AcDbCircle
 62
7
  6
BYLAYER
 10
645.3559743755
 20
209.4782773012
 40
3.25
100
AcDbArc
 50
90.0
 51
270.0
  0
ARC
  5
340
100
AcDbEntity
  8
3
100
AcDbCircle
 62
7
  6
BYLAYER
 10
658.8559743755
 20
209.4782773012
 40
3.25
100
AcDbArc
 50
270.0
 51
90.0
  0
ARC
  5
341
100
AcDbEntity
  8
3
100
AcDbCircle
 62
7
  6
BYLAYER
 10
645.3559743755
 20
239.4782773012
 40
3.25
100
AcDbArc
 50
90.0
 51
270.0
  0
ARC
  5
342
100
AcDbEntity
  8
3
100
AcDbCircle
 62
7
  6
BYLAYER
 10
658.8559743755
 20
239.4782773012
 40
3.25
100
AcDbArc
 50
270.0
 51
90.0
  0
ARC
  5
343
100
AcDbEntity
  8
0
100
AcDbCircle
 62
7
  6
BYLAYER
 10
689.5978813694
 20
155.5301021779
 40
1.0
100
AcDbArc
 50
180.0
 51
270.0
  0
ARC
  5
344
100
AcDbEntity
  8
0
100
AcDbCircle
 62
7
  6
BYLAYER
 10
688.3973944533
 20
155.6299920394
 40
1.0
100
AcDbArc
 50
179.9999999999
 51
270.0
  0
ARC
  5
345
100
AcDbEntity
  8
0
100
AcDbCircle
 62
7
  6
BYLAYER
 10
687.8973944533
 20
157.6299920394
 40
0.5
100
AcDbArc
 50
180.0
 51
270.0
  0
ARC
  5
346
100
AcDbEntity
  8
3
100
AcDbCircle
 62
7
  6
BYLAYER
 10
642.1559743755
 20
966.7624181409
 40
5.0
100
AcDbArc
 50
90.0
 51
180.0
  0
ARC
  5
347
100
AcDbEntity
  8
3
100
AcDbCircle
 62
7
  6
BYLAYER
 10
645.3559743755
 20
961.7624181409
 40
3.25
100
AcDbArc
 50
90.0
 51
270.0
  0
ARC
  5
348
100
AcDbEntity
  8
3
100
AcDbCircle
 62
7
  6
BYLAYER
 10
658.8559743755
 20
961.7624181409
 40
3.25
100
AcDbArc
 50
270.0
 51
90.0
  0
ARC
  5
349
100
AcDbEntity
  8
3
100
AcDbCircle
 62
7
  6
BYLAYER
 10
642.1559743755
 20
1690.813179762
 40
5.0
100
AcDbArc
 50
90.0
 51
180.0
  0
ARC
  5
34A
100
AcDbEntity
  8
3
100
AcDbCircle
 62
7
  6
BYLAYER
 10
642.1559743755
 20
1650.813179762
 40
5.0
100
AcDbArc
 50
180.0
 51
270.0
  0
ARC
  5
34B
100
AcDbEntity
  8
3
100
AcDbCircle
 62
7
  6
BYLAYER
 10
645.3559743755
 20
1655.813179762
 40
3.25
100
AcDbArc
 50
90.0
 51
270.0
  0
ARC
  5
34C
100
AcDbEntity
  8
3
100
AcDbCircle
 62
7
  6
BYLAYER
 10
658.8559743755
 20
1655.813179762
 40
3.25
100
AcDbArc
 50
270.0
 51
90.0
  0
ARC
  5
34D
100
AcDbEntity
  8
3
100
AcDbCircle
 62
7
  6
BYLAYER
 10
645.3559743755
 20
1685.813179762
 40
3.25
100
AcDbArc
 50
90.0
 51
270.0
  0
ARC
  5
34E
100
AcDbEntity
  8
3
100
AcDbCircle
 62
7
  6
BYLAYER
 10
658.8559743755
 20
1685.813179762
 40
3.25
100
AcDbArc
 50
270.0
 51
90.0
  0
ARC
  5
34F
100
AcDbEntity
  8
0
100
AcDbCircle
 62
7
  6
BYLAYER
 10
689.5976351905
 20
1737.2301021779
 40
1.0
100
AcDbArc
 50
90.0
 51
180.0
  0
ARC
  5
350
100
AcDbEntity
  8
0
100
AcDbCircle
 62
7
  6
BYLAYER
 10
688.3976351905
 20
1737.1301021779
 40
1.0
100
AcDbArc
 50
90.0
 51
180.0
  0
ARC
  5
351
100
AcDbEntity
  8
0
100
AcDbCircle
 62
7
  6
BYLAYER
 10
687.8976351905
 20
1735.1301021779
 40
0.5
100
AcDbArc
 50
90.0
 51
180.0
  0
ARC
  5
352
100
AcDbEntity
  8
0
100
AcDbCircle
 62
7
  6
BYLAYER
 10
715.1241970898
 20
143.055463385
 40
25.9492032968
100
AcDbArc
 50
33.0803197529
 51
33.6236390983
  0
ARC
  5
353
100
AcDbEntity
  8
0
100
AcDbCircle
 62
7
  6
BYLAYER
 10
694.1978813694
 20
155.5301021779
 40
1.0
100
AcDbArc
 50
270.0
 51
360.0
  0
ARC
  5
354
100
AcDbEntity
  8
0
100
AcDbCircle
 62
7
  6
BYLAYER
 10
709.8973944533
 20
155.6299920394
 40
1.0
100
AcDbArc
 50
270.0
 51
360.0
  0
ARC
  5
355
100
AcDbEntity
  8
0
100
AcDbCircle
 62
7
  6
BYLAYER
 10
696.3973944533
 20
155.6299920394
 40
1.0
100
AcDbArc
 50
180.0
 51
270.0
  0
ARC
  5
356
100
AcDbEntity
  8
0
100
AcDbCircle
 62
7
  6
BYLAYER
 10
694.8973944533
 20
156.6299920394
 40
0.5
100
AcDbArc
 50
0.0
 51
90.0
  0
ARC
  5
357
100
AcDbEntity
  8
0
100
AcDbCircle
 62
7
  6
BYLAYER
 10
729.5978932426
 20
155.5301021779
 40
1.0
100
AcDbArc
 50
180.0
 51
270.0
  0
ARC
  5
358
100
AcDbEntity
  8
0
100
AcDbCircle
 62
7
  6
BYLAYER
 10
734.1978932426
 20
155.5301021779
 40
1.0
100
AcDbArc
 50
270.0
 51
360.0
  0
ARC
  5
359
100
AcDbEntity
  8
0
100
AcDbCircle
 62
7
  6
BYLAYER
 10
719.8973944533
 20
155.6299920394
 40
1.0
100
AcDbArc
 50
179.9999999984
 51
270.0
  0
ARC
  5
35A
100
AcDbEntity
  8
0
100
AcDbCircle
 62
7
  6
BYLAYER
 10
727.3973944533
 20
155.6299920394
 40
1.0
100
AcDbArc
 50
270.0
 51
360.0
  0
ARC
  5
35B
100
AcDbEntity
  8
0
100
AcDbCircle
 62
7
  6
BYLAYER
 10
736.3973944533
 20
155.6299920394
 40
1.0
100
AcDbArc
 50
180.0
 51
270.0
  0
ARC
  5
35C
100
AcDbEntity
  8
0
100
AcDbCircle
 62
7
  6
BYLAYER
 10
741.3973944533
 20
155.6299920394
 40
1.0
100
AcDbArc
 50
270.0000000017
 51
360.0
  0
ARC
  5
35D
100
AcDbEntity
  8
0
100
AcDbCircle
 62
7
  6
BYLAYER
 10
728.8973944533
 20
156.6299920394
 40
0.5
100
AcDbArc
 50
90.0
 51
180.0
  0
ARC
  5
35E
100
AcDbEntity
  8
0
100
AcDbCircle
 62
7
  6
BYLAYER
 10
734.8973944533
 20
156.6299920394
 40
0.5
100
AcDbArc
 50
0.0
 51
90.0
  0
ARC
  5
35F
100
AcDbEntity
  8
0
100
AcDbCircle
 62
7
  6
BYLAYER
 10
694.1976351905
 20
1737.2301021779
 40
1.0
100
AcDbArc
 50
0.0
 51
90.0
  0
ARC
  5
360
100
AcDbEntity
  8
0
100
AcDbCircle
 62
7
  6
BYLAYER
 10
696.3976351905
 20
1737.1301021779
 40
1.0
100
AcDbArc
 50
90.0
 51
180.0
  0
ARC
  5
361
100
AcDbEntity
  8
0
100
AcDbCircle
 62
7
  6
BYLAYER
 10
709.8976351905
 20
1737.1301021779
 40
1.0
100
AcDbArc
 50
0.0
 51
90.0
  0
ARC
  5
362
100
AcDbEntity
  8
0
100
AcDbCircle
 62
7
  6
BYLAYER
 10
694.8976351905
 20
1736.1301021779
 40
0.5
100
AcDbArc
 50
270.0
 51
360.0
  0
ARC
  5
363
100
AcDbEntity
  8
0
100
AcDbCircle
 62
7
  6
BYLAYER
 10
717.3976351905
 20
1734.6301021779
 40
0.5
100
AcDbArc
 50
102.1468526143
 51
282.1468526144
  0
ARC
  5
364
100
AcDbEntity
  8
0
100
AcDbCircle
 62
7
  6
BYLAYER
 10
710.8976351905
 20
1734.6301021779
 40
0.5
100
AcDbArc
 50
257.8196647597
 51
77.8196647598
  0
ARC
  5
365
100
AcDbEntity
  8
0
100
AcDbCircle
 62
7
  6
BYLAYER
 10
713.6706471053
 20
1750.6614819541
 40
27.6896077662
100
AcDbArc
 50
326.3934359332
 51
326.9026052157
  0
ARC
  5
366
100
AcDbEntity
  8
0
100
AcDbCircle
 62
7
  6
BYLAYER
 10
699.0738951905
 20
1745.8301021779
 40
0.3
100
AcDbArc
 50
90.0
 51
180.0
  0
ARC
  5
367
100
AcDbEntity
  8
0
100
AcDbCircle
 62
7
  6
BYLAYER
 10
706.7238951905
 20
1745.8301021779
 40
0.3
100
AcDbArc
 50
0.0
 51
90.0
  0
ARC
  5
368
100
AcDbEntity
  8
0
100
AcDbCircle
 62
7
  6
BYLAYER
 10
729.5976351905
 20
1737.2301021779
 40
1.0
100
AcDbArc
 50
90.0
 51
180.0
  0
ARC
  5
369
100
AcDbEntity
  8
0
100
AcDbCircle
 62
7
  6
BYLAYER
 10
734.1976351905
 20
1737.2301021779
 40
1.0
100
AcDbArc
 50
0.0
 51
90.0
  0
ARC
  5
36A
100
AcDbEntity
  8
0
100
AcDbCircle
 62
7
  6
BYLAYER
 10
719.8976351905
 20
1737.1301021779
 40
1.0
100
AcDbArc
 50
90.0
 51
180.0000000008
  0
ARC
  5
36B
100
AcDbEntity
  8
0
100
AcDbCircle
 62
7
  6
BYLAYER
 10
741.3976351905
 20
1737.1301021779
 40
1.0
100
AcDbArc
 50
0.0000000002
 51
90.0000000009
  0
ARC
  5
36C
100
AcDbEntity
  8
0
100
AcDbCircle
 62
7
  6
BYLAYER
 10
727.3976351905
 20
1737.1301021779
 40
1.0
100
AcDbArc
 50
0.0
 51
90.0
  0
ARC
  5
36D
100
AcDbEntity
  8
0
100
AcDbCircle
 62
7
  6
BYLAYER
 10
736.3976351905
 20
1737.1301021779
 40
1.0
100
AcDbArc
 50
90.0000000003
 51
180.0
  0
ARC
  5
36E
100
AcDbEntity
  8
0
100
AcDbCircle
 62
7
  6
BYLAYER
 10
734.8976351905
 20
1736.1301021779
 40
0.5
100
AcDbArc
 50
270.0
 51
360.0
  0
ARC
  5
36F
100
AcDbEntity
  8
0
100
AcDbCircle
 62
7
  6
BYLAYER
 10
728.8976351905
 20
1736.1301021779
 40
0.5
100
AcDbArc
 50
180.0
 51
270.0
  0
ARC
  5
370
100
AcDbEntity
  8
0
100
AcDbCircle
 62
7
  6
BYLAYER
 10
729.1604798053
 20
1745.8253320939
 40
0.3044707676
100
AcDbArc
 50
36.4827958944
 51
54.515061929
  0
ARC
  5
371
100
AcDbEntity
  8
0
100
AcDbCircle
 62
7
  6
BYLAYER
 10
721.5732151905
 20
1745.8301021779
 40
0.3
100
AcDbArc
 50
90.0
 51
180.0
  0
SPLINE
  5
372
100
AcDbEntity
  8
0
100
AcDbSpline
 62
7
  6
BYLAYER
 70
0
 71
3
 72
8
 73
4
 74
0
 42
0.0000001
 43
0.0000001
 44
0.0000000001
 40
0.0
 40
0.0
 40
0.0
 40
0.0
 40
1.0
 40
1.0
 40
1.0
 40
1.0
 10
729.4633873886
 20
1745.8301021779
 30
0.0
 10
729.4633873886
 20
1745.8919661593
 30
0.0
 10
729.4420016507
 20
1745.9565747225
 30
0.0
 10
729.4052850901
 20
1746.0063647453
 30
0.0
  0
SPLINE
  5
373
100
AcDbEntity
  8
0
100
AcDbSpline
 62
7
  6
BYLAYER
 70
0
 71
3
 72
8
 73
4
 74
0
 42
0.0000001
 43
0.0000001
 44
0.0000000001
 40
0.0
 40
0.0
 40
0.0
 40
0.0
 40
1.0
 40
1.0
 40
1.0
 40
1.0
 10
729.3372217126
 20
1746.0732529412
 30
0.0
 10
729.2863230641
 20
1746.109489733
 30
0.0
 10
729.2210901668
 20
1746.1301036838
 30
0.0
 10
729.1586099499
 20
1746.1301021779
 30
0.0
  0
SPLINE
  5
374
100
AcDbEntity
  8
0
100
AcDbSpline
 62
7
  6
BYLAYER
 70
0
 71
3
 72
15
 73
11
 74
0
 42
0.0000001
 43
0.0000001
 44
0.0000000001
 40
0.0
 40
0.0
 40
0.0
 40
0.0
 40
0.2636784782
 40
0.5741051372
 40
0.7239517191
 40
0.8562958621
 40
0.9120219732
 40
0.9572544159
 40
0.9883481867
 40
1.0
 40
1.0
 40
1.0
 40
1.0
 10
688.3976352022
 20
1736.1301021779
 30
0.0
 10
688.3976350473
 20
1736.0668081632
 30
0.0
 10
688.3033180945
 20
1735.9445135523
 30
0.0
 10
688.1763342115
 20
1735.8343118566
 30
0.0
 10
688.0649057631
 20
1735.7446448807
 30
0.0
 10
687.9998864199
 20
1735.6962705986
 30
0.0
 10
687.9541431775
 20
1735.6640064352
 30
0.0
 10
687.9268463384
 20
1735.6475959859
 30
0.0
 10
687.91008986
 20
1735.6351272658
 30
0.0
 10
687.8993731987
 20
1735.6322935661
 30
0.0
 10
687.8976351988
 20
1735.6301021808
 30
0.0
  0
SPLINE
  5
375
100
AcDbEntity
  8
0
100
AcDbSpline
 62
7
  6
BYLAYER
 70
0
 71
3
 72
11
 73
7
 74
0
 42
0.0000001
 43
0.0000001
 44
0.0000000001
 40
0.0
 40
0.0
 40
0.0
 40
0.0
 40
0.3404385698
 40
0.6266185405
 40
0.8401374976
 40
1.0
 40
1.0
 40
1.0
 40
1.0
 10
710.3976337673
 20
1737.1301021779
 30
0.0
 10
710.3976337669
 20
1737.2667031961
 30
0.0
 10
710.372772253
 20
1737.5193509861
 30
0.0
 10
710.2650226828
 20
1737.8416143141
 30
0.0
 10
710.1105424178
 20
1738.0645190233
 30
0.0
 10
709.9617770969
 20
1738.1300876846
 30
0.0
 10
709.8976322497
 20
1738.1301021784
 30
0.0
  0
SPLINE
  5
376
100
AcDbEntity
  8
0
100
AcDbSpline
 62
7
  6
BYLAYER
 70
0
 71
3
 72
11
 73
7
 74
0
 42
0.0000001
 43
0.0000001
 44
0.0000000001
 40
0.0
 40
0.0
 40
0.0
 40
0.0
 40
0.2478324097
 40
0.4979557222
 40
0.7486362922
 40
1.0
 40
1.0
 40
1.0
 40
1.0
 10
727.3976351905
 20
1736.1301021779
 30
0.0
 10
727.3976354588
 20
1735.965980758
 30
0.0
 10
727.529795007
 20
1735.6359021001
 30
0.0
 10
727.9173120116
 20
1735.3093736956
 30
0.0
 10
728.3958782573
 20
1735.1366279667
 30
0.0
 10
728.7311752482
 20
1735.1301021702
 30
0.0
 10
728.8976351905
 20
1735.1301021779
 30
0.0
  0
SPLINE
  5
377
100
AcDbEntity
  8
0
100
AcDbSpline
 62
7
  6
BYLAYER
 70
0
 71
3
 72
12
 73
8
 74
0
 42
0.0000001
 43
0.0000001
 44
0.0000000001
 40
0.0
 40
0.0
 40
0.0
 40
0.0
 40
0.1204115357
 40
0.2167519688
 40
0.3384069038
 40
0.6443218671
 40
1.0
 40
1.0
 40
1.0
 40
1.0
 10
740.6723563184
 20
1738.1301021779
 30
0.0
 10
740.7156218718
 20
1738.1301021779
 30
0.0
 10
740.7805083067
 20
1738.0614862653
 30
0.0
 10
740.8301007902
 20
1737.9549676898
 30
0.0
 10
740.8893282871
 20
1737.7739025268
 30
0.0
 10
740.9344827667
 20
1737.4959870914
 30
0.0
 10
740.9470774463
 20
1737.2579023189
 30
0.0
 10
740.9470774463
 20
1737.1301021779
 30
0.0
  0
SPLINE
  5
378
100
AcDbEntity
  8
0
100
AcDbSpline
 62
7
  6
BYLAYER
 70
0
 71
3
 72
8
 73
4
 74
0
 42
0.0000001
 43
0.0000001
 44
0.0000000001
 40
0.0
 40
0.0
 40
0.0
 40
0.0
 40
1.0
 40
1.0
 40
1.0
 40
1.0
 10
737.3097168824
 20
1735.1301021779
 30
0.0
 10
737.1179155597
 20
1735.2006059672
 30
0.0
 10
736.925640788
 20
1735.2699078192
 30
0.0
 10
736.7321539143
 20
1735.3356448819
 30
0.0
  0
SPLINE
  5
379
100
AcDbEntity
  8
0
100
AcDbSpline
 62
7
  6
BYLAYER
 70
0
 71
3
 72
8
 73
4
 74
0
 42
0.0000001
 43
0.0000001
 44
0.0000000001
 40
0.0
 40
0.0
 40
0.0
 40
0.0
 40
1.0
 40
1.0
 40
1.0
 40
1.0
 10
736.8674374186
 20
1735.5411876939
 30
0.0
 10
737.019323452
 20
1735.4091194796
 30
0.0
 10
737.1660030966
 20
1735.2710196373
 30
0.0
 10
737.3097169767
 20
1735.130102282
 30
0.0
  0
SPLINE
  5
37A
100
AcDbEntity
  8
0
100
AcDbSpline
 62
7
  6
BYLAYER
 70
0
 71
3
 72
10
 73
6
 74
0
 42
0.0000001
 43
0.0000001
 44
0.0000000001
 40
0.0
 40
0.0
 40
0.0
 40
0.0
 40
0.2114258548
 40
0.4596612947
 40
1.0
 40
1.0
 40
1.0
 40
1.0
 10
735.80995042
 20
1736.1301021779
 30
0.0
 10
735.8963514231
 20
1736.1301015914
 30
0.0
 10
736.0816455306
 20
1736.0743472166
 30
0.0
 10
736.4405857863
 20
1735.8809655123
 30
0.0
 10
736.7007915803
 20
1735.686060133
 30
0.0
 10
736.8674373248
 20
1735.541187586
 30
0.0
  0
SPLINE
  5
37B
100
AcDbEntity
  8
0
100
AcDbSpline
 62
7
  6
BYLAYER
 70
0
 71
3
 72
10
 73
6
 74
0
 42
0.0000001
 43
0.0000001
 44
0.0000000001
 40
0.0
 40
0.0
 40
0.0
 40
0.0
 40
0.5192781373
 40
0.7706703291
 40
1.0
 40
1.0
 40
1.0
 40
1.0
 10
736.7321539737
 20
1735.3356450876
 30
0.0
 10
736.5164396939
 20
1735.4121482759
 30
0.0
 10
736.1906360585
 20
1735.5111912636
 30
0.0
 10
735.7600441781
 20
1735.6050871692
 30
0.0
 10
735.5484687873
 20
1735.6301019404
 30
0.0
 10
735.4473887733
 20
1735.6301021779
 30
0.0
  0
SPLINE
  5
37C
100
AcDbEntity
  8
0
100
AcDbSpline
 62
7
  6
BYLAYER
 70
0
 71
3
 72
9
 73
5
 74
0
 42
0.0000001
 43
0.0000001
 44
0.0000000001
 40
0.0
 40
0.0
 40
0.0
 40
0.0
 40
0.7591341819
 40
1.0
 40
1.0
 40
1.0
 40
1.0
 10
736.7442970231
 20
1735.1301021779
 30
0.0
 10
736.7442970231
 20
1735.1822228994
 30
0.0
 10
736.7414261006
 20
1735.2509498754
 30
0.0
 10
736.7341871184
 20
1735.319232952
 30
0.0
 10
736.7321539143
 20
1735.3356448819
 30
0.0
  0
SPLINE
  5
37D
100
AcDbEntity
  8
0
100
AcDbSpline
 62
7
  6
BYLAYER
 70
0
 71
3
 72
12
 73
8
 74
0
 42
0.0000001
 43
0.0000001
 44
0.0000000001
 40
0.0
 40
0.0
 40
0.0
 40
0.0
 40
0.3555601317
 40
0.6614267398
 40
0.7831217149
 40
0.8795320322
 40
1.0
 40
1.0
 40
1.0
 40
1.0
 10
737.3097168824
 20
1737.1301021779
 30
0.0
 10
737.3097168824
 20
1737.2578594593
 30
0.0
 10
737.2971303527
 20
1737.4958839577
 30
0.0
 10
737.2519974366
 20
1737.7737535811
 30
0.0
 10
737.1927883187
 20
1737.954848756
 30
0.0
 10
737.14319184
 20
1738.0614240598
 30
0.0
 10
737.0782814288
 20
1738.1301021779
 30
0.0
 10
737.0349957545
 20
1738.1301021779
 30
0.0
  0
SPLINE
  5
37E
100
AcDbEntity
  8
0
100
AcDbSpline
 62
7
  6
BYLAYER
 70
0
 71
3
 72
11
 73
7
 74
0
 42
0.0000001
 43
0.0000001
 44
0.0000000001
 40
0.0
 40
0.0
 40
0.0
 40
0.0
 40
0.2742864213
 40
0.5514542927
 40
0.7962818329
 40
1.0
 40
1.0
 40
1.0
 40
1.0
 10
735.809950421
 20
1736.1301021779
 30
0.0
 10
735.8099504143
 20
1736.0681690245
 30
0.0
 10
735.7932567351
 20
1735.9429672612
 30
0.0
 10
735.7174989629
 20
1735.7763828667
 30
0.0
 10
735.5958716068
 20
1735.6587422129
 30
0.0
 10
735.4933878043
 20
1735.6301021776
 30
0.0
 10
735.4473887774
 20
1735.6301021779
 30
0.0
  0
SPLINE
  5
37F
100
AcDbEntity
  8
0
100
AcDbSpline
 62
7
  6
BYLAYER
 70
0
 71
3
 72
11
 73
7
 74
0
 42
0.0000001
 43
0.0000001
 44
0.0000000001
 40
0.0
 40
0.0
 40
0.0
 40
0.0
 40
0.1598605771
 40
0.3733762137
 40
0.6595504004
 40
1.0
 40
1.0
 40
1.0
 40
1.0
 10
719.8976372248
 20
1738.1301021783
 30
0.0
 10
719.8334931437
 20
1738.130089047
 30
0.0
 10
719.6847297341
 20
1738.0645199702
 30
0.0
 10
719.5302504199
 20
1737.8416212981
 30
0.0
 10
719.4224978106
 20
1737.5193575925
 30
0.0
 10
719.3976363763
 20
1737.266707635
 30
0.0
 10
719.3976357314
 20
1737.130102178
 30
0.0
  0
SPLINE
  5
380
100
AcDbEntity
  8
0
100
AcDbSpline
 62
7
  6
BYLAYER
 70
0
 71
3
 72
11
 73
7
 74
0
 42
0.0000001
 43
0.0000001
 44
0.0000000001
 40
0.0
 40
0.0
 40
0.0
 40
0.0
 40
0.2478327053
 40
0.4979558062
 40
0.7486361583
 40
1.0
 40
1.0
 40
1.0
 40
1.0
 10
696.3976351905
 20
1736.1301021779
 30
0.0
 10
696.397634755
 20
1735.9659805624
 30
0.0
 10
696.2654752768
 20
1735.6359018485
 30
0.0
 10
695.8779581637
 20
1735.3093736715
 30
0.0
 10
695.3993921734
 20
1735.1366279515
 30
0.0
 10
695.0640952213
 20
1735.1301021366
 30
0.0
 10
694.8976351905
 20
1735.1301021779
 30
0.0
  0
SPLINE
  5
381
100
AcDbEntity
  8
0
100
AcDbSpline
 62
7
  6
BYLAYER
 70
0
 71
3
 72
11
 73
7
 74
0
 42
0.0000001
 43
0.0000001
 44
0.0000000001
 40
0.0
 40
0.0
 40
0.0
 40
0.0
 40
0.3404385907
 40
0.6266185619
 40
0.8401375074
 40
1.0
 40
1.0
 40
1.0
 40
1.0
 10
719.3973957611
 20
155.6299920394
 30
0.0
 10
719.3973957615
 20
155.4933910107
 30
0.0
 10
719.4222572788
 20
155.2407432074
 30
0.0
 10
719.5300068574
 20
154.918479873
 30
0.0
 10
719.6844871295
 20
154.6955751699
 30
0.0
 10
719.8332524519
 20
154.6300065277
 30
0.0
 10
719.8973972962
 20
154.629992039
 30
0.0
  0
SPLINE
  5
382
100
AcDbEntity
  8
0
100
AcDbSpline
 62
7
  6
BYLAYER
 70
0
 71
3
 72
12
 73
8
 74
0
 42
0.0000001
 43
0.0000001
 44
0.0000000001
 40
0.0
 40
0.0
 40
0.0
 40
0.0
 40
0.1204115357
 40
0.2167519688
 40
0.3384069038
 40
0.6443218671
 40
1.0
 40
1.0
 40
1.0
 40
1.0
 10
737.0347550173
 20
154.6299920394
 30
0.0
 10
737.0780205707
 20
154.6299920394
 30
0.0
 10
737.1429070056
 20
154.6986079521
 30
0.0
 10
737.1924994891
 20
154.8051265276
 30
0.0
 10
737.251726986
 20
154.9861916906
 30
0.0
 10
737.2968814655
 20
155.264107126
 30
0.0
 10
737.3094761452
 20
155.5021918984
 30
0.0
 10
737.3094761452
 20
155.6299920394
 30
0.0
  0
SPLINE
  5
383
100
AcDbEntity
  8
0
100
AcDbSpline
 62
7
  6
BYLAYER
 70
0
 71
3
 72
15
 73
11
 74
0
 42
0.0000001
 43
0.0000001
 44
0.0000000001
 40
0.0
 40
0.0
 40
0.0
 40
0.0
 40
0.0116518133
 40
0.0427455841
 40
0.0879780268
 40
0.143704138
 40
0.2760482811
 40
0.4258948631
 40
0.7363215223
 40
1.0
 40
1.0
 40
1.0
 40
1.0
 10
687.8973944608
 20
157.1299920366
 30
0.0
 10
687.8991305581
 20
157.1277991437
 30
0.0
 10
687.9098515464
 20
157.1249688727
 30
0.0
 10
687.9266042884
 20
157.1124971919
 30
0.0
 10
687.9539029362
 20
157.0960881758
 30
0.0
 10
687.9996453093
 20
157.0638233236
 30
0.0
 10
688.0646651726
 20
157.0154494536
 30
0.0
 10
688.1760933796
 20
156.9257822864
 30
0.0
 10
688.3030773846
 20
156.8155806876
 30
0.0
 10
688.3973943084
 20
156.693286054
 30
0.0
 10
688.3973944633
 20
156.6299920394
 30
0.0
  0
SPLINE
  5
384
100
AcDbEntity
  8
0
100
AcDbSpline
 62
7
  6
BYLAYER
 70
0
 71
3
 72
11
 73
7
 74
0
 42
0.0000001
 43
0.0000001
 44
0.0000000001
 40
0.0
 40
0.0
 40
0.0
 40
0.0
 40
0.2478325037
 40
0.497955658
 40
0.7486362695
 40
1.0
 40
1.0
 40
1.0
 40
1.0
 10
696.3973944533
 20
156.6299920394
 30
0.0
 10
696.3973940177
 20
156.7941135217
 30
0.0
 10
696.2652346913
 20
157.1241921416
 30
0.0
 10
695.8777176008
 20
157.450720504
 30
0.0
 10
695.3991514527
 20
157.6234662413
 30
0.0
 10
695.0638544108
 20
157.6299920808
 30
0.0
 10
694.8973944533
 20
157.6299920394
 30
0.0
  0
SPLINE
  5
385
100
AcDbEntity
  8
0
100
AcDbSpline
 62
7
  6
BYLAYER
 70
0
 71
3
 72
11
 73
7
 74
0
 42
0.0000001
 43
0.0000001
 44
0.0000000001
 40
0.0
 40
0.0
 40
0.0
 40
0.0
 40
0.1598605678
 40
0.3733761936
 40
0.6595503807
 40
1.0
 40
1.0
 40
1.0
 40
1.0
 10
709.8973925115
 20
154.6299920391
 30
0.0
 10
709.9615365899
 20
154.6300051633
 30
0.0
 10
710.1103000009
 20
154.6955742258
 30
0.0
 10
710.2647793218
 20
154.9184728901
 30
0.0
 10
710.3725319389
 20
155.2407366026
 30
0.0
 10
710.3973933764
 20
155.4933865723
 30
0.0
 10
710.3973940214
 20
155.6299920394
 30
0.0
  0
SPLINE
  5
386
100
AcDbEntity
  8
0
100
AcDbSpline
 62
7
  6
BYLAYER
 70
0
 71
3
 72
11
 73
7
 74
0
 42
0.0000001
 43
0.0000001
 44
0.0000000001
 40
0.0
 40
0.0
 40
0.0
 40
0.0
 40
0.2478327053
 40
0.4979558062
 40
0.7486361583
 40
1.0
 40
1.0
 40
1.0
 40
1.0
 10
727.3973944533
 20
156.6299920394
 30
0.0
 10
727.397394889
 20
156.7941136549
 30
0.0
 10
727.5295543671
 20
157.1241923689
 30
0.0
 10
727.9170714802
 20
157.4507205458
 30
0.0
 10
728.3956374705
 20
157.6234662659
 30
0.0
 10
728.7309344225
 20
157.6299920808
 30
0.0
 10
728.8973944533
 20
157.6299920394
 30
0.0
  0
SPLINE
  5
387
100
AcDbEntity
  8
0
100
AcDbSpline
 62
7
  6
BYLAYER
 70
0
 71
3
 72
8
 73
4
 74
0
 42
0.0000001
 43
0.0000001
 44
0.0000000001
 40
0.0
 40
0.0
 40
0.0
 40
0.0
 40
1.0
 40
1.0
 40
1.0
 40
1.0
 10
737.3094762774
 20
157.6299918936
 30
0.0
 10
737.1657623589
 20
157.4890745769
 30
0.0
 10
737.0190827516
 20
157.3509746962
 30
0.0
 10
736.8671967191
 20
157.2189064802
 30
0.0
  0
SPLINE
  5
388
100
AcDbEntity
  8
0
100
AcDbSpline
 62
7
  6
BYLAYER
 70
0
 71
3
 72
8
 73
4
 74
0
 42
0.0000001
 43
0.0000001
 44
0.0000000001
 40
0.0
 40
0.0
 40
0.0
 40
0.0
 40
1.0
 40
1.0
 40
1.0
 40
1.0
 10
737.3094761452
 20
157.6299920394
 30
0.0
 10
737.1176748054
 20
157.5594882966
 30
0.0
 10
736.9254000543
 20
157.4901863878
 30
0.0
 10
736.7319131771
 20
157.4244493354
 30
0.0
  0
SPLINE
  5
389
100
AcDbEntity
  8
0
100
AcDbSpline
 62
7
  6
BYLAYER
 70
0
 71
3
 72
10
 73
6
 74
0
 42
0.0000001
 43
0.0000001
 44
0.0000000001
 40
0.0
 40
0.0
 40
0.0
 40
0.0
 40
0.211426268
 40
0.4596614222
 40
1.0
 40
1.0
 40
1.0
 40
1.0
 10
735.8097096622
 20
156.6299920394
 30
0.0
 10
735.8961108349
 20
156.6299926218
 30
0.0
 10
736.0814049839
 20
156.6857471135
 30
0.0
 10
736.4403452079
 20
156.8791288445
 30
0.0
 10
736.7005508941
 20
157.0740341021
 30
0.0
 10
736.8671965876
 20
157.2189066314
 30
0.0
  0
SPLINE
  5
38A
100
AcDbEntity
  8
0
100
AcDbSpline
 62
7
  6
BYLAYER
 70
0
 71
3
 72
11
 73
7
 74
0
 42
0.0000001
 43
0.0000001
 44
0.0000000001
 40
0.0
 40
0.0
 40
0.0
 40
0.0
 40
0.2037181708
 40
0.4485457117
 40
0.7257135813
 40
1.0
 40
1.0
 40
1.0
 40
1.0
 10
735.4471480221
 20
157.1299920394
 30
0.0
 10
735.49314705
 20
157.1299920398
 30
0.0
 10
735.5956308537
 20
157.1013520047
 30
0.0
 10
735.7172582105
 20
156.98371135
 30
0.0
 10
735.7930159809
 20
156.8171269552
 30
0.0
 10
735.8097096578
 20
156.6919251923
 30
0.0
 10
735.8097096633
 20
156.6299920394
 30
0.0
  0
SPLINE
  5
38B
100
AcDbEntity
  8
0
100
AcDbSpline
 62
7
  6
BYLAYER
 70
0
 71
3
 72
9
 73
5
 74
0
 42
0.0000001
 43
0.0000001
 44
0.0000000001
 40
0.0
 40
0.0
 40
0.0
 40
0.0
 40
0.2408658181
 40
1.0
 40
1.0
 40
1.0
 40
1.0
 10
736.7319131771
 20
157.4244493354
 30
0.0
 10
736.7339463812
 20
157.4408612654
 30
0.0
 10
736.7411853634
 20
157.5091443419
 30
0.0
 10
736.7440562859
 20
157.577871318
 30
0.0
 10
736.7440562859
 20
157.6299920394
 30
0.0
  0
SPLINE
  5
38C
100
AcDbEntity
  8
0
100
AcDbSpline
 62
7
  6
BYLAYER
 70
0
 71
3
 72
10
 73
6
 74
0
 42
0.0000001
 43
0.0000001
 44
0.0000000001
 40
0.0
 40
0.0
 40
0.0
 40
0.0
 40
0.2293296864
 40
0.4807218845
 40
1.0
 40
1.0
 40
1.0
 40
1.0
 10
735.4471480427
 20
157.1299920394
 30
0.0
 10
735.5482280631
 20
157.1299922759
 30
0.0
 10
735.7598034629
 20
157.155007047
 30
0.0
 10
736.1903953413
 20
157.2489029523
 30
0.0
 10
736.5161989709
 20
157.3479459315
 30
0.0
 10
736.7319132397
 20
157.424449119
 30
0.0
  0
SPLINE
  5
38D
100
AcDbEntity
  8
0
100
AcDbSpline
 62
7
  6
BYLAYER
 70
0
 71
3
 72
12
 73
8
 74
0
 42
0.0000001
 43
0.0000001
 44
0.0000000001
 40
0.0
 40
0.0
 40
0.0
 40
0.0
 40
0.3555601317
 40
0.6614267398
 40
0.7831217149
 40
0.8795320322
 40
1.0
 40
1.0
 40
1.0
 40
1.0
 10
740.9468367091
 20
155.6299920394
 30
0.0
 10
740.9468367091
 20
155.5022347581
 30
0.0
 10
740.9342501794
 20
155.2642102596
 30
0.0
 10
740.8891172634
 20
154.9863406362
 30
0.0
 10
740.8299081455
 20
154.8052454614
 30
0.0
 10
740.7803116668
 20
154.6986701576
 30
0.0
 10
740.7154012556
 20
154.6299920394
 30
0.0
 10
740.6721155812
 20
154.6299920394
 30
0.0
  0
SPLINE
  5
38E
100
AcDbEntity
  8
0
100
AcDbSpline
 62
7
  6
BYLAYER
 70
0
 71
3
 72
16
 73
12
 74
0
 42
0.0000001
 43
0.0000001
 44
0.0000000001
 40
0.0
 40
0.0
 40
0.0
 40
0.0
 40
0.0660819509
 40
0.1837076052
 40
0.3386899351
 40
0.5123359223
 40
0.6837013925
 40
0.8321172397
 40
0.9396824817
 40
0.9934236715
 40
1.0
 40
1.0
 40
1.0
 40
1.0
 10
725.3810175784
 20
1735.1189079269
 30
0.0
 10
725.3808097318
 20
1735.0970879064
 30
0.0
 10
725.38063488
 20
1735.0364346054
 30
0.0
 10
725.3803678882
 20
1734.9245171077
 30
0.0
 10
725.380249329
 20
1734.7775896966
 30
0.0
 10
725.3801386525
 20
1734.6106204003
 30
0.0
 10
725.3804287843
 20
1734.4543854973
 30
0.0
 10
725.3799425478
 20
1734.2934437203
 30
0.0
 10
725.3816675347
 20
1734.2362842383
 30
0.0
 10
725.379763569
 20
1734.1156058054
 30
0.0
 10
725.3814283012
 20
1734.1391249491
 30
0.0
 10
725.3814489856
 20
1734.1412964289
 30
0.0
  0
SPLINE
  5
38F
100
AcDbEntity
  8
0
100
AcDbSpline
 62
7
  6
BYLAYER
 70
0
 71
3
 72
16
 73
12
 74
0
 42
0.0000001
 43
0.0000001
 44
0.0000000001
 40
0.0
 40
0.0
 40
0.0
 40
0.0
 40
0.0660819509
 40
0.1837076052
 40
0.3386899351
 40
0.5123359223
 40
0.6837013925
 40
0.8321172397
 40
0.9396824817
 40
0.9934236715
 40
1.0
 40
1.0
 40
1.0
 40
1.0
 10
725.4142528026
 20
1735.1189079269
 30
0.0
 10
725.4144606492
 20
1735.0970879064
 30
0.0
 10
725.4146355011
 20
1735.0364346054
 30
0.0
 10
725.4149024929
 20
1734.9245171077
 30
0.0
 10
725.415021052
 20
1734.7775896966
 30
0.0
 10
725.4151317286
 20
1734.6106204003
 30
0.0
 10
725.4148415967
 20
1734.4543854973
 30
0.0
 10
725.4153278333
 20
1734.2934437203
 30
0.0
 10
725.4136028463
 20
1734.2362842383
 30
0.0
 10
725.4155068121
 20
1734.1156058054
 30
0.0
 10
725.4138420799
 20
1734.1391249491
 30
0.0
 10
725.4138213954
 20
1734.1412964289
 30
0.0
  0
SPLINE
  5
390
100
AcDbEntity
  8
0
100
AcDbSpline
 62
7
  6
BYLAYER
 70
0
 71
3
 72
16
 73
12
 74
0
 42
0.0000001
 43
0.0000001
 44
0.0000000001
 40
0.0
 40
0.0
 40
0.0
 40
0.0
 40
0.0660819509
 40
0.1837076052
 40
0.3386899351
 40
0.5123359223
 40
0.6837013925
 40
0.8321172397
 40
0.9396824817
 40
0.9934236715
 40
1.0
 40
1.0
 40
1.0
 40
1.0
 10
725.3810175784
 20
1735.1189079269
 30
0.0
 10
725.3808097318
 20
1735.0970879064
 30
0.0
 10
725.38063488
 20
1735.0364346054
 30
0.0
 10
725.3803678882
 20
1734.9245171077
 30
0.0
 10
725.380249329
 20
1734.7775896966
 30
0.0
 10
725.3801386525
 20
1734.6106204003
 30
0.0
 10
725.3804287843
 20
1734.4543854973
 30
0.0
 10
725.3799425478
 20
1734.2934437203
 30
0.0
 10
725.3816675347
 20
1734.2362842383
 30
0.0
 10
725.379763569
 20
1734.1156058054
 30
0.0
 10
725.3814283012
 20
1734.1391249491
 30
0.0
 10
725.3814489856
 20
1734.1412964289
 30
0.0
  0
SPLINE
  5
391
100
AcDbEntity
  8
0
100
AcDbSpline
 62
7
  6
BYLAYER
 70
0
 71
3
 72
16
 73
12
 74
0
 42
0.0000001
 43
0.0000001
 44
0.0000000001
 40
0.0
 40
0.0
 40
0.0
 40
0.0
 40
0.0660819509
 40
0.1837076052
 40
0.3386899351
 40
0.5123359223
 40
0.6837013925
 40
0.8321172397
 40
0.9396824817
 40
0.9934236715
 40
1.0
 40
1.0
 40
1.0
 40
1.0
 10
725.4142528026
 20
1735.1189079269
 30
0.0
 10
725.4144606492
 20
1735.0970879064
 30
0.0
 10
725.4146355011
 20
1735.0364346054
 30
0.0
 10
725.4149024929
 20
1734.9245171077
 30
0.0
 10
725.415021052
 20
1734.7775896966
 30
0.0
 10
725.4151317286
 20
1734.6106204003
 30
0.0
 10
725.4148415967
 20
1734.4543854973
 30
0.0
 10
725.4153278333
 20
1734.2934437203
 30
0.0
 10
725.4136028463
 20
1734.2362842383
 30
0.0
 10
725.4155068121
 20
1734.1156058054
 30
0.0
 10
725.4138420799
 20
1734.1391249491
 30
0.0
 10
725.4138213954
 20
1734.1412964289
 30
0.0
  0
SPLINE
  5
392
100
AcDbEntity
  8
0
100
AcDbSpline
 62
7
  6
BYLAYER
 70
0
 71
3
 72
16
 73
12
 74
0
 42
0.0000001
 43
0.0000001
 44
0.0000000001
 40
0.0
 40
0.0
 40
0.0
 40
0.0
 40
0.066109371
 40
0.1837553808
 40
0.338748546
 40
0.5123945412
 40
0.6837491914
 40
0.8321446955
 40
0.9396825251
 40
0.9933925399
 40
1.0
 40
1.0
 40
1.0
 40
1.0
 10
702.914252982
 20
1735.118889095
 30
0.0
 10
702.9144607392
 20
1735.0970594814
 30
0.0
 10
702.9146356824
 20
1735.0363889148
 30
0.0
 10
702.9149025532
 20
1734.9244493081
 30
0.0
 10
702.9150211854
 20
1734.777507904
 30
0.0
 10
702.9151314081
 20
1734.6105350035
 30
0.0
 10
702.9148426276
 20
1734.4543040702
 30
0.0
 10
702.9153245921
 20
1734.2933871627
 30
0.0
 10
702.9136094547
 20
1734.2362229635
 30
0.0
 10
702.9154990001
 20
1734.1155957517
 30
0.0
 10
702.9138419809
 20
1734.1391334476
 30
0.0
 10
702.9138212161
 20
1734.1413152608
 30
0.0
  0
SPLINE
  5
393
100
AcDbEntity
  8
0
100
AcDbSpline
 62
7
  6
BYLAYER
 70
0
 71
3
 72
16
 73
12
 74
0
 42
0.0000001
 43
0.0000001
 44
0.0000000001
 40
0.0
 40
0.0
 40
0.0
 40
0.0
 40
0.066109371
 40
0.1837553808
 40
0.338748546
 40
0.5123945412
 40
0.6837491914
 40
0.8321446955
 40
0.9396825251
 40
0.9933925399
 40
1.0
 40
1.0
 40
1.0
 40
1.0
 10
702.8810173991
 20
1735.118889095
 30
0.0
 10
702.8808096419
 20
1735.0970594814
 30
0.0
 10
702.8806346987
 20
1735.0363889148
 30
0.0
 10
702.8803678278
 20
1734.9244493081
 30
0.0
 10
702.8802491957
 20
1734.777507904
 30
0.0
 10
702.8801389729
 20
1734.6105350035
 30
0.0
 10
702.8804277535
 20
1734.4543040702
 30
0.0
 10
702.879945789
 20
1734.2933871627
 30
0.0
 10
702.8816609264
 20
1734.2362229635
 30
0.0
 10
702.879771381
 20
1734.1155957517
 30
0.0
 10
702.8814284001
 20
1734.1391334476
 30
0.0
 10
702.8814491649
 20
1734.1413152608
 30
0.0
  0
SPLINE
  5
394
100
AcDbEntity
  8
0
100
AcDbSpline
 62
7
  6
BYLAYER
 70
0
 71
3
 72
16
 73
12
 74
0
 42
0.0000001
 43
0.0000001
 44
0.0000000001
 40
0.0
 40
0.0
 40
0.0
 40
0.0
 40
0.0661715043
 40
0.1838636386
 40
0.3388813558
 40
0.5125273691
 40
0.6838575011
 40
0.8322069082
 40
0.9396826219
 40
0.9933219952
 40
1.0
 40
1.0
 40
1.0
 40
1.0
 10
702.9142533883
 20
1735.1188463612
 30
0.0
 10
702.9144609435
 20
1735.0969950107
 30
0.0
 10
702.9146360927
 20
1735.036285325
 30
0.0
 10
702.9149026906
 20
1734.9242956291
 30
0.0
 10
702.9150214848
 20
1734.7773225317
 30
0.0
 10
702.9151306926
 20
1734.6103414855
 30
0.0
 10
702.9148449261
 20
1734.4541195603
 30
0.0
 10
702.9153173553
 20
1734.2932590429
 30
0.0
 10
702.9136241947
 20
1734.2360841522
 30
0.0
 10
702.9154815624
 20
1734.1155730402
 30
0.0
 10
702.9138417562
 20
1734.1391527641
 30
0.0
 10
702.9138208098
 20
1734.1413579947
 30
0.0
  0
SPLINE
  5
395
100
AcDbEntity
  8
0
100
AcDbSpline
 62
7
  6
BYLAYER
 70
0
 71
3
 72
16
 73
12
 74
0
 42
0.0000001
 43
0.0000001
 44
0.0000000001
 40
0.0
 40
0.0
 40
0.0
 40
0.0
 40
0.0661715043
 40
0.1838636386
 40
0.3388813558
 40
0.5125273691
 40
0.6838575011
 40
0.8322069082
 40
0.9396826219
 40
0.9933219952
 40
1.0
 40
1.0
 40
1.0
 40
1.0
 10
702.8810169928
 20
1735.1188463612
 30
0.0
 10
702.8808094375
 20
1735.0969950107
 30
0.0
 10
702.8806342883
 20
1735.036285325
 30
0.0
 10
702.8803676905
 20
1734.9242956291
 30
0.0
 10
702.8802488963
 20
1734.7773225317
 30
0.0
 10
702.8801396885
 20
1734.6103414855
 30
0.0
 10
702.880425455
 20
1734.4541195603
 30
0.0
 10
702.8799530258
 20
1734.2932590429
 30
0.0
 10
702.8816461863
 20
1734.2360841522
 30
0.0
 10
702.8797888187
 20
1734.1155730402
 30
0.0
 10
702.8814286248
 20
1734.1391527641
 30
0.0
 10
702.8814495712
 20
1734.1413579947
 30
0.0
  0
SPLINE
  5
396
100
AcDbEntity
  8
0
100
AcDbSpline
 62
7
  6
BYLAYER
 70
0
 71
3
 72
16
 73
12
 74
0
 42
0.0000001
 43
0.0000001
 44
0.0000000001
 40
0.0
 40
0.0
 40
0.0
 40
0.0
 40
0.0660819509
 40
0.1837076052
 40
0.3386899351
 40
0.5123359223
 40
0.6837013925
 40
0.8321172397
 40
0.9396824817
 40
0.9934236715
 40
1.0
 40
1.0
 40
1.0
 40
1.0
 10
725.3810175784
 20
1735.1189079269
 30
0.0
 10
725.3808097318
 20
1735.0970879064
 30
0.0
 10
725.38063488
 20
1735.0364346054
 30
0.0
 10
725.3803678882
 20
1734.9245171077
 30
0.0
 10
725.380249329
 20
1734.7775896966
 30
0.0
 10
725.3801386525
 20
1734.6106204003
 30
0.0
 10
725.3804287843
 20
1734.4543854973
 30
0.0
 10
725.3799425478
 20
1734.2934437203
 30
0.0
 10
725.3816675347
 20
1734.2362842383
 30
0.0
 10
725.379763569
 20
1734.1156058054
 30
0.0
 10
725.3814283012
 20
1734.1391249491
 30
0.0
 10
725.3814489856
 20
1734.1412964289
 30
0.0
  0
SPLINE
  5
397
100
AcDbEntity
  8
0
100
AcDbSpline
 62
7
  6
BYLAYER
 70
0
 71
3
 72
16
 73
12
 74
0
 42
0.0000001
 43
0.0000001
 44
0.0000000001
 40
0.0
 40
0.0
 40
0.0
 40
0.0
 40
0.0660819509
 40
0.1837076052
 40
0.3386899351
 40
0.5123359223
 40
0.6837013925
 40
0.8321172397
 40
0.9396824817
 40
0.9934236715
 40
1.0
 40
1.0
 40
1.0
 40
1.0
 10
725.4142528026
 20
1735.1189079269
 30
0.0
 10
725.4144606492
 20
1735.0970879064
 30
0.0
 10
725.4146355011
 20
1735.0364346054
 30
0.0
 10
725.4149024929
 20
1734.9245171077
 30
0.0
 10
725.415021052
 20
1734.7775896966
 30
0.0
 10
725.4151317286
 20
1734.6106204003
 30
0.0
 10
725.4148415967
 20
1734.4543854973
 30
0.0
 10
725.4153278333
 20
1734.2934437203
 30
0.0
 10
725.4136028463
 20
1734.2362842383
 30
0.0
 10
725.4155068121
 20
1734.1156058054
 30
0.0
 10
725.4138420799
 20
1734.1391249491
 30
0.0
 10
725.4138213954
 20
1734.1412964289
 30
0.0
  0
SPLINE
  5
398
100
AcDbEntity
  8
0
100
AcDbSpline
 62
7
  6
BYLAYER
 70
0
 71
3
 72
16
 73
12
 74
0
 42
0.0000001
 43
0.0000001
 44
0.0000000001
 40
0.0
 40
0.0
 40
0.0
 40
0.0
 40
0.0660819509
 40
0.1837076052
 40
0.3386899351
 40
0.5123359223
 40
0.6837013925
 40
0.8321172397
 40
0.9396824817
 40
0.9934236715
 40
1.0
 40
1.0
 40
1.0
 40
1.0
 10
725.3810175784
 20
1735.1189079269
 30
0.0
 10
725.3808097318
 20
1735.0970879064
 30
0.0
 10
725.38063488
 20
1735.0364346054
 30
0.0
 10
725.3803678882
 20
1734.9245171077
 30
0.0
 10
725.380249329
 20
1734.7775896966
 30
0.0
 10
725.3801386525
 20
1734.6106204003
 30
0.0
 10
725.3804287843
 20
1734.4543854973
 30
0.0
 10
725.3799425478
 20
1734.2934437203
 30
0.0
 10
725.3816675347
 20
1734.2362842383
 30
0.0
 10
725.379763569
 20
1734.1156058054
 30
0.0
 10
725.3814283012
 20
1734.1391249491
 30
0.0
 10
725.3814489856
 20
1734.1412964289
 30
0.0
  0
SPLINE
  5
399
100
AcDbEntity
  8
0
100
AcDbSpline
 62
7
  6
BYLAYER
 70
0
 71
3
 72
16
 73
12
 74
0
 42
0.0000001
 43
0.0000001
 44
0.0000000001
 40
0.0
 40
0.0
 40
0.0
 40
0.0
 40
0.0660819509
 40
0.1837076052
 40
0.3386899351
 40
0.5123359223
 40
0.6837013925
 40
0.8321172397
 40
0.9396824817
 40
0.9934236715
 40
1.0
 40
1.0
 40
1.0
 40
1.0
 10
725.4142528026
 20
1735.1189079269
 30
0.0
 10
725.4144606492
 20
1735.0970879064
 30
0.0
 10
725.4146355011
 20
1735.0364346054
 30
0.0
 10
725.4149024929
 20
1734.9245171077
 30
0.0
 10
725.415021052
 20
1734.7775896966
 30
0.0
 10
725.4151317286
 20
1734.6106204003
 30
0.0
 10
725.4148415967
 20
1734.4543854973
 30
0.0
 10
725.4153278333
 20
1734.2934437203
 30
0.0
 10
725.4136028463
 20
1734.2362842383
 30
0.0
 10
725.4155068121
 20
1734.1156058054
 30
0.0
 10
725.4138420799
 20
1734.1391249491
 30
0.0
 10
725.4138213954
 20
1734.1412964289
 30
0.0
  0
SPLINE
  5
39A
100
AcDbEntity
  8
0
100
AcDbSpline
 62
7
  6
BYLAYER
 70
0
 71
3
 72
16
 73
12
 74
0
 42
0.0000001
 43
0.0000001
 44
0.0000000001
 40
0.0
 40
0.0
 40
0.0
 40
0.0
 40
0.066109371
 40
0.1837553808
 40
0.338748546
 40
0.5123945412
 40
0.6837491914
 40
0.8321446955
 40
0.9396825251
 40
0.9933925399
 40
1.0
 40
1.0
 40
1.0
 40
1.0
 10
702.914252982
 20
1735.118889095
 30
0.0
 10
702.9144607392
 20
1735.0970594814
 30
0.0
 10
702.9146356824
 20
1735.0363889148
 30
0.0
 10
702.9149025532
 20
1734.9244493081
 30
0.0
 10
702.9150211854
 20
1734.777507904
 30
0.0
 10
702.9151314081
 20
1734.6105350035
 30
0.0
 10
702.9148426276
 20
1734.4543040702
 30
0.0
 10
702.9153245921
 20
1734.2933871627
 30
0.0
 10
702.9136094547
 20
1734.2362229635
 30
0.0
 10
702.9154990001
 20
1734.1155957517
 30
0.0
 10
702.9138419809
 20
1734.1391334476
 30
0.0
 10
702.9138212161
 20
1734.1413152608
 30
0.0
  0
SPLINE
  5
39B
100
AcDbEntity
  8
0
100
AcDbSpline
 62
7
  6
BYLAYER
 70
0
 71
3
 72
16
 73
12
 74
0
 42
0.0000001
 43
0.0000001
 44
0.0000000001
 40
0.0
 40
0.0
 40
0.0
 40
0.0
 40
0.066109371
 40
0.1837553808
 40
0.338748546
 40
0.5123945412
 40
0.6837491914
 40
0.8321446955
 40
0.9396825251
 40
0.9933925399
 40
1.0
 40
1.0
 40
1.0
 40
1.0
 10
702.8810173991
 20
1735.118889095
 30
0.0
 10
702.8808096419
 20
1735.0970594814
 30
0.0
 10
702.8806346987
 20
1735.0363889148
 30
0.0
 10
702.8803678278
 20
1734.9244493081
 30
0.0
 10
702.8802491957
 20
1734.777507904
 30
0.0
 10
702.8801389729
 20
1734.6105350035
 30
0.0
 10
702.8804277535
 20
1734.4543040702
 30
0.0
 10
702.879945789
 20
1734.2933871627
 30
0.0
 10
702.8816609264
 20
1734.2362229635
 30
0.0
 10
702.879771381
 20
1734.1155957517
 30
0.0
 10
702.8814284001
 20
1734.1391334476
 30
0.0
 10
702.8814491649
 20
1734.1413152608
 30
0.0
  0
SPLINE
  5
39C
100
AcDbEntity
  8
0
100
AcDbSpline
 62
7
  6
BYLAYER
 70
0
 71
3
 72
16
 73
12
 74
0
 42
0.0000001
 43
0.0000001
 44
0.0000000001
 40
0.0
 40
0.0
 40
0.0
 40
0.0
 40
0.0661715043
 40
0.1838636386
 40
0.3388813558
 40
0.5125273691
 40
0.6838575011
 40
0.8322069082
 40
0.9396826219
 40
0.9933219952
 40
1.0
 40
1.0
 40
1.0
 40
1.0
 10
702.9142533883
 20
1735.1188463612
 30
0.0
 10
702.9144609435
 20
1735.0969950107
 30
0.0
 10
702.9146360927
 20
1735.036285325
 30
0.0
 10
702.9149026906
 20
1734.9242956291
 30
0.0
 10
702.9150214848
 20
1734.7773225317
 30
0.0
 10
702.9151306926
 20
1734.6103414855
 30
0.0
 10
702.9148449261
 20
1734.4541195603
 30
0.0
 10
702.9153173553
 20
1734.2932590429
 30
0.0
 10
702.9136241947
 20
1734.2360841522
 30
0.0
 10
702.9154815624
 20
1734.1155730402
 30
0.0
 10
702.9138417562
 20
1734.1391527641
 30
0.0
 10
702.9138208098
 20
1734.1413579947
 30
0.0
  0
SPLINE
  5
39D
100
AcDbEntity
  8
0
100
AcDbSpline
 62
7
  6
BYLAYER
 70
0
 71
3
 72
16
 73
12
 74
0
 42
0.0000001
 43
0.0000001
 44
0.0000000001
 40
0.0
 40
0.0
 40
0.0
 40
0.0
 40
0.0661715043
 40
0.1838636386
 40
0.3388813558
 40
0.5125273691
 40
0.6838575011
 40
0.8322069082
 40
0.9396826219
 40
0.9933219952
 40
1.0
 40
1.0
 40
1.0
 40
1.0
 10
702.8810169928
 20
1735.1188463612
 30
0.0
 10
702.8808094375
 20
1735.0969950107
 30
0.0
 10
702.8806342883
 20
1735.036285325
 30
0.0
 10
702.8803676905
 20
1734.9242956291
 30
0.0
 10
702.8802488963
 20
1734.7773225317
 30
0.0
 10
702.8801396885
 20
1734.6103414855
 30
0.0
 10
702.880425455
 20
1734.4541195603
 30
0.0
 10
702.8799530258
 20
1734.2932590429
 30
0.0
 10
702.8816461863
 20
1734.2360841522
 30
0.0
 10
702.8797888187
 20
1734.1155730402
 30
0.0
 10
702.8814286248
 20
1734.1391527641
 30
0.0
 10
702.8814495712
 20
1734.1413579947
 30
0.0
  0
ENDSEC
  0
SECTION
  2
OBJECTS
  0
DICTIONARY
  5
C
100
AcDbDictionary
280
0
281
1
  3
ACAD_GROUP
350
D
  3
ACAD_MLINESTYLE
350
17
  3
ACAD_LAYOUT
350
1A
  3
ACAD_PLOTSETTINGS
350
19
  3
ACAD_PLOTSTYLENAME
350
E
  0
DICTIONARY
  5
D
102
{ACAD_REACTORS
330
C
102
}
100
AcDbDictionary
280
0
281
1
  0
ACDBDICTIONARYWDFLT
  5
E
102
{ACAD_REACTORS
330
C
102
}
100
AcDbDictionary
281
1
  3
Normal
350
F
100
AcDbDictionaryWithDefault
340
F
  0
DICTIONARY
  5
17
102
{ACAD_REACTORS
330
C
102
}
100
AcDbDictionary
280
0
281
1
  3
Standard
350
18
  0
DICTIONARY
  5
19
102
{ACAD_REACTORS
330
C
102
}
100
AcDbDictionary
281
1
  0
DICTIONARY
  5
1A
102
{ACAD_REACTORS
330
C
102
}
100
AcDbDictionary
281
1
  3
Model
350
39E
  3
Layout1
350
39F
  0
ACDBPLACEHOLDER
  5
F
102
{ACAD_REACTORS
330
E
102
}
  0
MLINESTYLE
  5
18
102
{ACAD_REACTORS
330
17
102
}
100
AcDbMlineStyle
  2
STANDARD
 70
0
  3

 62
256
 51
90.0
 52
90.0
 71
2
 49
0.5
 62
256
  6
BYLAYER
 49
-0.5
 62
256
  6
BYLAYER
  0
LAYOUT
  5
39E
102
{ACAD_REACTORS
330
1A
102
}
100
AcDbPlotSettings
  1

  2
none_device
  4

  6

 40
0.0
 41
0.0
 42
0.0
 43
0.0
 44
210.0
 45
297.0
 46
0.0
 47
0.0
 48
0.0
 49
0.0
140
0.0
141
0.0
142
1.0
143
1.0
 70
1024
 72
1
 73
0
 74
0
  7

 75
0
147
1.0
148
0.0
149
0.0
100
AcDbLayout
  1
Model
 70
0
 71
0
 10
0.0
 20
0.0
 11
210.0
 21
297.0
 12
0.0
 22
0.0
 32
0.0
 14
0.0
 24
0.0
 34
0.0
 15
0.0
 25
0.0
 35
0.0
146
0.0
 13
0.0
 23
0.0
 33
0.0
 16
1.0
 26
0.0
 36
0.0
 17
0.0
 27
1.0
 37
0.0
 76
0
330
212
345
0
346
0
  0
LAYOUT
  5
39F
102
{ACAD_REACTORS
330
1A
102
}
100
AcDbPlotSettings
  1

  2
none_device
  4

  6

 40
0.0
 41
0.0
 42
0.0
 43
0.0
 44
210.0
 45
297.0
 46
0.0
 47
0.0
 48
0.0
 49
0.0
140
0.0
141
0.0
142
1.0
143
1.0
 70
0
 72
1
 73
0
 74
0
  7

 75
0
147
1.0
148
0.0
149
0.0
100
AcDbLayout
  1
Layout1
 70
0
 71
1
 10
0.0
 20
0.0
 11
210.0
 21
297.0
 12
0.0
 22
0.0
 32
0.0
 14
0.0
 24
0.0
 34
0.0
 15
0.0
 25
0.0
 35
0.0
146
0.0
 13
0.0
 23
0.0
 33
0.0
 16
1.0
 26
0.0
 36
0.0
 17
0.0
 27
1.0
 37
0.0
 76
0
330
213
345
0
346
0
  0
ENDSEC
  0
EOF
