999
DXF file: C:\Users\sesa63760\Dev\_Creo\CAD\MCADID0005864_3D-CAD\mcadid0005864_3d-simplified_1.dxf
999
Pro/ENGINEER 2019471 by Parametric Technology Corporation
  0
SECTION
  2
HEADER
  9
$ACADVER
  1
AC1024
  9
$DWGCODEPAGE
  3
ANSI_1252
  9
$EXTMAX
 10
80.470749806
 20
113.8086318685
 30
0.0
  9
$EXTMIN
 10
0.0
 20
0.0
 30
0.0
  9
$LIMMIN
 10
0.0
 20
0.0
  9
$LIMMAX
 10
80.470749806
 20
113.8086318685
  9
$VIEWCTR
 10
40.235374903
 20
56.9043159343
  9
$VIEWSIZE
 40
113.8086318685
  9
$CLAYER
  8
0
  9
$LTSCALE
 40
7.418636744
  9
$CELTYPE
  6
BYLAYER
  9
$DIMSCALE
 40
1.0
  9
$DIMASZ
 40
0.9579851167
  9
$DIMEXO
 40
1.0
  9
$DIMDLI
 40
5.1256035686
  9
$DIMEXE
 40
1.0
  9
$DIMCEN
 40
1.2139587399
  9
$DIMLFAC
 40
1.0
  9
$DIMBLK
  1
_FILLED
  9
$DIMALT
 70
0
  9
$DIMALTF
 40
0.0393700787
  9
$DIMTXT
 40
1.3411791634
  9
$DIMTOL
 70
1
  9
$DIMLIM
 70
0
  9
$DIMTFAC
 40
1.0
  9
$DIMTP
 40
0.01
  9
$DIMTM
 40
0.01
  9
$DIMGAP
 40
0.625
  9
$DIMDSEP
 70
46
  9
$AUNITS
 70
0
  9
$PDMODE
 70
3
  9
$PDSIZE
 40
0.3125
  9
$HANDSEED
  5
400
  9
$TILEMODE
 70
1
  9
$MEASUREMENT
 70
1
  9
$INSUNITS
 70
4
  0
ENDSEC
  0
SECTION
  2
CLASSES
  0
CLASS
  1
ACDBDICTIONARYWDFLT
  2
AcDbDictionaryWithDefault
  3
AutoCAD 2000
 90
0
 91
1
280
0
281
0
  0
CLASS
  1
ACDBPLACEHOLDER
  2
AcDbPlaceHolder
  3
AutoCAD 2000
 90
0
 91
1
280
0
281
0
  0
CLASS
  1
LAYOUT
  2
AcDbLayout
  3
AutoCAD 2000
 90
0
 91
0
280
0
281
0
  0
ENDSEC
  0
SECTION
  2
TABLES
  0
TABLE
  2
VPORT
  5
8
100
AcDbSymbolTable
 70
2
  0
VPORT
  5
1F4
100
AcDbSymbolTableRecord
100
AcDbViewportTableRecord
  2
*ACTIVE
 70
0
 10
0.0
 20
0.0
 11
1.0
 21
1.0
 12
40.235374903
 22
56.9043159343
 13
0.0
 23
0.0
 14
1.0
 24
1.0
 15
0.0
 25
0.0
 16
0.0
 26
0.0
 36
1.0
 17
0.0
 27
0.0
 37
0.0
 40
113.8086318685
 41
0.7070707071
 42
50.0
 43
0.0
 44
0.0
 50
0.0
 51
0.0
 71
0
 72
100
 73
1
 74
1
 75
0
 76
0
 77
0
 78
0
  0
ENDTAB
  0
TABLE
  2
LTYPE
  5
5
100
AcDbSymbolTable
 70
6
  0
LTYPE
  5
14
100
AcDbSymbolTableRecord
100
AcDbLinetypeTableRecord
  2
BYBLOCK
 70
0
  3

 72
65
 73
0
 40
0.0
  0
LTYPE
  5
15
100
AcDbSymbolTableRecord
100
AcDbLinetypeTableRecord
  2
BYLAYER
 70
0
  3

 72
65
 73
0
 40
0.0
  0
LTYPE
  5
16
100
AcDbSymbolTableRecord
100
AcDbLinetypeTableRecord
  2
CONTINUOUS
 70
64
  3
Solid line
 72
65
 73
0
 40
0.0
  0
LTYPE
  5
1F5
100
AcDbSymbolTableRecord
100
AcDbLinetypeTableRecord
  2
CENTER
 70
64
  3
____ _ ____ _ ____ _ ____ _ ____ _ ____ _ ____
 72
65
 73
4
 40
0.6
 49
0.375
 74
0
 49
-0.075
 74
0
 49
0.075
 74
0
 49
-0.075
 74
0
  0
LTYPE
  5
1F6
100
AcDbSymbolTableRecord
100
AcDbLinetypeTableRecord
  2
HIDDEN
 70
64
  3
- - - - - - - - - - - - - - - - - - - -
 72
65
 73
2
 40
0.2
 49
0.1
 74
0
 49
-0.1
 74
0
  0
LTYPE
  5
1F7
100
AcDbSymbolTableRecord
100
AcDbLinetypeTableRecord
  2
PHANTOM
 70
64
  3
_____ _ _ _____ _ _ _____ _ _ _____
 72
65
 73
6
 40
0.8
 49
0.45
 74
0
 49
-0.05
 74
0
 49
0.1
 74
0
 49
-0.05
 74
0
 49
0.1
 74
0
 49
-0.05
 74
0
  0
LTYPE
  5
1F8
100
AcDbSymbolTableRecord
100
AcDbLinetypeTableRecord
  2
DOT
 70
64
  3
. . . . . . . . . . . . . . . . . . . .
 72
65
 73
2
 40
0.2
 49
0.1
 74
0
 49
-0.1
 74
0
  0
LTYPE
  5
1F9
100
AcDbSymbolTableRecord
100
AcDbLinetypeTableRecord
  2
DASHED
 70
64
  3
- - - - - - - - - - - - - - - - - - - -
 72
65
 73
2
 40
0.2
 49
0.1
 74
0
 49
-0.1
 74
0
  0
ENDTAB
  0
TABLE
  2
LAYER
  5
2
100
AcDbSymbolTable
 70
36
  0
LAYER
  5
10
100
AcDbSymbolTableRecord
100
AcDbLayerTableRecord
  2
0
 70
0
 62
7
  6
CONTINUOUS
370
-3
390
F
  0
LAYER
  5
1FA
100
AcDbSymbolTableRecord
100
AcDbLayerTableRecord
  2
DEFAULT_1
 70
0
 62
7
  6
CENTER
370
-3
390
F
  0
LAYER
  5
1FB
100
AcDbSymbolTableRecord
100
AcDbLayerTableRecord
  2
DEFAULT_2
 70
0
 62
7
  6
HIDDEN
370
-3
390
F
  0
LAYER
  5
1FC
100
AcDbSymbolTableRecord
100
AcDbLayerTableRecord
  2
DEFAULT_3
 70
0
 62
7
  6
PHANTOM
370
-3
390
F
  0
LAYER
  5
1FD
100
AcDbSymbolTableRecord
100
AcDbLayerTableRecord
  2
00_COMPONENTS
 70
0
 62
7
  6
CONTINUOUS
370
-3
390
F
  0
LAYER
  5
1FE
100
AcDbSymbolTableRecord
100
AcDbLayerTableRecord
  2
01_1_DEFAULT_DATUMS
 70
0
 62
7
  6
CONTINUOUS
370
-3
390
F
  0
LAYER
  5
1FF
100
AcDbSymbolTableRecord
100
AcDbLayerTableRecord
  2
01_PLANES
 70
0
 62
7
  6
CONTINUOUS
370
-3
390
F
  0
LAYER
  5
200
100
AcDbSymbolTableRecord
100
AcDbLayerTableRecord
  2
02_COORD_SYS
 70
0
 62
7
  6
CONTINUOUS
370
-3
390
F
  0
LAYER
  5
201
100
AcDbSymbolTableRecord
100
AcDbLayerTableRecord
  2
03_AXES
 70
0
 62
7
  6
CONTINUOUS
370
-3
390
F
  0
LAYER
  5
202
100
AcDbSymbolTableRecord
100
AcDbLayerTableRecord
  2
04_POINTS
 70
0
 62
7
  6
CONTINUOUS
370
-3
390
F
  0
LAYER
  5
203
100
AcDbSymbolTableRecord
100
AcDbLayerTableRecord
  2
05_CURVES
 70
0
 62
7
  6
CONTINUOUS
370
-3
390
F
  0
LAYER
  5
204
100
AcDbSymbolTableRecord
100
AcDbLayerTableRecord
  2
06_SURFS
 70
0
 62
7
  6
CONTINUOUS
370
-3
390
F
  0
LAYER
  5
205
100
AcDbSymbolTableRecord
100
AcDbLayerTableRecord
  2
07_COSMETICS
 70
0
 62
7
  6
CONTINUOUS
370
-3
390
F
  0
LAYER
  5
206
100
AcDbSymbolTableRecord
100
AcDbLayerTableRecord
  2
10_NOTES
 70
0
 62
7
  6
CONTINUOUS
370
-3
390
F
  0
LAYER
  5
207
100
AcDbSymbolTableRecord
100
AcDbLayerTableRecord
  2
11_NOTES_PUB
 70
0
 62
7
  6
CONTINUOUS
370
-3
390
F
  0
LAYER
  5
208
100
AcDbSymbolTableRecord
100
AcDbLayerTableRecord
  2
13_REF_GTOL
 70
0
 62
7
  6
CONTINUOUS
370
-3
390
F
  0
LAYER
  5
209
100
AcDbSymbolTableRecord
100
AcDbLayerTableRecord
  2
16_MISC
 70
0
 62
7
  6
CONTINUOUS
370
-3
390
F
  0
LAYER
  5
20A
100
AcDbSymbolTableRecord
100
AcDbLayerTableRecord
  2
17_NO_PRINT
 70
0
 62
7
  6
CONTINUOUS
370
-3
390
F
  0
LAYER
  5
20B
100
AcDbSymbolTableRecord
100
AcDbLayerTableRecord
  2
18_DATUM_CAMS_JOINTS
 70
0
 62
7
  6
CONTINUOUS
370
-3
390
F
  0
LAYER
  5
20C
100
AcDbSymbolTableRecord
100
AcDbLayerTableRecord
  2
19_DATUM_FUNCTIONAL
 70
0
 62
7
  6
CONTINUOUS
370
-3
390
F
  0
LAYER
  5
20D
100
AcDbSymbolTableRecord
100
AcDbLayerTableRecord
  2
20_DATUM_KINEMATIC_SCHEME
 70
0
 62
7
  6
CONTINUOUS
370
-3
390
F
  0
ENDTAB
  0
TABLE
  2
STYLE
  5
3
100
AcDbSymbolTable
 70
1
  0
STYLE
  5
11
100
AcDbSymbolTableRecord
100
AcDbTextStyleTableRecord
  2
STANDARD
 70
0
 40
0.0
 41
1.0
 50
0.0
 71
0
 42
0.2
  3
ARIAL.TTF
  4

  0
STYLE
  5
20E
100
AcDbSymbolTableRecord
100
AcDbTextStyleTableRecord
  2
TEXTSTYLE_1
 70
0
 40
0.0
 41
0.8
 50
0.0
 71
0
 42
0.2
  3
gdt
  4

  0
ENDTAB
  0
TABLE
  2
VIEW
  5
6
100
AcDbSymbolTable
 70
0
  0
ENDTAB
  0
TABLE
  2
UCS
  5
7
100
AcDbSymbolTable
 70
0
  0
ENDTAB
  0
TABLE
  2
APPID
  5
9
100
AcDbSymbolTable
 70
1
  0
APPID
  5
20F
100
AcDbSymbolTableRecord
100
AcDbRegAppTableRecord
  2
ACAD
 70
0
  0
ENDTAB
  0
TABLE
  2
BLOCK_RECORD
  5
1
100
AcDbSymbolTable
 70
0
  0
BLOCK_RECORD
  5
210
100
AcDbSymbolTableRecord
100
AcDbBlockTableRecord
  2
*Model_Space
  0
BLOCK_RECORD
  5
211
100
AcDbSymbolTableRecord
100
AcDbBlockTableRecord
  2
*Paper_Space
  0
BLOCK_RECORD
  5
212
100
AcDbSymbolTableRecord
100
AcDbBlockTableRecord
  2
_FILLED
  0
ENDTAB
  0
TABLE
  2
DIMSTYLE
  5
A
100
AcDbSymbolTable
 70
1
100
AcDbDimStyleTable
 71
0
  0
DIMSTYLE
105
213
100
AcDbSymbolTableRecord
100
AcDbDimStyleTableRecord
  2
STANDARD
 70
0
  3

  4

 40
1.0
 41
0.9579851167
 42
1.0
 43
0.38
 44
1.0
 45
0.0
 46
0.0
 47
0.01
 48
0.01
140
1.3411791634
141
0.09
142
0.0
143
25.4
144
1.0
145
0.0
146
1.0
147
0.625
 71
1
 72
0
 73
0
 74
0
 75
0
 76
0
 77
1
 78
8
 79
2
170
0
171
1
172
0
173
0
174
0
175
0
176
0
177
0
178
0
270
2
179
2
271
2
272
2
273
2
274
2
275
0
280
0
281
0
282
0
283
1
284
8
285
0
286
0
287
3
288
0
340
11
278
46
341
212
342
212
343
212
344
212
  0
ENDTAB
  0
ENDSEC
  0
SECTION
  2
BLOCKS
  0
BLOCK
  5
20
100
AcDbEntity
  8
0
100
AcDbBlockBegin
  2
*Model_Space
 70
0
 10
0.0
 20
0.0
 30
0.0
  3
*Model_Space
  1

  0
ENDBLK
  5
21
100
AcDbEntity
  8
0
100
AcDbBlockEnd
  0
BLOCK
  5
1C
100
AcDbEntity
  8
0
100
AcDbBlockBegin
  2
*Paper_Space
 70
0
 10
0.0
 20
0.0
 30
0.0
  3
*Paper_Space
  1

  0
ENDBLK
  5
1D
100
AcDbEntity
  8
0
100
AcDbBlockEnd
  0
BLOCK
  5
214
100
AcDbEntity
  8
0
100
AcDbBlockBegin
  2
_FILLED
 70
64
 10
0.0
 20
0.0
  3
_FILLED
  1

  0
SOLID
  5
215
100
AcDbEntity
  8
0
  6
BYBLOCK
 62
0
100
AcDbTrace
 10
0.0
 20
0.0
 11
-1.0
 21
0.25
 12
-1.0
 22
-0.25
 13
-1.0
 23
-0.25
  0
ENDBLK
  5
216
100
AcDbEntity
  8
0
  6
BYBLOCK
 62
0
100
AcDbBlockEnd
  0
ENDSEC
  0
SECTION
  2
ENTITIES
  0
LWPOLYLINE
  5
217
100
AcDbEntity
  8
0
100
AcDbPolyline
 62
7
  6
BYLAYER
 90
11
 70
0
 10
15.3773154406
 20
36.4914684875
 10
17.4904489837
 20
34.3999170102
 10
20.5907488449
 20
32.5047421668
 10
23.5928010258
 20
31.7888825362
 10
26.1659006044
 20
32.3415758958
 10
28.0586690316
 20
34.0955806801
 10
29.0955582173
 20
36.8707501986
 10
29.1814506269
 20
40.3987663648
 10
28.3050303177
 20
44.3470168197
 10
26.5604425138
 20
48.303445266
 10
24.092044461
 20
51.9297798572
  0
LINE
  5
218
100
AcDbEntity
  8
0
100
AcDbLine
 62
7
  6
BYLAYER
 10
12.8109319376
 20
45.7625416601
 11
12.8123781722
 21
45.7524538509
  0
LINE
  5
219
100
AcDbEntity
  8
0
100
AcDbLine
 62
7
  6
BYLAYER
 10
12.8109319376
 20
45.7625416601
 11
12.8109395271
 21
45.7532812887
  0
LINE
  5
21A
100
AcDbEntity
  8
0
100
AcDbLine
 62
7
  6
BYLAYER
 10
14.3960766554
 20
58.218561237
 11
14.3736477726
 21
58.19683699
  0
LINE
  5
21B
100
AcDbEntity
  8
0
100
AcDbLine
 62
7
  6
BYLAYER
 10
30.537527479
 20
74.0563004249
 11
28.6350795752
 21
72.9579281719
  0
LINE
  5
21C
100
AcDbEntity
  8
0
100
AcDbLine
 62
7
  6
BYLAYER
 10
35.7061179482
 20
77.0403697111
 11
37.608565857
 21
78.1387419669
  0
LWPOLYLINE
  5
21D
100
AcDbEntity
  8
0
100
AcDbPolyline
 62
7
  6
BYLAYER
 90
5
 70
0
 10
26.595392556
 20
32.3529255544
 10
23.9595205124
 20
31.668111504
 10
20.8490690535
 20
32.3207617562
 10
17.6015452301
 20
34.2507267556
 10
15.3432221686
 20
36.4717848452
  0
LINE
  5
21E
100
AcDbEntity
  8
0
100
AcDbLine
 62
7
  6
BYLAYER
 10
28.6320546123
 20
33.533560978
 11
28.645974508
 21
33.5368668042
  0
LINE
  5
21F
100
AcDbEntity
  8
0
100
AcDbLine
 62
7
  6
BYLAYER
 10
39.9724235473
 20
75.306904183
 11
39.9927947224
 21
75.3216514594
  0
LINE
  5
220
100
AcDbEntity
  8
0
100
AcDbLine
 62
7
  6
BYLAYER
 10
14.3960666209
 20
58.2185786167
 11
14.3698732325
 21
58.2033424644
  0
LINE
  5
221
100
AcDbEntity
  8
0
100
AcDbLine
 62
7
  6
BYLAYER
 10
33.2447279867
 20
69.9668385852
 11
17.1676712339
 21
60.6848009475
  0
LINE
  5
222
100
AcDbEntity
  8
0
100
AcDbLine
 62
7
  6
BYLAYER
 10
42.4081776005
 20
75.1167228151
 11
40.5057296071
 21
74.0183505104
  0
LINE
  5
223
100
AcDbEntity
  8
0
100
AcDbLine
 62
7
  6
BYLAYER
 10
47.5767680143
 20
78.1007920694
 11
49.479215978
 21
79.1991643569
  0
LINE
  5
224
100
AcDbEntity
  8
0
100
AcDbLine
 62
7
  6
BYLAYER
 10
55.125238503
 20
81.7334577037
 11
50.157397472
 21
78.8652904678
  0
LINE
  5
225
100
AcDbEntity
  8
0
100
AcDbLine
 62
7
  6
BYLAYER
 10
17.0123416772
 20
59.72909781
 11
14.3960574795
 21
58.2185944407
  0
LINE
  5
226
100
AcDbEntity
  8
0
100
AcDbLine
 62
7
  6
BYLAYER
 10
14.3253470957
 20
58.1777700253
 11
12.3454563515
 21
57.0346863945
  0
LINE
  5
227
100
AcDbEntity
  8
0
100
AcDbLine
 62
7
  6
BYLAYER
 10
43.1249191688
 20
74.7636619844
 11
41.2586880003
 21
73.6861993485
  0
LINE
  5
228
100
AcDbEntity
  8
0
100
AcDbLine
 62
7
  6
BYLAYER
 10
48.3297263718
 20
77.7686408869
 11
50.1959575446
 21
78.8461035253
  0
LINE
  5
229
100
AcDbEntity
  8
0
100
AcDbLine
 62
7
  6
BYLAYER
 10
26.3166515167
 20
53.2955002759
 11
26.3349173255
 21
53.2734608201
  0
LINE
  5
22A
100
AcDbEntity
  8
0
100
AcDbLine
 62
7
  6
BYLAYER
 10
26.3518676485
 20
53.2995021821
 11
26.3377686436
 21
53.3165190585
  0
LINE
  5
22B
100
AcDbEntity
  8
0
100
AcDbLine
 62
7
  6
BYLAYER
 10
13.7124955486
 20
48.4898156422
 11
15.4589517484
 21
50.0778024757
  0
LINE
  5
22C
100
AcDbEntity
  8
0
100
AcDbLine
 62
7
  6
BYLAYER
 10
56.9520925299
 20
78.9018764881
 11
61.4068467043
 21
81.4738146575
  0
LINE
  5
22D
100
AcDbEntity
  8
0
100
AcDbLine
 62
7
  6
BYLAYER
 10
26.3150652861
 20
53.293046655
 11
26.3349173255
 21
53.2734608201
  0
LINE
  5
22E
100
AcDbEntity
  8
0
100
AcDbLine
 62
7
  6
BYLAYER
 10
26.3518676485
 20
53.2995021821
 11
26.3365603688
 21
53.3146530034
  0
LINE
  5
22F
100
AcDbEntity
  8
0
100
AcDbLine
 62
7
  6
BYLAYER
 10
63.0935665061
 20
80.5000085563
 11
58.6388123317
 21
77.9280703869
  0
LINE
  5
230
100
AcDbEntity
  8
0
100
AcDbLine
 62
7
  6
BYLAYER
 10
19.4020513724
 20
38.400276133
 11
19.1340906618
 21
38.0957328366
  0
LINE
  5
231
100
AcDbEntity
  8
0
100
AcDbLine
 62
7
  6
BYLAYER
 10
54.7684763198
 20
65.6505325311
 11
54.8523456608
 21
65.6989559022
  0
LINE
  5
232
100
AcDbEntity
  8
0
100
AcDbLine
 62
7
  6
BYLAYER
 10
55.526764935
 20
65.5109817339
 11
55.2849558709
 21
65.371369214
  0
LINE
  5
233
100
AcDbEntity
  8
0
100
AcDbLine
 62
7
  6
BYLAYER
 10
55.4556033109
 20
64.440670896
 11
55.5464631985
 21
64.4762493092
  0
LINE
  5
234
100
AcDbEntity
  8
0
100
AcDbLine
 62
7
  6
BYLAYER
 10
56.2040488554
 20
64.2664891353
 11
55.9420848992
 21
64.1639107356
  0
LINE
  5
235
100
AcDbEntity
  8
0
100
AcDbLine
 62
7
  6
BYLAYER
 10
56.0009845685
 20
63.588360071
 11
55.9101246809
 21
63.5527816578
  0
LINE
  5
236
100
AcDbEntity
  8
0
100
AcDbLine
 62
7
  6
BYLAYER
 10
52.3776370673
 20
69.014886729
 11
52.4369416471
 21
69.0992575021
  0
LINE
  5
237
100
AcDbEntity
  8
0
100
AcDbLine
 62
7
  6
BYLAYER
 10
53.2236145325
 20
67.9463768283
 11
53.2916459515
 21
68.0192895688
  0
LINE
  5
238
100
AcDbEntity
  8
0
100
AcDbLine
 62
7
  6
BYLAYER
 10
53.9922969483
 20
67.8836511635
 11
53.7961512106
 21
67.6734317758
  0
LINE
  5
239
100
AcDbEntity
  8
0
100
AcDbLine
 62
7
  6
BYLAYER
 10
53.8708763284
 20
67.2165517734
 11
53.8028449094
 21
67.143639033
  0
LINE
  5
23A
100
AcDbEntity
  8
0
100
AcDbLine
 62
7
  6
BYLAYER
 10
54.0225878398
 20
66.8220732192
 11
54.0988283379
 21
66.8829730171
  0
LINE
  5
23B
100
AcDbEntity
  8
0
100
AcDbLine
 62
7
  6
BYLAYER
 10
54.787639235
 20
66.7197689435
 11
54.567825376
 21
66.5441848391
  0
LINE
  5
23C
100
AcDbEntity
  8
0
100
AcDbLine
 62
7
  6
BYLAYER
 10
54.6405058135
 20
66.0454048186
 11
54.5642653154
 21
65.9845050208
  0
LINE
  5
23D
100
AcDbEntity
  8
0
100
AcDbLine
 62
7
  6
BYLAYER
 10
16.5429044243
 20
39.940489377
 11
17.6450538533
 21
40.6748356385
  0
LINE
  5
23E
100
AcDbEntity
  8
0
100
AcDbLine
 62
7
  6
BYLAYER
 10
55.3523477425
 20
64.8329317003
 11
55.2684784015
 21
64.7845083292
  0
LINE
  5
23F
100
AcDbEntity
  8
0
100
AcDbLine
 62
7
  6
BYLAYER
 10
9.5659580219
 20
35.4456973756
 11
16.6369963941
 21
39.5281389143
  0
LINE
  5
240
100
AcDbEntity
  8
0
100
AcDbLine
 62
7
  6
BYLAYER
 10
56.5814797736
 20
62.3211618722
 11
56.4843208381
 21
62.2986991901
  0
LINE
  5
241
100
AcDbEntity
  8
0
100
AcDbLine
 62
7
  6
BYLAYER
 10
56.8143364566
 20
62.995762488
 11
56.5342113122
 21
62.9309988919
  0
LINE
  5
242
100
AcDbEntity
  8
0
100
AcDbLine
 62
7
  6
BYLAYER
 10
56.0787393618
 20
63.2016960914
 11
56.1758982973
 21
63.2241587735
  0
LINE
  5
243
100
AcDbEntity
  8
0
100
AcDbLine
 62
7
  6
BYLAYER
 10
57.0894154387
 20
61.0409812474
 11
56.9866968934
 21
61.031805251
  0
LINE
  5
244
100
AcDbEntity
  8
0
100
AcDbLine
 62
7
  6
BYLAYER
 10
47.6777452461
 20
73.2541308716
 11
47.6880827155
 21
73.3845999667
  0
LINE
  5
245
100
AcDbEntity
  8
0
100
AcDbLine
 62
7
  6
BYLAYER
 10
48.6567745057
 20
72.5759918121
 11
48.6773707701
 21
72.6989785846
  0
LINE
  5
246
100
AcDbEntity
  8
0
100
AcDbLine
 62
7
  6
BYLAYER
 10
49.6235560175
 20
71.8068248789
 11
49.6542543269
 21
71.9213933251
  0
LINE
  5
247
100
AcDbEntity
  8
0
100
AcDbLine
 62
7
  6
BYLAYER
 10
50.3752528897
 20
71.9194929285
 11
50.2867446294
 21
71.5891733098
  0
LINE
  5
248
100
AcDbEntity
  8
0
100
AcDbLine
 62
7
  6
BYLAYER
 10
50.3372698725
 20
71.315736661
 11
50.3065715631
 21
71.2011682148
  0
LINE
  5
249
100
AcDbEntity
  8
0
100
AcDbLine
 62
7
  6
BYLAYER
 10
50.5707319905
 20
70.9524838965
 11
50.6112987122
 21
71.0577620814
  0
LINE
  5
24A
100
AcDbEntity
  8
0
100
AcDbLine
 62
7
  6
BYLAYER
 10
51.3313608204
 20
71.0193995601
 11
51.214400309
 21
70.7158652882
  0
LINE
  5
24B
100
AcDbEntity
  8
0
100
AcDbLine
 62
7
  6
BYLAYER
 10
51.2757645031
 20
70.3948809832
 11
51.2351977813
 21
70.2896027983
  0
LINE
  5
24C
100
AcDbEntity
  8
0
100
AcDbLine
 62
7
  6
BYLAYER
 10
51.4910938436
 20
70.0194709159
 11
51.5412202404
 21
70.1146576089
  0
LINE
  5
24D
100
AcDbEntity
  8
0
100
AcDbLine
 62
7
  6
BYLAYER
 10
52.25755653
 20
70.0416784171
 11
52.1130339076
 21
69.7672395712
  0
LINE
  5
24E
100
AcDbEntity
  8
0
100
AcDbLine
 62
7
  6
BYLAYER
 10
52.1820792906
 20
69.3995970019
 11
52.1319528938
 21
69.3044103088
  0
LINE
  5
24F
100
AcDbEntity
  8
0
100
AcDbLine
 62
7
  6
BYLAYER
 10
53.14679111
 20
68.9937705477
 11
52.975806281
 21
68.750515773
  0
LINE
  5
250
100
AcDbEntity
  8
0
100
AcDbLine
 62
7
  6
BYLAYER
 10
53.0493166323
 20
68.3374594292
 11
52.9900120526
 21
68.2530886562
  0
LINE
  5
251
100
AcDbEntity
  8
0
100
AcDbLine
 62
7
  6
BYLAYER
 10
55.2405192616
 20
59.6917844647
 11
53.3742880454
 21
58.6143218013
  0
LINE
  5
252
100
AcDbEntity
  8
0
100
AcDbLine
 62
7
  6
BYLAYER
 10
60.445326438
 20
62.6967633518
 11
62.3115576303
 21
63.7742260015
  0
LINE
  5
253
100
AcDbEntity
  8
0
100
AcDbLine
 62
7
  6
BYLAYER
 10
10.5659535451
 20
33.7136439833
 11
17.6369919172
 21
37.796085522
  0
LINE
  5
254
100
AcDbEntity
  8
0
100
AcDbLine
 62
7
  6
BYLAYER
 10
57.3529830815
 20
61.708472789
 11
57.0568286704
 21
61.6820168866
  0
LINE
  5
255
100
AcDbEntity
  8
0
100
AcDbLine
 62
7
  6
BYLAYER
 10
56.6331420309
 20
61.9430374638
 11
56.7358605762
 21
61.9522134602
  0
LINE
  5
256
100
AcDbEntity
  8
0
100
AcDbLine
 62
7
  6
BYLAYER
 10
57.5209258668
 20
59.7575611443
 11
57.4134294619
 21
59.7617416684
  0
LINE
  5
257
100
AcDbEntity
  8
0
100
AcDbLine
 62
7
  6
BYLAYER
 10
57.8158893041
 20
60.4144170901
 11
57.5059595402
 21
60.4264702268
  0
LINE
  5
258
100
AcDbEntity
  8
0
100
AcDbLine
 62
7
  6
BYLAYER
 10
57.114591979
 20
60.6742741653
 11
57.2220877231
 21
60.6700936668
  0
LINE
  5
259
100
AcDbEntity
  8
0
100
AcDbLine
 62
7
  6
BYLAYER
 10
57.872727003
 20
58.4806691646
 11
57.761270851
 21
58.498174393
  0
LINE
  5
25A
100
AcDbEntity
  8
0
100
AcDbLine
 62
7
  6
BYLAYER
 10
58.1995321284
 20
59.1234439367
 11
57.8781857643
 21
59.1739143808
  0
LINE
  5
25B
100
AcDbEntity
  8
0
100
AcDbLine
 62
7
  6
BYLAYER
 10
57.5194250815
 20
59.4050622506
 11
57.6308812335
 21
59.3875570222
  0
LINE
  5
25C
100
AcDbEntity
  8
0
100
AcDbLine
 62
7
  6
BYLAYER
 10
58.1421414282
 20
57.2200232275
 11
58.0275737777
 21
57.2507199347
  0
LINE
  5
25D
100
AcDbEntity
  8
0
100
AcDbLine
 62
7
  6
BYLAYER
 10
58.500991801
 20
57.8453784139
 11
58.1706744766
 21
57.9338820549
  0
LINE
  5
25E
100
AcDbEntity
  8
0
100
AcDbLine
 62
7
  6
BYLAYER
 10
57.8445603139
 20
58.1450611889
 11
57.9591279643
 21
58.1143644817
  0
LINE
  5
25F
100
AcDbEntity
  8
0
100
AcDbLine
 62
7
  6
BYLAYER
 10
58.3271187358
 20
55.9852176096
 11
58.2103115159
 21
56.0288721753
  0
LINE
  5
260
100
AcDbEntity
  8
0
100
AcDbLine
 62
7
  6
BYLAYER
 10
58.426251137
 20
54.7856499274
 11
58.3080933211
 21
54.8419301138
  0
LINE
  5
261
100
AcDbEntity
  8
0
100
AcDbLine
 62
7
  6
BYLAYER
 10
45.712784005
 20
74.3174132339
 11
45.7024465356
 21
74.4598187404
  0
LINE
  5
262
100
AcDbEntity
  8
0
100
AcDbLine
 62
7
  6
BYLAYER
 10
46.4068654947
 20
74.1242943399
 11
46.4172029641
 21
73.9818888333
  0
LINE
  5
263
100
AcDbEntity
  8
0
100
AcDbLine
 62
7
  6
BYLAYER
 10
46.6939192425
 20
73.9730394786
 11
46.6939192425
 21
73.8360810095
  0
LINE
  5
264
100
AcDbEntity
  8
0
100
AcDbLine
 62
7
  6
BYLAYER
 10
47.4010289677
 20
73.427840255
 11
47.4010260237
 21
74.088765731
  0
LINE
  5
265
100
AcDbEntity
  8
0
100
AcDbLine
 62
7
  6
BYLAYER
 10
48.4025788712
 20
73.460038254
 11
48.3727742517
 21
73.083874457
  0
LINE
  5
266
100
AcDbEntity
  8
0
100
AcDbLine
 62
7
  6
BYLAYER
 10
48.3925016747
 20
72.9067498169
 11
48.3821642053
 21
72.7762807218
  0
LINE
  5
267
100
AcDbEntity
  8
0
100
AcDbLine
 62
7
  6
BYLAYER
 10
49.3965092968
 20
72.7351082682
 11
49.3371268889
 21
72.3805172344
  0
LINE
  5
268
100
AcDbEntity
  8
0
100
AcDbLine
 62
7
  6
BYLAYER
 10
49.3737379097
 20
72.1551557677
 11
49.3531416452
 21
72.0321689952
  0
LINE
  5
269
100
AcDbEntity
  8
0
100
AcDbLine
 62
7
  6
BYLAYER
 10
28.645974508
 20
33.5368668042
 11
28.6547086371
 21
33.545326538
  0
LINE
  5
26A
100
AcDbEntity
  8
0
100
AcDbLine
 62
7
  6
BYLAYER
 10
55.5648151
 20
58.7497885322
 11
53.6623671922
 21
57.651416277
  0
LINE
  5
26B
100
AcDbEntity
  8
0
100
AcDbLine
 62
7
  6
BYLAYER
 10
60.733405549
 20
61.7338578068
 11
62.6358534875
 21
62.8322300798
  0
LINE
  5
26C
100
AcDbEntity
  8
0
100
AcDbLine
 62
7
  6
BYLAYER
 10
17.9470503936
 20
37.5084226994
 11
19.1340906618
 21
38.0957328366
  0
LINE
  5
26D
100
AcDbEntity
  8
0
100
AcDbLine
 62
7
  6
BYLAYER
 10
14.4099965511
 20
58.2218670633
 11
14.3960766554
 21
58.218561237
  0
LINE
  5
26E
100
AcDbEntity
  8
0
100
AcDbLine
 62
7
  6
BYLAYER
 10
58.7179740316
 20
56.589947372
 11
58.3811996612
 21
56.7158106437
  0
LINE
  5
26F
100
AcDbEntity
  8
0
100
AcDbLine
 62
7
  6
BYLAYER
 10
58.0875232008
 20
56.9038603491
 11
58.2043304207
 21
56.8602057835
  0
LINE
  5
270
100
AcDbEntity
  8
0
100
AcDbLine
 62
7
  6
BYLAYER
 10
58.8488274546
 20
55.3667053994
 11
58.5081590945
 21
55.5289704063
  0
LINE
  5
271
100
AcDbEntity
  8
0
100
AcDbLine
 62
7
  6
BYLAYER
 10
58.2464646478
 20
55.6909060189
 11
58.3646224637
 21
55.6346258325
  0
LINE
  5
272
100
AcDbEntity
  8
0
100
AcDbLine
 62
7
  6
BYLAYER
 10
58.4387841743
 20
53.6304496151
 11
58.3201750148
 21
53.6989270962
  0
LINE
  5
273
100
AcDbEntity
  8
0
100
AcDbLine
 62
7
  6
BYLAYER
 10
58.3201750148
 20
54.5154295133
 11
58.8925561963
 21
54.184962106
  0
LINE
  5
274
100
AcDbEntity
  8
0
100
AcDbLine
 62
7
  6
BYLAYER
 10
58.3646224637
 20
52.5284084448
 11
58.2464646478
 21
52.6085620654
  0
LINE
  5
275
100
AcDbEntity
  8
0
100
AcDbLine
 62
7
  6
BYLAYER
 10
58.3080933211
 20
53.3863769182
 11
58.426251137
 21
53.3062232975
  0
LINE
  5
276
100
AcDbEntity
  8
0
100
AcDbLine
 62
7
  6
BYLAYER
 10
58.2043304207
 20
51.4879136151
 11
58.0875232008
 21
51.5791333579
  0
LINE
  5
277
100
AcDbEntity
  8
0
100
AcDbLine
 62
7
  6
BYLAYER
 10
58.2103115159
 20
52.3123410056
 11
58.3271187358
 21
52.2211212628
  0
LINE
  5
278
100
AcDbEntity
  8
0
100
AcDbLine
 62
7
  6
BYLAYER
 10
57.9591279643
 20
50.51688392
 11
57.8445603139
 21
50.6184755476
  0
LINE
  5
279
100
AcDbEntity
  8
0
100
AcDbLine
 62
7
  6
BYLAYER
 10
58.0275737777
 20
51.3014958373
 11
58.1421414282
 21
51.1999042097
  0
LINE
  5
27A
100
AcDbEntity
  8
0
100
AcDbLine
 62
7
  6
BYLAYER
 10
57.6308812335
 20
49.6227094817
 11
57.5194250815
 21
49.7338998206
  0
LINE
  5
27B
100
AcDbEntity
  8
0
100
AcDbLine
 62
7
  6
BYLAYER
 10
57.761270851
 20
50.3615345554
 11
57.872727003
 21
50.2503442166
  0
LINE
  5
27C
100
AcDbEntity
  8
0
100
AcDbLine
 62
7
  6
BYLAYER
 10
57.2220877231
 20
48.812196245
 11
57.114591979
 21
48.9321383321
  0
LINE
  5
27D
100
AcDbEntity
  8
0
100
AcDbLine
 62
7
  6
BYLAYER
 10
57.4134294619
 20
49.4996108329
 11
57.5209258668
 21
49.3796680084
  0
LINE
  5
27E
100
AcDbEntity
  8
0
100
AcDbLine
 62
7
  6
BYLAYER
 10
56.7358605762
 20
48.0915104987
 11
56.6331420309
 21
48.2192929714
  0
LINE
  5
27F
100
AcDbEntity
  8
0
100
AcDbLine
 62
7
  6
BYLAYER
 10
56.9866968934
 20
48.7222844297
 11
57.0894154387
 21
48.5945019569
  0
LINE
  5
280
100
AcDbEntity
  8
0
100
AcDbLine
 62
7
  6
BYLAYER
 10
56.1758982973
 20
47.4661393028
 11
56.0787393618
 21
47.600788922
  0
LINE
  5
281
100
AcDbEntity
  8
0
100
AcDbLine
 62
7
  6
BYLAYER
 10
56.4843208381
 20
48.035471269
 11
56.5814797736
 21
47.9008216498
  0
LINE
  5
282
100
AcDbEntity
  8
0
100
AcDbLine
 62
7
  6
BYLAYER
 10
55.9172606886
 20
47.4333643698
 11
56.0009845685
 21
47.303906413
  0
LINE
  5
283
100
AcDbEntity
  8
0
100
AcDbLine
 62
7
  6
BYLAYER
 10
40.2396951919
 20
75.0605756173
 11
40.2240718818
 21
75.0953597518
  0
LINE
  5
284
100
AcDbEntity
  8
0
100
AcDbLine
 62
7
  6
BYLAYER
 10
40.8033022587
 20
75.2292750499
 11
40.8713336777
 21
75.0778081704
  0
LINE
  5
285
100
AcDbEntity
  8
0
100
AcDbLine
 62
7
  6
BYLAYER
 10
41.1049361577
 20
75.1147851911
 11
41.0456315779
 21
75.2676334452
  0
LINE
  5
286
100
AcDbEntity
  8
0
100
AcDbLine
 62
7
  6
BYLAYER
 10
41.6580065631
 20
75.3223377895
 11
41.7173111429
 21
75.1694895354
  0
LINE
  5
287
100
AcDbEntity
  8
0
100
AcDbLine
 62
7
  6
BYLAYER
 10
41.9629953164
 20
75.1753278855
 11
41.9128689196
 21
75.3283942466
  0
LINE
  5
288
100
AcDbEntity
  8
0
100
AcDbLine
 62
7
  6
BYLAYER
 10
42.5537279698
 20
75.303471304
 11
42.6038543667
 21
75.150404943
  0
LINE
  5
289
100
AcDbEntity
  8
0
100
AcDbLine
 62
7
  6
BYLAYER
 10
42.8597504289
 20
75.1250601891
 11
42.8191837072
 21
75.2771797297
  0
LINE
  5
28A
100
AcDbEntity
  8
0
100
AcDbLine
 62
7
  6
BYLAYER
 10
43.483649498
 20
75.1728191789
 11
43.5242162197
 21
75.0206996383
  0
LINE
  5
28B
100
AcDbEntity
  8
0
100
AcDbLine
 62
7
  6
BYLAYER
 10
43.7883766472
 20
74.9643646692
 11
43.7576783378
 21
75.1143796679
  0
LINE
  5
28C
100
AcDbEntity
  8
0
100
AcDbLine
 62
7
  6
BYLAYER
 10
44.4406938833
 20
74.9313757557
 11
44.4713921927
 21
74.781360757
  0
LINE
  5
28D
100
AcDbEntity
  8
0
100
AcDbLine
 62
7
  6
BYLAYER
 10
44.741806565
 20
74.6944643159
 11
44.7212103006
 21
74.841233068
  0
LINE
  5
28E
100
AcDbEntity
  8
0
100
AcDbLine
 62
7
  6
BYLAYER
 10
45.4175774401
 20
74.5809785646
 11
45.4381737045
 21
74.4342098126
  0
LINE
  5
28F
100
AcDbEntity
  8
0
100
AcDbLine
 62
7
  6
BYLAYER
 10
28.6410179335
 20
33.5592982985
 11
28.6323878598
 21
33.5510047441
  0
LINE
  5
290
100
AcDbEntity
  8
0
100
AcDbLine
 62
7
  6
BYLAYER
 10
28.583861179
 20
33.504370302
 11
28.5752395777
 21
33.4960848894
  0
LINE
  5
291
100
AcDbEntity
  8
0
100
AcDbLine
 62
7
  6
BYLAYER
 10
19.8788652173
 20
37.8092863239
 11
22.12733397
 21
38.5277567195
  0
LINE
  5
292
100
AcDbEntity
  8
0
100
AcDbLine
 62
7
  6
BYLAYER
 10
51.4941552928
 20
43.1062978801
 11
52.3648153219
 21
45.0307835564
  0
LWPOLYLINE
  5
293
100
AcDbEntity
  8
0
100
AcDbPolyline
 62
7
  6
BYLAYER
 90
3
 70
0
 10
55.9302820635
 20
47.865682266
 10
56.8727265172
 20
48.5752574386
 10
56.9616466789
 20
48.6919021564
  0
LINE
  5
294
100
AcDbEntity
  8
0
100
AcDbLine
 62
7
  6
BYLAYER
 10
28.6516772676
 20
33.5410990008
 11
28.6416880049
 21
33.5350962589
  0
LINE
  5
295
100
AcDbEntity
  8
0
100
AcDbLine
 62
7
  6
BYLAYER
 10
69.3751747074
 20
57.0516968636
 11
63.0449594644
 21
53.3969672048
  0
LINE
  5
296
100
AcDbEntity
  8
0
100
AcDbLine
 62
7
  6
BYLAYER
 10
28.585322309
 20
33.5018443968
 11
26.595392556
 21
32.3529255544
  0
LINE
  5
297
100
AcDbEntity
  8
0
100
AcDbLine
 62
7
  6
BYLAYER
 10
48.2447888558
 20
43.9861116142
 11
32.1676040807
 21
34.7040000632
  0
LINE
  5
298
100
AcDbEntity
  8
0
100
AcDbLine
 62
7
  6
BYLAYER
 10
28.6341002379
 20
33.530010084
 11
31.2622778816
 21
35.0473369699
  0
LWPOLYLINE
  5
299
100
AcDbEntity
  8
0
100
AcDbPolyline
 62
7
  6
BYLAYER
 90
4
 70
0
 10
55.7409410157
 20
45.0652246139
 10
56.5424514961
 20
45.3126482754
 10
58.565193665
 20
47.1887394188
 10
59.8367365343
 20
49.9993267401
  0
LINE
  5
29A
100
AcDbEntity
  8
0
100
AcDbLine
 62
7
  6
BYLAYER
 10
59.0718708597
 20
54.2447333807
 11
58.6040543784
 21
50.7609782859
  0
LINE
  5
29B
100
AcDbEntity
  8
0
100
AcDbLine
 62
7
  6
BYLAYER
 10
58.6040543784
 20
50.7609782859
 11
57.4011287982
 21
48.414475396
  0
LINE
  5
29C
100
AcDbEntity
  8
0
100
AcDbLine
 62
7
  6
BYLAYER
 10
56.8106925124
 20
47.7786531902
 11
56.149870398
 21
47.2795138305
  0
LINE
  5
29D
100
AcDbEntity
  8
0
100
AcDbLine
 62
7
  6
BYLAYER
 10
56.111545596
 20
47.2505659234
 11
55.9071036609
 21
47.0961446134
  0
LWPOLYLINE
  5
29E
100
AcDbEntity
  8
0
100
AcDbPolyline
 62
7
  6
BYLAYER
 90
3
 70
0
 10
46.8353989178
 20
40.4164777805
 10
49.471413124
 20
41.2302067367
 10
51.4941552928
 20
43.1062978801
  0
LINE
  5
29F
100
AcDbEntity
  8
0
100
AcDbLine
 62
7
  6
BYLAYER
 10
39.9927947224
 20
75.3216514594
 11
42.7517271209
 21
75.7763033533
  0
LINE
  5
2A0
100
AcDbEntity
  8
0
100
AcDbLine
 62
7
  6
BYLAYER
 10
42.7517271209
 20
75.7763033533
 11
45.9006392321
 21
75.0263661757
  0
LWPOLYLINE
  5
2A1
100
AcDbEntity
  8
0
100
AcDbPolyline
 62
7
  6
BYLAYER
 90
7
 70
0
 10
45.9006392321
 20
75.0263661757
 10
49.1817897
 20
73.1324450343
 10
52.3280285297
 20
70.2502566168
 10
55.0855453738
 20
66.614596013
 10
57.2354788659
 20
62.513549599
 10
58.6018931025
 20
58.278392682
 10
59.0718708597
 20
54.2447333807
  0
LINE
  5
2A2
100
AcDbEntity
  8
0
100
AcDbLine
 62
7
  6
BYLAYER
 10
59.8367365343
 20
49.9993267401
 11
60.2704218438
 21
53.5527653017
  0
LINE
  5
2A3
100
AcDbEntity
  8
0
100
AcDbLine
 62
7
  6
BYLAYER
 10
55.5648151154
 20
42.9222078735
 11
53.6623671768
 21
41.8238356004
  0
LINE
  5
2A4
100
AcDbEntity
  8
0
100
AcDbLine
 62
7
  6
BYLAYER
 10
60.7334055644
 20
45.906277148
 11
62.6358534721
 21
47.0046494033
  0
LINE
  5
2A5
100
AcDbEntity
  8
0
100
AcDbLine
 62
7
  6
BYLAYER
 10
55.2405192362
 20
42.3128491899
 11
53.3742880676
 21
41.235386554
  0
LINE
  5
2A6
100
AcDbEntity
  8
0
100
AcDbLine
 62
7
  6
BYLAYER
 10
60.4453264392
 20
45.3178280923
 11
62.311557612
 21
46.3952907307
  0
LWPOLYLINE
  5
2A7
100
AcDbEntity
  8
0
100
AcDbPolyline
 62
7
  6
BYLAYER
 90
3
 70
0
 10
62.4802379816
 20
63.8115886535
 10
63.3696362312
 20
59.7962416185
 10
63.4522773668
 20
58.247712344
  0
LINE
  5
2A8
100
AcDbEntity
  8
0
100
AcDbLine
 62
7
  6
BYLAYER
 10
62.1791862781
 20
81.1338593218
 11
62.1675313074
 21
81.1402927111
  0
LINE
  5
2A9
100
AcDbEntity
  8
0
100
AcDbLine
 62
7
  6
BYLAYER
 10
67.0810486721
 20
76.8143654451
 11
67.1022263468
 21
76.7887413511
  0
LINE
  5
2AA
100
AcDbEntity
  8
0
100
AcDbLine
 62
7
  6
BYLAYER
 10
67.0810486721
 20
76.8143654451
 11
67.1014565787
 21
76.7875679834
  0
ARC
  5
2AB
100
AcDbEntity
  8
0
100
AcDbCircle
 62
7
  6
BYLAYER
 10
-20.408737274
 20
34.769736665
 40
87.6579009069
100
AcDbArc
 50
18.6711799013
 51
19.3223649765
  0
ARC
  5
2AC
100
AcDbEntity
  8
0
100
AcDbCircle
 62
7
  6
BYLAYER
 10
-27.4673959101
 20
30.6915570312
 40
87.6448083074
100
AcDbArc
 50
18.671131263
 51
19.3224136149
  0
ARC
  5
2AD
100
AcDbEntity
  8
0
100
AcDbCircle
 62
7
  6
BYLAYER
 10
20.406739632
 20
19.2756727096
 40
66.6035564472
100
AcDbArc
 50
63.4318691679
 51
64.1191974228
  0
ARC
  5
2AE
100
AcDbEntity
  8
0
100
AcDbCircle
 62
7
  6
BYLAYER
 10
13.4107795024
 20
15.3456459767
 40
66.4336565521
100
AcDbArc
 50
63.430990258
 51
64.1200763328
  0
ARC
  5
2AF
100
AcDbEntity
  8
0
100
AcDbCircle
 62
7
  6
BYLAYER
 10
13.2993529944
 20
41.2845847782
 40
10.8706285629
100
AcDbArc
 50
39.6093173244
 51
41.2124518337
  0
ARC
  5
2B0
100
AcDbEntity
  8
0
100
AcDbCircle
 62
7
  6
BYLAYER
 10
13.3541645782
 20
41.3118563166
 40
10.5611228797
100
AcDbArc
 50
39.6093172286
 51
41.2124519294
  0
ARC
  5
2B1
100
AcDbEntity
  8
0
100
AcDbCircle
 62
7
  6
BYLAYER
 10
26.1998422304
 20
37.6098996121
 40
4.7504350177
100
AcDbArc
 50
300.1430303733
 51
300.9322408605
  0
ARC
  5
2B2
100
AcDbEntity
  8
0
100
AcDbCircle
 62
7
  6
BYLAYER
 10
26.2718492494
 20
37.6484928843
 40
4.7478553378
100
AcDbArc
 50
299.5558667949
 51
299.8374230753
  0
ARC
  5
2B3
100
AcDbEntity
  8
0
100
AcDbCircle
 62
7
  6
BYLAYER
 10
21.5727274618
 20
40.7962732778
 40
2.4950006299
100
AcDbArc
 50
282.6582014587
 51
284.8002221784
  0
ARC
  5
2B4
100
AcDbEntity
  8
0
100
AcDbCircle
 62
7
  6
BYLAYER
 10
18.3741822255
 20
40.2403171601
 40
1.0115774442
100
AcDbArc
 50
164.378788666
 51
164.7177492029
  0
ARC
  5
2B5
100
AcDbEntity
  8
0
100
AcDbCircle
 62
7
  6
BYLAYER
 10
30.977737687
 20
51.3364983642
 40
27.8617179684
100
AcDbArc
 50
28.1385904214
 51
28.973679964
  0
ARC
  5
2B6
100
AcDbEntity
  8
0
100
AcDbCircle
 62
7
  6
BYLAYER
 10
30.9768916244
 20
51.338047802
 40
27.8616759529
100
AcDbArc
 50
31.0265957916
 51
31.8616861738
  0
ARC
  5
2B7
100
AcDbEntity
  8
0
100
AcDbCircle
 62
7
  6
BYLAYER
 10
31.1448496138
 20
51.4329899545
 40
27.5719514869
100
AcDbArc
 50
28.149397214
 51
28.9628731713
  0
ARC
  5
2B8
100
AcDbEntity
  8
0
100
AcDbCircle
 62
7
  6
BYLAYER
 10
31.1440118823
 20
51.4345240891
 40
27.5719099081
100
AcDbArc
 50
31.0374025952
 51
31.8508793704
  0
ARC
  5
2B9
100
AcDbEntity
  8
0
100
AcDbCircle
 62
7
  6
BYLAYER
 10
31.31694306
 20
51.5595809287
 40
27.455794323
100
AcDbArc
 50
33.9252895398
 51
34.7684334636
  0
ARC
  5
2BA
100
AcDbEntity
  8
0
100
AcDbCircle
 62
7
  6
BYLAYER
 10
31.3667538179
 20
51.5332578879
 40
27.4257326852
100
AcDbArc
 50
25.2313858187
 51
26.0754552111
  0
ARC
  5
2BB
100
AcDbEntity
  8
0
100
AcDbCircle
 62
7
  6
BYLAYER
 10
31.5294807872
 20
51.627539256
 40
27.1408769758
100
AcDbArc
 50
25.2423145249
 51
26.0645265049
  0
ARC
  5
2BC
100
AcDbEntity
  8
0
100
AcDbCircle
 62
7
  6
BYLAYER
 10
31.5048807276
 20
51.6703967254
 40
27.140752277
100
AcDbArc
 50
33.9357542428
 51
34.7579687607
  0
ARC
  5
2BD
100
AcDbEntity
  8
0
100
AcDbCircle
 62
7
  6
BYLAYER
 10
31.9765358411
 20
52.036322688
 40
26.6418683528
100
AcDbArc
 50
36.8641070452
 51
37.724232304
  0
ARC
  5
2BE
100
AcDbEntity
  8
0
100
AcDbCircle
 62
7
  6
BYLAYER
 10
32.1271494662
 20
51.8718491888
 40
26.5932774652
100
AcDbArc
 50
22.2752746712
 51
23.1369737344
  0
ARC
  5
2BF
100
AcDbEntity
  8
0
100
AcDbCircle
 62
7
  6
BYLAYER
 10
32.238351787
 20
51.9443785873
 40
26.3643503688
100
AcDbArc
 50
22.2871843468
 51
23.1250640587
  0
ARC
  5
2C0
100
AcDbEntity
  8
0
100
AcDbCircle
 62
7
  6
BYLAYER
 10
32.1711833015
 20
52.1544230407
 40
26.3171173415
100
AcDbArc
 50
36.8744789615
 51
37.7138603878
  0
ARC
  5
2C1
100
AcDbEntity
  8
0
100
AcDbCircle
 62
7
  6
BYLAYER
 10
32.8961817512
 20
52.7756477216
 40
25.4617661126
100
AcDbArc
 50
39.8741024371
 51
40.7604956362
  0
ARC
  5
2C2
100
AcDbEntity
  8
0
100
AcDbCircle
 62
7
  6
BYLAYER
 10
33.2559916718
 20
52.3062197945
 40
25.3836196413
100
AcDbArc
 50
19.2383614943
 51
20.1274861833
  0
ARC
  5
2C3
100
AcDbEntity
  8
0
100
AcDbCircle
 62
7
  6
BYLAYER
 10
33.3271531889
 20
52.3667344208
 40
25.1963779301
100
AcDbArc
 50
19.2512757315
 51
20.1147504339
  0
ARC
  5
2C4
100
AcDbEntity
  8
0
100
AcDbCircle
 62
7
  6
BYLAYER
 10
33.0919230119
 20
52.8984017965
 40
25.1332419956
100
AcDbArc
 50
39.8844786412
 51
40.7501194321
  0
ARC
  5
2C5
100
AcDbEntity
  8
0
100
AcDbCircle
 62
7
  6
BYLAYER
 10
34.009036235
 20
53.7722561188
 40
23.9677191753
100
AcDbArc
 50
42.9884180348
 51
43.9111635223
  0
ARC
  5
2C6
100
AcDbEntity
  8
0
100
AcDbCircle
 62
7
  6
BYLAYER
 10
34.6771563715
 20
52.7676615392
 40
23.8892549328
100
AcDbArc
 50
16.0876562734
 51
17.0134367624
  0
ARC
  5
2C7
100
AcDbEntity
  8
0
100
AcDbCircle
 62
7
  6
BYLAYER
 10
34.7320308118
 20
52.8273450701
 40
23.7177507557
100
AcDbArc
 50
16.1010996601
 51
16.9999933757
  0
ARC
  5
2C8
100
AcDbEntity
  8
0
100
AcDbCircle
 62
7
  6
BYLAYER
 10
34.2004998567
 20
53.8963540782
 40
23.6414791623
100
AcDbArc
 50
42.998895931
 51
43.9006856261
  0
ARC
  5
2C9
100
AcDbEntity
  8
0
100
AcDbCircle
 62
7
  6
BYLAYER
 10
35.2409570394
 20
55.0054225132
 40
22.2244236991
100
AcDbArc
 50
46.24335243
 51
47.2136264318
  0
ARC
  5
2CA
100
AcDbEntity
  8
0
100
AcDbCircle
 62
7
  6
BYLAYER
 10
22.3777448658
 20
46.2564423663
 40
9.5432052801
100
AcDbArc
 50
219.6148227556
 51
219.7671067211
  0
ARC
  5
2CB
100
AcDbEntity
  8
0
100
AcDbCircle
 62
7
  6
BYLAYER
 10
22.2069125754
 20
46.1123924843
 40
9.3197508263
100
AcDbArc
 50
219.7582045545
 51
223.534431398
  0
ARC
  5
2CC
100
AcDbEntity
  8
0
100
AcDbCircle
 62
7
  6
BYLAYER
 10
21.6386652556
 20
45.5747085383
 40
8.5374425527
100
AcDbArc
 50
223.545193415
 51
228.0978594813
  0
ARC
  5
2CD
100
AcDbEntity
  8
0
100
AcDbCircle
 62
7
  6
BYLAYER
 10
16.7700659618
 20
54.1071731536
 40
4.7475812482
100
AcDbArc
 50
119.0337376539
 51
119.8374288981
  0
ARC
  5
2CE
100
AcDbEntity
  8
0
100
AcDbCircle
 62
7
  6
BYLAYER
 10
16.6964970088
 20
54.0711411441
 40
4.7420077044
100
AcDbArc
 50
118.9481278962
 51
120.0018307473
  0
ARC
  5
2CF
100
AcDbEntity
  8
0
100
AcDbCircle
 62
7
  6
BYLAYER
 10
36.3721196721
 20
53.2159391321
 40
22.1357967535
100
AcDbArc
 50
12.7847986231
 51
13.758962844
  0
ARC
  5
2D0
100
AcDbEntity
  8
0
100
AcDbCircle
 62
7
  6
BYLAYER
 10
42.3292755333
 20
48.712049899
 40
10.8042462576
100
AcDbArc
 50
344.1480848642
 51
344.3494570665
  0
ARC
  5
2D1
100
AcDbEntity
  8
0
100
AcDbCircle
 62
7
  6
BYLAYER
 10
43.0410056371
 20
48.4969293655
 40
10.060829817
100
AcDbArc
 50
339.314835785
 51
344.2194378464
  0
ARC
  5
2D2
100
AcDbEntity
  8
0
100
AcDbCircle
 62
7
  6
BYLAYER
 10
39.493044411
 20
56.5143437653
 40
23.9342771862
100
AcDbArc
 50
39.2664010069
 51
39.6146423545
  0
ARC
  5
2D3
100
AcDbEntity
  8
0
100
AcDbCircle
 62
7
  6
BYLAYER
 10
40.472898002
 20
56.3887956325
 40
23.1347314515
100
AcDbArc
 50
18.3529221544
 51
18.6882645703
  0
ARC
  5
2D4
100
AcDbEntity
  8
0
100
AcDbCircle
 62
7
  6
BYLAYER
 10
40.8462534483
 20
56.5116878802
 40
22.7416717375
100
AcDbArc
 50
16.5320740791
 51
18.3552320042
  0
ARC
  5
2D5
100
AcDbEntity
  8
0
100
AcDbCircle
 62
7
  6
BYLAYER
 10
41.3432360707
 20
56.8801567734
 40
22.2535733536
100
AcDbArc
 50
18.1471390564
 51
18.3866686925
  0
ARC
  5
2D6
100
AcDbEntity
  8
0
100
AcDbCircle
 62
7
  6
BYLAYER
 10
36.3985303591
 20
53.272925963
 40
21.992496504
100
AcDbArc
 50
12.7992804408
 51
13.7444810263
  0
ARC
  5
2D7
100
AcDbEntity
  8
0
100
AcDbCircle
 62
7
  6
BYLAYER
 10
41.5797884452
 20
56.730948658
 40
21.9760640181
100
AcDbArc
 50
15.7024718273
 51
16.0838820632
  0
ARC
  5
2D8
100
AcDbEntity
  8
0
100
AcDbCircle
 62
7
  6
BYLAYER
 10
35.4233215354
 20
55.1270625876
 40
21.9063461833
100
AcDbArc
 50
46.2540331268
 51
47.202945735
  0
ARC
  5
2D9
100
AcDbEntity
  8
0
100
AcDbCircle
 62
7
  6
BYLAYER
 10
36.4891447032
 20
56.4087348594
 40
20.34607294
100
AcDbArc
 50
49.6797716196
 51
50.5328734783
  0
ARC
  5
2DA
100
AcDbEntity
  8
0
100
AcDbCircle
 62
7
  6
BYLAYER
 10
38.2028196341
 20
53.5884173654
 40
20.2673410872
100
AcDbArc
 50
9.4658726726
 51
10.3222987194
  0
ARC
  5
2DB
100
AcDbEntity
  8
0
100
AcDbCircle
 62
7
  6
BYLAYER
 10
38.2587647305
 20
53.6553704021
 40
20.0930920818
100
AcDbArc
 50
9.3039571558
 51
10.3077098257
  0
ARC
  5
2DC
100
AcDbEntity
  8
0
100
AcDbCircle
 62
7
  6
BYLAYER
 10
38.4467243646
 20
53.6293552136
 40
20.020024787
100
AcDbArc
 50
9.28706044
 51
9.4651061678
  0
ARC
  5
2DD
100
AcDbEntity
  8
0
100
AcDbCircle
 62
7
  6
BYLAYER
 10
36.6972987189
 20
56.6602044819
 40
20.0196310132
100
AcDbArc
 50
50.5353053083
 51
50.7133580181
  0
ARC
  5
2DE
100
AcDbEntity
  8
0
100
AcDbCircle
 62
7
  6
BYLAYER
 10
36.6848037566
 20
56.5551614479
 40
20.0006136776
100
AcDbArc
 50
49.6903844947
 51
50.698771895
  0
ARC
  5
2DF
100
AcDbEntity
  8
0
100
AcDbCircle
 62
7
  6
BYLAYER
 10
37.7310092995
 20
57.9904110775
 40
18.334797178
100
AcDbArc
 50
53.3427615283
 51
54.2328771924
  0
ARC
  5
2E0
100
AcDbEntity
  8
0
100
AcDbCircle
 62
7
  6
BYLAYER
 10
40.2606044807
 20
53.8752930624
 40
18.1893023211
100
AcDbArc
 50
5.5505253055
 51
6.6611973851
  0
ARC
  5
2E1
100
AcDbEntity
  8
0
100
AcDbCircle
 62
7
  6
BYLAYER
 10
40.2356927618
 20
53.9351629812
 40
18.0961470359
100
AcDbArc
 50
5.5677689492
 51
6.6439537413
  0
ARC
  5
2E2
100
AcDbEntity
  8
0
100
AcDbCircle
 62
7
  6
BYLAYER
 10
42.2936989963
 20
54.0191067868
 40
16.1507531391
100
AcDbArc
 50
1.5179846205
 51
2.7203804167
  0
ARC
  5
2E3
100
AcDbEntity
  8
0
100
AcDbCircle
 62
7
  6
BYLAYER
 10
42.2479909635
 20
54.0841748731
 40
16.0779688003
100
AcDbArc
 50
1.5370122245
 51
2.7013528128
  0
ARC
  5
2E4
100
AcDbEntity
  8
0
100
AcDbCircle
 62
7
  6
BYLAYER
 10
44.2774639122
 20
54.0155030707
 40
14.166554194
100
AcDbArc
 50
357.1301606253
 51
358.4424825567
  0
ARC
  5
2E5
100
AcDbEntity
  8
0
100
AcDbCircle
 62
7
  6
BYLAYER
 10
44.2151891664
 20
54.0876497261
 40
14.110341281
100
AcDbArc
 50
357.1512714947
 51
358.4213716873
  0
ARC
  5
2E6
100
AcDbEntity
  8
0
100
AcDbCircle
 62
7
  6
BYLAYER
 10
49.2414979627
 20
53.1954992763
 40
9.1198713298
100
AcDbArc
 50
341.1592903256
 51
342.9196825971
  0
ARC
  5
2E7
100
AcDbEntity
  8
0
100
AcDbCircle
 62
7
  6
BYLAYER
 10
50.4054637629
 20
52.7451961364
 40
7.8712502522
100
AcDbArc
 50
334.6864130185
 51
336.6282629079
  0
ARC
  5
2E8
100
AcDbEntity
  8
0
100
AcDbCircle
 62
7
  6
BYLAYER
 10
50.3220750612
 20
52.8489603329
 40
7.8425409983
100
AcDbArc
 50
334.7179548699
 51
336.5967210566
  0
ARC
  5
2E9
100
AcDbEntity
  8
0
100
AcDbCircle
 62
7
  6
BYLAYER
 10
51.2888874453
 20
52.2788690377
 40
6.8717309165
100
AcDbArc
 50
327.5771900987
 51
329.7029480567
  0
ARC
  5
2EA
100
AcDbEntity
  8
0
100
AcDbCircle
 62
7
  6
BYLAYER
 10
51.2082114138
 20
52.3878717384
 40
6.8430566822
100
AcDbArc
 50
327.6109652836
 51
329.6687467608
  0
ARC
  5
2EB
100
AcDbEntity
  8
0
100
AcDbCircle
 62
7
  6
BYLAYER
 10
51.8948276631
 20
51.8529507503
 40
6.1305817368
100
AcDbArc
 50
319.8599550814
 51
322.1531055672
  0
ARC
  5
2EC
100
AcDbEntity
  8
0
100
AcDbCircle
 62
7
  6
BYLAYER
 10
51.8216874455
 20
51.9624708372
 40
6.0960213058
100
AcDbArc
 50
319.8949841363
 51
322.1180765125
  0
ARC
  5
2ED
100
AcDbEntity
  8
0
100
AcDbCircle
 62
7
  6
BYLAYER
 10
52.1845738607
 20
52.4300721005
 40
6.0694783786
100
AcDbArc
 50
321.9472248537
 51
322.3178428876
  0
ARC
  5
2EE
100
AcDbEntity
  8
0
100
AcDbCircle
 62
7
  6
BYLAYER
 10
52.2531533623
 20
51.5200939805
 40
5.6411414052
100
AcDbArc
 50
311.634366208
 51
314.0576194514
  0
ARC
  5
2EF
100
AcDbEntity
  8
0
100
AcDbCircle
 62
7
  6
BYLAYER
 10
52.1858394382
 20
51.6288473349
 40
5.6017786811
100
AcDbArc
 50
311.7757140103
 51
314.0224340008
  0
ARC
  5
2F0
100
AcDbEntity
  8
0
100
AcDbCircle
 62
7
  6
BYLAYER
 10
48.9012197608
 20
57.8364830408
 40
14.5511458958
100
AcDbArc
 50
0.0115810204
 51
1.5798982977
  0
ARC
  5
2F1
100
AcDbEntity
  8
0
100
AcDbCircle
 62
7
  6
BYLAYER
 10
46.1369560908
 20
53.8648361438
 40
12.3004822638
100
AcDbArc
 50
352.3205863599
 51
353.7625924666
  0
ARC
  5
2F2
100
AcDbEntity
  8
0
100
AcDbCircle
 62
7
  6
BYLAYER
 10
46.0627231844
 20
53.9452443051
 40
12.2568460649
100
AcDbArc
 50
352.3440780885
 51
353.7391007381
  0
ARC
  5
2F3
100
AcDbEntity
  8
0
100
AcDbCircle
 62
7
  6
BYLAYER
 10
47.8080838303
 20
53.5820245904
 40
10.6050574701
100
AcDbArc
 50
347.0193975965
 51
348.6113338888
  0
ARC
  5
2F4
100
AcDbEntity
  8
0
100
AcDbCircle
 62
7
  6
BYLAYER
 10
47.7265634289
 20
53.6710526923
 40
10.5700337698
100
AcDbArc
 50
347.0455213968
 51
348.5852100885
  0
ARC
  5
2F5
100
AcDbEntity
  8
0
100
AcDbCircle
 62
7
  6
BYLAYER
 10
53.7996602656
 20
57.3611406939
 40
9.6174120178
100
AcDbArc
 50
346.5921017159
 51
346.8192651511
  0
ARC
  5
2F6
100
AcDbEntity
  8
0
100
AcDbCircle
 62
7
  6
BYLAYER
 10
49.1571075004
 20
53.2926123929
 40
9.0897109004
100
AcDbArc
 50
341.1881749971
 51
342.8907979256
  0
ARC
  5
2F7
100
AcDbEntity
  8
0
100
AcDbCircle
 62
7
  6
BYLAYER
 10
37.9124622211
 20
58.1331771928
 40
18.0009761013
100
AcDbArc
 50
53.3536683005
 51
54.435535042
  0
ARC
  5
2F8
100
AcDbEntity
  8
0
100
AcDbCircle
 62
7
  6
BYLAYER
 10
37.9271955572
 20
58.2612568872
 40
18.0003637542
100
AcDbArc
 50
54.235672353
 51
54.4513406826
  0
ARC
  5
2F9
100
AcDbEntity
  8
0
100
AcDbCircle
 62
7
  6
BYLAYER
 10
38.906478676
 20
59.7143801313
 40
16.2478146178
100
AcDbArc
 50
57.2837415477
 51
58.4789443315
  0
ARC
  5
2FA
100
AcDbEntity
  8
0
100
AcDbCircle
 62
7
  6
BYLAYER
 10
39.0417496795
 20
59.8043846131
 40
15.9836195477
100
AcDbArc
 50
57.2957408798
 51
58.4669449994
  0
ARC
  5
2FB
100
AcDbEntity
  8
0
100
AcDbCircle
 62
7
  6
BYLAYER
 10
45.6281348644
 20
63.7101709852
 40
14.4343614098
100
AcDbArc
 50
58.3835616918
 51
59.9968758138
  0
ARC
  5
2FC
100
AcDbEntity
  8
0
100
AcDbCircle
 62
7
  6
BYLAYER
 10
39.9035384162
 20
61.4341676282
 40
14.2594733089
100
AcDbArc
 50
61.5623995727
 51
62.866157907
  0
ARC
  5
2FD
100
AcDbEntity
  8
0
100
AcDbCircle
 62
7
  6
BYLAYER
 10
40.0203092417
 20
61.5062857648
 40
14.0200185884
100
AcDbArc
 50
61.5751429741
 51
62.8534145056
  0
ARC
  5
2FE
100
AcDbEntity
  8
0
100
AcDbCircle
 62
7
  6
BYLAYER
 10
45.9379546583
 20
64.2486211998
 40
13.8131400315
100
AcDbArc
 50
59.9929470352
 51
61.3806316026
  0
ARC
  5
2FF
100
AcDbEntity
  8
0
100
AcDbCircle
 62
7
  6
BYLAYER
 10
40.7124851694
 20
63.1229689421
 40
12.3864392699
100
AcDbArc
 50
66.2431068528
 51
67.6750917547
  0
ARC
  5
300
100
AcDbEntity
  8
0
100
AcDbCircle
 62
7
  6
BYLAYER
 10
40.8113551735
 20
63.1744779728
 40
12.1732908789
100
AcDbArc
 50
66.2568068857
 51
67.6613917218
  0
ARC
  5
301
100
AcDbEntity
  8
0
100
AcDbCircle
 62
7
  6
BYLAYER
 10
41.3132934784
 20
64.7176272833
 40
10.6818205916
100
AcDbArc
 50
71.3951854037
 51
72.9756650906
  0
ARC
  5
302
100
AcDbEntity
  8
0
100
AcDbCircle
 62
7
  6
BYLAYER
 10
41.3959522178
 20
64.7466502242
 40
10.4954154999
100
AcDbArc
 50
71.4101149765
 51
72.9607355178
  0
ARC
  5
303
100
AcDbEntity
  8
0
100
AcDbCircle
 62
7
  6
BYLAYER
 10
41.704991879
 20
66.1608174468
 40
9.1858477097
100
AcDbArc
 50
77.0875545259
 51
78.8352846371
  0
ARC
  5
304
100
AcDbEntity
  8
0
100
AcDbCircle
 62
7
  6
BYLAYER
 10
41.7740398301
 20
66.1664385696
 40
9.0255779021
100
AcDbArc
 50
77.1040670167
 51
78.8187721463
  0
ARC
  5
305
100
AcDbEntity
  8
0
100
AcDbCircle
 62
7
  6
BYLAYER
 10
41.9054248875
 20
67.4045616393
 40
7.9254697513
100
AcDbArc
 50
83.3794193059
 51
85.3079651803
  0
ARC
  5
306
100
AcDbEntity
  8
0
100
AcDbCircle
 62
7
  6
BYLAYER
 10
41.9641335679
 20
67.3868807963
 40
7.789836319
100
AcDbArc
 50
83.3979618103
 51
85.2894226759
  0
ARC
  5
307
100
AcDbEntity
  8
0
100
AcDbCircle
 62
7
  6
BYLAYER
 10
42.1828260568
 20
70.6437448746
 40
6.9157239789
100
AcDbArc
 50
140.9570574613
 51
142.1822170038
  0
ARC
  5
308
100
AcDbEntity
  8
0
100
AcDbCircle
 62
7
  6
BYLAYER
 10
41.949697965
 20
68.4131157214
 40
6.9153765957
100
AcDbArc
 50
90.3051401189
 51
92.417459953
  0
ARC
  5
309
100
AcDbEntity
  8
0
100
AcDbCircle
 62
7
  6
BYLAYER
 10
42.001726274
 20
68.3732378621
 40
6.8022002891
100
AcDbArc
 50
90.3262374382
 51
92.3963626337
  0
ARC
  5
30A
100
AcDbEntity
  8
0
100
AcDbCircle
 62
7
  6
BYLAYER
 10
41.8874140087
 20
69.1650320646
 40
6.1603848314
100
AcDbArc
 50
97.8537215444
 51
100.1357613735
  0
ARC
  5
30B
100
AcDbEntity
  8
0
100
AcDbCircle
 62
7
  6
BYLAYER
 10
42.5201923713
 20
69.2085123117
 40
6.0172967479
100
AcDbArc
 50
97.7223384149
 51
99.546920084
  0
ARC
  5
30C
100
AcDbEntity
  8
0
100
AcDbCircle
 62
7
  6
BYLAYER
 10
41.78307116
 20
69.6399054417
 40
5.6738400118
100
AcDbArc
 50
105.9482898447
 51
107.303850931
  0
ARC
  5
30D
100
AcDbEntity
  8
0
100
AcDbCircle
 62
7
  6
BYLAYER
 10
42.1208340387
 20
70.2898092147
 40
5.4633277403
100
AcDbArc
 50
113.1861359432
 51
118.0070736705
  0
ARC
  5
30E
100
AcDbEntity
  8
0
100
AcDbCircle
 62
7
  6
BYLAYER
 10
-13.6816536288
 20
79.3836582026
 40
78.2592537254
100
AcDbArc
 50
331.7257574953
 51
332.2311319983
  0
ARC
  5
30F
100
AcDbEntity
  8
0
100
AcDbCircle
 62
7
  6
BYLAYER
 10
-6.0221145532
 20
83.1529043169
 40
77.5926085921
100
AcDbArc
 50
331.7235864916
 51
332.2333030019
  0
ARC
  5
310
100
AcDbEntity
  8
0
100
AcDbCircle
 62
7
  6
BYLAYER
 10
114.403529045
 20
2.5398015413
 40
108.367971149
100
AcDbArc
 50
136.5692195247
 51
136.885888344
  0
ARC
  5
311
100
AcDbEntity
  8
0
100
AcDbCircle
 62
7
  6
BYLAYER
 10
106.7217150037
 20
-0.9676284355
 40
107.5291149047
100
AcDbArc
 50
136.567984323
 51
136.8871235458
  0
ARC
  5
312
100
AcDbEntity
  8
0
100
AcDbCircle
 62
7
  6
BYLAYER
 10
141.1188906545
 20
65.4786453172
 40
106.4065611404
100
AcDbArc
 50
173.9983104007
 51
175.0571627954
  0
ARC
  5
313
100
AcDbEntity
  8
0
100
AcDbCircle
 62
7
  6
BYLAYER
 10
113.5965255101
 20
12.1179332821
 40
66.8920321688
100
AcDbArc
 50
153.6350403946
 51
154.1962319497
  0
ARC
  5
314
100
AcDbEntity
  8
0
100
AcDbCircle
 62
7
  6
BYLAYER
 10
120.3051792122
 20
16.3777826248
 40
66.4885569529
100
AcDbArc
 50
153.6333376301
 51
154.1979347142
  0
ARC
  5
315
100
AcDbEntity
  8
0
100
AcDbCircle
 62
7
  6
BYLAYER
 10
122.1636463567
 20
53.5433146285
 40
61.8932252344
100
AcDbArc
 50
179.9912513253
 51
182.3958181239
  0
ARC
  5
316
100
AcDbEntity
  8
0
100
AcDbCircle
 62
7
  6
BYLAYER
 10
139.787052026
 20
83.942482069
 40
90.0482175354
100
AcDbArc
 50
196.3362145697
 51
196.975726174
  0
ARC
  5
317
100
AcDbEntity
  8
0
100
AcDbCircle
 62
7
  6
BYLAYER
 10
146.6181301329
 20
87.9531330297
 40
89.7977522552
100
AcDbArc
 50
196.3353226925
 51
196.9766180512
  0
ARC
  5
318
100
AcDbEntity
  8
0
100
AcDbCircle
 62
7
  6
BYLAYER
 10
77.3952346895
 20
144.6771943208
 40
72.9490116204
100
AcDbArc
 50
245.8731836905
 51
246.5195618575
  0
ARC
  5
319
100
AcDbEntity
  8
0
100
AcDbCircle
 62
7
  6
BYLAYER
 10
70.1657460196
 20
140.2355594537
 40
72.5564286182
100
AcDbArc
 50
245.8714349841
 51
246.5213105639
  0
SPLINE
  5
31A
100
AcDbEntity
  8
0
100
AcDbSpline
 62
7
  6
BYLAYER
 70
0
 71
3
 72
9
 73
5
 74
0
 42
0.0000001
 43
0.0000001
 44
0.0000000001
 40
0.0
 40
0.0
 40
0.0
 40
0.0
 40
0.5170824033
 40
1.0
 40
1.0
 40
1.0
 40
1.0
 10
37.6085658578
 20
78.1387419674
 30
0.0
 10
38.7074652823
 20
78.3055099531
 30
0.0
 10
40.8359185325
 20
78.6072937194
 30
0.0
 10
42.9729452908
 20
78.8438928732
 30
0.0
 10
44.0068716211
 20
78.9362550508
 30
0.0
  0
SPLINE
  5
31B
100
AcDbEntity
  8
0
100
AcDbSpline
 62
7
  6
BYLAYER
 70
0
 71
3
 72
9
 73
5
 74
0
 42
0.0000001
 43
0.0000001
 44
0.0000000001
 40
0.0
 40
0.0
 40
0.0
 40
0.0
 40
0.521673347
 40
1.0
 40
1.0
 40
1.0
 40
1.0
 10
44.0068716211
 20
78.9362550508
 30
0.0
 10
44.9559969224
 20
79.021041828
 30
0.0
 10
46.7788724262
 20
79.1478659113
 30
0.0
 10
48.6055024965
 20
79.1944104573
 30
0.0
 10
49.479215978
 20
79.1991643569
 30
0.0
  0
SPLINE
  5
31C
100
AcDbEntity
  8
0
100
AcDbSpline
 62
7
  6
BYLAYER
 70
0
 71
3
 72
10
 73
6
 74
0
 42
0.0000001
 43
0.0000001
 44
0.0000000001
 40
0.0
 40
0.0
 40
0.0
 40
0.0
 40
0.5016776128
 40
0.7513518284
 40
1.0
 40
1.0
 40
1.0
 40
1.0
 10
50.1959575441
 20
78.846103525
 30
0.0
 10
51.3471057765
 20
77.6859826162
 30
0.0
 10
53.0378467783
 20
75.9144169858
 30
0.0
 10
55.1907428577
 20
73.469004569
 30
0.0
 10
56.2273444291
 20
72.2192611258
 30
0.0
 10
56.7348466737
 20
71.5879254328
 30
0.0
  0
SPLINE
  5
31D
100
AcDbEntity
  8
0
100
AcDbSpline
 62
7
  6
BYLAYER
 70
0
 71
3
 72
9
 73
5
 74
0
 42
0.0000001
 43
0.0000001
 44
0.0000000001
 40
0.0
 40
0.0
 40
0.0
 40
0.0
 40
0.4887825648
 40
1.0
 40
1.0
 40
1.0
 40
1.0
 10
55.6813447856
 20
44.6779208675
 30
0.0
 10
56.4596966231
 20
44.7648742149
 30
0.0
 10
58.0498074596
 20
44.9637823338
 30
0.0
 10
59.6355613415
 20
45.1942399743
 30
0.0
 10
60.4453264429
 20
45.3178280945
 30
0.0
  0
SPLINE
  5
31E
100
AcDbEntity
  8
0
100
AcDbSpline
 62
7
  6
BYLAYER
 70
0
 71
3
 72
10
 73
6
 74
0
 42
0.0000001
 43
0.0000001
 44
0.0000000001
 40
0.0
 40
0.0
 40
0.0
 40
0.0
 40
0.2442241631
 40
0.4925993318
 40
1.0
 40
1.0
 40
1.0
 40
1.0
 10
63.0988371927
 20
55.1857419172
 30
0.0
 10
63.0988371927
 20
54.5184098702
 30
0.0
 10
63.0774732755
 20
53.1723142377
 30
0.0
 10
62.9535883842
 20
50.4423796275
 30
0.0
 10
62.7785117146
 20
48.3837410493
 30
0.0
 10
62.6358534721
 20
47.0046494033
 30
0.0
  0
SPLINE
  5
31F
100
AcDbEntity
  8
0
100
AcDbSpline
 62
7
  6
BYLAYER
 70
0
 71
3
 72
10
 73
6
 74
0
 42
0.0000001
 43
0.0000001
 44
0.0000000001
 40
0.0
 40
0.0
 40
0.0
 40
0.0
 40
0.2518493172
 40
0.5024476721
 40
1.0
 40
1.0
 40
1.0
 40
1.0
 10
56.7348466737
 20
71.5879254328
 30
0.0
 10
57.239973565
 20
70.9595446961
 30
0.0
 10
58.2286177465
 20
69.6903967516
 30
0.0
 10
60.1195230941
 20
67.1068311184
 30
0.0
 10
61.4531283977
 20
65.1159021066
 30
0.0
 10
62.3115576303
 20
63.7742260015
 30
0.0
  0
SPLINE
  5
320
100
AcDbEntity
  8
0
100
AcDbSpline
 62
7
  6
BYLAYER
 70
0
 71
3
 72
11
 73
7
 74
0
 42
0.0000001
 43
0.0000001
 44
0.0000000001
 40
0.0
 40
0.0
 40
0.0
 40
0.0
 40
0.2438668952
 40
0.4915241304
 40
0.7434624398
 40
1.0
 40
1.0
 40
1.0
 40
1.0
 10
62.6358534721
 20
62.8322300709
 30
0.0
 10
62.7085473572
 20
62.2134301048
 30
0.0
 10
62.8400599308
 20
60.9643814001
 30
0.0
 10
62.9871854753
 20
59.0703558494
 30
0.0
 10
63.0785720982
 20
57.1403734537
 30
0.0
 10
63.0988371927
 20
55.8411693961
 30
0.0
 10
63.0988371927
 20
55.1857419172
 30
0.0
  0
SPLINE
  5
321
100
AcDbEntity
  8
0
100
AcDbSpline
 62
7
  6
BYLAYER
 70
0
 71
3
 72
9
 73
5
 74
0
 42
0.0000001
 43
0.0000001
 44
0.0000000001
 40
0.0
 40
0.0
 40
0.0
 40
0.0
 40
0.4946422446
 40
1.0
 40
1.0
 40
1.0
 40
1.0
 10
60.7334055644
 20
45.906277148
 30
0.0
 10
60.6359276945
 20
46.7360484902
 30
0.0
 10
60.4659509654
 20
48.4169035395
 30
0.0
 10
60.3602085935
 20
50.1031786879
 30
0.0
 10
60.3245229908
 20
50.9560088369
 30
0.0
  0
SPLINE
  5
322
100
AcDbEntity
  8
0
100
AcDbSpline
 62
7
  6
BYLAYER
 70
0
 71
3
 72
9
 73
5
 74
0
 42
0.0000001
 43
0.0000001
 44
0.0000000001
 40
0.0
 40
0.0
 40
0.0
 40
0.0
 40
0.521673212
 40
1.0
 40
1.0
 40
1.0
 40
1.0
 10
41.1784562254
 20
77.30327845
 30
0.0
 10
40.2293322238
 20
77.2184918566
 30
0.0
 10
38.4064587165
 20
77.0916685996
 30
0.0
 10
36.5798307061
 20
77.0451236054
 30
0.0
 10
35.7061179541
 20
77.0403697145
 30
0.0
  0
SPLINE
  5
323
100
AcDbEntity
  8
0
100
AcDbSpline
 62
7
  6
BYLAYER
 70
0
 71
3
 72
9
 73
5
 74
0
 42
0.0000001
 43
0.0000001
 44
0.0000000001
 40
0.0
 40
0.0
 40
0.0
 40
0.0
 40
0.5170818251
 40
1.0
 40
1.0
 40
1.0
 40
1.0
 10
47.5767680143
 20
78.1007920694
 30
0.0
 10
46.4778687963
 20
77.9340241166
 30
0.0
 10
44.3494131348
 20
77.6322433639
 30
0.0
 10
42.2123847637
 20
77.3956407278
 30
0.0
 10
41.1784562254
 20
77.30327845
 30
0.0
  0
SPLINE
  5
324
100
AcDbEntity
  8
0
100
AcDbSpline
 62
7
  6
BYLAYER
 70
0
 71
3
 72
10
 73
6
 74
0
 42
0.0000001
 43
0.0000001
 44
0.0000000001
 40
0.0
 40
0.0
 40
0.0
 40
0.0
 40
0.2518493845
 40
0.5024476491
 40
1.0
 40
1.0
 40
1.0
 40
1.0
 10
53.906431278
 20
69.9549489458
 30
0.0
 10
53.4013048192
 20
70.5833292793
 30
0.0
 10
52.412655494
 20
71.8524711711
 30
0.0
 10
50.5217637017
 20
74.4360428891
 30
0.0
 10
49.1881547928
 20
76.4269660523
 30
0.0
 10
48.3297263755
 20
77.768640889
 30
0.0
  0
SPLINE
  5
325
100
AcDbEntity
  8
0
100
AcDbSpline
 62
7
  6
BYLAYER
 70
0
 71
3
 72
10
 73
6
 74
0
 42
0.0000001
 43
0.0000001
 44
0.0000000001
 40
0.0
 40
0.0
 40
0.0
 40
0.0
 40
0.5016775218
 40
0.7513517917
 40
1.0
 40
1.0
 40
1.0
 40
1.0
 10
60.445326438
 20
62.6967633518
 30
0.0
 10
59.2941773058
 20
63.8568851698
 30
0.0
 10
57.603440868
 20
65.6284580954
 30
0.0
 10
55.450536547
 20
68.0738673587
 30
0.0
 10
54.4139340003
 20
69.3236124811
 30
0.0
 10
53.906431278
 20
69.9549489458
 30
0.0
  0
SPLINE
  5
326
100
AcDbEntity
  8
0
100
AcDbSpline
 62
7
  6
BYLAYER
 70
0
 71
3
 72
10
 73
6
 74
0
 42
0.0000001
 43
0.0000001
 44
0.0000000001
 40
0.0
 40
0.0
 40
0.0
 40
0.0
 40
0.2442241631
 40
0.4925993318
 40
1.0
 40
1.0
 40
1.0
 40
1.0
 10
60.2704218438
 20
53.5527653017
 30
0.0
 10
60.2704218438
 20
54.2200973488
 30
0.0
 10
60.291785761
 20
55.5661929813
 30
0.0
 10
60.4156706523
 20
58.2961275915
 30
0.0
 10
60.5907473219
 20
60.3547661696
 30
0.0
 10
60.7334055644
 20
61.7338578157
 30
0.0
  0
SPLINE
  5
327
100
AcDbEntity
  8
0
100
AcDbSpline
 62
7
  6
BYLAYER
 70
0
 71
3
 72
9
 73
5
 74
0
 42
0.0000001
 43
0.0000001
 44
0.0000000001
 40
0.0
 40
0.0
 40
0.0
 40
0.0
 40
0.2532484367
 40
1.0
 40
1.0
 40
1.0
 40
1.0
 10
57.4424258291
 20
48.3621714413
 30
0.0
 10
57.3983413693
 20
48.302335473
 30
0.0
 10
57.2202008659
 20
48.0690913002
 30
0.0
 10
57.025561174
 20
47.8483857915
 30
0.0
 10
56.8715810336
 20
47.6924428314
 30
0.0
  0
SPLINE
  5
328
100
AcDbEntity
  8
0
100
AcDbSpline
 62
7
  6
BYLAYER
 70
0
 71
3
 72
15
 73
11
 74
0
 42
0.0000001
 43
0.0000001
 44
0.0000000001
 40
0.0
 40
0.0
 40
0.0
 40
0.0
 40
0.1491363322
 40
0.2932607256
 40
0.4309986189
 40
0.5612444566
 40
0.6832502574
 40
0.7967301445
 40
0.9019803511
 40
1.0
 40
1.0
 40
1.0
 40
1.0
 10
53.906431345
 20
69.9549488289
 30
0.0
 10
53.4319492466
 20
70.5452071967
 30
0.0
 10
52.4532590581
 20
71.6701780233
 30
0.0
 10
50.8824698751
 20
73.1979819883
 30
0.0
 10
49.2546632814
 20
74.5181417488
 30
0.0
 10
47.5969342152
 20
75.6083112415
 30
0.0
 10
45.936470606
 20
76.4500791704
 30
0.0
 10
44.2997379518
 20
77.0286773736
 30
0.0
 10
42.7136483942
 20
77.332978787
 30
0.0
 10
41.6742345331
 20
77.3475673084
 30
0.0
 10
41.1784592648
 20
77.3032787125
 30
0.0
  0
SPLINE
  5
329
100
AcDbEntity
  8
0
100
AcDbSpline
 62
7
  6
BYLAYER
 70
0
 71
3
 72
15
 73
11
 74
0
 42
0.0000001
 43
0.0000001
 44
0.0000000001
 40
0.0
 40
0.0
 40
0.0
 40
0.0
 40
0.1108410466
 40
0.2280578212
 40
0.3507094039
 40
0.4776259749
 40
0.6074737875
 40
0.7388131822
 40
0.8701524818
 40
1.0
 40
1.0
 40
1.0
 40
1.0
 10
60.2704218438
 20
53.5527653017
 30
0.0
 10
60.2704218438
 20
54.2141672271
 30
0.0
 10
60.1912001241
 20
55.5757883072
 30
0.0
 10
59.8618059639
 20
57.6453470337
 30
0.0
 10
59.3240209129
 20
59.7697719665
 30
0.0
 10
58.5869659957
 20
61.9130444965
 30
0.0
 10
57.6631011565
 20
64.0391523483
 30
0.0
 10
56.5680084549
 20
66.1121916481
 30
0.0
 10
55.3203301569
 20
68.0969570318
 30
0.0
 10
54.3918731769
 20
69.3510566095
 30
0.0
 10
53.906431345
 20
69.9549488289
 30
0.0
  0
SPLINE
  5
32A
100
AcDbEntity
  8
0
100
AcDbSpline
 62
7
  6
BYLAYER
 70
0
 71
3
 72
15
 73
11
 74
0
 42
0.0000001
 43
0.0000001
 44
0.0000000001
 40
0.0
 40
0.0
 40
0.0
 40
0.0
 40
0.1289736184
 40
0.2552347805
 40
0.3794646169
 40
0.5024842468
 40
0.6251806581
 40
0.7484373936
 40
0.8731075196
 40
1.0
 40
1.0
 40
1.0
 40
1.0
 10
41.1784592648
 20
77.3032787125
 30
0.0
 10
40.9611373603
 20
77.2838649662
 30
0.0
 10
40.532507346
 20
77.2259046143
 30
0.0
 10
39.9065690832
 20
77.0790411593
 30
0.0
 10
39.307869671
 20
76.8735785157
 30
0.0
 10
38.7388446346
 20
76.6103461705
 30
0.0
 10
38.2016449286
 20
76.290272946
 30
0.0
 10
37.6982463854
 20
75.9146188409
 30
0.0
 10
37.2306016732
 20
75.4848701097
 30
0.0
 10
36.9467863254
 20
75.1667000811
 30
0.0
 10
36.8115625345
 20
74.9999779178
 30
0.0
  0
SPLINE
  5
32B
100
AcDbEntity
  8
0
100
AcDbSpline
 62
7
  6
BYLAYER
 70
0
 71
3
 72
9
 73
5
 74
0
 42
0.0000001
 43
0.0000001
 44
0.0000000001
 40
0.0
 40
0.0
 40
0.0
 40
0.0
 40
0.2421786136
 40
1.0
 40
1.0
 40
1.0
 40
1.0
 10
56.9520925299
 20
78.9018764881
 30
0.0
 10
57.0938875244
 20
78.8337650725
 30
0.0
 10
57.6737301725
 20
78.5408098729
 30
0.0
 10
58.2306938925
 20
78.2032740683
 30
0.0
 10
58.6388123317
 20
77.9280703869
 30
0.0
  0
SPLINE
  5
32C
100
AcDbEntity
  8
0
100
AcDbSpline
 62
7
  6
BYLAYER
 70
0
 71
3
 72
25
 73
21
 74
0
 42
0.0000001
 43
0.0000001
 44
0.0000000001
 40
0.0
 40
0.0
 40
0.0
 40
0.0
 40
0.0734442116
 40
0.1478472194
 40
0.2225451182
 40
0.2968859372
 40
0.3702159961
 40
0.4419162252
 40
0.5114157823
 40
0.5782157423
 40
0.6419123385
 40
0.7022238424
 40
0.7590202376
 40
0.8123551263
 40
0.862496169
 40
0.9099453132
 40
0.9329063339
 40
0.9554874128
 40
0.9778100079
 40
1.0
 40
1.0
 40
1.0
 40
1.0
 10
67.1673169925
 20
76.8377247181
 30
0.0
 10
67.5112470559
 20
76.4222039372
 30
0.0
 10
68.1739573317
 20
75.5607586659
 30
0.0
 10
69.0806861892
 20
74.1994967218
 30
0.0
 10
69.8975374859
 20
72.7747991416
 30
0.0
 10
70.6136716433
 20
71.3056758912
 30
0.0
 10
71.2195970917
 20
69.8114415079
 30
0.0
 10
71.7072780579
 20
68.3117969592
 30
0.0
 10
72.0701976282
 20
66.8263607583
 30
0.0
 10
72.3034318317
 20
65.3744320191
 30
0.0
 10
72.4036331055
 20
63.9746810769
 30
0.0
 10
72.368957912
 20
62.6448964737
 30
0.0
 10
72.198942872
 20
61.4018519322
 30
0.0
 10
71.8942135537
 20
60.2612305073
 30
0.0
 10
71.4567546029
 20
59.2382612134
 30
0.0
 10
70.9783777762
 20
58.4874517381
 30
0.0
 10
70.5351871348
 20
57.9666957083
 30
0.0
 10
70.1772001454
 20
57.6187518146
 30
0.0
 10
69.7913990578
 20
57.3110018499
 30
0.0
 10
69.5163103182
 20
57.13318106
 30
0.0
 10
69.3751747074
 20
57.0516968636
 30
0.0
  0
SPLINE
  5
32D
100
AcDbEntity
  8
0
100
AcDbSpline
 62
7
  6
BYLAYER
 70
0
 71
3
 72
11
 73
7
 74
0
 42
0.0000001
 43
0.0000001
 44
0.0000000001
 40
0.0
 40
0.0
 40
0.0
 40
0.0
 40
0.2365724749
 40
0.4830510295
 40
0.7380646674
 40
1.0
 40
1.0
 40
1.0
 40
1.0
 10
63.0935665061
 20
80.5000085563
 30
0.0
 10
63.4497008698
 20
80.2598589366
 30
0.0
 10
64.1563159579
 20
79.7384539205
 30
0.0
 10
65.172164078
 20
78.8627328137
 30
0.0
 10
66.1564645309
 20
77.885266868
 30
0.0
 10
66.7778016174
 20
77.1807348509
 30
0.0
 10
67.0810486721
 20
76.8143654451
 30
0.0
  0
SPLINE
  5
32E
100
AcDbEntity
  8
0
100
AcDbSpline
 62
7
  6
BYLAYER
 70
0
 71
3
 72
16
 73
12
 74
0
 42
0.0000001
 43
0.0000001
 44
0.0000000001
 40
0.0
 40
0.0
 40
0.0
 40
0.0
 40
0.1104987965
 40
0.2226668271
 40
0.338052805
 40
0.4579882445
 40
0.5200294937
 40
0.583575076
 40
0.7154674897
 40
0.8542321665
 40
1.0
 40
1.0
 40
1.0
 40
1.0
 10
55.1252411373
 20
81.733453141
 30
0.0
 10
55.3338585656
 20
81.8539070931
 30
0.0
 10
55.7735498763
 20
82.0647601092
 30
0.0
 10
56.4807756815
 20
82.2809467944
 30
0.0
 10
57.231909579
 20
82.3966835941
 30
0.0
 10
57.8819657391
 20
82.4088500214
 30
0.0
 10
58.4160682094
 20
82.3701119944
 30
0.0
 10
58.9728714019
 20
82.2967783901
 30
0.0
 10
59.6860680273
 20
82.1405241485
 30
0.0
 10
60.5500289096
 20
81.8575726323
 30
0.0
 10
61.1203964713
 20
81.6114114107
 30
0.0
 10
61.4068467043
 20
81.4738146575
 30
0.0
  0
SPLINE
  5
32F
100
AcDbEntity
  8
0
100
AcDbSpline
 62
7
  6
BYLAYER
 70
0
 71
3
 72
29
 73
25
 74
0
 42
0.0000001
 43
0.0000001
 44
0.0000000001
 40
0.0
 40
0.0
 40
0.0
 40
0.0
 40
0.0068171294
 40
0.0125968942
 40
0.0184984718
 40
0.0246615295
 40
0.0310494303
 40
0.0376165383
 40
0.0511531358
 40
0.0650877924
 40
0.0793118872
 40
0.0937585036
 40
0.1083831463
 40
0.1380491373
 40
0.1681458296
 40
0.1985739028
 40
0.229268407
 40
0.2912863864
 40
0.3539609325
 40
0.4807534147
 40
0.6089889557
 40
0.7383525295
 40
0.8686997365
 40
1.0
 40
1.0
 40
1.0
 40
1.0
 10
63.0935665061
 20
80.5000085563
 30
0.0
 10
63.0957927973
 20
80.5012938985
 30
0.0
 10
63.0994209041
 20
80.5051034292
 30
0.0
 10
63.0996659383
 20
80.5124093867
 30
0.0
 10
63.0977290886
 20
80.5188783114
 30
0.0
 10
63.0946518147
 20
80.525147183
 30
0.0
 10
63.0908222032
 20
80.531262431
 30
0.0
 10
63.0849482154
 20
80.539350075
 30
0.0
 10
63.0766502172
 20
80.5491615943
 30
0.0
 10
63.0658172088
 20
80.5605632924
 30
0.0
 10
63.0542899225
 20
80.5717594697
 30
0.0
 10
63.0422470363
 20
80.582785605
 30
0.0
 10
63.025570304
 20
80.5973647013
 30
0.0
 10
63.0039472595
 20
80.6152416533
 30
0.0
 10
62.9771891054
 20
80.6362384735
 30
0.0
 10
62.9497199239
 20
80.6569460215
 30
0.0
 10
62.9122134334
 20
80.6843256661
 30
0.0
 10
62.8642414679
 20
80.7179815468
 30
0.0
 10
62.7856357928
 20
80.7710394535
 30
0.0
 10
62.6849502529
 20
80.835987679
 30
0.0
 10
62.5616796088
 20
80.9122562832
 30
0.0
 10
62.4361413091
 20
80.9873755965
 30
0.0
 10
62.3086488332
 20
81.0614535133
 30
0.0
 10
62.2227276278
 20
81.1099620091
 30
0.0
 10
62.1794522682
 20
81.1340188121
 30
0.0
  0
SPLINE
  5
330
100
AcDbEntity
  8
0
100
AcDbSpline
 62
7
  6
BYLAYER
 70
0
 71
3
 72
24
 73
20
 74
0
 42
0.0000001
 43
0.0000001
 44
0.0000000001
 40
0.0
 40
0.0
 40
0.0
 40
0.0
 40
0.1198419377
 40
0.2403854953
 40
0.3617522873
 40
0.4841367344
 40
0.5458050903
 40
0.6078665235
 40
0.6704068811
 40
0.7335541039
 40
0.797515454
 40
0.8299099038
 40
0.8626764226
 40
0.8959397473
 40
0.9299158969
 40
0.9472907591
 40
0.9650145293
 40
0.9830666189
 40
1.0
 40
1.0
 40
1.0
 40
1.0
 10
62.1678284633
 20
81.1404713927
 30
0.0
 10
62.1385763046
 20
81.1566868281
 30
0.0
 10
62.0797533863
 20
81.1889477919
 30
0.0
 10
61.9907490657
 20
81.236606595
 30
0.0
 10
61.9005636329
 20
81.2835494095
 30
0.0
 10
61.8243970233
 20
81.3218224618
 30
0.0
 10
61.7625964399
 20
81.3518002019
 30
0.0
 10
61.7155733951
 20
81.3739676774
 30
0.0
 10
61.6678798689
 20
81.3956715665
 30
0.0
 10
61.6193371445
 20
81.4167727397
 30
0.0
 10
61.5781168889
 20
81.4335962691
 30
0.0
 10
61.5444234329
 20
81.4463814564
 30
0.0
 10
61.51853506
 20
81.4555746012
 30
0.0
 10
61.4919711263
 20
81.464144729
 30
0.0
 10
61.4691890827
 20
81.4704378746
 30
0.0
 10
61.4503523046
 20
81.4745121693
 30
0.0
 10
61.4356475647
 20
81.4768094087
 30
0.0
 10
61.4210606502
 20
81.4776330936
 30
0.0
 10
61.4109393976
 20
81.4761775609
 30
0.0
 10
61.4068467043
 20
81.4738146575
 30
0.0
  0
SPLINE
  5
331
100
AcDbEntity
  8
0
100
AcDbSpline
 62
7
  6
BYLAYER
 70
0
 71
3
 72
25
 73
21
 74
0
 42
0.0000001
 43
0.0000001
 44
0.0000000001
 40
0.0
 40
0.0
 40
0.0
 40
0.0
 40
0.0738803227
 40
0.1487258203
 40
0.2238622635
 40
0.2986277164
 40
0.372357481
 40
0.4444206674
 40
0.5142323652
 40
0.5812765488
 40
0.6451286792
 40
0.7054821189
 40
0.7621785194
 40
0.815242674
 40
0.8649197585
 40
0.9117076395
 40
0.9342706308
 40
0.9564183962
 40
0.9782814726
 40
1.0
 40
1.0
 40
1.0
 40
1.0
 10
67.1022263468
 20
76.7887413511
 30
0.0
 10
67.44645644
 20
76.3716160453
 30
0.0
 10
68.109782485
 20
75.507019533
 30
0.0
 10
69.0174371778
 20
74.1412208122
 30
0.0
 10
69.8351827874
 20
72.7122133574
 30
0.0
 10
70.552124848
 20
71.2391485814
 30
0.0
 10
71.1587342925
 20
69.741505708
 30
0.0
 10
71.6469667587
 20
68.2391928731
 30
0.0
 10
72.0103309137
 20
66.752088837
 30
0.0
 10
72.2439839701
 20
65.2998247316
 30
0.0
 10
72.3447590899
 20
63.9014815059
 30
0.0
 10
72.3111395279
 20
62.5753185427
 30
0.0
 10
72.1432055236
 20
61.3385785027
 30
0.0
 10
71.8423941663
 20
60.2072606804
 30
0.0
 10
71.4117296977
 20
59.1965073661
 30
0.0
 10
70.9418849116
 20
58.4569942896
 30
0.0
 10
70.5076722423
 20
57.9458939326
 30
0.0
 10
70.1578826955
 20
57.6054359562
 30
0.0
 10
69.7813011564
 20
57.3047476642
 30
0.0
 10
69.5128544596
 20
57.1311980806
 30
0.0
 10
69.3751720731
 20
57.0517014263
 30
0.0
  0
SPLINE
  5
332
100
AcDbEntity
  8
0
100
AcDbSpline
 62
7
  6
BYLAYER
 70
0
 71
3
 72
9
 73
5
 74
0
 42
0.0000001
 43
0.0000001
 44
0.0000000001
 40
0.0
 40
0.0
 40
0.0
 40
0.0
 40
0.253338571
 40
1.0
 40
1.0
 40
1.0
 40
1.0
 10
28.2245254482
 20
72.521838728
 30
0.0
 10
28.1741347755
 20
72.0418694529
 30
0.0
 10
27.9870915899
 20
70.1461176321
 30
0.0
 10
27.8540960484
 20
68.2446296363
 30
0.0
 10
27.7974192488
 20
66.8233773858
 30
0.0
  0
SPLINE
  5
333
100
AcDbEntity
  8
0
100
AcDbSpline
 62
7
  6
BYLAYER
 70
0
 71
3
 72
9
 73
5
 74
0
 42
0.0000001
 43
0.0000001
 44
0.0000000001
 40
0.0
 40
0.0
 40
0.0
 40
0.0
 40
0.4792599429
 40
1.0
 40
1.0
 40
1.0
 40
1.0
 10
41.6086797197
 20
40.1553608367
 30
0.0
 10
42.4448436124
 20
40.1630210666
 30
0.0
 10
44.1894244875
 20
40.2128574578
 30
0.0
 10
45.9304303476
 20
40.3356355997
 30
0.0
 10
46.835398938
 20
40.4164777922
 30
0.0
  0
SPLINE
  5
334
100
AcDbEntity
  8
0
100
AcDbSpline
 62
7
  6
BYLAYER
 70
0
 71
3
 72
9
 73
5
 74
0
 42
0.0000001
 43
0.0000001
 44
0.0000000001
 40
0.0
 40
0.0
 40
0.0
 40
0.0
 40
0.5170818264
 40
1.0
 40
1.0
 40
1.0
 40
1.0
 10
30.537527479
 20
74.0563004249
 30
0.0
 10
31.636425656
 20
74.2230682216
 30
0.0
 10
33.7648792755
 20
74.5248488423
 30
0.0
 10
35.9019056192
 20
74.7614512297
 30
0.0
 10
36.9358331653
 20
74.8538135055
 30
0.0
  0
SPLINE
  5
335
100
AcDbEntity
  8
0
100
AcDbSpline
 62
7
  6
BYLAYER
 70
0
 71
3
 72
9
 73
5
 74
0
 42
0.0000001
 43
0.0000001
 44
0.0000000001
 40
0.0
 40
0.0
 40
0.0
 40
0.0
 40
0.5216732059
 40
1.0
 40
1.0
 40
1.0
 40
1.0
 10
36.9358331653
 20
74.8538135055
 30
0.0
 10
37.8849582135
 20
74.9386002719
 30
0.0
 10
39.7078337672
 20
75.0654236437
 30
0.0
 10
41.5344638217
 20
75.1119688958
 30
0.0
 10
42.4081775654
 20
75.1167227949
 30
0.0
  0
SPLINE
  5
336
100
AcDbEntity
  8
0
100
AcDbSpline
 62
7
  6
BYLAYER
 70
0
 71
3
 72
10
 73
6
 74
0
 42
0.0000001
 43
0.0000001
 44
0.0000000001
 40
0.0
 40
0.0
 40
0.0
 40
0.0
 40
0.5016775205
 40
0.7513518
 40
1.0
 40
1.0
 40
1.0
 40
1.0
 10
43.1249191688
 20
74.7636619844
 30
0.0
 10
44.2760671535
 20
73.6035413258
 30
0.0
 10
45.9668014978
 20
71.8319697902
 30
0.0
 10
48.1197053738
 20
69.3865644314
 30
0.0
 10
49.1563059405
 20
68.1368197539
 30
0.0
 10
49.663808218
 20
67.5054840013
 30
0.0
  0
SPLINE
  5
337
100
AcDbEntity
  8
0
100
AcDbSpline
 62
7
  6
BYLAYER
 70
0
 71
3
 72
10
 73
6
 74
0
 42
0.0000001
 43
0.0000001
 44
0.0000000001
 40
0.0
 40
0.0
 40
0.0
 40
0.0
 40
0.2518493708
 40
0.5024476483
 40
1.0
 40
1.0
 40
1.0
 40
1.0
 10
49.663808218
 20
67.5054840013
 30
0.0
 10
50.1689352382
 20
66.8771031273
 30
0.0
 10
51.1575845749
 20
65.6079591894
 30
0.0
 10
53.0484800922
 20
63.0243862013
 30
0.0
 10
54.382089951
 20
61.0334606499
 30
0.0
 10
55.2405192411
 20
59.6917844529
 30
0.0
  0
SPLINE
  5
338
100
AcDbEntity
  8
0
100
AcDbSpline
 62
7
  6
BYLAYER
 70
0
 71
3
 72
11
 73
7
 74
0
 42
0.0000001
 43
0.0000001
 44
0.0000000001
 40
0.0
 40
0.0
 40
0.0
 40
0.0
 40
0.2438668952
 40
0.4915241304
 40
0.7434624398
 40
1.0
 40
1.0
 40
1.0
 40
1.0
 10
55.5648151
 20
58.7497885322
 30
0.0
 10
55.6375089851
 20
58.1309885661
 30
0.0
 10
55.7690215587
 20
56.8819398614
 30
0.0
 10
55.9161471031
 20
54.9879143107
 30
0.0
 10
56.007533726
 20
53.057931915
 30
0.0
 10
56.0277988205
 20
51.7587278574
 30
0.0
 10
56.0277988205
 20
51.1033003785
 30
0.0
  0
SPLINE
  5
339
100
AcDbEntity
  8
0
100
AcDbSpline
 62
7
  6
BYLAYER
 70
0
 71
3
 72
9
 73
5
 74
0
 42
0.0000001
 43
0.0000001
 44
0.0000000001
 40
0.0
 40
0.0
 40
0.0
 40
0.0
 40
0.4826824781
 40
1.0
 40
1.0
 40
1.0
 40
1.0
 10
46.835398938
 20
40.4164777922
 30
0.0
 10
47.8916084991
 20
40.510830564
 30
0.0
 10
50.0756659757
 20
40.7536474935
 30
0.0
 10
52.250791844
 20
41.0639161041
 30
0.0
 10
53.3742880676
 20
41.235386554
 30
0.0
  0
SPLINE
  5
33A
100
AcDbEntity
  8
0
100
AcDbSpline
 62
7
  6
BYLAYER
 70
0
 71
3
 72
10
 73
6
 74
0
 42
0.0000001
 43
0.0000001
 44
0.0000000001
 40
0.0
 40
0.0
 40
0.0
 40
0.0
 40
0.2442241631
 40
0.4925993318
 40
1.0
 40
1.0
 40
1.0
 40
1.0
 10
56.0277988205
 20
51.1033003785
 30
0.0
 10
56.0277988205
 20
50.4359683315
 30
0.0
 10
56.0064349034
 20
49.089872699
 30
0.0
 10
55.8825500121
 20
46.3599380888
 30
0.0
 10
55.7074733424
 20
44.3012995106
 30
0.0
 10
55.5648151
 20
42.9222078646
 30
0.0
  0
SPLINE
  5
33B
100
AcDbEntity
  8
0
100
AcDbSpline
 62
7
  6
BYLAYER
 70
0
 71
3
 72
9
 73
5
 74
0
 42
0.0000001
 43
0.0000001
 44
0.0000000001
 40
0.0
 40
0.0
 40
0.0
 40
0.0
 40
0.5170819149
 40
1.0
 40
1.0
 40
1.0
 40
1.0
 10
40.5057296018
 20
74.0183505073
 30
0.0
 10
39.4068302134
 20
73.8515825301
 30
0.0
 10
37.2783746679
 20
73.5498012007
 30
0.0
 10
35.1413462658
 20
73.3131991916
 30
0.0
 10
34.1074179404
 20
73.2208369199
 30
0.0
  0
SPLINE
  5
33C
100
AcDbEntity
  8
0
100
AcDbSpline
 62
7
  6
BYLAYER
 70
0
 71
3
 72
10
 73
6
 74
0
 42
0.0000001
 43
0.0000001
 44
0.0000000001
 40
0.0
 40
0.0
 40
0.0
 40
0.0
 40
0.2518493595
 40
0.5024476983
 40
1.0
 40
1.0
 40
1.0
 40
1.0
 10
46.835392993
 20
65.8725073019
 30
0.0
 10
46.3302665765
 20
66.5008876014
 30
0.0
 10
45.3416184393
 20
67.7700306072
 30
0.0
 10
43.4507179385
 20
70.3535961433
 30
0.0
 10
42.1171163613
 20
72.3445246001
 30
0.0
 10
41.2586880003
 20
73.6861993485
 30
0.0
  0
SPLINE
  5
33D
100
AcDbEntity
  8
0
100
AcDbSpline
 62
7
  6
BYLAYER
 70
0
 71
3
 72
9
 73
5
 74
0
 42
0.0000001
 43
0.0000001
 44
0.0000000001
 40
0.0
 40
0.0
 40
0.0
 40
0.0
 40
0.5216738855
 40
1.0
 40
1.0
 40
1.0
 40
1.0
 10
34.1074179404
 20
73.2208369199
 30
0.0
 10
33.1582926825
 20
73.1360502239
 30
0.0
 10
31.335419327
 20
73.0092232292
 30
0.0
 10
29.508791125
 20
72.9626820567
 30
0.0
 10
28.6350795752
 20
72.9579281719
 30
0.0
  0
SPLINE
  5
33E
100
AcDbEntity
  8
0
100
AcDbSpline
 62
7
  6
BYLAYER
 70
0
 71
3
 72
10
 73
6
 74
0
 42
0.0000001
 43
0.0000001
 44
0.0000000001
 40
0.0
 40
0.0
 40
0.0
 40
0.0
 40
0.5016775296
 40
0.7513517379
 40
1.0
 40
1.0
 40
1.0
 40
1.0
 10
53.3742880488
 20
58.6143218032
 30
0.0
 10
52.2231389228
 20
59.7744436164
 30
0.0
 10
50.532398368
 20
61.5460125948
 30
0.0
 10
48.3795032844
 20
63.9914298129
 30
0.0
 10
47.3428958259
 20
65.2411707228
 30
0.0
 10
46.835392993
 20
65.8725073019
 30
0.0
  0
SPLINE
  5
33F
100
AcDbEntity
  8
0
100
AcDbSpline
 62
7
  6
BYLAYER
 70
0
 71
3
 72
10
 73
6
 74
0
 42
0.0000001
 43
0.0000001
 44
0.0000000001
 40
0.0
 40
0.0
 40
0.0
 40
0.0
 40
0.2442241631
 40
0.4925993318
 40
1.0
 40
1.0
 40
1.0
 40
1.0
 10
53.1993834717
 20
49.470323763
 30
0.0
 10
53.1993834717
 20
50.1376558101
 30
0.0
 10
53.2207473889
 20
51.4837514425
 30
0.0
 10
53.3446322801
 20
54.2136860528
 30
0.0
 10
53.5197089498
 20
56.2723246309
 30
0.0
 10
53.6623671922
 20
57.651416277
 30
0.0
  0
SPLINE
  5
340
100
AcDbEntity
  8
0
100
AcDbSpline
 62
7
  6
BYLAYER
 70
0
 71
3
 72
15
 73
11
 74
0
 42
0.0000001
 43
0.0000001
 44
0.0000000001
 40
0.0
 40
0.0
 40
0.0
 40
0.0
 40
0.1491363322
 40
0.2932607256
 40
0.4309986189
 40
0.5612444566
 40
0.6832502574
 40
0.7967301445
 40
0.9019803511
 40
1.0
 40
1.0
 40
1.0
 40
1.0
 10
46.8353929729
 20
65.8725072902
 30
0.0
 10
46.3609108512
 20
66.4627656393
 30
0.0
 10
45.3822206964
 20
67.587736493
 30
0.0
 10
43.8114315003
 20
69.1155404474
 30
0.0
 10
42.1836249099
 20
70.4357002109
 30
0.0
 10
40.525895843
 20
71.5258697018
 30
0.0
 10
38.8654322336
 20
72.3676376345
 30
0.0
 10
37.2286995805
 20
72.9462358256
 30
0.0
 10
35.6426100193
 20
73.2505372794
 30
0.0
 10
34.6031961665
 20
73.2651257074
 30
0.0
 10
34.1074208927
 20
73.2208371738
 30
0.0
  0
SPLINE
  5
341
100
AcDbEntity
  8
0
100
AcDbSpline
 62
7
  6
BYLAYER
 70
0
 71
3
 72
15
 73
11
 74
0
 42
0.0000001
 43
0.0000001
 44
0.0000000001
 40
0.0
 40
0.0
 40
0.0
 40
0.0
 40
0.1214977242
 40
0.2393439369
 40
0.3559133541
 40
0.4737685985
 40
0.5953083997
 40
0.7225805659
 40
0.8571403581
 40
1.0
 40
1.0
 40
1.0
 40
1.0
 10
34.1074208927
 20
73.2208371738
 30
0.0
 10
33.7304673912
 20
73.1871632185
 30
0.0
 10
32.9913523156
 20
73.0620871431
 30
0.0
 10
31.9415263073
 20
72.6883910818
 30
0.0
 10
30.9862536906
 20
72.1359747598
 30
0.0
 10
30.1383652436
 20
71.4123192343
 30
0.0
 10
29.4079439104
 20
70.5273099835
 30
0.0
 10
28.8025446845
 20
69.4925715874
 30
0.0
 10
28.3277347449
 20
68.3207828673
 30
0.0
 10
28.1076065168
 20
67.4826300204
 30
0.0
 10
28.0184043095
 20
67.0466672102
 30
0.0
  0
SPLINE
  5
342
100
AcDbEntity
  8
0
100
AcDbSpline
 62
7
  6
BYLAYER
 70
0
 71
3
 72
11
 73
7
 74
0
 42
0.0000001
 43
0.0000001
 44
0.0000000001
 40
0.0
 40
0.0
 40
0.0
 40
0.0
 40
0.2667712491
 40
0.5217107544
 40
0.7657365388
 40
1.0
 40
1.0
 40
1.0
 40
1.0
 10
43.1025742889
 20
40.9200268673
 30
0.0
 10
43.4224232039
 20
40.8133975236
 30
0.0
 10
44.057067075
 20
40.6308525425
 30
0.0
 10
45.0095532351
 20
40.4511728425
 30
0.0
 10
45.9346378982
 20
40.3733558237
 30
0.0
 10
46.5405031941
 20
40.3901341934
 30
0.0
 10
46.8353989178
 20
40.4164777805
 30
0.0
  0
SPLINE
  5
343
100
AcDbEntity
  8
0
100
AcDbSpline
 62
7
  6
BYLAYER
 70
0
 71
3
 72
9
 73
5
 74
0
 42
0.0000001
 43
0.0000001
 44
0.0000000001
 40
0.0
 40
0.0
 40
0.0
 40
0.0
 40
0.4811712871
 40
1.0
 40
1.0
 40
1.0
 40
1.0
 10
52.7329540042
 20
45.7973952935
 30
0.0
 10
52.893523541
 20
46.3705350224
 30
0.0
 10
53.1296558587
 20
47.5900591452
 30
0.0
 10
53.1993834717
 20
48.8285343557
 30
0.0
 10
53.1993834717
 20
49.470323763
 30
0.0
  0
SPLINE
  5
344
100
AcDbEntity
  8
0
100
AcDbSpline
 62
7
  6
BYLAYER
 70
0
 71
3
 72
15
 73
11
 74
0
 42
0.0000001
 43
0.0000001
 44
0.0000000001
 40
0.0
 40
0.0
 40
0.0
 40
0.0
 40
0.1108410466
 40
0.2280578212
 40
0.3507094039
 40
0.4776259749
 40
0.6074737875
 40
0.7388131822
 40
0.8701524818
 40
1.0
 40
1.0
 40
1.0
 40
1.0
 10
53.1993834717
 20
49.470323763
 30
0.0
 10
53.1993834717
 20
50.1317256884
 30
0.0
 10
53.120161752
 20
51.4933467685
 30
0.0
 10
52.7907675917
 20
53.562905495
 30
0.0
 10
52.2529825408
 20
55.6873304278
 30
0.0
 10
51.5159276233
 20
57.8306029576
 30
0.0
 10
50.5920627853
 20
59.9567108104
 30
0.0
 10
49.496970079
 20
62.0297501064
 30
0.0
 10
48.2492917986
 20
64.0145155042
 30
0.0
 10
47.3208347753
 20
65.2686150471
 30
0.0
 10
46.8353929729
 20
65.8725072902
 30
0.0
  0
SPLINE
  5
345
100
AcDbEntity
  8
0
100
AcDbSpline
 62
7
  6
BYLAYER
 70
0
 71
3
 72
11
 73
7
 74
0
 42
0.0000001
 43
0.0000001
 44
0.0000000001
 40
0.0
 40
0.0
 40
0.0
 40
0.0
 40
0.2438668952
 40
0.4915241304
 40
0.7434624398
 40
1.0
 40
1.0
 40
1.0
 40
1.0
 10
53.6623671922
 20
41.8238356093
 30
0.0
 10
53.5896733071
 20
42.4426355754
 30
0.0
 10
53.4581607336
 20
43.6916842801
 30
0.0
 10
53.3110351891
 20
45.5857098308
 30
0.0
 10
53.2196485662
 20
47.5156922265
 30
0.0
 10
53.1993834717
 20
48.8148962842
 30
0.0
 10
53.1993834717
 20
49.470323763
 30
0.0
  0
SPLINE
  5
346
100
AcDbEntity
  8
0
100
AcDbSpline
 62
7
  6
BYLAYER
 70
0
 71
3
 72
11
 73
7
 74
0
 42
0.0000001
 43
0.0000001
 44
0.0000000001
 40
0.0
 40
0.0
 40
0.0
 40
0.0
 40
0.2177660095
 40
0.4508968553
 40
0.7103699668
 40
1.0
 40
1.0
 40
1.0
 40
1.0
 10
9.5659685598
 20
35.4456792584
 30
0.0
 10
9.5329922701
 20
35.4266230323
 30
0.0
 10
9.4712424322
 20
35.3747889179
 30
0.0
 10
9.4055467003
 20
35.2673247084
 30
0.0
 10
9.3665459864
 20
35.1349272024
 30
0.0
 10
9.3588460583
 20
35.0385665903
 30
0.0
 10
9.3588460583
 20
34.987911434
 30
0.0
  0
SPLINE
  5
347
100
AcDbEntity
  8
0
100
AcDbSpline
 62
7
  6
BYLAYER
 70
0
 71
3
 72
23
 73
19
 74
0
 42
0.0000001
 43
0.0000001
 44
0.0000000001
 40
0.0
 40
0.0
 40
0.0
 40
0.0
 40
0.0737019691
 40
0.1483966055
 40
0.2233876316
 40
0.2980362072
 40
0.3716803297
 40
0.4436948229
 40
0.5135004509
 40
0.580580614
 40
0.6445097061
 40
0.7049774195
 40
0.7618167758
 40
0.8150379561
 40
0.8648667069
 40
0.9117759459
 40
0.9564984294
 40
1.0
 40
1.0
 40
1.0
 40
1.0
 10
26.2811572648
 20
53.2586777667
 30
0.0
 10
26.624264105
 20
52.8441515668
 30
0.0
 10
27.285722927
 20
51.9847651445
 30
0.0
 10
28.1916221731
 20
50.6271369397
 30
0.0
 10
29.0087373751
 20
49.206232754
 30
0.0
 10
29.7262925333
 20
47.7410870753
 30
0.0
 10
30.3348334844
 20
46.250796731
 30
0.0
 10
30.8263637513
 20
44.7550153607
 30
0.0
 10
31.1944502812
 20
43.2733718316
 30
0.0
 10
31.4341781617
 20
41.8252434622
 30
0.0
 10
31.5423331638
 20
40.4295102913
 30
0.0
 10
31.5173660716
 20
39.1042470522
 30
0.0
 10
31.3592475094
 20
37.8665179006
 30
0.0
 10
31.0693115461
 20
36.7322557617
 30
0.0
 10
30.6503153446
 20
35.7162953278
 30
0.0
 10
30.10618051
 20
34.8324786052
 30
0.0
 10
29.4431620993
 20
34.0943594207
 30
0.0
 10
28.9237122597
 20
33.7050243729
 30
0.0
 10
28.6516772676
 20
33.5410990008
 30
0.0
  0
SPLINE
  5
348
100
AcDbEntity
  8
0
100
AcDbSpline
 62
7
  6
BYLAYER
 70
0
 71
3
 72
11
 73
7
 74
0
 42
0.0000001
 43
0.0000001
 44
0.0000000001
 40
0.0
 40
0.0
 40
0.0
 40
0.0
 40
0.2390934377
 40
0.4816799579
 40
0.7341959632
 40
1.0
 40
1.0
 40
1.0
 40
1.0
 10
17.9470503936
 20
37.5084226994
 30
0.0
 10
17.8959166881
 20
37.4831233524
 30
0.0
 10
17.7849981165
 20
37.446816853
 30
0.0
 10
17.6082772178
 20
37.4383373594
 30
0.0
 10
17.428424909
 20
37.4715458083
 30
0.0
 10
17.3127004018
 20
37.5172329259
 30
0.0
 10
17.2557237447
 20
37.5450933239
 30
0.0
  0
SPLINE
  5
349
100
AcDbEntity
  8
0
100
AcDbSpline
 62
7
  6
BYLAYER
 70
0
 71
3
 72
11
 73
7
 74
0
 42
0.0000001
 43
0.0000001
 44
0.0000000001
 40
0.0
 40
0.0
 40
0.0
 40
0.0
 40
0.2667076248
 40
0.5195053448
 40
0.7617565528
 40
1.0
 40
1.0
 40
1.0
 40
1.0
 10
16.2275428205
 20
39.2978756847
 30
0.0
 10
16.2307064326
 20
39.3637042069
 30
0.0
 10
16.2470087542
 20
39.4918275399
 30
0.0
 10
16.3073304489
 20
39.6716521635
 30
0.0
 10
16.4044314123
 20
39.8268679134
 30
0.0
 10
16.4939122692
 20
39.907846611
 30
0.0
 10
16.5429044242
 20
39.940489377
 30
0.0
  0
SPLINE
  5
34A
100
AcDbEntity
  8
0
100
AcDbSpline
 62
7
  6
BYLAYER
 70
0
 71
3
 72
11
 73
7
 74
0
 42
0.0000001
 43
0.0000001
 44
0.0000000001
 40
0.0
 40
0.0
 40
0.0
 40
0.0
 40
0.2490505841
 40
0.501472708
 40
0.7531493431
 40
1.0
 40
1.0
 40
1.0
 40
1.0
 10
58.1148711709
 20
71.7190470854
 30
0.0
 10
58.590892551
 20
71.1439395369
 30
0.0
 10
59.4940712809
 20
69.9390934891
 30
0.0
 10
60.6801016774
 20
68.014631007
 30
0.0
 10
61.6855146513
 20
65.9972901329
 30
0.0
 10
62.2273482322
 20
64.6017482844
 30
0.0
 10
62.4607518126
 20
63.8995624388
 30
0.0
  0
SPLINE
  5
34B
100
AcDbEntity
  8
0
100
AcDbSpline
 62
7
  6
BYLAYER
 70
0
 71
3
 72
9
 73
5
 74
0
 42
0.0000001
 43
0.0000001
 44
0.0000000001
 40
0.0
 40
0.0
 40
0.0
 40
0.0
 40
0.2555537127
 40
1.0
 40
1.0
 40
1.0
 40
1.0
 10
15.0135041448
 20
40.1255961467
 30
0.0
 10
15.090979347
 20
40.0319941039
 30
0.0
 10
15.4009526377
 20
39.671450819
 30
0.0
 10
15.738138179
 20
39.3339869618
 30
0.0
 10
16.0041489981
 20
39.1004848736
 30
0.0
  0
SPLINE
  5
34C
100
AcDbEntity
  8
0
100
AcDbSpline
 62
7
  6
BYLAYER
 70
0
 71
3
 72
9
 73
5
 74
0
 42
0.0000001
 43
0.0000001
 44
0.0000000001
 40
0.0
 40
0.0
 40
0.0
 40
0.0
 40
0.5160163386
 40
1.0
 40
1.0
 40
1.0
 40
1.0
 10
18.5303434685
 20
37.7498167851
 30
0.0
 10
18.760297309
 20
37.7065922485
 30
0.0
 10
19.2163068535
 20
37.6670143243
 30
0.0
 10
19.6698217622
 20
37.7424890719
 30
0.0
 10
19.8788652173
 20
37.8092863239
 30
0.0
  0
SPLINE
  5
34D
100
AcDbEntity
  8
0
100
AcDbSpline
 62
7
  6
BYLAYER
 70
0
 71
3
 72
17
 73
13
 74
0
 42
0.0000001
 43
0.0000001
 44
0.0000000001
 40
0.0
 40
0.0
 40
0.0
 40
0.0
 40
0.0457471434
 40
0.093110403
 40
0.142673988
 40
0.1948901412
 40
0.3080612313
 40
0.4331747239
 40
0.568475566
 40
0.7107876519
 40
0.8560738473
 40
1.0
 40
1.0
 40
1.0
 40
1.0
 10
13.7124955486
 20
48.4898156422
 30
0.0
 10
13.6092472224
 20
48.3959358285
 30
0.0
 10
13.4163039199
 20
48.185156293
 30
0.0
 10
13.1794605754
 20
47.8179349045
 30
0.0
 10
12.9932441979
 20
47.4010661417
 30
0.0
 10
12.8087300418
 20
46.7701436773
 30
0.0
 10
12.7182966704
 20
45.8809871347
 30
0.0
 10
12.8161836249
 20
44.7406397083
 30
0.0
 10
13.1089063159
 20
43.5431068308
 30
0.0
 10
13.5826405218
 20
42.3393290133
 30
0.0
 10
14.2158313635
 20
41.1816499901
 30
0.0
 10
14.7335649884
 20
40.4638060019
 30
0.0
 10
15.0135041448
 20
40.1255961467
 30
0.0
  0
SPLINE
  5
34E
100
AcDbEntity
  8
0
100
AcDbSpline
 62
7
  6
BYLAYER
 70
0
 71
3
 72
17
 73
13
 74
0
 42
0.0000001
 43
0.0000001
 44
0.0000000001
 40
0.0
 40
0.0
 40
0.0
 40
0.0
 40
0.128688864
 40
0.2702797703
 40
0.4174318348
 40
0.5617733576
 40
0.6954455149
 40
0.8127096012
 40
0.8646749146
 40
0.9125085807
 40
0.9571389861
 40
1.0
 40
1.0
 40
1.0
 40
1.0
 10
9.3588460583
 20
34.987911434
 30
0.0
 10
9.3588460583
 20
34.9024365236
 30
0.0
 10
9.3827590592
 20
34.7227125393
 30
0.0
 10
9.472006014
 20
34.4588277291
 30
0.0
 10
9.6095354602
 20
34.2046251917
 30
0.0
 10
9.78428578
 20
33.9809466509
 30
0.0
 10
9.981980515
 20
33.8058591678
 30
0.0
 10
10.1609217167
 20
33.7080140455
 30
0.0
 10
10.3008983436
 20
33.6707813346
 30
0.0
 10
10.3972367764
 20
33.6636875048
 30
0.0
 10
10.4869437916
 20
33.676834807
 30
0.0
 10
10.5412944355
 20
33.6994182678
 30
0.0
 10
10.5659430072
 20
33.7136621005
 30
0.0
  0
SPLINE
  5
34F
100
AcDbEntity
  8
0
100
AcDbSpline
 62
7
  6
BYLAYER
 70
0
 71
3
 72
22
 73
18
 74
0
 42
0.0000001
 43
0.0000001
 44
0.0000000001
 40
0.0
 40
0.0
 40
0.0
 40
0.0
 40
0.1495955971
 40
0.2246891632
 40
0.2991425297
 40
0.3723524823
 40
0.4437562528
 40
0.5128420848
 40
0.5791707087
 40
0.6423955187
 40
0.7022870524
 40
0.7587613034
 40
0.8119052653
 40
0.8620032715
 40
0.9095536523
 40
0.9552618409
 40
1.0
 40
1.0
 40
1.0
 40
1.0
 10
13.9825436417
 20
37.9671103948
 30
0.0
 10
13.3441415468
 20
38.8042131019
 30
0.0
 10
12.4681140907
 20
40.1277182237
 30
0.0
 10
11.4797881701
 20
41.9875317839
 30
0.0
 10
10.8352181354
 20
43.4178605924
 30
0.0
 10
10.2966416856
 20
44.863619901
 30
0.0
 10
9.8706674546
 20
46.3072567992
 30
0.0
 10
9.5626044523
 20
47.7311848661
 30
0.0
 10
9.3763648107
 20
49.1182411707
 30
0.0
 10
9.3145487961
 20
50.4518663123
 30
0.0
 10
9.3784721152
 20
51.7163038474
 30
0.0
 10
9.5682299611
 20
52.8967102379
 30
0.0
 10
9.8829767002
 20
53.9791101819
 30
0.0
 10
10.3208783295
 20
54.9500546945
 30
0.0
 10
10.8789171243
 20
55.7963093396
 30
0.0
 10
11.5513378369
 20
56.5042015612
 30
0.0
 10
12.0727979483
 20
56.8772679316
 30
0.0
 10
12.3454563515
 20
57.0346863945
 30
0.0
  0
SPLINE
  5
350
100
AcDbEntity
  8
0
100
AcDbSpline
 62
7
  6
BYLAYER
 70
0
 71
3
 72
9
 73
5
 74
0
 42
0.0000001
 43
0.0000001
 44
0.0000000001
 40
0.0
 40
0.0
 40
0.0
 40
0.0
 40
0.5160439442
 40
1.0
 40
1.0
 40
1.0
 40
1.0
 10
63.4523653594
 20
57.8394242193
 30
0.0
 10
63.4523810947
 20
57.3764906006
 30
0.0
 10
63.408496261
 20
56.4786443072
 30
0.0
 10
63.2627044317
 20
55.5908553398
 30
0.0
 10
63.1637076093
 20
55.1681447376
 30
0.0
  0
SPLINE
  5
351
100
AcDbEntity
  8
0
100
AcDbSpline
 62
7
  6
BYLAYER
 70
0
 71
3
 72
19
 73
15
 74
0
 42
0.0000001
 43
0.0000001
 44
0.0000000001
 40
0.0
 40
0.0
 40
0.0
 40
0.0
 40
0.0474497158
 40
0.0955690037
 40
0.1449086701
 40
0.1959480497
 40
0.2490832139
 40
0.3046116893
 40
0.3627422593
 40
0.4235899089
 40
0.5534402947
 40
0.6937875497
 40
0.8432928002
 40
1.0
 40
1.0
 40
1.0
 40
1.0
 10
14.4012818473
 20
58.2206741819
 30
0.0
 10
14.592919538
 20
58.3266739746
 30
0.0
 10
14.9942838843
 20
58.5135526634
 30
0.0
 10
15.6351537407
 20
58.7114106246
 30
0.0
 10
16.3127061336
 20
58.826517949
 30
0.0
 10
17.0221695534
 20
58.8586054352
 30
0.0
 10
17.7589731247
 20
58.8075474096
 30
0.0
 10
18.518456264
 20
58.6741947096
 30
0.0
 10
19.2958831864
 20
58.4593782421
 30
0.0
 10
20.373170769
 20
58.0579138185
 30
0.0
 10
21.7350879766
 20
57.3518954837
 30
0.0
 10
23.3246121044
 20
56.2365407882
 30
0.0
 10
24.8663834266
 20
54.8626598501
 30
0.0
 10
25.819984494
 20
53.8158458956
 30
0.0
 10
26.2811572648
 20
53.2586777667
 30
0.0
  0
SPLINE
  5
352
100
AcDbEntity
  8
0
100
AcDbSpline
 62
7
  6
BYLAYER
 70
0
 71
3
 72
11
 73
7
 74
0
 42
0.0000001
 43
0.0000001
 44
0.0000000001
 40
0.0
 40
0.0
 40
0.0
 40
0.0
 40
0.2325810675
 40
0.4780121557
 40
0.7345771936
 40
1.0
 40
1.0
 40
1.0
 40
1.0
 10
53.1995400605
 20
76.0061709052
 30
0.0
 10
53.6395663246
 20
75.7521226625
 30
0.0
 10
54.5153823118
 20
75.1794487269
 30
0.0
 10
55.7700604005
 20
74.1756140981
 30
0.0
 10
56.9847495589
 20
73.0173377602
 30
0.0
 10
57.745148751
 20
72.1657290275
 30
0.0
 10
58.1148711709
 20
71.7190470854
 30
0.0
  0
SPLINE
  5
353
100
AcDbEntity
  8
0
100
AcDbSpline
 62
7
  6
BYLAYER
 70
0
 71
3
 72
11
 73
7
 74
0
 42
0.0000001
 43
0.0000001
 44
0.0000000001
 40
0.0
 40
0.0
 40
0.0
 40
0.0
 40
0.2431484298
 40
0.4891300573
 40
0.7406227496
 40
1.0
 40
1.0
 40
1.0
 40
1.0
 10
17.1676755151
 20
60.6847935325
 30
0.0
 10
16.975253337
 20
60.5736855072
 30
0.0
 10
16.6026627202
 20
60.3239604405
 30
0.0
 10
16.093666811
 20
59.8750944022
 30
0.0
 10
15.6362567849
 20
59.3539957838
 30
0.0
 10
15.3720878555
 20
58.967576981
 30
0.0
 10
15.2493556086
 20
58.7647998914
 30
0.0
  0
SPLINE
  5
354
100
AcDbEntity
  8
0
100
AcDbSpline
 62
7
  6
BYLAYER
 70
0
 71
3
 72
11
 73
7
 74
0
 42
0.0000001
 43
0.0000001
 44
0.0000000001
 40
0.0
 40
0.0
 40
0.0
 40
0.0
 40
0.2587017311
 40
0.5100736276
 40
0.7563464749
 40
1.0
 40
1.0
 40
1.0
 40
1.0
 10
29.6622824051
 20
34.006194651
 30
0.0
 10
29.8884764139
 20
34.0150311735
 30
0.0
 10
30.3339855472
 20
34.0564462924
 30
0.0
 10
30.9828287042
 20
34.1944755078
 30
0.0
 10
31.5974890034
 20
34.4067071542
 30
0.0
 10
31.9829692726
 20
34.5973984925
 30
0.0
 10
32.1675997995
 20
34.7040074783
 30
0.0
  0
SPLINE
  5
355
100
AcDbEntity
  8
0
100
AcDbSpline
 62
7
  6
BYLAYER
 70
0
 71
3
 72
11
 73
7
 74
0
 42
0.0000001
 43
0.0000001
 44
0.0000000001
 40
0.0
 40
0.0
 40
0.0
 40
0.0
 40
0.2180508542
 40
0.4501732534
 40
0.7091887944
 40
1.0
 40
1.0
 40
1.0
 40
1.0
 10
17.9470490621
 20
37.5084251236
 30
0.0
 10
17.9970076163
 20
37.5331596594
 30
0.0
 10
18.0914983391
 20
37.6038019219
 30
0.0
 10
18.1928325834
 20
37.7576161065
 30
0.0
 10
18.2528454451
 20
37.9504140839
 30
0.0
 10
18.2645857353
 20
38.0915136388
 30
0.0
 10
18.2645857353
 20
38.1658617093
 30
0.0
  0
SPLINE
  5
356
100
AcDbEntity
  8
0
100
AcDbSpline
 62
7
  6
BYLAYER
 70
0
 71
3
 72
11
 73
7
 74
0
 42
0.0000001
 43
0.0000001
 44
0.0000000001
 40
0.0
 40
0.0
 40
0.0
 40
0.0
 40
0.2491796772
 40
0.5014752912
 40
0.753030272
 40
1.0
 40
1.0
 40
1.0
 40
1.0
 10
58.0232370399
 20
71.6629933937
 30
0.0
 10
58.4982709586
 20
71.0819246562
 30
0.0
 10
59.4003211668
 20
69.867397917
 30
0.0
 10
60.5883856466
 20
67.9320510517
 30
0.0
 10
61.6001183357
 20
65.9063825005
 30
0.0
 10
62.1495227565
 20
64.5062587154
 30
0.0
 10
62.3878721705
 20
63.8016025587
 30
0.0
  0
SPLINE
  5
357
100
AcDbEntity
  8
0
100
AcDbSpline
 62
7
  6
BYLAYER
 70
0
 71
3
 72
9
 73
5
 74
0
 42
0.0000001
 43
0.0000001
 44
0.0000000001
 40
0.0
 40
0.0
 40
0.0
 40
0.0
 40
0.5162106071
 40
1.0
 40
1.0
 40
1.0
 40
1.0
 10
62.7357073236
 20
62.6785940862
 30
0.0
 10
62.9455426754
 20
61.9321913924
 30
0.0
 10
63.2759856967
 20
60.4634335908
 30
0.0
 10
63.4268396719
 20
58.9640378574
 30
0.0
 10
63.4468340323
 20
58.237671708
 30
0.0
  0
SPLINE
  5
358
100
AcDbEntity
  8
0
100
AcDbSpline
 62
7
  6
BYLAYER
 70
0
 71
3
 72
19
 73
15
 74
0
 42
0.0000001
 43
0.0000001
 44
0.0000000001
 40
0.0
 40
0.0
 40
0.0
 40
0.0
 40
0.1569964484
 40
0.3066964447
 40
0.4471184768
 40
0.57691112
 40
0.6376871953
 40
0.6957234557
 40
0.7511451595
 40
0.8041719635
 40
0.8551174506
 40
0.9043935972
 40
0.9524988287
 40
1.0
 40
1.0
 40
1.0
 40
1.0
 10
24.3012665206
 20
52.1155941358
 30
0.0
 10
23.8363402015
 20
52.6772971324
 30
0.0
 10
22.8748009937
 20
53.7320230973
 30
0.0
 10
21.3195226542
 20
55.114269172
 30
0.0
 10
19.7163234867
 20
56.2332571591
 30
0.0
 10
18.3430118634
 20
56.9380119234
 30
0.0
 10
17.257550268
 20
57.3352992345
 30
0.0
 10
16.4748894096
 20
57.5454891042
 30
0.0
 10
15.7108726059
 20
57.6727858677
 30
0.0
 10
14.970328443
 20
57.7162891589
 30
0.0
 10
14.2580402621
 20
57.6752698669
 30
0.0
 10
13.5786953708
 20
57.5497880173
 30
0.0
 10
12.9371673737
 20
57.3403176626
 30
0.0
 10
12.5365126589
 20
57.1449963487
 30
0.0
 10
12.3454604187
 20
57.0346793502
 30
0.0
  0
SPLINE
  5
359
100
AcDbEntity
  8
0
100
AcDbSpline
 62
7
  6
BYLAYER
 70
0
 71
3
 72
17
 73
13
 74
0
 42
0.0000001
 43
0.0000001
 44
0.0000000001
 40
0.0
 40
0.0
 40
0.0
 40
0.0
 40
0.042857965
 40
0.0874854797
 40
0.1353180708
 40
0.1872814984
 40
0.3045423159
 40
0.4382097446
 40
0.5825520305
 40
0.7297107839
 40
0.8713099826
 40
1.0
 40
1.0
 40
1.0
 40
1.0
 10
16.6370053641
 20
39.5281234417
 30
0.0
 10
16.661652134
 20
39.5423663812
 30
0.0
 10
16.7160006815
 20
39.5649434464
 30
0.0
 10
16.8057014556
 20
39.5780997656
 30
0.0
 10
16.9020360963
 20
39.5710009504
 30
0.0
 10
17.0420111161
 20
39.5337808658
 30
0.0
 10
17.2209478296
 20
39.4359378703
 30
0.0
 10
17.4186434233
 20
39.2608597958
 30
0.0
 10
17.5933983672
 20
39.0371818181
 30
0.0
 10
17.7309376243
 20
38.7829724581
 30
0.0
 10
17.8201892655
 20
38.5190774506
 30
0.0
 10
17.8441038808
 20
38.3393471947
 30
0.0
 10
17.8441038808
 20
38.2538714637
 30
0.0
  0
SPLINE
  5
35A
100
AcDbEntity
  8
0
100
AcDbSpline
 62
7
  6
BYLAYER
 70
0
 71
3
 72
19
 73
15
 74
0
 42
0.0000001
 43
0.0000001
 44
0.0000000001
 40
0.0
 40
0.0
 40
0.0
 40
0.0
 40
0.0464670024
 40
0.0927279388
 40
0.1397578
 40
0.1884536538
 40
0.2395575632
 40
0.2936212871
 40
0.3509909103
 40
0.4118341373
 40
0.5436734009
 40
0.6878092342
 40
0.8412247357
 40
1.0
 40
1.0
 40
1.0
 40
1.0
 10
19.8788619929
 20
37.8092929785
 30
0.0
 10
19.9971958517
 20
37.8471167021
 30
0.0
 10
20.2273824973
 20
37.9432437011
 30
0.0
 10
20.5423216436
 20
38.1478891665
 30
0.0
 10
20.8204013726
 20
38.4091411681
 30
0.0
 10
21.0583069532
 20
38.7235370799
 30
0.0
 10
21.2538769342
 20
39.0871085764
 30
0.0
 10
21.4052545056
 20
39.4957518748
 30
0.0
 10
21.5113886476
 20
39.9450160397
 30
0.0
 10
21.5932860515
 20
40.6096162544
 30
0.0
 10
21.5699115095
 20
41.5150174502
 30
0.0
 10
21.3606561827
 20
42.6475904345
 30
0.0
 10
20.978660289
 20
43.8096924101
 30
0.0
 10
20.6217716825
 20
44.5668083025
 30
0.0
 10
20.4185171967
 20
44.93947737
 30
0.0
  0
SPLINE
  5
35B
100
AcDbEntity
  8
0
100
AcDbSpline
 62
7
  6
BYLAYER
 70
0
 71
3
 72
20
 73
16
 74
0
 42
0.0000001
 43
0.0000001
 44
0.0000000001
 40
0.0
 40
0.0
 40
0.0
 40
0.0
 40
0.1569824238
 40
0.3066690474
 40
0.4470785355
 40
0.5133922345
 40
0.5769489147
 40
0.6377195609
 40
0.6957506369
 40
0.7511673899
 40
0.8041894569
 40
0.855130393
 40
0.9044021378
 40
0.952503072
 40
1.0
 40
1.0
 40
1.0
 40
1.0
 10
29.7527345698
 20
55.5068090963
 30
0.0
 10
29.2633384444
 20
56.0980754085
 30
0.0
 10
28.2511296298
 20
57.2083608509
 30
0.0
 10
26.6142584815
 20
58.6631550529
 30
0.0
 10
25.181024114
 20
59.6635616368
 30
0.0
 10
24.0240297531
 20
60.3041061717
 30
0.0
 10
23.1765674512
 20
60.6944669729
 30
0.0
 10
22.3382776543
 20
61.0012310959
 30
0.0
 10
21.5144475616
 20
61.2224891152
 30
0.0
 10
20.7102134855
 20
61.3564843269
 30
0.0
 10
19.9306947837
 20
61.4022776114
 30
0.0
 10
19.1809173804
 20
61.3590993219
 30
0.0
 10
18.4658175893
 20
61.2270131867
 30
0.0
 10
17.790524936
 20
61.0065180706
 30
0.0
 10
17.3687831364
 20
60.8009166888
 30
0.0
 10
17.1676755151
 20
60.6847935325
 30
0.0
  0
SPLINE
  5
35C
100
AcDbEntity
  8
0
100
AcDbSpline
 62
7
  6
BYLAYER
 70
0
 71
3
 72
22
 73
18
 74
0
 42
0.0000001
 43
0.0000001
 44
0.0000000001
 40
0.0
 40
0.0
 40
0.0
 40
0.0
 40
0.1516046577
 40
0.3041418825
 40
0.3788880519
 40
0.4516044279
 40
0.5216373123
 40
0.5884285916
 40
0.6515487952
 40
0.7107318419
 40
0.7659248629
 40
0.7920971822
 40
0.8173739516
 40
0.8655061347
 40
0.9112012316
 40
0.9555941492
 40
1.0
 40
1.0
 40
1.0
 40
1.0
 10
21.4905547891
 20
48.0450925977
 30
0.0
 10
21.8403703182
 20
47.6224612626
 30
0.0
 10
22.4784521957
 20
46.7202344735
 30
0.0
 10
23.1074936932
 20
45.4964867876
 30
0.0
 10
23.4952810979
 20
44.4815212271
 30
0.0
 10
23.7192789315
 20
43.7261227762
 30
0.0
 10
23.8749377181
 20
42.9830606457
 30
0.0
 10
23.9599227554
 20
42.2634601565
 30
0.0
 10
23.9728817917
 20
41.5780252446
 30
0.0
 10
23.9133913794
 20
40.937016301
 30
0.0
 10
23.801937771
 20
40.4389342875
 30
0.0
 10
23.6757677797
 20
40.0738346837
 30
0.0
 10
23.531361561
 20
39.7433456252
 30
0.0
 10
23.3094225218
 20
39.3709500391
 30
0.0
 10
22.9735036701
 20
38.9957534151
 30
0.0
 10
22.577407269
 20
38.7067331872
 30
0.0
 10
22.2803945854
 20
38.5766926252
 30
0.0
 10
22.1273281465
 20
38.5277687383
 30
0.0
  0
SPLINE
  5
35D
100
AcDbEntity
  8
0
100
AcDbSpline
 62
7
  6
BYLAYER
 70
0
 71
3
 72
15
 73
11
 74
0
 42
0.0000001
 43
0.0000001
 44
0.0000000001
 40
0.0
 40
0.0
 40
0.0
 40
0.0
 40
0.1000722754
 40
0.2071461295
 40
0.3218305202
 40
0.4442311131
 40
0.5740336551
 40
0.7105661711
 40
0.8529557262
 40
1.0
 40
1.0
 40
1.0
 40
1.0
 10
17.0592588769
 20
58.8404311692
 30
0.0
 10
17.4296972186
 20
58.8387386878
 30
0.0
 10
18.1971637557
 20
58.766857609
 30
0.0
 10
19.3565545574
 20
58.4774193203
 30
0.0
 10
20.5446455155
 20
58.0085877208
 30
0.0
 10
21.7449001924
 20
57.3675434143
 30
0.0
 10
22.9409972901
 20
56.5635619464
 30
0.0
 10
24.1165587596
 20
55.6080731662
 30
0.0
 10
25.2548494169
 20
54.5145960129
 30
0.0
 10
25.9690481835
 20
53.7143760173
 30
0.0
 10
26.3166515167
 20
53.2955002759
 30
0.0
  0
SPLINE
  5
35E
100
AcDbEntity
  8
0
100
AcDbSpline
 62
7
  6
BYLAYER
 70
0
 71
3
 72
18
 73
14
 74
0
 42
0.0000001
 43
0.0000001
 44
0.0000000001
 40
0.0
 40
0.0
 40
0.0
 40
0.0
 40
0.160079515
 40
0.3117573956
 40
0.4526698343
 40
0.5814131643
 40
0.6978567391
 40
0.7519911722
 40
0.8038214118
 40
0.8538682767
 40
0.9027643321
 40
0.9512255572
 40
1.0
 40
1.0
 40
1.0
 40
1.0
 10
19.2900243715
 20
46.6101332664
 30
0.0
 10
19.0680182496
 20
46.8783510437
 30
0.0
 10
18.607831341
 20
47.3785931803
 30
0.0
 10
17.860053468
 20
48.0226991421
 30
0.0
 10
17.0904994306
 20
48.526108794
 30
0.0
 10
16.3217498588
 20
48.8734195978
 30
0.0
 10
15.6833407678
 20
49.0264518744
 30
0.0
 10
15.1992488655
 20
49.0539974989
 30
0.0
 10
14.8597646928
 20
49.0296864428
 30
0.0
 10
14.5379526363
 20
48.9610056428
 30
0.0
 10
14.2365570423
 20
48.8481316327
 30
0.0
 10
13.9582416138
 20
48.6921666246
 30
0.0
 10
13.7909956647
 20
48.5611697318
 30
0.0
 10
13.712505202
 20
48.4898014107
 30
0.0
  0
SPLINE
  5
35F
100
AcDbEntity
  8
0
100
AcDbSpline
 62
7
  6
BYLAYER
 70
0
 71
3
 72
9
 73
5
 74
0
 42
0.0000001
 43
0.0000001
 44
0.0000000001
 40
0.0
 40
0.0
 40
0.0
 40
0.0
 40
0.5033201781
 40
1.0
 40
1.0
 40
1.0
 40
1.0
 10
20.4185171967
 20
44.93947737
 30
0.0
 10
20.2563746383
 20
45.2367673206
 30
0.0
 10
19.9062274126
 20
45.8125713393
 30
0.0
 10
19.5030953762
 20
46.3527104945
 30
0.0
 10
19.2900243715
 20
46.6101332664
 30
0.0
  0
SPLINE
  5
360
100
AcDbEntity
  8
0
100
AcDbSpline
 62
7
  6
BYLAYER
 70
0
 71
3
 72
11
 73
7
 74
0
 42
0.0000001
 43
0.0000001
 44
0.0000000001
 40
0.0
 40
0.0
 40
0.0
 40
0.0
 40
0.2177660095
 40
0.4508968553
 40
0.7103699668
 40
1.0
 40
1.0
 40
1.0
 40
1.0
 10
10.5659430072
 20
33.7136621005
 30
0.0
 10
10.5989192969
 20
33.7327183266
 30
0.0
 10
10.6606691348
 20
33.784552441
 30
0.0
 10
10.7263648667
 20
33.8920166505
 30
0.0
 10
10.7653655806
 20
34.0244141565
 30
0.0
 10
10.7730655086
 20
34.1207747686
 30
0.0
 10
10.7730655086
 20
34.1714299249
 30
0.0
  0
SPLINE
  5
361
100
AcDbEntity
  8
0
100
AcDbSpline
 62
7
  6
BYLAYER
 70
0
 71
3
 72
9
 73
5
 74
0
 42
0.0000001
 43
0.0000001
 44
0.0000000001
 40
0.0
 40
0.0
 40
0.0
 40
0.0
 40
0.2568204534
 40
1.0
 40
1.0
 40
1.0
 40
1.0
 10
18.6866837736
 20
37.8268077786
 30
0.0
 10
18.7315634769
 20
37.8222356426
 30
0.0
 10
18.9066818441
 20
37.8084176745
 30
0.0
 10
19.0832342518
 20
37.8112048842
 30
0.0
 10
19.2131630706
 20
37.8238611338
 30
0.0
  0
SPLINE
  5
362
100
AcDbEntity
  8
0
100
AcDbSpline
 62
7
  6
BYLAYER
 70
0
 71
3
 72
20
 73
16
 74
0
 42
0.0000001
 43
0.0000001
 44
0.0000000001
 40
0.0
 40
0.0
 40
0.0
 40
0.0
 40
0.0488638265
 40
0.096264258
 40
0.1433163562
 40
0.1911766465
 40
0.2409070146
 40
0.2933682066
 40
0.3491751357
 40
0.4086836953
 40
0.4720241396
 40
0.5391288707
 40
0.6834729282
 40
0.8386085295
 40
1.0
 40
1.0
 40
1.0
 40
1.0
 10
19.2131630706
 20
37.8238611338
 30
0.0
 10
19.3467332408
 20
37.8368720841
 30
0.0
 10
19.6084457185
 20
37.884726463
 30
0.0
 10
19.9778608677
 20
38.0272216607
 30
0.0
 10
20.3105434864
 20
38.2371050209
 30
0.0
 10
20.6013856491
 20
38.5111283406
 30
0.0
 10
20.8465454141
 20
38.8449559661
 30
0.0
 10
21.0434358273
 20
39.2336049763
 30
0.0
 10
21.1900422318
 20
39.6719688572
 30
0.0
 10
21.2851459236
 20
40.154528062
 30
0.0
 10
21.3278766525
 20
40.6754714631
 30
0.0
 10
21.3141239107
 20
41.4310704426
 30
0.0
 10
21.1582580454
 20
42.4308761663
 30
0.0
 10
20.7796820103
 20
43.6425340795
 30
0.0
 10
20.4113563097
 20
44.4332300928
 30
0.0
 10
20.1991186203
 20
44.8223699511
 30
0.0
  0
SPLINE
  5
363
100
AcDbEntity
  8
0
100
AcDbSpline
 62
7
  6
BYLAYER
 70
0
 71
3
 72
14
 73
10
 74
0
 42
0.0000001
 43
0.0000001
 44
0.0000000001
 40
0.0
 40
0.0
 40
0.0
 40
0.0
 40
0.1109228189
 40
0.2283559259
 40
0.3512364855
 40
0.4783811263
 40
0.6083772123
 40
0.7397014373
 40
1.0
 40
1.0
 40
1.0
 40
1.0
 10
12.8109395271
 20
45.7532812887
 30
0.0
 10
12.8113098103
 20
45.5272625487
 30
0.0
 10
12.8397010873
 20
45.0617356583
 30
0.0
 10
12.9554177647
 20
44.354435402
 30
0.0
 10
13.1436265596
 20
43.6287126962
 30
0.0
 10
13.4008461707
 20
42.8974509941
 30
0.0
 10
13.7227133035
 20
42.1733201798
 30
0.0
 10
14.228545838
 20
41.2378105482
 30
0.0
 10
14.6879631574
 20
40.5800577301
 30
0.0
 10
15.0261527906
 20
40.1714722779
 30
0.0
  0
SPLINE
  5
364
100
AcDbEntity
  8
0
100
AcDbSpline
 62
7
  6
BYLAYER
 70
0
 71
3
 72
23
 73
19
 74
0
 42
0.0000001
 43
0.0000001
 44
0.0000000001
 40
0.0
 40
0.0
 40
0.0
 40
0.0
 40
0.163872955
 40
0.2413392193
 40
0.3150705195
 40
0.384702966
 40
0.4500340781
 40
0.5110990102
 40
0.5682031261
 40
0.6219553295
 40
0.673291445
 40
0.7234218293
 40
0.7737110585
 40
0.825504347
 40
0.8799568998
 40
0.9084802449
 40
0.937963241
 40
1.0
 40
1.0
 40
1.0
 40
1.0
 10
19.1063898244
 20
46.4400796656
 30
0.0
 10
18.820903919
 20
46.7849908525
 30
0.0
 10
18.3641065048
 20
47.2652629523
 30
0.0
 10
17.6979737701
 20
47.811793257
 30
0.0
 10
17.198574734
 20
48.152008804
 30
0.0
 10
16.69706673
 20
48.425492143
 30
0.0
 10
16.1999934371
 20
48.6283170593
 30
0.0
 10
15.7139534272
 20
48.7574940652
 30
0.0
 10
15.245336507
 20
48.8108519598
 30
0.0
 10
14.8005150909
 20
48.7867389133
 30
0.0
 10
14.3861086068
 20
48.684648043
 30
0.0
 10
14.0089857738
 20
48.5053766698
 30
0.0
 10
13.6757904708
 20
48.2516759542
 30
0.0
 10
13.3918736515
 20
47.9283547714
 30
0.0
 10
13.2024280422
 20
47.6103440462
 30
0.0
 10
13.0777548256
 20
47.3292494652
 30
0.0
 10
12.9679092293
 20
47.0199360908
 30
0.0
 10
12.9099454665
 20
46.7756844053
 30
0.0
 10
12.8807622354
 20
46.6087185906
 30
0.0
  0
SPLINE
  5
365
100
AcDbEntity
  8
0
100
AcDbSpline
 62
7
  6
BYLAYER
 70
0
 71
3
 72
9
 73
5
 74
0
 42
0.0000001
 43
0.0000001
 44
0.0000000001
 40
0.0
 40
0.0
 40
0.0
 40
0.0
 40
0.2410599838
 40
1.0
 40
1.0
 40
1.0
 40
1.0
 10
12.8807622354
 20
46.6087185906
 30
0.0
 10
12.8690072897
 20
46.5414651023
 30
0.0
 10
12.8270154578
 20
46.2613059827
 30
0.0
 10
12.8109319376
 20
45.9774888069
 30
0.0
 10
12.8109319376
 20
45.7625416601
 30
0.0
  0
SPLINE
  5
366
100
AcDbEntity
  8
0
100
AcDbSpline
 62
7
  6
BYLAYER
 70
0
 71
3
 72
9
 73
5
 74
0
 42
0.0000001
 43
0.0000001
 44
0.0000000001
 40
0.0
 40
0.0
 40
0.0
 40
0.0
 40
0.5033201507
 40
1.0
 40
1.0
 40
1.0
 40
1.0
 10
20.1991186203
 20
44.8223699511
 30
0.0
 10
20.0421146717
 20
45.110238211
 30
0.0
 10
19.7030636185
 20
45.667793506
 30
0.0
 10
19.3127082215
 20
46.1908150895
 30
0.0
 10
19.1063898244
 20
46.4400796656
 30
0.0
  0
SPLINE
  5
367
100
AcDbEntity
  8
0
100
AcDbSpline
 62
7
  6
BYLAYER
 70
0
 71
3
 72
11
 73
7
 74
0
 42
0.0000001
 43
0.0000001
 44
0.0000000001
 40
0.0
 40
0.0
 40
0.0
 40
0.0
 40
0.2660509123
 40
0.5145281402
 40
0.7551114389
 40
1.0
 40
1.0
 40
1.0
 40
1.0
 10
19.6680808109
 20
38.3434864186
 30
0.0
 10
19.6464768551
 20
38.2903415928
 30
0.0
 10
19.5942321841
 20
38.1912365723
 30
0.0
 10
19.4844474189
 20
38.0685158692
 30
0.0
 10
19.3490241414
 20
37.9827309314
 30
0.0
 10
19.2471067798
 20
37.9530206433
 30
0.0
 10
19.1949749289
 20
37.9446164026
 30
0.0
  0
SPLINE
  5
368
100
AcDbEntity
  8
0
100
AcDbSpline
 62
7
  6
BYLAYER
 70
0
 71
3
 72
9
 73
5
 74
0
 42
0.0000001
 43
0.0000001
 44
0.0000000001
 40
0.0
 40
0.0
 40
0.0
 40
0.0
 40
0.2451290653
 40
1.0
 40
1.0
 40
1.0
 40
1.0
 10
19.1949749289
 20
37.9446164026
 30
0.0
 10
19.1848091765
 20
37.942977569
 30
0.0
 10
19.1431816551
 20
37.9372842398
 30
0.0
 10
19.1010366127
 20
37.9355307276
 30
0.0
 10
19.0693345609
 20
37.9362159261
 30
0.0
  0
SPLINE
  5
369
100
AcDbEntity
  8
0
100
AcDbSpline
 62
7
  6
BYLAYER
 70
0
 71
3
 72
9
 73
5
 74
0
 42
0.0000001
 43
0.0000001
 44
0.0000000001
 40
0.0
 40
0.0
 40
0.0
 40
0.0
 40
0.2435840429
 40
1.0
 40
1.0
 40
1.0
 40
1.0
 10
19.0693345609
 20
37.9362159261
 30
0.0
 10
19.0577084309
 20
37.9364672097
 30
0.0
 10
19.0100057013
 20
37.938603456
 30
0.0
 10
18.9625247036
 20
37.9450366579
 30
0.0
 10
18.9270783498
 20
37.9519369412
 30
0.0
  0
SPLINE
  5
36A
100
AcDbEntity
  8
0
100
AcDbSpline
 62
7
  6
BYLAYER
 70
0
 71
3
 72
9
 73
5
 74
0
 42
0.0000001
 43
0.0000001
 44
0.0000000001
 40
0.0
 40
0.0
 40
0.0
 40
0.0
 40
0.2698562496
 40
1.0
 40
1.0
 40
1.0
 40
1.0
 10
19.7460708326
 20
38.7887582238
 30
0.0
 10
19.7460708326
 20
38.7479620694
 30
0.0
 10
19.740301792
 20
38.5970115438
 30
0.0
 10
19.7096486677
 20
38.4457416042
 30
0.0
 10
19.6680808109
 20
38.3434864186
 30
0.0
  0
SPLINE
  5
36B
100
AcDbEntity
  8
0
100
AcDbSpline
 62
7
  6
BYLAYER
 70
0
 71
3
 72
9
 73
5
 74
0
 42
0.0000001
 43
0.0000001
 44
0.0000000001
 40
0.0
 40
0.0
 40
0.0
 40
0.0
 40
0.2618447095
 40
1.0
 40
1.0
 40
1.0
 40
1.0
 10
17.3999694734
 20
40.5127110646
 30
0.0
 10
17.405910302
 20
40.5339580422
 30
0.0
 10
17.4312345028
 20
40.6143072153
 30
0.0
 10
17.4676999635
 20
40.6914058066
 30
0.0
 10
17.5014434709
 20
40.7436498552
 30
0.0
  0
SPLINE
  5
36C
100
AcDbEntity
  8
0
100
AcDbSpline
 62
7
  6
BYLAYER
 70
0
 71
3
 72
21
 73
17
 74
0
 42
0.0000001
 43
0.0000001
 44
0.0000000001
 40
0.0
 40
0.0
 40
0.0
 40
0.0
 40
0.0458462424
 40
0.0899502657
 40
0.1346817139
 40
0.1822108575
 40
0.2340976182
 40
0.2911472596
 40
0.3534681397
 40
0.4206474033
 40
0.4918793626
 40
0.5660742189
 40
0.718043315
 40
0.8658879388
 40
0.9352332647
 40
1.0
 40
1.0
 40
1.0
 40
1.0
 10
17.5014434709
 20
40.7436498552
 30
0.0
 10
17.531754215
 20
40.7905790606
 30
0.0
 10
17.6027972457
 20
40.8760423317
 30
0.0
 10
17.7406788444
 20
40.9691323384
 30
0.0
 10
17.9014405148
 20
41.0192887228
 30
0.0
 10
18.0787627331
 20
41.0255336638
 30
0.0
 10
18.2672838612
 20
40.9891867572
 30
0.0
 10
18.4622624369
 20
40.912070713
 30
0.0
 10
18.6589972789
 20
40.7966869853
 30
0.0
 10
18.8525599537
 20
40.6461564152
 30
0.0
 10
19.0379331019
 20
40.4644237624
 30
0.0
 10
19.2694343247
 20
40.1849148408
 30
0.0
 10
19.5075910477
 20
39.7930384216
 30
0.0
 10
19.6671235326
 20
39.3688979139
 30
0.0
 10
19.7339603542
 20
39.0312365507
 30
0.0
 10
19.7460708326
 20
38.8676808471
 30
0.0
 10
19.7460708326
 20
38.7887582238
 30
0.0
  0
SPLINE
  5
36D
100
AcDbEntity
  8
0
100
AcDbSpline
 62
7
  6
BYLAYER
 70
0
 71
3
 72
9
 73
5
 74
0
 42
0.0000001
 43
0.0000001
 44
0.0000000001
 40
0.0
 40
0.0
 40
0.0
 40
0.0
 40
0.2698564128
 40
1.0
 40
1.0
 40
1.0
 40
1.0
 10
19.470823325
 20
38.7929188176
 30
0.0
 10
19.470823325
 20
38.7569445613
 30
0.0
 10
19.4657364192
 20
38.6238356868
 30
0.0
 10
19.4387060895
 20
38.4904452008
 30
0.0
 10
19.4020513724
 20
38.400276133
 30
0.0
  0
SPLINE
  5
36E
100
AcDbEntity
  8
0
100
AcDbSpline
 62
7
  6
BYLAYER
 70
0
 71
3
 72
19
 73
15
 74
0
 42
0.0000001
 43
0.0000001
 44
0.0000000001
 40
0.0
 40
0.0
 40
0.0
 40
0.0
 40
0.0475011713
 40
0.0956064028
 40
0.1448825494
 40
0.1958280365
 40
0.2488548405
 40
0.3042765443
 40
0.3623128047
 40
0.42308888
 40
0.5528815232
 40
0.6933035553
 40
0.8430035516
 40
1.0
 40
1.0
 40
1.0
 40
1.0
 10
17.0123457443
 20
59.7290907657
 30
0.0
 10
17.2033979846
 20
59.8394077642
 30
0.0
 10
17.6040526993
 20
60.0347290782
 30
0.0
 10
18.2455806964
 20
60.2441994329
 30
0.0
 10
18.9249255877
 20
60.3696812824
 30
0.0
 10
19.6372137686
 20
60.4107005745
 30
0.0
 10
20.3777579315
 20
60.3671972833
 30
0.0
 10
21.1417747352
 20
60.2399005198
 30
0.0
 10
21.9244355937
 20
60.02971065
 30
0.0
 10
23.009897189
 20
59.6324233389
 30
0.0
 10
24.3832088123
 20
58.9276685747
 30
0.0
 10
25.9864079799
 20
57.8086805876
 30
0.0
 10
27.5416863193
 20
56.4264345129
 30
0.0
 10
28.5032255271
 20
55.3717085479
 30
0.0
 10
28.9681518462
 20
54.8100055514
 30
0.0
  0
SPLINE
  5
36F
100
AcDbEntity
  8
0
100
AcDbSpline
 62
7
  6
BYLAYER
 70
0
 71
3
 72
9
 73
5
 74
0
 42
0.0000001
 43
0.0000001
 44
0.0000000001
 40
0.0
 40
0.0
 40
0.0
 40
0.0
 40
0.2372406965
 40
1.0
 40
1.0
 40
1.0
 40
1.0
 10
18.2645857353
 20
38.1658617093
 30
0.0
 10
18.2645857353
 20
38.1982286884
 30
0.0
 10
18.2595800765
 20
38.3346494098
 30
0.0
 10
18.2360498034
 20
38.4700875665
 30
0.0
 10
18.2103773761
 20
38.5709351812
 30
0.0
  0
SPLINE
  5
370
100
AcDbEntity
  8
0
100
AcDbSpline
 62
7
  6
BYLAYER
 70
0
 71
3
 72
18
 73
14
 74
0
 42
0.0000001
 43
0.0000001
 44
0.0000000001
 40
0.0
 40
0.0
 40
0.0
 40
0.0
 40
0.1439031642
 40
0.2927597343
 40
0.4400148377
 40
0.5794292902
 40
0.7058534894
 40
0.7632923464
 40
0.8166845506
 40
0.8662934885
 40
0.9126943067
 40
0.9568469788
 40
1.0
 40
1.0
 40
1.0
 40
1.0
 10
18.2103773761
 20
38.5709351812
 30
0.0
 10
18.1817135274
 20
38.6835338355
 30
0.0
 10
18.1033765718
 20
38.9078194046
 30
0.0
 10
17.9369845504
 20
39.2230520746
 30
0.0
 10
17.7283722127
 20
39.5078469149
 30
0.0
 10
17.4909202935
 20
39.7440739742
 30
0.0
 10
17.2740188402
 20
39.8930203867
 30
0.0
 10
17.0989762655
 20
39.9720026249
 30
0.0
 10
16.9743561718
 20
40.0090012075
 30
0.0
 10
16.8542379716
 20
40.0251182284
 30
0.0
 10
16.7404879346
 20
40.0195938782
 30
0.0
 10
16.6351909255
 20
39.9924144967
 30
0.0
 10
16.5719073696
 20
39.9597961256
 30
0.0
 10
16.5429177581
 20
39.9404673885
 30
0.0
  0
SPLINE
  5
371
100
AcDbEntity
  8
0
100
AcDbSpline
 62
7
  6
BYLAYER
 70
0
 71
3
 72
20
 73
16
 74
0
 42
0.0000001
 43
0.0000001
 44
0.0000000001
 40
0.0
 40
0.0
 40
0.0
 40
0.0
 40
0.1519980541
 40
0.3083693612
 40
0.4587343293
 40
0.5288049322
 40
0.594200555
 40
0.6544271378
 40
0.7094260826
 40
0.7597441543
 40
0.8066234021
 40
0.8519629648
 40
0.8980078428
 40
0.9468361438
 40
1.0
 40
1.0
 40
1.0
 40
1.0
 10
17.9428351418
 20
38.5175179067
 30
0.0
 10
17.9122303195
 20
38.6377411828
 30
0.0
 10
17.8237408014
 20
38.8754079079
 30
0.0
 10
17.6310638927
 20
39.1984705672
 30
0.0
 10
17.4266754586
 20
39.4313224263
 30
0.0
 10
17.2459264041
 20
39.5795414111
 30
0.0
 10
17.1105747705
 20
39.6652100357
 30
0.0
 10
16.9756037775
 20
39.7259334092
 30
0.0
 10
16.8440370646
 20
39.7599400293
 30
0.0
 10
16.7189335225
 20
39.7660279136
 30
0.0
 10
16.6034987463
 20
39.7432175726
 30
0.0
 10
16.5015904203
 20
39.6913756522
 30
0.0
 10
16.4168703505
 20
39.612349513
 30
0.0
 10
16.3518598181
 20
39.5091823876
 30
0.0
 10
16.3236344548
 20
39.4301850802
 30
0.0
 10
16.312653988
 20
39.3882061883
 30
0.0
  0
SPLINE
  5
372
100
AcDbEntity
  8
0
100
AcDbSpline
 62
7
  6
BYLAYER
 70
0
 71
3
 72
9
 73
5
 74
0
 42
0.0000001
 43
0.0000001
 44
0.0000000001
 40
0.0
 40
0.0
 40
0.0
 40
0.0
 40
0.2372407711
 40
1.0
 40
1.0
 40
1.0
 40
1.0
 10
17.9893382157
 20
38.1700225619
 30
0.0
 10
17.9893382157
 20
38.1977888285
 30
0.0
 10
17.9850439136
 20
38.3148183697
 30
0.0
 10
17.9648584255
 20
38.4310050263
 30
0.0
 10
17.9428351418
 20
38.5175179067
 30
0.0
  0
SPLINE
  5
373
100
AcDbEntity
  8
0
100
AcDbSpline
 62
7
  6
BYLAYER
 70
0
 71
3
 72
10
 73
6
 74
0
 42
0.0000001
 43
0.0000001
 44
0.0000000001
 40
0.0
 40
0.0
 40
0.0
 40
0.0
 40
0.5271333694
 40
0.7678446605
 40
1.0
 40
1.0
 40
1.0
 40
1.0
 10
17.3478350779
 20
37.5867867177
 30
0.0
 10
17.4130904382
 20
37.5683627898
 30
0.0
 10
17.5134383008
 20
37.5540510722
 30
0.0
 10
17.6412415796
 20
37.5741391074
 30
0.0
 10
17.6985272376
 20
37.5962920622
 30
0.0
 10
17.7249844611
 20
37.6101410467
 30
0.0
  0
SPLINE
  5
374
100
AcDbEntity
  8
0
100
AcDbSpline
 62
7
  6
BYLAYER
 70
0
 71
3
 72
9
 73
5
 74
0
 42
0.0000001
 43
0.0000001
 44
0.0000000001
 40
0.0
 40
0.0
 40
0.0
 40
0.0
 40
0.494550265
 40
1.0
 40
1.0
 40
1.0
 40
1.0
 10
17.7249844611
 20
37.6101410467
 30
0.0
 10
17.7495244479
 20
37.6229864574
 30
0.0
 10
17.7965562874
 20
37.6542256971
 30
0.0
 10
17.8362324608
 20
37.6943310819
 30
0.0
 10
17.8541780106
 20
37.7162254416
 30
0.0
  0
SPLINE
  5
375
100
AcDbEntity
  8
0
100
AcDbSpline
 62
7
  6
BYLAYER
 70
0
 71
3
 72
10
 73
6
 74
0
 42
0.0000001
 43
0.0000001
 44
0.0000000001
 40
0.0
 40
0.0
 40
0.0
 40
0.0
 40
0.4591054983
 40
0.7191302894
 40
1.0
 40
1.0
 40
1.0
 40
1.0
 10
17.8541780106
 20
37.7162254416
 30
0.0
 10
17.9008449155
 20
37.7731611168
 30
0.0
 10
17.9522266097
 20
37.8807765345
 30
0.0
 10
17.9840922058
 20
38.0380294083
 30
0.0
 10
17.9893382157
 20
38.1249854155
 30
0.0
 10
17.9893382157
 20
38.1700225619
 30
0.0
  0
SPLINE
  5
376
100
AcDbEntity
  8
0
100
AcDbSpline
 62
7
  6
BYLAYER
 70
0
 71
3
 72
11
 73
7
 74
0
 42
0.0000001
 43
0.0000001
 44
0.0000000001
 40
0.0
 40
0.0
 40
0.0
 40
0.0
 40
0.2896413964
 40
0.5491107671
 40
0.7822355978
 40
1.0
 40
1.0
 40
1.0
 40
1.0
 10
17.8441038808
 20
38.2538714637
 30
0.0
 10
17.8441038808
 20
38.2032142478
 30
0.0
 10
17.8364039652
 20
38.1068522326
 30
0.0
 10
17.7974025906
 20
37.9744539209
 30
0.0
 10
17.7317049202
 20
37.8669938629
 30
0.0
 10
17.6699589547
 20
37.8151572556
 30
0.0
 10
17.6369829472
 20
37.7961009946
 30
0.0
  0
SPLINE
  5
377
100
AcDbEntity
  8
0
100
AcDbSpline
 62
7
  6
BYLAYER
 70
0
 71
3
 72
19
 73
15
 74
0
 42
0.0000001
 43
0.0000001
 44
0.0000000001
 40
0.0
 40
0.0
 40
0.0
 40
0.0
 40
0.1562674081
 40
0.3054712115
 40
0.4456995459
 40
0.5756265995
 40
0.6365784054
 40
0.694847355
 40
0.7505350683
 40
0.8038330385
 40
0.8550173924
 40
0.9044593632
 40
0.9526117592
 40
1.0
 40
1.0
 40
1.0
 40
1.0
 10
24.092044461
 20
51.9297798572
 30
0.0
 10
23.6428732847
 20
52.4724482012
 30
0.0
 10
22.7143568789
 20
53.4928945629
 30
0.0
 10
21.2140958498
 20
54.8350717313
 30
0.0
 10
19.6670378292
 20
55.9292554752
 30
0.0
 10
18.3410310038
 20
56.626976677
 30
0.0
 10
17.2909805294
 20
57.0287273441
 30
0.0
 10
16.5322390691
 20
57.2471100583
 30
0.0
 10
15.7901993735
 20
57.3873059442
 30
0.0
 10
15.0693764823
 20
57.4484769285
 30
0.0
 10
14.3742000004
 20
57.429760374
 30
0.0
 10
13.7090172812
 20
57.3312066356
 30
0.0
 10
13.0783577428
 20
57.1529788131
 30
0.0
 10
12.6818017044
 20
56.9809777234
 30
0.0
 10
12.4921067682
 20
56.8827383915
 30
0.0
  0
SPLINE
  5
378
100
AcDbEntity
  8
0
100
AcDbSpline
 62
7
  6
BYLAYER
 70
0
 71
3
 72
22
 73
18
 74
0
 42
0.0000001
 43
0.0000001
 44
0.0000000001
 40
0.0
 40
0.0
 40
0.0
 40
0.0
 40
0.0438908031
 40
0.0886353431
 40
0.1352461003
 40
0.1845325156
 40
0.2370549903
 40
0.2931255375
 40
0.3528358433
 40
0.4160912637
 40
0.4826427335
 40
0.5521188977
 40
0.6240514124
 40
0.6978965317
 40
0.7730609097
 40
0.8489079652
 40
1.0
 40
1.0
 40
1.0
 40
1.0
 10
12.4921067682
 20
56.8827383915
 30
0.0
 10
12.2191280073
 20
56.7413679803
 30
0.0
 10
11.6947729598
 20
56.4001863923
 30
0.0
 10
11.012686621
 20
55.7350125748
 30
0.0
 10
10.441719348
 20
54.9260653894
 30
0.0
 10
9.9886686611
 20
53.9858046488
 30
0.0
 10
9.6578195208
 20
52.9270561397
 30
0.0
 10
9.4521979588
 20
51.7634700231
 30
0.0
 10
9.3736474859
 20
50.5096240014
 30
0.0
 10
9.4227814923
 20
49.1811891411
 30
0.0
 10
9.5987258785
 20
47.7948411604
 30
0.0
 10
9.899123922
 20
46.3680829243
 30
0.0
 10
10.3201258729
 20
44.9190124955
 30
0.0
 10
10.8563499972
 20
43.4661124767
 30
0.0
 10
11.5010123372
 20
42.0277900035
 30
0.0
 10
12.4923019328
 20
40.1573165348
 30
0.0
 10
13.3732205418
 20
38.8268889969
 30
0.0
 10
14.0158945322
 20
37.9861295843
 30
0.0
  0
SPLINE
  5
379
100
AcDbEntity
  8
0
100
AcDbSpline
 62
7
  6
BYLAYER
 70
0
 71
3
 72
17
 73
13
 74
0
 42
0.0000001
 43
0.0000001
 44
0.0000000001
 40
0.0
 40
0.0
 40
0.0
 40
0.0
 40
0.128688864
 40
0.2702797703
 40
0.4174318348
 40
0.5617733576
 40
0.6954455149
 40
0.8127096012
 40
0.8646749146
 40
0.9125085807
 40
0.9571389861
 40
1.0
 40
1.0
 40
1.0
 40
1.0
 10
10.7730655086
 20
34.1714299249
 30
0.0
 10
10.7730655086
 20
34.2569048353
 30
0.0
 10
10.7491525078
 20
34.4366288196
 30
0.0
 10
10.659905553
 20
34.7005136298
 30
0.0
 10
10.5223761068
 20
34.9547161672
 30
0.0
 10
10.3476257869
 20
35.178394708
 30
0.0
 10
10.149931052
 20
35.3534821911
 30
0.0
 10
9.9709898503
 20
35.4513273134
 30
0.0
 10
9.8310132234
 20
35.4885600243
 30
0.0
 10
9.7346747905
 20
35.4956538541
 30
0.0
 10
9.6449677754
 20
35.4825065519
 30
0.0
 10
9.5906171315
 20
35.4599230911
 30
0.0
 10
9.5659685598
 20
35.4456792584
 30
0.0
  0
SPLINE
  5
37A
100
AcDbEntity
  8
0
100
AcDbSpline
 62
7
  6
BYLAYER
 70
0
 71
3
 72
15
 73
11
 74
0
 42
0.0000001
 43
0.0000001
 44
0.0000000001
 40
0.0
 40
0.0
 40
0.0
 40
0.0
 40
0.1471606722
 40
0.2896401393
 40
0.4262331332
 40
0.556054895
 40
0.6784306962
 40
0.79305197
 40
0.9000327691
 40
1.0
 40
1.0
 40
1.0
 40
1.0
 10
26.3377686436
 20
53.3165190585
 30
0.0
 10
25.9875740494
 20
53.7387689789
 30
0.0
 10
25.2679703633
 20
54.5452927216
 30
0.0
 10
24.1207734188
 20
55.6469350689
 30
0.0
 10
22.9359330448
 20
56.6088845268
 30
0.0
 10
21.7304413594
 20
57.4174162604
 30
0.0
 10
20.5209492777
 20
58.0609399284
 30
0.0
 10
19.3240181163
 20
58.5300461145
 30
0.0
 10
18.1564432096
 20
58.8174649506
 30
0.0
 10
17.3839556275
 20
58.8863650543
 30
0.0
 10
17.0113070546
 20
58.8861376734
 30
0.0
  0
SPLINE
  5
37B
100
AcDbEntity
  8
0
100
AcDbSpline
 62
7
  6
BYLAYER
 70
0
 71
3
 72
11
 73
7
 74
0
 42
0.0000001
 43
0.0000001
 44
0.0000000001
 40
0.0
 40
0.0
 40
0.0
 40
0.0
 40
0.2600362842
 40
0.5117456641
 40
0.7574998369
 40
1.0
 40
1.0
 40
1.0
 40
1.0
 10
17.0113070546
 20
58.8861376734
 30
0.0
 10
16.7817402561
 20
58.8859975975
 30
0.0
 10
16.3294655352
 20
58.8607405168
 30
0.0
 10
15.6694834922
 20
58.7427743651
 30
0.0
 10
15.0447338594
 20
58.5458223398
 30
0.0
 10
14.6531305475
 20
58.3620461389
 30
0.0
 10
14.4659482705
 20
58.2581452533
 30
0.0
  0
SPLINE
  5
37C
100
AcDbEntity
  8
0
100
AcDbSpline
 62
7
  6
BYLAYER
 70
0
 71
3
 72
18
 73
14
 74
0
 42
0.0000001
 43
0.0000001
 44
0.0000000001
 40
0.0
 40
0.0
 40
0.0
 40
0.0
 40
0.0492770197
 40
0.0982249657
 40
0.1475511126
 40
0.1979376775
 40
0.2499938637
 40
0.3042304806
 40
0.4205207819
 40
0.5487438879
 40
0.6889767464
 40
0.8400992476
 40
1.0
 40
1.0
 40
1.0
 40
1.0
 10
15.4589523171
 20
50.0778016373
 30
0.0
 10
15.5411178167
 20
50.1525185773
 30
0.0
 10
15.7158524249
 20
50.2899456921
 30
0.0
 10
16.0056976162
 20
50.4553337596
 30
0.0
 10
16.3191559491
 20
50.5770378658
 30
0.0
 10
16.6535246614
 20
50.6541954109
 30
0.0
 10
17.0061960511
 20
50.6864130645
 30
0.0
 10
17.5086659975
 20
50.6689123142
 30
0.0
 10
18.1724901052
 20
50.5269210457
 30
0.0
 10
18.9751495905
 20
50.1886829394
 30
0.0
 10
19.7824093116
 20
49.6899910248
 30
0.0
 10
20.5720203713
 20
49.0451873172
 30
0.0
 10
21.0615557995
 20
48.5411752169
 30
0.0
 10
21.2989988634
 20
48.2700834372
 30
0.0
  0
SPLINE
  5
37D
100
AcDbEntity
  8
0
100
AcDbSpline
 62
7
  6
BYLAYER
 70
0
 71
3
 72
20
 73
16
 74
0
 42
0.0000001
 43
0.0000001
 44
0.0000000001
 40
0.0
 40
0.0
 40
0.0
 40
0.0
 40
0.1411175553
 40
0.2838735178
 40
0.4246157935
 40
0.4931511694
 40
0.5598993187
 40
0.6244947456
 40
0.6866258904
 40
0.7460432143
 40
0.8025728364
 40
0.8561364698
 40
0.9067639515
 40
0.9546160078
 40
1.0
 40
1.0
 40
1.0
 40
1.0
 10
26.3349173255
 20
53.2734608201
 30
0.0
 10
26.9215548269
 20
52.5647118659
 30
0.0
 10
28.016314035
 20
51.0662781189
 30
0.0
 10
29.3892774837
 20
48.6562685854
 30
0.0
 10
30.294977227
 20
46.541052358
 30
0.0
 10
30.8505032164
 20
44.8283325379
 30
0.0
 10
31.1737421409
 20
43.5649360604
 30
0.0
 10
31.4039803499
 20
42.3237187194
 30
0.0
 10
31.5390790846
 20
41.116525269
 30
0.0
 10
31.5776638478
 20
39.9548616012
 30
0.0
 10
31.5191890354
 20
38.8497481274
 30
0.0
 10
31.3641433632
 20
37.81166072
 30
0.0
 10
31.1135233935
 20
36.8503720881
 30
0.0
 10
30.7694232866
 20
35.9753216643
 30
0.0
 10
30.472245599
 20
35.4422849398
 30
0.0
 10
30.3090085577
 20
35.1954990605
 30
0.0
  0
SPLINE
  5
37E
100
AcDbEntity
  8
0
100
AcDbSpline
 62
7
  6
BYLAYER
 70
0
 71
3
 72
23
 73
19
 74
0
 42
0.0000001
 43
0.0000001
 44
0.0000000001
 40
0.0
 40
0.0
 40
0.0
 40
0.0
 40
0.0435229692
 40
0.0881819163
 40
0.1349725224
 40
0.184657921
 40
0.2377366537
 40
0.2944530264
 40
0.3548297745
 40
0.4187069501
 40
0.4857764353
 40
0.5556111874
 40
0.6276921794
 40
0.7014340119
 40
0.7762024618
 40
0.8513274704
 40
0.9261616608
 40
1.0
 40
1.0
 40
1.0
 40
1.0
 10
26.5953884888
 20
32.3529325987
 30
0.0
 10
26.8716831653
 20
32.5124701125
 30
0.0
 10
27.4000560505
 20
32.8937154842
 30
0.0
 10
28.0768250064
 20
33.6233025025
 30
0.0
 10
28.6338630604
 20
34.5013488413
 30
0.0
 10
29.0646253563
 20
35.5141069337
 30
0.0
 10
29.3650184732
 20
36.6475315182
 30
0.0
 10
29.5321942222
 20
37.8865888775
 30
0.0
 10
29.5647097637
 20
39.2151468273
 30
0.0
 10
29.4625092735
 20
40.6159095885
 30
0.0
 10
29.2270929831
 20
42.0705338465
 30
0.0
 10
28.861673631
 20
43.5598541101
 30
0.0
 10
28.3711654165
 20
45.0641741365
 30
0.0
 10
27.7620759422
 20
46.5635289046
 30
0.0
 10
27.0424921297
 20
48.0379036184
 30
0.0
 10
26.2220171503
 20
49.4678557849
 30
0.0
 10
25.3115888694
 20
50.8340155095
 30
0.0
 10
24.6463962802
 20
51.698623936
 30
0.0
 10
24.3012665206
 20
52.1155941358
 30
0.0
  0
SPLINE
  5
37F
100
AcDbEntity
  8
0
100
AcDbSpline
 62
7
  6
BYLAYER
 70
0
 71
3
 72
21
 73
17
 74
0
 42
0.0000001
 43
0.0000001
 44
0.0000000001
 40
0.0
 40
0.0
 40
0.0
 40
0.0
 40
0.1522806744
 40
0.3054155878
 40
0.3803645018
 40
0.4531891095
 40
0.5232217599
 40
0.5898942096
 40
0.6527796345
 40
0.7116289682
 40
0.7664222875
 40
0.8174216603
 40
0.8652137733
 40
0.9107307881
 40
0.9551998881
 40
1.0
 40
1.0
 40
1.0
 40
1.0
 10
21.6741893362
 20
48.2151461985
 30
0.0
 10
22.039860138
 20
47.7733592385
 30
0.0
 10
22.7056697357
 20
46.8296109581
 30
0.0
 10
23.3588036824
 20
45.5488529491
 30
0.0
 10
23.7581210213
 20
44.4872827013
 30
0.0
 10
23.9863117696
 20
43.6984513393
 30
0.0
 10
24.141732953
 20
42.9238073533
 30
0.0
 10
24.2219385751
 20
42.1752777802
 30
0.0
 10
24.2256247094
 20
41.4643707651
 30
0.0
 10
24.1524454956
 20
40.8019136644
 30
0.0
 10
24.0030845179
 20
40.1979790997
 30
0.0
 10
23.7791044873
 20
39.6618687525
 30
0.0
 10
23.482842192
 20
39.2024209886
 30
0.0
 10
23.1179204268
 20
38.8281837633
 30
0.0
 10
22.690540402
 20
38.5470711076
 30
0.0
 10
22.3731913468
 20
38.4271597435
 30
0.0
 10
22.2100741427
 20
38.3840507857
 30
0.0
  0
SPLINE
  5
380
100
AcDbEntity
  8
0
100
AcDbSpline
 62
7
  6
BYLAYER
 70
0
 71
3
 72
9
 73
5
 74
0
 42
0.0000001
 43
0.0000001
 44
0.0000000001
 40
0.0
 40
0.0
 40
0.0
 40
0.0
 40
0.2466287897
 40
1.0
 40
1.0
 40
1.0
 40
1.0
 10
22.119468107
 20
38.361914469
 30
0.0
 10
22.08724374
 20
38.3546750971
 30
0.0
 10
21.9560162902
 20
38.3278891552
 30
0.0
 10
21.8227402269
 20
38.3113184301
 30
0.0
 10
21.7221007739
 20
38.3042346136
 30
0.0
  0
SPLINE
  5
381
100
AcDbEntity
  8
0
100
AcDbSpline
 62
7
  6
BYLAYER
 70
0
 71
3
 72
23
 73
19
 74
0
 42
0.0000001
 43
0.0000001
 44
0.0000000001
 40
0.0
 40
0.0
 40
0.0
 40
0.0
 40
0.0738383392
 40
0.1486725296
 40
0.2237975382
 40
0.2985659881
 40
0.3723078206
 40
0.4443888126
 40
0.5142235647
 40
0.5812930499
 40
0.6451702255
 40
0.7055469736
 40
0.7622633463
 40
0.815342079
 40
0.8650274776
 40
0.9118180837
 40
0.9564770308
 40
1.0
 40
1.0
 40
1.0
 40
1.0
 10
28.9681518462
 20
54.8100055514
 30
0.0
 10
29.3132816058
 20
54.3930353516
 30
0.0
 10
29.978474195
 20
53.528426925
 30
0.0
 10
30.8889024759
 20
52.1622672004
 30
0.0
 10
31.7093774553
 20
50.7323150339
 30
0.0
 10
32.4289612678
 20
49.2579403201
 30
0.0
 10
33.0380507421
 20
47.758585552
 30
0.0
 10
33.5285589566
 20
46.2542655257
 30
0.0
 10
33.8939783087
 20
44.764945262
 30
0.0
 10
34.1293945991
 20
43.3103210041
 30
0.0
 10
34.2315950893
 20
41.9095582429
 30
0.0
 10
34.1990795478
 20
40.5810002931
 30
0.0
 10
34.0319037988
 20
39.3419429337
 30
0.0
 10
33.7315106819
 20
38.2085183493
 30
0.0
 10
33.300748386
 20
37.1957602568
 30
0.0
 10
32.7437103321
 20
36.317713918
 30
0.0
 10
32.0669413761
 20
35.5881268998
 30
0.0
 10
31.538568491
 20
35.2068815281
 30
0.0
 10
31.2622738144
 20
35.0473440142
 30
0.0
  0
SPLINE
  5
382
100
AcDbEntity
  8
0
100
AcDbSpline
 62
7
  6
BYLAYER
 70
0
 71
3
 72
11
 73
7
 74
0
 42
0.0000001
 43
0.0000001
 44
0.0000000001
 40
0.0
 40
0.0
 40
0.0
 40
0.0
 40
0.234203416
 40
0.4800456076
 40
0.7359940088
 40
1.0
 40
1.0
 40
1.0
 40
1.0
 10
53.1950637126
 20
76.0021349094
 30
0.0
 10
53.6188435151
 20
75.7413524849
 30
0.0
 10
54.4610436379
 20
75.1630157554
 30
0.0
 10
55.6690172376
 20
74.167366832
 30
0.0
 10
56.8386375058
 20
73.0340733457
 30
0.0
 10
57.5731731229
 20
72.2074344439
 30
0.0
 10
57.9308224827
 20
71.7753386281
 30
0.0
  0
SPLINE
  5
383
100
AcDbEntity
  8
0
100
AcDbSpline
 62
7
  6
BYLAYER
 70
0
 71
3
 72
9
 73
5
 74
0
 42
0.0000001
 43
0.0000001
 44
0.0000000001
 40
0.0
 40
0.0
 40
0.0
 40
0.0
 40
0.2555260482
 40
1.0
 40
1.0
 40
1.0
 40
1.0
 10
15.0107136311
 20
49.7586952725
 30
0.0
 10
15.0367764853
 20
49.8002093183
 30
0.0
 10
15.1428142303
 20
49.9600838493
 30
0.0
 10
15.2655906464
 20
50.1090002329
 30
0.0
 10
15.3656269387
 20
50.2109210486
 30
0.0
  0
SPLINE
  5
384
100
AcDbEntity
  8
0
100
AcDbSpline
 62
7
  6
BYLAYER
 70
0
 71
3
 72
19
 73
15
 74
0
 42
0.0000001
 43
0.0000001
 44
0.0000000001
 40
0.0
 40
0.0
 40
0.0
 40
0.0
 40
0.0498318024
 40
0.0990534252
 40
0.1484103747
 40
0.1986365833
 40
0.2504042064
 40
0.3042831505
 40
0.3607196601
 40
0.4200278718
 40
0.5477876083
 40
0.6879641985
 40
0.839421904
 40
1.0
 40
1.0
 40
1.0
 40
1.0
 10
15.3656269387
 20
50.2109210486
 30
0.0
 10
15.4482276812
 20
50.2950778568
 30
0.0
 10
15.6246735803
 20
50.4509049165
 30
0.0
 10
15.9210051415
 20
50.6417961032
 30
0.0
 10
16.2437439558
 20
50.7859887242
 30
0.0
 10
16.590062174
 20
50.8821508737
 30
0.0
 10
16.9569931931
 20
50.9297754852
 30
0.0
 10
17.3415567466
 20
50.9286689299
 30
0.0
 10
17.7407803363
 20
50.8791111474
 30
0.0
 10
18.3023832034
 20
50.7458884558
 30
0.0
 10
19.0246880722
 20
50.4539930839
 30
0.0
 10
19.8762609391
 20
49.9378340182
 30
0.0
 10
20.7102945518
 20
49.2629322103
 30
0.0
 10
21.226654301
 20
48.732575963
 30
0.0
 10
21.4770196704
 20
48.446730622
 30
0.0
  0
SPLINE
  5
385
100
AcDbEntity
  8
0
100
AcDbSpline
 62
7
  6
BYLAYER
 70
0
 71
3
 72
23
 73
19
 74
0
 42
0.0000001
 43
0.0000001
 44
0.0000000001
 40
0.0
 40
0.0
 40
0.0
 40
0.0
 40
0.0435198731
 40
0.0881870388
 40
0.1349932246
 40
0.1846975442
 40
0.2377951017
 40
0.2945276369
 40
0.3549163008
 40
0.4188002612
 40
0.4858711796
 40
0.5557024092
 40
0.6277742096
 40
0.7015020936
 40
0.7762545687
 40
0.8513622476
 40
0.9261790242
 40
1.0
 40
1.0
 40
1.0
 40
1.0
 10
28.6561928533
 20
33.5427607979
 30
0.0
 10
28.9319231603
 20
33.702886849
 30
0.0
 10
29.4591107769
 20
34.0852213213
 30
0.0
 10
30.1340477372
 20
34.8159589715
 30
0.0
 10
30.6893656344
 20
35.6947837953
 30
0.0
 10
31.1185567704
 20
36.7079760391
 30
0.0
 10
31.4175503932
 20
37.841516979
 30
0.0
 10
31.5835173588
 20
39.0803986533
 30
0.0
 10
31.6150254378
 20
40.4085176281
 30
0.0
 10
31.5120302111
 20
41.8086106433
 30
0.0
 10
31.2760387999
 20
43.2623731581
 30
0.0
 10
30.9102617632
 20
44.7506715891
 30
0.0
 10
30.4196227459
 20
46.2538494923
 30
0.0
 10
29.8106081527
 20
47.7519875581
 30
0.0
 10
29.0912998099
 20
49.2251315829
 30
0.0
 10
28.2712688747
 20
50.6538902814
 30
0.0
 10
27.3614339061
 20
52.0189281103
 30
0.0
 10
26.696731549
 20
52.8828531813
 30
0.0
 10
26.3518676485
 20
53.2995021821
 30
0.0
  0
SPLINE
  5
386
100
AcDbEntity
  8
0
100
AcDbSpline
 62
7
  6
BYLAYER
 70
0
 71
3
 72
18
 73
14
 74
0
 42
0.0000001
 43
0.0000001
 44
0.0000000001
 40
0.0
 40
0.0
 40
0.0
 40
0.0
 40
0.0428885764
 40
0.0871813938
 40
0.134464411
 40
0.1858087569
 40
0.2417501366
 40
0.3023289712
 40
0.4356081132
 40
0.5802279363
 40
0.728121451
 40
0.8705863325
 40
1.0
 40
1.0
 40
1.0
 40
1.0
 10
17.6450529356
 20
40.6748371522
 30
0.0
 10
17.680761902
 20
40.698631274
 30
0.0
 10
17.7601043679
 20
40.7375864583
 30
0.0
 10
17.8932037127
 20
40.7646044123
 30
0.0
 10
18.0372295963
 20
40.7602439243
 30
0.0
 10
18.1887490527
 20
40.7254602148
 30
0.0
 10
18.3446809241
 20
40.6613599467
 30
0.0
 10
18.5610231208
 20
40.5349521621
 30
0.0
 10
18.8197915984
 20
40.31205255
 30
0.0
 10
19.0864059697
 20
39.977213691
 30
0.0
 10
19.2970586437
 20
39.5938815679
 30
0.0
 10
19.4340140023
 20
39.1947269735
 30
0.0
 10
19.470823325
 20
38.9223979176
 30
0.0
 10
19.470823325
 20
38.7929188176
 30
0.0
  0
SPLINE
  5
387
100
AcDbEntity
  8
0
100
AcDbSpline
 62
7
  6
BYLAYER
 70
0
 71
3
 72
23
 73
19
 74
0
 42
0.0000001
 43
0.0000001
 44
0.0000000001
 40
0.0
 40
0.0
 40
0.0
 40
0.0
 40
0.0435229692
 40
0.0881819163
 40
0.1349725224
 40
0.184657921
 40
0.2377366537
 40
0.2944530264
 40
0.3548297745
 40
0.4187069501
 40
0.4857764353
 40
0.5556111874
 40
0.6276921794
 40
0.7014340119
 40
0.7762024618
 40
0.8513274704
 40
0.9261616608
 40
1.0
 40
1.0
 40
1.0
 40
1.0
 10
32.1675997995
 20
34.7040074783
 30
0.0
 10
32.4584363011
 20
34.8719417034
 30
0.0
 10
33.0146182854
 20
35.273252621
 30
0.0
 10
33.7270066601
 20
36.0412389559
 30
0.0
 10
34.3133625064
 20
36.9654982599
 30
0.0
 10
34.7667965021
 20
38.0315594099
 30
0.0
 10
35.082999783
 20
39.2246379198
 30
0.0
 10
35.2589742557
 20
40.5289088244
 30
0.0
 10
35.2932011414
 20
41.9273908769
 30
0.0
 10
35.1856216781
 20
43.4018779939
 30
0.0
 10
34.9378150566
 20
44.9330614233
 30
0.0
 10
34.553163107
 20
46.500766964
 30
0.0
 10
34.0368386707
 20
48.0842617286
 30
0.0
 10
33.3956918556
 20
49.6625299056
 30
0.0
 10
32.6382352109
 20
51.2145032885
 30
0.0
 10
31.7745773378
 20
52.7197160953
 30
0.0
 10
30.816231779
 20
54.1577789633
 30
0.0
 10
30.1160290535
 20
55.0678930966
 30
0.0
 10
29.7527345698
 20
55.5068090963
 30
0.0
  0
ELLIPSE
  5
388
100
AcDbEntity
  8
0
100
AcDbEllipse
 62
7
  6
BYLAYER
 10
38.4837459234
 20
58.2836364617
 30
0.0
 11
24.6921581758
 21
6.3071398165
 31
0.0
 40
0.6370116215
 41
1.2447639568
 42
1.2699691479
  0
ELLIPSE
  5
389
100
AcDbEntity
  8
0
100
AcDbEllipse
 62
7
  6
BYLAYER
 10
38.3275784797
 20
58.8091460359
 30
0.0
 11
25.0823955992
 21
4.8563883918
 31
0.0
 40
0.621011288
 41
7.528212686
 42
7.5539418084
  0
ELLIPSE
  5
38A
100
AcDbEntity
  8
0
100
AcDbEllipse
 62
7
  6
BYLAYER
 10
38.2048648945
 20
59.3294013696
 30
0.0
 11
25.3679778441
 21
3.4993896667
 31
0.0
 40
0.6026731265
 41
1.2403760062
 42
1.2667091019
  0
ELLIPSE
  5
38B
100
AcDbEntity
  8
0
100
AcDbEllipse
 62
7
  6
BYLAYER
 10
38.1165390921
 20
59.8404430055
 30
0.0
 11
25.5602112624
 21
2.2394956401
 31
0.0
 40
0.5824427335
 41
1.2303337638
 42
1.2579614716
  0
ELLIPSE
  5
38C
100
AcDbEntity
  8
0
100
AcDbEllipse
 62
7
  6
BYLAYER
 10
38.0632732852
 20
60.3383816082
 30
0.0
 11
25.6693976586
 21
1.074728493
 31
0.0
 40
0.5607003361
 41
1.2164194471
 42
1.2448131678
  0
ELLIPSE
  5
38D
100
AcDbEntity
  8
0
100
AcDbEllipse
 62
7
  6
BYLAYER
 10
38.045472859
 20
60.8194275644
 30
0.0
 11
25.7041710666
 21
0.000086921
 31
0.0
 40
0.5377539929
 41
1.1982675425
 42
1.2276384485
  0
ELLIPSE
  5
38E
100
AcDbEntity
  8
0
100
AcDbEllipse
 62
7
  6
BYLAYER
 10
38.0632732852
 20
61.2799198237
 30
0.0
 11
25.6714220041
 21
-0.990796206
 31
0.0
 40
0.5138422122
 41
1.1774546168
 42
1.2068255228
  0
ELLIPSE
  5
38F
100
AcDbEntity
  8
0
100
AcDbEllipse
 62
7
  6
BYLAYER
 10
38.1165390921
 20
61.716353762
 30
0.0
 11
25.5765102646
 21
-1.9046128171
 31
0.0
 40
0.4891411839
 41
1.1533697171
 42
1.1827406231
  0
ELLIPSE
  5
390
100
AcDbEntity
  8
0
100
AcDbEllipse
 62
7
  6
BYLAYER
 10
38.2048648945
 20
62.1254078536
 30
0.0
 11
25.4235744323
 21
-2.7478070601
 31
0.0
 40
0.4637735253
 41
1.1263386505
 42
1.1557095565
  0
ELLIPSE
  5
391
100
AcDbEntity
  8
0
100
AcDbEllipse
 62
7
  6
BYLAYER
 10
38.3275784797
 20
62.5039689499
 30
0.0
 11
25.2158380038
 21
-3.526315637
 31
0.0
 40
0.4378168535
 41
1.0966392795
 42
1.1260101855
  0
ELLIPSE
  5
392
100
AcDbEntity
  8
0
100
AcDbEllipse
 62
7
  6
BYLAYER
 10
38.4837459234
 20
62.8491559722
 30
0.0
 11
24.9558704224
 21
-4.2454987115
 31
0.0
 40
0.4113114298
 41
1.0645001417
 42
1.0938710477
  0
ELLIPSE
  5
393
100
AcDbEntity
  8
0
100
AcDbEllipse
 62
7
  6
BYLAYER
 10
38.672178697
 20
63.1583418389
 30
0.0
 11
24.6457923828
 21
-4.9101776717
 31
0.0
 40
0.3842666715
 41
1.0301020743
 42
1.0594729803
  0
ELLIPSE
  5
394
100
AcDbEntity
  8
0
100
AcDbEllipse
 62
7
  6
BYLAYER
 10
38.8914427133
 20
63.429173459
 30
0.0
 11
24.2874286681
 21
-5.5247273254
 31
0.0
 40
0.3566666052
 41
0.9935809255
 42
1.0229518315
  0
ELLIPSE
  5
395
100
AcDbEntity
  8
0
100
AcDbEllipse
 62
7
  6
BYLAYER
 10
39.1398692407
 20
63.6595896402
 30
0.0
 11
23.8824165252
 21
-6.0931919811
 31
0.0
 40
0.3284744764
 41
0.9550302356
 42
0.9844011416
  0
ELLIPSE
  5
396
100
AcDbEntity
  8
0
100
AcDbEllipse
 62
7
  6
BYLAYER
 10
39.4155676033
 20
63.8478367762
 30
0.0
 11
23.4322780087
 21
-6.6194089738
 31
0.0
 40
0.2996367937
 41
0.9145032477
 42
0.9438741537
  0
ELLIPSE
  5
397
100
AcDbEntity
  8
0
100
AcDbEllipse
 62
7
  6
BYLAYER
 10
39.7164395702
 20
63.9924821927
 30
0.0
 11
22.9384634115
 21
-7.1071318569
 31
0.0
 40
0.2700871321
 41
0.8720138726
 42
0.9013847787
  0
ELLIPSE
  5
398
100
AcDbEntity
  8
0
100
AcDbEllipse
 62
7
  6
BYLAYER
 10
40.040195324
 20
64.0924250508
 30
0.0
 11
22.4023710467
 21
-7.5601506281
 31
0.0
 40
0.2397500614
 41
0.8275363612
 42
0.8569072672
  0
ELLIPSE
  5
399
100
AcDbEntity
  8
0
100
AcDbEllipse
 62
7
  6
BYLAYER
 10
40.3843708879
 20
64.1469047249
 30
0.0
 11
21.8253467446
 21
-7.9824093347
 31
0.0
 40
0.2085456475
 41
0.7810034854
 42
0.8103743914
  0
ELLIPSE
  5
39A
100
AcDbEntity
  8
0
100
AcDbEllipse
 62
7
  6
BYLAYER
 10
40.7463468781
 20
64.1555065918
 30
0.0
 11
21.2086646264
 21
-8.3781229955
 31
0.0
 40
0.1763950854
 41
0.7323030402
 42
0.7616739462
  0
ELLIPSE
  5
39B
100
AcDbEntity
  8
0
100
AcDbEllipse
 62
7
  6
BYLAYER
 10
41.1233684387
 20
64.1181651861
 30
0.0
 11
20.5534890178
 21
-8.7518963634
 31
0.0
 40
0.1432282066
 41
0.6812724776
 42
0.7106433836
  0
ELLIPSE
  5
39C
100
AcDbEntity
  8
0
100
AcDbEllipse
 62
7
  6
BYLAYER
 10
41.5125662079
 20
64.0351646985
 30
0.0
 11
19.8608157951
 21
-9.1088465383
 31
0.0
 40
0.1089938613
 41
0.6276915302
 42
0.6570624363
  0
ELLIPSE
  5
39D
100
AcDbEntity
  8
0
100
AcDbEllipse
 62
7
  6
BYLAYER
 10
41.9109781559
 20
63.9071368128
 30
0.0
 11
19.1313901816
 21
-9.4547292795
 31
0.0
 40
0.0736745289
 41
0.5712728325
 42
0.6006437385
  0
ELLIPSE
  5
39E
100
AcDbEntity
  8
0
100
AcDbEllipse
 62
7
  6
BYLAYER
 10
42.315572127
 20
63.7350558984
 30
0.0
 11
18.3655976129
 21
-9.7960637338
 31
0.0
 40
0.0373069534
 41
0.5116509495
 42
0.5410218555
  0
ELLIPSE
  5
39F
100
AcDbEntity
  8
0
100
AcDbEllipse
 62
7
  6
BYLAYER
 10
45.4063425096
 20
60.9943486165
 30
0.0
 11
-10.7787513254
 21
13.3562331417
 31
0.0
 40
0.23683038
 41
-3.0226316266
 42
-2.9932607206
  0
ELLIPSE
  5
3A0
100
AcDbEntity
  8
0
100
AcDbEllipse
 62
7
  6
BYLAYER
 10
48.5859858575
 20
61.0314023508
 30
0.0
 11
-9.5653680899
 21
13.9574572952
 31
0.0
 40
0.2434716519
 41
-3.5520294281
 42
-3.5222602842
  0
ELLIPSE
  5
3A1
100
AcDbEntity
  8
0
100
AcDbEllipse
 62
7
  6
BYLAYER
 10
48.8155813992
 20
60.6954184943
 30
0.0
 11
-10.6755039299
 21
13.3249240986
 31
0.0
 40
0.2296980766
 41
-3.6587878954
 42
-3.6290187515
  0
ELLIPSE
  5
3A2
100
AcDbEntity
  8
0
100
AcDbEllipse
 62
7
  6
BYLAYER
 10
49.0596579108
 20
60.3749546316
 30
0.0
 11
-11.7477287345
 21
12.7241207549
 31
0.0
 40
0.2080881539
 41
-3.7608170031
 42
-3.7310478592
  0
ELLIPSE
  5
3A3
100
AcDbEntity
  8
0
100
AcDbEllipse
 62
7
  6
BYLAYER
 10
49.3163578229
 20
60.0724496864
 30
0.0
 11
12.7728995674
 21
-12.1637800007
 31
0.0
 40
0.1802679208
 41
-0.7152556095
 42
-0.6854864656
  0
ELLIPSE
  5
3A4
100
AcDbEntity
  8
0
100
AcDbEllipse
 62
7
  6
BYLAYER
 10
49.583727494
 20
59.7902059038
 30
0.0
 11
13.7482720826
 21
-11.6467418337
 31
0.0
 40
0.1479435082
 41
-0.8048242028
 42
-0.7750550589
  0
ELLIPSE
  5
3A5
100
AcDbEntity
  8
0
100
AcDbEllipse
 62
7
  6
BYLAYER
 10
49.8597320796
 20
59.5303713296
 30
0.0
 11
14.6749845951
 21
-11.1707553666
 31
0.0
 40
0.1126524607
 41
-0.8880574594
 42
-0.8582883155
  0
ELLIPSE
  5
3A6
100
AcDbEntity
  8
0
100
AcDbEllipse
 62
7
  6
BYLAYER
 10
50.142271018
 20
59.2949234616
 30
0.0
 11
15.555815755
 21
-10.7301881851
 31
0.0
 40
0.075645413
 41
-0.9654261992
 42
-0.9356570553
  0
ELLIPSE
  5
3A7
100
AcDbEntity
  8
0
100
AcDbEllipse
 62
7
  6
BYLAYER
 10
50.4291940174
 20
59.0856542004
 30
0.0
 11
16.3937576474
 21
-10.3176993668
 31
0.0
 40
0.0378667741
 41
-1.0375468103
 42
-1.0077776664
  0
ELLIPSE
  5
3A8
100
AcDbEntity
  8
0
100
AcDbEllipse
 62
7
  6
BYLAYER
 10
40.7463468781
 20
54.3647184059
 30
0.0
 11
17.8081045105
 21
18.2305988052
 31
0.0
 40
0.6370087165
 41
-1.2699697786
 42
-1.2447644781
  0
ELLIPSE
  5
3A9
100
AcDbEntity
  8
0
100
AcDbEllipse
 62
7
  6
BYLAYER
 10
41.1233684387
 20
53.9667226612
 30
0.0
 11
16.7468455804
 21
19.2939077364
 31
0.0
 40
0.6210078725
 41
-1.2707561777
 42
-1.2450269221
  0
ELLIPSE
  5
3AA
100
AcDbEntity
  8
0
100
AcDbEllipse
 62
7
  6
BYLAYER
 10
41.5125662079
 20
53.6003264418
 30
0.0
 11
15.71445288
 21
20.2197073913
 31
0.0
 40
0.6026692941
 41
-1.2667078272
 42
-1.2403744802
  0
ELLIPSE
  5
3AB
100
AcDbEntity
  8
0
100
AcDbEllipse
 62
7
  6
BYLAYER
 10
41.9109781559
 20
53.2683182442
 30
0.0
 11
14.719481364
 21
21.0161139063
 31
0.0
 40
0.5824385664
 41
-1.257959292
 42
-1.2303313439
  0
ELLIPSE
  5
3AC
100
AcDbEntity
  8
0
100
AcDbEllipse
 62
7
  6
BYLAYER
 10
42.315572127
 20
52.9732248511
 30
0.0
 11
13.7653683003
 21
21.6930379501
 31
0.0
 40
0.5606959025
 41
-1.2448101526
 42
-1.2164162369
  0
ELLIPSE
  5
3AD
100
AcDbEntity
  8
0
100
AcDbEllipse
 62
7
  6
BYLAYER
 10
42.7232689168
 20
52.7172921016
 30
0.0
 11
12.8520989679
 21
22.2604573694
 31
0.0
 40
0.5377493467
 41
-1.2276346747
 42
-1.1982637687
  0
ELLIPSE
  5
3AE
100
AcDbEntity
  8
0
100
AcDbEllipse
 62
7
  6
BYLAYER
 10
43.1309657066
 20
52.5024677983
 30
0.0
 11
11.9776042824
 21
22.7275228925
 31
0.0
 40
0.5138373942
 41
-1.206821066
 42
-1.17745016
  0
ELLIPSE
  5
3AF
100
AcDbEntity
  8
0
100
AcDbEllipse
 62
7
  6
BYLAYER
 10
43.5355596777
 20
52.330386884
 30
0.0
 11
11.1387686691
 21
23.1022219776
 31
0.0
 40
0.4891362233
 41
-1.1827355521
 42
-1.1533646461
  0
ELLIPSE
  5
3B0
100
AcDbEntity
  8
0
100
AcDbEllipse
 62
7
  6
BYLAYER
 10
43.9339716257
 20
52.2023589983
 30
0.0
 11
10.3320806258
 21
23.3913606125
 31
0.0
 40
0.4637684418
 41
-1.1557039313
 42
-1.1263330252
  0
ELLIPSE
  5
3B1
100
AcDbEntity
  8
0
100
AcDbEllipse
 62
7
  6
BYLAYER
 10
44.3231693949
 20
52.1193585107
 30
0.0
 11
9.5540106162
 21
23.6006986072
 31
0.0
 40
0.4378116585
 41
-1.1260040561
 42
-1.0966331501
  0
ELLIPSE
  5
3B2
100
AcDbEntity
  8
0
100
AcDbEllipse
 62
7
  6
BYLAYER
 10
44.7001909555
 20
52.082017105
 30
0.0
 11
8.8012013936
 21
23.7351411148
 31
0.0
 40
0.4113061279
 41
-1.0938644546
 42
-1.0644935486
  0
ELLIPSE
  5
3B3
100
AcDbEntity
  8
0
100
AcDbEllipse
 62
7
  6
BYLAYER
 10
45.0621669457
 20
52.0906189719
 30
0.0
 11
8.070537932
 21
23.798935309
 31
0.0
 40
0.384261262
 41
-1.0594659548
 42
-1.0300950488
  0
ELLIPSE
  5
3B4
100
AcDbEntity
  8
0
100
AcDbEllipse
 62
7
  6
BYLAYER
 10
45.4063425096
 20
52.145098646
 30
0.0
 11
7.3591439915
 21
23.7958488382
 31
0.0
 40
0.3566610828
 41
-1.0229443962
 42
-0.9935734902
  0
ELLIPSE
  5
3B5
100
AcDbEntity
  8
0
100
AcDbEllipse
 62
7
  6
BYLAYER
 10
45.7300982634
 20
52.245041504
 30
0.0
 11
6.6643357711
 21
23.7293217161
 31
0.0
 40
0.3284688319
 41
-0.984393311
 42
-0.955022405
  0
ELLIPSE
  5
3B6
100
AcDbEntity
  8
0
100
AcDbEllipse
 62
7
  6
BYLAYER
 10
46.0309702303
 20
52.3896869206
 30
0.0
 11
5.9835511014
 21
23.6025907318
 31
0.0
 40
0.2996310152
 41
-0.9438659345
 42
-0.9144950285
  0
ELLIPSE
  5
3B7
100
AcDbEntity
  8
0
100
AcDbEllipse
 62
7
  6
BYLAYER
 10
46.3066685929
 20
52.5779340566
 30
0.0
 11
5.3142644707
 21
23.4187886534
 31
0.0
 40
0.2700812053
 41
-0.9013761696
 42
-0.8720052636
  0
ELLIPSE
  5
3B8
100
AcDbEntity
  8
0
100
AcDbEllipse
 62
7
  6
BYLAYER
 10
46.5550951203
 20
52.8083502378
 30
0.0
 11
4.6538927957
 21
23.1810214688
 31
0.0
 40
0.2397439709
 41
-0.8568982592
 42
-0.8275273532
  0
ELLIPSE
  5
3B9
100
AcDbEntity
  8
0
100
AcDbEllipse
 62
7
  6
BYLAYER
 10
46.7743591366
 20
53.0791818578
 30
0.0
 11
3.9996933207
 21
22.8924267498
 31
0.0
 40
0.2085393773
 41
-0.8103649669
 42
-0.7809940609
  0
ELLIPSE
  5
3BA
100
AcDbEntity
  8
0
100
AcDbEllipse
 62
7
  6
BYLAYER
 10
46.9627919102
 20
53.3883677246
 30
0.0
 11
3.3486527442
 21
22.5562154605
 31
0.0
 40
0.1763886204
 41
-0.7616640781
 42
-0.7322931721
  0
ELLIPSE
  5
3BB
100
AcDbEntity
  8
0
100
AcDbEllipse
 62
7
  6
BYLAYER
 10
47.1189593539
 20
53.7335547469
 30
0.0
 11
2.6973653227
 21
22.1756983519
 31
0.0
 40
0.1432215345
 41
-0.7106330344
 42
-0.6812621283
  0
ELLIPSE
  5
3BC
100
AcDbEntity
  8
0
100
AcDbEllipse
 62
7
  6
BYLAYER
 10
47.2416729392
 20
54.1121158432
 30
0.0
 11
2.0418973541
 21
21.7542964701
 31
0.0
 40
0.1089869747
 41
-0.6570515559
 42
-0.6276806499
  0
ELLIPSE
  5
3BD
100
AcDbEntity
  8
0
100
AcDbEllipse
 62
7
  6
BYLAYER
 10
47.3299987415
 20
54.5211699348
 30
0.0
 11
1.3776366849
 21
21.2955331191
 31
0.0
 40
0.0736674289
 41
-0.6006322628
 42
-0.5712613568
  0
ELLIPSE
  5
3BE
100
AcDbEntity
  8
0
100
AcDbEllipse
 62
7
  6
BYLAYER
 10
47.3832645483
 20
54.9576038731
 30
0.0
 11
0.6991301214
 21
20.8030017059
 31
0.0
 40
0.0372996543
 41
-0.5410097036
 42
-0.5116387976
  0
ELLIPSE
  5
3BF
100
AcDbEntity
  8
0
100
AcDbEllipse
 62
7
  6
BYLAYER
 10
47.4136218016
 20
64.3087494975
 30
0.0
 11
-0.738560584
 21
19.3561636224
 31
0.0
 40
0.0378742831
 41
1.0077638622
 42
1.0375330061
  0
ELLIPSE
  5
3C0
100
AcDbEntity
  8
0
100
AcDbEllipse
 62
7
  6
BYLAYER
 10
47.4513959311
 20
63.9556299564
 30
0.0
 11
-1.5147682668
 21
18.8367283507
 31
0.0
 40
0.0756528438
 41
0.9356422756
 42
0.9654114195
  0
ELLIPSE
  5
3C1
100
AcDbEntity
  8
0
100
AcDbEllipse
 62
7
  6
BYLAYER
 10
47.5140333057
 20
63.5932182314
 30
0.0
 11
-2.3367388861
 21
18.2941895852
 31
0.0
 40
0.1126596549
 41
0.8582724333
 42
0.8880415772
  0
ELLIPSE
  5
3C2
100
AcDbEntity
  8
0
100
AcDbEllipse
 62
7
  6
BYLAYER
 10
47.6010572173
 20
63.2242724946
 30
0.0
 11
-3.2123257538
 21
17.7296264656
 31
0.0
 40
0.1479502491
 41
0.7750379612
 42
0.804807105
  0
ELLIPSE
  5
3C3
100
AcDbEntity
  8
0
100
AcDbEllipse
 62
7
  6
BYLAYER
 10
47.7118053612
 20
62.8516006457
 30
0.0
 11
-4.1477955022
 21
17.1434487386
 31
0.0
 40
0.1802739303
 41
0.6854680855
 42
0.7152372294
  0
ELLIPSE
  5
3C4
100
AcDbEntity
  8
0
100
AcDbEllipse
 62
7
  6
BYLAYER
 10
47.8454348773
 20
62.4780389427
 30
0.0
 11
-5.1456656161
 21
16.5357960789
 31
0.0
 40
0.2080931049
 41
0.5894355681
 42
0.6192047119
  0
ELLIPSE
  5
3C5
100
AcDbEntity
  8
0
100
AcDbEllipse
 62
7
  6
BYLAYER
 10
48.0009287643
 20
62.1064304156
 30
0.0
 11
-6.2021029088
 21
15.9076254626
 31
0.0
 40
0.2297016288
 41
0.4874053696
 42
0.5171745135
  0
ELLIPSE
  5
3C6
100
AcDbEntity
  8
0
100
AcDbEllipse
 62
7
  6
BYLAYER
 10
48.1771036197
 20
61.7396032296
 30
0.0
 11
-7.3049714108
 21
15.2624891818
 31
0.0
 40
0.2434735135
 41
0.3806461485
 42
0.4065815183
  0
ELLIPSE
  5
3C7
100
AcDbEntity
  8
0
100
AcDbEllipse
 62
7
  6
BYLAYER
 10
49.583727494
 20
66.9892314587
 30
0.0
 11
9.2949651699
 21
22.7068268769
 31
0.0
 40
0.4525326233
 41
-1.7649662711
 42
-1.7351971272
  0
ELLIPSE
  5
3C8
100
AcDbEntity
  8
0
100
AcDbEllipse
 62
7
  6
BYLAYER
 10
49.3163578229
 20
67.0157125951
 30
0.0
 11
8.5894470919
 21
22.8388025077
 31
0.0
 40
0.4249108978
 41
-1.7315422176
 42
-1.7017730738
  0
ELLIPSE
  5
3C9
100
AcDbEntity
  8
0
100
AcDbEllipse
 62
7
  6
BYLAYER
 10
49.0596579108
 20
67.009612471
 30
0.0
 11
7.9024553998
 21
22.9069205658
 31
0.0
 40
0.3966858117
 41
-1.6959030448
 42
-1.6661339009
  0
ELLIPSE
  5
3CA
100
AcDbEntity
  8
0
100
AcDbEllipse
 62
7
  6
BYLAYER
 10
48.8155813992
 20
66.9709775119
 30
0.0
 11
7.2306756799
 21
22.9148275608
 31
0.0
 40
0.3678497859
 41
-1.6581944826
 42
-1.6284253387
  0
ELLIPSE
  5
3CB
100
AcDbEntity
  8
0
100
AcDbEllipse
 62
7
  6
BYLAYER
 10
48.5859858575
 20
66.9001017534
 30
0.0
 11
6.5710751754
 21
22.8657625
 31
0.0
 40
0.3383778468
 41
-1.6185174929
 42
-1.5887483491
  0
ELLIPSE
  5
3CC
100
AcDbEntity
  8
0
100
AcDbEllipse
 62
7
  6
BYLAYER
 10
48.3726186466
 20
66.7975246027
 30
0.0
 11
5.9208257354
 21
22.7626851509
 31
0.0
 40
0.3082317889
 41
-1.5769309902
 42
-1.5471618463
  0
ELLIPSE
  5
3CD
100
AcDbEntity
  8
0
100
AcDbEllipse
 62
7
  6
BYLAYER
 10
48.1771036197
 20
66.6640267338
 30
0.0
 11
5.277216253
 21
22.6083774188
 31
0.0
 40
0.2773641221
 41
-1.5334533421
 42
-1.5036841982
  0
ELLIPSE
  5
3CE
100
AcDbEntity
  8
0
100
AcDbEllipse
 62
7
  6
BYLAYER
 10
48.0009287643
 20
66.5006241462
 30
0.0
 11
4.6375585468
 21
22.4055220844
 31
0.0
 40
0.2457221809
 41
-1.4880624903
 42
-1.4582933464
  0
ELLIPSE
  5
3CF
100
AcDbEntity
  8
0
100
AcDbEllipse
 62
7
  6
BYLAYER
 10
47.8454348773
 20
66.3085604322
 30
0.0
 11
3.9990874935
 21
22.1567625074
 31
0.0
 40
0.2132528315
 41
-1.4406945771
 42
-1.4109254332
  0
ELLIPSE
  5
3D0
100
AcDbEntity
  8
0
100
AcDbEllipse
 62
7
  6
BYLAYER
 10
47.7118053612
 20
66.0892973126
 30
0.0
 11
3.358854402
 21
21.8647458064
 31
0.0
 40
0.1799083165
 41
-1.3912409812
 42
-1.3614718373
  0
ELLIPSE
  5
3D1
100
AcDbEntity
  8
0
100
AcDbEllipse
 62
7
  6
BYLAYER
 10
47.6010572173
 20
65.8445035123
 30
0.0
 11
2.7136118285
 21
21.5321506385
 31
0.0
 40
0.1456539223
 41
-1.3395436911
 42
-1.3097745472
  0
ELLIPSE
  5
3D2
100
AcDbEntity
  8
0
100
AcDbEllipse
 62
7
  6
BYLAYER
 10
47.5140333057
 20
65.5760420597
 30
0.0
 11
2.0596883802
 21
21.1616989884
 31
0.0
 40
0.1104783762
 41
-1.2853890178
 42
-1.2556198739
  0
ELLIPSE
  5
3D3
100
AcDbEntity
  8
0
100
AcDbEllipse
 62
7
  6
BYLAYER
 10
47.4513959311
 20
65.2859561087
 30
0.0
 11
1.3928541488
 21
20.7561492695
 31
0.0
 40
0.0744081482
 41
-1.2284998547
 42
-1.1987307108
  0
ELLIPSE
  5
3D4
100
AcDbEntity
  8
0
100
AcDbEllipse
 62
7
  6
BYLAYER
 10
47.4136218016
 20
64.9764533885
 30
0.0
 11
0.7081826227
 21
20.3182655047
 31
0.0
 40
0.0375271535
 41
-1.1685271495
 42
-1.1387580056
  0
ELLIPSE
  5
3D5
100
AcDbEntity
  8
0
100
AcDbEllipse
 62
7
  6
BYLAYER
 10
38.672178697
 20
57.7568720922
 30
0.0
 11
24.1865506121
 21
7.8402871916
 31
0.0
 40
0.6501853522
 41
1.2395947691
 42
1.2644926549
  0
ELLIPSE
  5
3D6
100
AcDbEntity
  8
0
100
AcDbEllipse
 62
7
  6
BYLAYER
 10
52.8506489834
 20
64.4379530509
 30
0.0
 11
20.1909098344
 21
13.7266466844
 31
0.0
 40
0.6890476962
 41
-1.8713782242
 42
-1.8579087761
  0
ELLIPSE
  5
3D7
100
AcDbEntity
  8
0
100
AcDbEllipse
 62
7
  6
BYLAYER
 10
40.040195324
 20
55.2431750803
 30
0.0
 11
19.9492334654
 21
15.6850161551
 31
0.0
 40
0.6600413929
 41
-1.254871012
 42
-1.225500106
  0
ELLIPSE
  5
3D8
100
AcDbEntity
  8
0
100
AcDbEllipse
 62
7
  6
BYLAYER
 10
52.6210534418
 20
64.7739369074
 30
0.0
 11
19.1819169606
 21
15.154894765
 31
0.0
 40
0.6826966015
 41
-1.9016022161
 42
-1.8718330722
  0
ELLIPSE
  5
3D9
100
AcDbEntity
  8
0
100
AcDbEllipse
 62
7
  6
BYLAYER
 10
52.3769769301
 20
65.0944007701
 30
0.0
 11
18.1406319092
 21
16.4575787867
 31
0.0
 40
0.6724694506
 41
-1.9120043757
 42
-1.8822352318
  0
ELLIPSE
  5
3DA
100
AcDbEntity
  8
0
100
AcDbEllipse
 62
7
  6
BYLAYER
 10
52.120277018
 20
65.3969057153
 30
0.0
 11
17.0970456043
 21
17.6195982925
 31
0.0
 40
0.658822818
 41
-1.9178047807
 42
-1.8880356368
  0
ELLIPSE
  5
3DB
100
AcDbEntity
  8
0
100
AcDbEllipse
 62
7
  6
BYLAYER
 10
51.8529073469
 20
65.6791494979
 30
0.0
 11
16.0740002066
 21
18.6382543117
 31
0.0
 40
0.6422712193
 41
-1.918470146
 42
-1.8887010022
  0
ELLIPSE
  5
3DC
100
AcDbEntity
  8
0
100
AcDbEllipse
 62
7
  6
BYLAYER
 10
51.5769027613
 20
65.9389840721
 30
0.0
 11
15.0860420609
 21
19.5192824082
 31
0.0
 40
0.6233201663
 41
-1.9139153407
 42
-1.8841461968
  0
ELLIPSE
  5
3DD
100
AcDbEntity
  8
0
100
AcDbEllipse
 62
7
  6
BYLAYER
 10
51.2943638229
 20
66.1744319401
 30
0.0
 11
14.1404275877
 21
20.2728289326
 31
0.0
 40
0.6024229982
 41
-1.9043570977
 42
-1.8745879538
  0
ELLIPSE
  5
3DE
100
AcDbEntity
  8
0
100
AcDbEllipse
 62
7
  6
BYLAYER
 10
51.0074408235
 20
66.3837012013
 30
0.0
 11
13.2390488645
 21
20.9104611346
 31
0.0
 40
0.5799606162
 41
-1.8901776123
 42
-1.8604084684
  0
ELLIPSE
  5
3DF
100
AcDbEntity
  8
0
100
AcDbEllipse
 62
7
  6
BYLAYER
 10
50.7183174205
 20
66.5651991904
 30
0.0
 11
12.380371053
 21
21.4433867095
 31
0.0
 40
0.5562374973
 41
-1.8718232704
 42
-1.8420541266
  0
ELLIPSE
  5
3E0
100
AcDbEntity
  8
0
100
AcDbEllipse
 62
7
  6
BYLAYER
 10
40.3843708879
 20
54.7912846879
 30
0.0
 11
18.8830383564
 21
17.0261783987
 31
0.0
 40
0.6501830562
 41
-1.2644941753
 42
-1.2395961221
  0
ELLIPSE
  5
3E1
100
AcDbEntity
  8
0
100
AcDbEllipse
 62
7
  6
BYLAYER
 10
50.4291940174
 20
66.7175445979
 30
0.0
 11
11.5609645157
 21
21.8816127571
 31
0.0
 40
0.5314869125
 41
-1.8497404071
 42
-1.8199712632
  0
ELLIPSE
  5
3E2
100
AcDbEntity
  8
0
100
AcDbEllipse
 62
7
  6
BYLAYER
 10
50.142271018
 20
66.8395779835
 30
0.0
 11
10.7765541815
 21
22.2336922154
 31
0.0
 40
0.5058801257
 41
-1.8243399288
 42
-1.7945707849
  0
ELLIPSE
  5
3E3
100
AcDbEntity
  8
0
100
AcDbEllipse
 62
7
  6
BYLAYER
 10
51.0074408235
 20
58.7518108038
 30
0.0
 11
17.9503226148
 21
-9.5458470099
 31
0.0
 40
0.0375345275
 41
1.1387702134
 42
1.1685393573
  0
ELLIPSE
  5
3E4
100
AcDbEntity
  8
0
100
AcDbEllipse
 62
7
  6
BYLAYER
 10
51.2943638229
 20
58.6297774182
 30
0.0
 11
18.6718714293
 21
-9.1718501484
 31
0.0
 40
0.074415375
 41
1.1987422684
 42
1.2285114123
  0
ELLIPSE
  5
3E5
100
AcDbEntity
  8
0
100
AcDbEllipse
 62
7
  6
BYLAYER
 10
51.5769027613
 20
58.5389848024
 30
0.0
 11
19.3564995502
 21
-8.7971324392
 31
0.0
 40
0.1104854318
 41
1.2556308579
 42
1.2854000018
  0
ELLIPSE
  5
3E6
100
AcDbEntity
  8
0
100
AcDbEllipse
 62
7
  6
BYLAYER
 10
51.8529073469
 20
58.480123943
 30
0.0
 11
20.0042764695
 21
-8.4160455158
 31
0.0
 40
0.1456607967
 41
1.3097850194
 42
1.3395541633
  0
ELLIPSE
  5
3E7
100
AcDbEntity
  8
0
100
AcDbEllipse
 62
7
  6
BYLAYER
 10
52.120277018
 20
58.4536428066
 30
0.0
 11
20.6149282535
 21
-8.0235470724
 31
0.0
 40
0.1799150085
 41
1.3614818461
 42
1.3912509899
  0
ELLIPSE
  5
3E8
100
AcDbEntity
  8
0
100
AcDbEllipse
 62
7
  6
BYLAYER
 10
52.3769769301
 20
58.4597429308
 30
0.0
 11
21.1879332732
 21
-7.6150966827
 31
0.0
 40
0.2132593463
 41
1.410935015
 42
1.4407041589
  0
ELLIPSE
  5
3E9
100
AcDbEntity
  8
0
100
AcDbEllipse
 62
7
  6
BYLAYER
 10
52.6210534418
 20
58.4983778898
 30
0.0
 11
21.7225954581
 21
-7.1865427116
 31
0.0
 40
0.2457285267
 41
1.4583025276
 42
1.4880716714
  0
ELLIPSE
  5
3EA
100
AcDbEntity
  8
0
100
AcDbEllipse
 62
7
  6
BYLAYER
 10
52.8506489834
 20
58.5692536483
 30
0.0
 11
22.2180966816
 21
-6.7340079971
 31
0.0
 40
0.2773703094
 41
1.5036929955
 42
1.5334621394
  0
ELLIPSE
  5
3EB
100
AcDbEntity
  8
0
100
AcDbEllipse
 62
7
  6
BYLAYER
 10
53.0640161943
 20
58.671830799
 30
0.0
 11
22.6735302925
 21
-6.2537762083
 31
0.0
 40
0.3082378281
 41
1.5471702683
 42
1.5769394122
  0
ELLIPSE
  5
3EC
100
AcDbEntity
  8
0
100
AcDbEllipse
 62
7
  6
BYLAYER
 10
53.2595312212
 20
58.8053286679
 30
0.0
 11
23.0879170304
 21
-5.7421779141
 31
0.0
 40
0.3383837481
 41
1.5887563961
 42
1.61852554
  0
ELLIPSE
  5
3ED
100
AcDbEntity
  8
0
100
AcDbEllipse
 62
7
  6
BYLAYER
 10
53.4357060767
 20
58.9687312555
 30
0.0
 11
23.4602032511
 21
-5.1954742436
 31
0.0
 40
0.3678555579
 41
1.6284330032
 42
1.6582021471
  0
ELLIPSE
  5
3EE
100
AcDbEntity
  8
0
100
AcDbEllipse
 62
7
  6
BYLAYER
 10
53.5911999636
 20
59.1607949695
 30
0.0
 11
23.7892397943
 21
-4.6097360067
 31
0.0
 40
0.3966914607
 41
1.666141167
 42
1.6959103109
  0
ELLIPSE
  5
3EF
100
AcDbEntity
  8
0
100
AcDbEllipse
 62
7
  6
BYLAYER
 10
53.7248294797
 20
59.3800580891
 30
0.0
 11
24.0737379637
 21
-3.9807171728
 31
0.0
 40
0.4249164272
 41
1.7017799172
 42
1.7315490611
  0
ELLIPSE
  5
3F0
100
AcDbEntity
  8
0
100
AcDbEllipse
 62
7
  6
BYLAYER
 10
53.8355776237
 20
59.6248518894
 30
0.0
 11
24.3121969692
 21
-3.3037240113
 31
0.0
 40
0.4525380327
 41
1.7352035145
 42
1.7649726584
  0
ELLIPSE
  5
3F1
100
AcDbEntity
  8
0
100
AcDbEllipse
 62
7
  6
BYLAYER
 10
53.9226015352
 20
59.893313342
 30
0.0
 11
24.502794857
 21
-2.5734857904
 31
0.0
 40
0.4795417348
 41
1.7662177942
 42
1.7959869381
  0
ELLIPSE
  5
3F2
100
AcDbEntity
  8
0
100
AcDbEllipse
 62
7
  6
BYLAYER
 10
53.9852389098
 20
60.183399293
 30
0.0
 11
24.6432328068
 21
-1.7840411968
 31
0.0
 40
0.5058852725
 41
1.7945761185
 42
1.8243452623
  0
ELLIPSE
  5
3F3
100
AcDbEntity
  8
0
100
AcDbEllipse
 62
7
  6
BYLAYER
 10
54.0230130393
 20
60.4929020132
 30
0.0
 11
24.7305217616
 21
-0.9286688719
 31
0.0
 40
0.5314919031
 41
1.8199759772
 42
1.8497451211
  0
ELLIPSE
  5
3F4
100
AcDbEntity
  8
0
100
AcDbEllipse
 62
7
  6
BYLAYER
 10
54.0356364397
 20
60.819466
 30
0.0
 11
24.7607031609
 21
0.0000861829
 31
0.0
 40
0.5562423032
 41
1.8420581444
 42
1.8718272883
  0
ELLIPSE
  5
3F5
100
AcDbEntity
  8
0
100
AcDbEllipse
 62
7
  6
BYLAYER
 10
54.0230130393
 20
61.1606059042
 30
0.0
 11
24.7285072235
 21
1.0102028488
 31
0.0
 40
0.5799651978
 41
1.8604117045
 42
1.8901808484
  0
ELLIPSE
  5
3F6
100
AcDbEntity
  8
0
100
AcDbEllipse
 62
7
  6
BYLAYER
 10
53.9852389098
 20
61.5137254453
 30
0.0
 11
24.6269820389
 21
2.1096547814
 31
0.0
 40
0.6024273025
 41
1.8745903182
 42
1.904359462
  0
ELLIPSE
  5
3F7
100
AcDbEntity
  8
0
100
AcDbEllipse
 62
7
  6
BYLAYER
 10
53.9226015352
 20
61.8761371703
 30
0.0
 11
24.4471885025
 21
3.3053747312
 31
0.0
 40
0.6233241255
 41
1.8841476047
 42
1.9139167486
  0
ELLIPSE
  5
3F8
100
AcDbEntity
  8
0
100
AcDbEllipse
 62
7
  6
BYLAYER
 10
53.8355776237
 20
62.2450829072
 30
0.0
 11
24.1781626933
 21
4.6015070124
 31
0.0
 40
0.6422747504
 41
1.8887013903
 42
1.9184705342
  0
ELLIPSE
  5
3F9
100
AcDbEntity
  8
0
100
AcDbEllipse
 62
7
  6
BYLAYER
 10
53.7248294797
 20
62.617754756
 30
0.0
 11
23.8074892293
 21
5.9968392568
 31
0.0
 40
0.658825825
 41
1.8880349872
 42
1.9178041311
  0
ELLIPSE
  5
3FA
100
AcDbEntity
  8
0
100
AcDbEllipse
 62
7
  6
BYLAYER
 10
53.5911999636
 20
62.991316459
 30
0.0
 11
23.322928028
 21
7.4816398014
 31
0.0
 40
0.6724718307
 41
1.8822336013
 42
1.9120027452
  0
ELLIPSE
  5
3FB
100
AcDbEntity
  8
0
100
AcDbEllipse
 62
7
  6
BYLAYER
 10
53.4357060767
 20
63.3629249862
 30
0.0
 11
22.7153962807
 21
9.0347748667
 31
0.0
 40
0.6826982561
 41
1.8718306187
 42
1.9015997626
  0
ELLIPSE
  5
3FC
100
AcDbEntity
  8
0
100
AcDbEllipse
 62
7
  6
BYLAYER
 10
53.2595312212
 20
63.7297521721
 30
0.0
 11
21.9829775565
 21
10.6227189975
 31
0.0
 40
0.6890485459
 41
1.8579057684
 42
1.8717762897
  0
ELLIPSE
  5
3FD
100
AcDbEntity
  8
0
100
AcDbEllipse
 62
7
  6
BYLAYER
 10
49.8597320796
 20
66.9303705993
 30
0.0
 11
10.0226631519
 21
22.5067805604
 31
0.0
 40
0.479536451
 41
-1.7959810505
 42
-1.7662119067
  0
ENDSEC
  0
SECTION
  2
OBJECTS
  0
DICTIONARY
  5
C
100
AcDbDictionary
280
0
281
1
  3
ACAD_GROUP
350
D
  3
ACAD_MLINESTYLE
350
17
  3
ACAD_LAYOUT
350
1A
  3
ACAD_PLOTSETTINGS
350
19
  3
ACAD_PLOTSTYLENAME
350
E
  0
DICTIONARY
  5
D
102
{ACAD_REACTORS
330
C
102
}
100
AcDbDictionary
280
0
281
1
  0
ACDBDICTIONARYWDFLT
  5
E
102
{ACAD_REACTORS
330
C
102
}
100
AcDbDictionary
281
1
  3
Normal
350
F
100
AcDbDictionaryWithDefault
340
F
  0
DICTIONARY
  5
17
102
{ACAD_REACTORS
330
C
102
}
100
AcDbDictionary
280
0
281
1
  3
Standard
350
18
  0
DICTIONARY
  5
19
102
{ACAD_REACTORS
330
C
102
}
100
AcDbDictionary
281
1
  0
DICTIONARY
  5
1A
102
{ACAD_REACTORS
330
C
102
}
100
AcDbDictionary
281
1
  3
Model
350
3FE
  3
Layout1
350
3FF
  0
ACDBPLACEHOLDER
  5
F
102
{ACAD_REACTORS
330
E
102
}
  0
MLINESTYLE
  5
18
102
{ACAD_REACTORS
330
17
102
}
100
AcDbMlineStyle
  2
STANDARD
 70
0
  3

 62
256
 51
90.0
 52
90.0
 71
2
 49
0.5
 62
256
  6
BYLAYER
 49
-0.5
 62
256
  6
BYLAYER
  0
LAYOUT
  5
3FE
102
{ACAD_REACTORS
330
1A
102
}
100
AcDbPlotSettings
  1

  2
none_device
  4

  6

 40
0.0
 41
0.0
 42
0.0
 43
0.0
 44
210.0
 45
297.0
 46
0.0
 47
0.0
 48
0.0
 49
0.0
140
0.0
141
0.0
142
1.0
143
1.0
 70
1024
 72
1
 73
0
 74
0
  7

 75
0
147
1.0
148
0.0
149
0.0
100
AcDbLayout
  1
Model
 70
0
 71
0
 10
0.0
 20
0.0
 11
210.0
 21
297.0
 12
0.0
 22
0.0
 32
0.0
 14
0.0
 24
0.0
 34
0.0
 15
0.0
 25
0.0
 35
0.0
146
0.0
 13
0.0
 23
0.0
 33
0.0
 16
1.0
 26
0.0
 36
0.0
 17
0.0
 27
1.0
 37
0.0
 76
0
330
210
345
0
346
0
  0
LAYOUT
  5
3FF
102
{ACAD_REACTORS
330
1A
102
}
100
AcDbPlotSettings
  1

  2
none_device
  4

  6

 40
0.0
 41
0.0
 42
0.0
 43
0.0
 44
210.0
 45
297.0
 46
0.0
 47
0.0
 48
0.0
 49
0.0
140
0.0
141
0.0
142
1.0
143
1.0
 70
0
 72
1
 73
0
 74
0
  7

 75
0
147
1.0
148
0.0
149
0.0
100
AcDbLayout
  1
Layout1
 70
0
 71
1
 10
0.0
 20
0.0
 11
210.0
 21
297.0
 12
0.0
 22
0.0
 32
0.0
 14
0.0
 24
0.0
 34
0.0
 15
0.0
 25
0.0
 35
0.0
146
0.0
 13
0.0
 23
0.0
 33
0.0
 16
1.0
 26
0.0
 36
0.0
 17
0.0
 27
1.0
 37
0.0
 76
0
330
211
345
0
346
0
  0
ENDSEC
  0
EOF
