999
DXF file: C:\Users\sesa63760\Dev\_Creo\CAD\MCADID0004240_3D-CAD\drw0001_3.dxf
999
Pro/ENGINEER 2019471 by Parametric Technology Corporation
  0
SECTION
  2
HEADER
  9
$ACADVER
  1
AC1024
  9
$DWGCODEPAGE
  3
ANSI_1252
  9
$EXTMAX
 10
262.7207597007
 20
371.562217291
 30
0.0
  9
$EXTMIN
 10
0.0
 20
0.0
 30
0.0
  9
$LIMMIN
 10
0.0
 20
0.0
  9
$LIMMAX
 10
262.7207597007
 20
371.562217291
  9
$VIEWCTR
 10
131.3603798504
 20
185.7811086455
  9
$VIEWSIZE
 40
371.562217291
  9
$CLAYER
  8
0
  9
$LTSCALE
 40
24.2203519419
  9
$CELTYPE
  6
BYLAYER
  9
$DIMSCALE
 40
1.0
  9
$DIMASZ
 40
3.1276280917
  9
$DIMEXO
 40
1.0
  9
$DIMDLI
 40
16.7340613417
  9
$DIMEXE
 40
1.0
  9
$DIMCEN
 40
3.9633303178
  9
$DIMLFAC
 40
1.0
  9
$DIMBLK
  1
_FILLED
  9
$DIMALT
 70
0
  9
$DIMALTF
 40
0.0393700787
  9
$DIMTXT
 40
4.3786793283
  9
$DIMTOL
 70
1
  9
$DIMLIM
 70
0
  9
$DIMTFAC
 40
1.0
  9
$DIMTP
 40
0.01
  9
$DIMTM
 40
0.01
  9
$DIMGAP
 40
0.625
  9
$DIMDSEP
 70
46
  9
$AUNITS
 70
0
  9
$PDMODE
 70
3
  9
$PDSIZE
 40
0.3125
  9
$HANDSEED
  5
534
  9
$TILEMODE
 70
1
  9
$MEASUREMENT
 70
1
  9
$INSUNITS
 70
4
  0
ENDSEC
  0
SECTION
  2
CLASSES
  0
CLASS
  1
ACDBDICTIONARYWDFLT
  2
AcDbDictionaryWithDefault
  3
AutoCAD 2000
 90
0
 91
1
280
0
281
0
  0
CLASS
  1
ACDBPLACEHOLDER
  2
AcDbPlaceHolder
  3
AutoCAD 2000
 90
0
 91
1
280
0
281
0
  0
CLASS
  1
LAYOUT
  2
AcDbLayout
  3
AutoCAD 2000
 90
0
 91
0
280
0
281
0
  0
ENDSEC
  0
SECTION
  2
TABLES
  0
TABLE
  2
VPORT
  5
8
100
AcDbSymbolTable
 70
2
  0
VPORT
  5
1F4
100
AcDbSymbolTableRecord
100
AcDbViewportTableRecord
  2
*ACTIVE
 70
0
 10
0.0
 20
0.0
 11
1.0
 21
1.0
 12
131.3603798504
 22
185.7811086455
 13
0.0
 23
0.0
 14
1.0
 24
1.0
 15
0.0
 25
0.0
 16
0.0
 26
0.0
 36
1.0
 17
0.0
 27
0.0
 37
0.0
 40
371.562217291
 41
0.7070707071
 42
50.0
 43
0.0
 44
0.0
 50
0.0
 51
0.0
 71
0
 72
100
 73
1
 74
1
 75
0
 76
0
 77
0
 78
0
  0
ENDTAB
  0
TABLE
  2
LTYPE
  5
5
100
AcDbSymbolTable
 70
6
  0
LTYPE
  5
14
100
AcDbSymbolTableRecord
100
AcDbLinetypeTableRecord
  2
BYBLOCK
 70
0
  3

 72
65
 73
0
 40
0.0
  0
LTYPE
  5
15
100
AcDbSymbolTableRecord
100
AcDbLinetypeTableRecord
  2
BYLAYER
 70
0
  3

 72
65
 73
0
 40
0.0
  0
LTYPE
  5
16
100
AcDbSymbolTableRecord
100
AcDbLinetypeTableRecord
  2
CONTINUOUS
 70
64
  3
Solid line
 72
65
 73
0
 40
0.0
  0
LTYPE
  5
1F5
100
AcDbSymbolTableRecord
100
AcDbLinetypeTableRecord
  2
CENTER
 70
64
  3
____ _ ____ _ ____ _ ____ _ ____ _ ____ _ ____
 72
65
 73
4
 40
0.6
 49
0.375
 74
0
 49
-0.075
 74
0
 49
0.075
 74
0
 49
-0.075
 74
0
  0
LTYPE
  5
1F6
100
AcDbSymbolTableRecord
100
AcDbLinetypeTableRecord
  2
HIDDEN
 70
64
  3
- - - - - - - - - - - - - - - - - - - -
 72
65
 73
2
 40
0.2
 49
0.1
 74
0
 49
-0.1
 74
0
  0
LTYPE
  5
1F7
100
AcDbSymbolTableRecord
100
AcDbLinetypeTableRecord
  2
PHANTOM
 70
64
  3
_____ _ _ _____ _ _ _____ _ _ _____
 72
65
 73
6
 40
0.8
 49
0.45
 74
0
 49
-0.05
 74
0
 49
0.1
 74
0
 49
-0.05
 74
0
 49
0.1
 74
0
 49
-0.05
 74
0
  0
LTYPE
  5
1F8
100
AcDbSymbolTableRecord
100
AcDbLinetypeTableRecord
  2
DOT
 70
64
  3
. . . . . . . . . . . . . . . . . . . .
 72
65
 73
2
 40
0.2
 49
0.1
 74
0
 49
-0.1
 74
0
  0
LTYPE
  5
1F9
100
AcDbSymbolTableRecord
100
AcDbLinetypeTableRecord
  2
DASHED
 70
64
  3
- - - - - - - - - - - - - - - - - - - -
 72
65
 73
2
 40
0.2
 49
0.1
 74
0
 49
-0.1
 74
0
  0
ENDTAB
  0
TABLE
  2
LAYER
  5
2
100
AcDbSymbolTable
 70
36
  0
LAYER
  5
10
100
AcDbSymbolTableRecord
100
AcDbLayerTableRecord
  2
0
 70
0
 62
7
  6
CONTINUOUS
370
-3
390
F
  0
LAYER
  5
1FA
100
AcDbSymbolTableRecord
100
AcDbLayerTableRecord
  2
DEFAULT_1
 70
0
 62
7
  6
CENTER
370
-3
390
F
  0
LAYER
  5
1FB
100
AcDbSymbolTableRecord
100
AcDbLayerTableRecord
  2
DEFAULT_2
 70
0
 62
7
  6
HIDDEN
370
-3
390
F
  0
LAYER
  5
1FC
100
AcDbSymbolTableRecord
100
AcDbLayerTableRecord
  2
DEFAULT_3
 70
0
 62
7
  6
PHANTOM
370
-3
390
F
  0
LAYER
  5
1FD
100
AcDbSymbolTableRecord
100
AcDbLayerTableRecord
  2
00_COMPONENTS
 70
0
 62
7
  6
CONTINUOUS
370
-3
390
F
  0
LAYER
  5
1FE
100
AcDbSymbolTableRecord
100
AcDbLayerTableRecord
  2
01_1_DEFAULT_DATUMS
 70
0
 62
7
  6
CONTINUOUS
370
-3
390
F
  0
LAYER
  5
1FF
100
AcDbSymbolTableRecord
100
AcDbLayerTableRecord
  2
01_PLANES
 70
0
 62
7
  6
CONTINUOUS
370
-3
390
F
  0
LAYER
  5
200
100
AcDbSymbolTableRecord
100
AcDbLayerTableRecord
  2
02_COORD_SYS
 70
0
 62
7
  6
CONTINUOUS
370
-3
390
F
  0
LAYER
  5
201
100
AcDbSymbolTableRecord
100
AcDbLayerTableRecord
  2
03_AXES
 70
0
 62
7
  6
CONTINUOUS
370
-3
390
F
  0
LAYER
  5
202
100
AcDbSymbolTableRecord
100
AcDbLayerTableRecord
  2
04_POINTS
 70
0
 62
7
  6
CONTINUOUS
370
-3
390
F
  0
LAYER
  5
203
100
AcDbSymbolTableRecord
100
AcDbLayerTableRecord
  2
05_CURVES
 70
0
 62
7
  6
CONTINUOUS
370
-3
390
F
  0
LAYER
  5
204
100
AcDbSymbolTableRecord
100
AcDbLayerTableRecord
  2
06_SURFS
 70
0
 62
7
  6
CONTINUOUS
370
-3
390
F
  0
LAYER
  5
205
100
AcDbSymbolTableRecord
100
AcDbLayerTableRecord
  2
07_COSMETICS
 70
0
 62
7
  6
CONTINUOUS
370
-3
390
F
  0
LAYER
  5
206
100
AcDbSymbolTableRecord
100
AcDbLayerTableRecord
  2
10_NOTES
 70
0
 62
7
  6
CONTINUOUS
370
-3
390
F
  0
LAYER
  5
207
100
AcDbSymbolTableRecord
100
AcDbLayerTableRecord
  2
11_NOTES_PUB
 70
0
 62
7
  6
CONTINUOUS
370
-3
390
F
  0
LAYER
  5
208
100
AcDbSymbolTableRecord
100
AcDbLayerTableRecord
  2
13_REF_GTOL
 70
0
 62
7
  6
CONTINUOUS
370
-3
390
F
  0
LAYER
  5
209
100
AcDbSymbolTableRecord
100
AcDbLayerTableRecord
  2
16_MISC
 70
0
 62
7
  6
CONTINUOUS
370
-3
390
F
  0
LAYER
  5
20A
100
AcDbSymbolTableRecord
100
AcDbLayerTableRecord
  2
17_NO_PRINT
 70
0
 62
7
  6
CONTINUOUS
370
-3
390
F
  0
LAYER
  5
20B
100
AcDbSymbolTableRecord
100
AcDbLayerTableRecord
  2
18_DATUM_CAMS_JOINTS
 70
0
 62
7
  6
CONTINUOUS
370
-3
390
F
  0
LAYER
  5
20C
100
AcDbSymbolTableRecord
100
AcDbLayerTableRecord
  2
19_DATUM_FUNCTIONAL
 70
0
 62
7
  6
CONTINUOUS
370
-3
390
F
  0
LAYER
  5
20D
100
AcDbSymbolTableRecord
100
AcDbLayerTableRecord
  2
20_DATUM_KINEMATIC_SCHEME
 70
0
 62
7
  6
CONTINUOUS
370
-3
390
F
  0
LAYER
  5
20E
100
AcDbSymbolTableRecord
100
AcDbLayerTableRecord
  2
3
 70
0
 62
7
  6
CONTINUOUS
370
-3
390
F
  0
LAYER
  5
20F
100
AcDbSymbolTableRecord
100
AcDbLayerTableRecord
  2
4
 70
0
 62
7
  6
CONTINUOUS
370
-3
390
F
  0
ENDTAB
  0
TABLE
  2
STYLE
  5
3
100
AcDbSymbolTable
 70
1
  0
STYLE
  5
11
100
AcDbSymbolTableRecord
100
AcDbTextStyleTableRecord
  2
STANDARD
 70
0
 40
0.0
 41
1.0
 50
0.0
 71
0
 42
0.2
  3
ARIAL.TTF
  4

  0
STYLE
  5
210
100
AcDbSymbolTableRecord
100
AcDbTextStyleTableRecord
  2
TEXTSTYLE_1
 70
0
 40
0.0
 41
0.8
 50
0.0
 71
0
 42
0.2
  3
gdt
  4

  0
ENDTAB
  0
TABLE
  2
VIEW
  5
6
100
AcDbSymbolTable
 70
0
  0
ENDTAB
  0
TABLE
  2
UCS
  5
7
100
AcDbSymbolTable
 70
0
  0
ENDTAB
  0
TABLE
  2
APPID
  5
9
100
AcDbSymbolTable
 70
1
  0
APPID
  5
211
100
AcDbSymbolTableRecord
100
AcDbRegAppTableRecord
  2
ACAD
 70
0
  0
ENDTAB
  0
TABLE
  2
BLOCK_RECORD
  5
1
100
AcDbSymbolTable
 70
0
  0
BLOCK_RECORD
  5
212
100
AcDbSymbolTableRecord
100
AcDbBlockTableRecord
  2
*Model_Space
  0
BLOCK_RECORD
  5
213
100
AcDbSymbolTableRecord
100
AcDbBlockTableRecord
  2
*Paper_Space
  0
BLOCK_RECORD
  5
214
100
AcDbSymbolTableRecord
100
AcDbBlockTableRecord
  2
_FILLED
  0
ENDTAB
  0
TABLE
  2
DIMSTYLE
  5
A
100
AcDbSymbolTable
 70
1
100
AcDbDimStyleTable
 71
0
  0
DIMSTYLE
105
215
100
AcDbSymbolTableRecord
100
AcDbDimStyleTableRecord
  2
STANDARD
 70
0
  3

  4

 40
1.0
 41
3.1276280917
 42
1.0
 43
0.38
 44
1.0
 45
0.0
 46
0.0
 47
0.01
 48
0.01
140
4.3786793283
141
0.09
142
0.0
143
25.4
144
1.0
145
0.0
146
1.0
147
0.625
 71
1
 72
0
 73
0
 74
0
 75
0
 76
0
 77
1
 78
8
 79
2
170
0
171
1
172
0
173
0
174
0
175
0
176
0
177
0
178
0
270
2
179
2
271
2
272
2
273
2
274
2
275
0
280
0
281
0
282
0
283
1
284
8
285
0
286
0
287
3
288
0
340
11
278
46
341
214
342
214
343
214
344
214
  0
ENDTAB
  0
ENDSEC
  0
SECTION
  2
BLOCKS
  0
BLOCK
  5
20
100
AcDbEntity
  8
0
100
AcDbBlockBegin
  2
*Model_Space
 70
0
 10
0.0
 20
0.0
 30
0.0
  3
*Model_Space
  1

  0
ENDBLK
  5
21
100
AcDbEntity
  8
0
100
AcDbBlockEnd
  0
BLOCK
  5
1C
100
AcDbEntity
  8
0
100
AcDbBlockBegin
  2
*Paper_Space
 70
0
 10
0.0
 20
0.0
 30
0.0
  3
*Paper_Space
  1

  0
ENDBLK
  5
1D
100
AcDbEntity
  8
0
100
AcDbBlockEnd
  0
BLOCK
  5
216
100
AcDbEntity
  8
0
100
AcDbBlockBegin
  2
_FILLED
 70
64
 10
0.0
 20
0.0
  3
_FILLED
  1

  0
SOLID
  5
217
100
AcDbEntity
  8
0
  6
BYBLOCK
 62
0
100
AcDbTrace
 10
0.0
 20
0.0
 11
-1.0
 21
0.25
 12
-1.0
 22
-0.25
 13
-1.0
 23
-0.25
  0
ENDBLK
  5
218
100
AcDbEntity
  8
0
  6
BYBLOCK
 62
0
100
AcDbBlockEnd
  0
ENDSEC
  0
SECTION
  2
ENTITIES
  0
LINE
  5
219
100
AcDbEntity
  8
0
100
AcDbLine
 62
7
  6
BYLAYER
 10
32.6650671182
 20
237.8605885769
 11
31.4642727116
 21
233.6578081537
  0
LINE
  5
21A
100
AcDbEntity
  8
0
100
AcDbLine
 62
7
  6
BYLAYER
 10
33.6265910659
 20
237.585867449
 11
32.5873451905
 21
233.9485068851
  0
LINE
  5
21B
100
AcDbEntity
  8
0
100
AcDbLine
 62
7
  6
BYLAYER
 10
31.079512188
 20
207.3111463211
 11
31.079512188
 21
188.3111463211
  0
LINE
  5
21C
100
AcDbEntity
  8
0
100
AcDbLine
 62
7
  6
BYLAYER
 10
31.079512188
 20
216.3111463211
 11
31.079512188
 21
230.9105968747
  0
LINE
  5
21D
100
AcDbEntity
  8
0
100
AcDbLine
 62
7
  6
BYLAYER
 10
31.579512188
 20
188.3111463211
 11
31.5795121882
 21
191.8111463211
  0
LINE
  5
21E
100
AcDbEntity
  8
0
100
AcDbLine
 62
7
  6
BYLAYER
 10
31.5795121882
 20
225.8111463211
 11
31.5795121881
 21
227.4796024361
  0
LINE
  5
21F
100
AcDbEntity
  8
0
100
AcDbLine
 62
7
  6
BYLAYER
 10
31.579512188
 20
230.1718959619
 11
31.579512188
 21
230.9105968747
  0
LINE
  5
220
100
AcDbEntity
  8
0
100
AcDbLine
 62
7
  6
BYLAYER
 10
32.079512188
 20
192.3111463211
 11
32.0795279613
 21
206.8111305576
  0
LINE
  5
221
100
AcDbEntity
  8
0
100
AcDbLine
 62
7
  6
BYLAYER
 10
32.0795295432
 20
216.8111636651
 11
32.079512188
 21
225.3111463211
  0
LINE
  5
222
100
AcDbEntity
  8
0
100
AcDbLine
 62
7
  6
BYLAYER
 10
32.579512188
 20
219.3111463211
 11
32.579512188
 21
215.8111463211
  0
LINE
  5
223
100
AcDbEntity
  8
0
100
AcDbLine
 62
7
  6
BYLAYER
 10
32.579512188
 20
207.8111463211
 11
32.579512188
 21
204.3111463211
  0
LINE
  5
224
100
AcDbEntity
  8
0
100
AcDbLine
 62
7
  6
BYLAYER
 10
33.0681071643
 20
231.8111463211
 11
33.0681071643
 21
233.3111463211
  0
LINE
  5
225
100
AcDbEntity
  8
0
100
AcDbLine
 62
7
  6
BYLAYER
 10
33.079512188
 20
204.3111463211
 11
33.079512188
 21
207.3111463211
  0
LINE
  5
226
100
AcDbEntity
  8
0
100
AcDbLine
 62
7
  6
BYLAYER
 10
33.079512188
 20
216.3111463211
 11
33.079512188
 21
219.3111463211
  0
LINE
  5
227
100
AcDbEntity
  8
0
100
AcDbLine
 62
7
  6
BYLAYER
 10
33.079987231
 20
228.4116451103
 11
33.079987231
 21
229.2116451103
  0
LINE
  5
228
100
AcDbEntity
  8
0
100
AcDbLine
 62
7
  6
BYLAYER
 10
33.579512188
 20
203.3111463211
 11
33.579512188
 21
203.8111463211
  0
LINE
  5
229
100
AcDbEntity
  8
0
100
AcDbLine
 62
7
  6
BYLAYER
 10
33.579512188
 20
219.8111463211
 11
33.579512188
 21
220.3111463211
  0
LINE
  5
22A
100
AcDbEntity
  8
0
100
AcDbLine
 62
7
  6
BYLAYER
 10
34.0795121909
 20
188.4116332372
 11
34.0795121909
 21
189.2116332372
  0
LINE
  5
22B
100
AcDbEntity
  8
0
100
AcDbLine
 62
7
  6
BYLAYER
 10
34.179987231
 20
227.3116451103
 11
34.179987231
 21
228.4116451103
  0
LINE
  5
22C
100
AcDbEntity
  8
0
100
AcDbLine
 62
7
  6
BYLAYER
 10
34.179987231
 20
229.2116451103
 11
34.179987231
 21
230.3116451103
  0
LINE
  5
22D
100
AcDbEntity
  8
0
100
AcDbLine
 62
7
  6
BYLAYER
 10
34.579512188
 20
233.3111463211
 11
34.579512188
 21
232.1029262981
  0
LINE
  5
22E
100
AcDbEntity
  8
0
100
AcDbLine
 62
7
  6
BYLAYER
 10
34.579512188
 20
225.5201902122
 11
34.579512188
 21
224.3111463211
  0
LINE
  5
22F
100
AcDbEntity
  8
0
100
AcDbLine
 62
7
  6
BYLAYER
 10
34.5881150135
 20
238.3111463211
 11
34.5881150135
 21
239.3111463211
  0
LINE
  5
230
100
AcDbEntity
  8
0
100
AcDbLine
 62
7
  6
BYLAYER
 10
34.8434442105
 20
239.3111463211
 11
34.8434442105
 21
238.3111463211
  0
LINE
  5
231
100
AcDbEntity
  8
0
100
AcDbLine
 62
7
  6
BYLAYER
 10
34.979987231
 20
230.3116451103
 11
34.979987231
 21
229.2116451103
  0
LINE
  5
232
100
AcDbEntity
  8
0
100
AcDbLine
 62
7
  6
BYLAYER
 10
34.979987231
 20
228.4116451103
 11
34.979987231
 21
227.3116451103
  0
LINE
  5
233
100
AcDbEntity
  8
0
100
AcDbLine
 62
7
  6
BYLAYER
 10
35.079512188
 20
220.3111463211
 11
35.079512188
 21
219.8111463211
  0
LINE
  5
234
100
AcDbEntity
  8
0
100
AcDbLine
 62
7
  6
BYLAYER
 10
35.079512188
 20
203.8111463211
 11
35.079512188
 21
203.3111463211
  0
LINE
  5
235
100
AcDbEntity
  8
0
100
AcDbLine
 62
7
  6
BYLAYER
 10
35.079512188
 20
184.3111463211
 11
35.079512188
 21
184.8111463211
  0
LINE
  5
236
100
AcDbEntity
  8
0
100
AcDbLine
 62
7
  6
BYLAYER
 10
31.5795027408
 20
215.8111463211
 11
32.079520871
 21
216.8111463211
  0
LINE
  5
237
100
AcDbEntity
  8
0
100
AcDbLine
 62
7
  6
BYLAYER
 10
31.6908688695
 20
232.3608999009
 11
32.0351784432
 21
232.7234615059
  0
LINE
  5
238
100
AcDbEntity
  8
0
100
AcDbLine
 62
7
  6
BYLAYER
 10
36.079512188
 20
235.9611463211
 11
37.079512188
 21
236.9611459793
  0
LINE
  5
239
100
AcDbEntity
  8
0
100
AcDbLine
 62
7
  6
BYLAYER
 10
35.1795121909
 20
187.3116332372
 11
35.1795121909
 21
188.4116332372
  0
LINE
  5
23A
100
AcDbEntity
  8
0
100
AcDbLine
 62
7
  6
BYLAYER
 10
35.1795121909
 20
189.2116332372
 11
35.1795121909
 21
190.3116332372
  0
LINE
  5
23B
100
AcDbEntity
  8
0
100
AcDbLine
 62
7
  6
BYLAYER
 10
35.579512188
 20
219.3111463211
 11
35.579512188
 21
204.3111463211
  0
LINE
  5
23C
100
AcDbEntity
  8
0
100
AcDbLine
 62
7
  6
BYLAYER
 10
35.579512188
 20
193.3111463211
 11
35.579512188
 21
192.1030012795
  0
LINE
  5
23D
100
AcDbEntity
  8
0
100
AcDbLine
 62
7
  6
BYLAYER
 10
35.9795121909
 20
190.3116332372
 11
35.9795121909
 21
189.2116332372
  0
LINE
  5
23E
100
AcDbEntity
  8
0
100
AcDbLine
 62
7
  6
BYLAYER
 10
35.9795121909
 20
188.4116332372
 11
35.9795121909
 21
187.3116332372
  0
LINE
  5
23F
100
AcDbEntity
  8
0
100
AcDbLine
 62
7
  6
BYLAYER
 10
36.079512188
 20
204.3111463211
 11
36.079512188
 21
219.3111463211
  0
LINE
  5
240
100
AcDbEntity
  8
0
100
AcDbLine
 62
7
  6
BYLAYER
 10
36.079987231
 20
229.2116451103
 11
36.079987231
 21
228.4116451103
  0
LINE
  5
241
100
AcDbEntity
  8
0
100
AcDbLine
 62
7
  6
BYLAYER
 10
36.0794956822
 20
237.0750744603
 11
36.079512188
 21
235.9611463211
  0
LINE
  5
242
100
AcDbEntity
  8
0
100
AcDbLine
 62
7
  6
BYLAYER
 10
37.0795121909
 20
189.2116332372
 11
37.0795121909
 21
188.4116332372
  0
LINE
  5
243
100
AcDbEntity
  8
0
100
AcDbLine
 62
7
  6
BYLAYER
 10
37.079512188
 20
236.9611463211
 11
37.079512188
 21
237.1931123324
  0
LINE
  5
244
100
AcDbEntity
  8
0
100
AcDbLine
 62
7
  6
BYLAYER
 10
38.579512188
 20
187.4507047973
 11
38.5795121152
 21
184.3111463211
  0
LINE
  5
245
100
AcDbEntity
  8
0
100
AcDbLine
 62
7
  6
BYLAYER
 10
39.079512188
 20
188.8111463211
 11
39.079512188
 21
185.3111463211
  0
LINE
  5
246
100
AcDbEntity
  8
0
100
AcDbLine
 62
7
  6
BYLAYER
 10
40.079512188
 20
184.3111463211
 11
40.079512188
 21
188.8111463211
  0
LINE
  5
247
100
AcDbEntity
  8
3
100
AcDbLine
 62
7
  6
BYLAYER
 10
41.2687329145
 20
184.0697262433
 11
41.2687329145
 21
181.0697262433
  0
LINE
  5
248
100
AcDbEntity
  8
3
100
AcDbLine
 62
7
  6
BYLAYER
 10
46.2687329145
 20
181.0697262433
 11
46.2687329145
 21
184.0697262433
  0
LINE
  5
249
100
AcDbEntity
  8
0
100
AcDbLine
 62
7
  6
BYLAYER
 10
47.579512188
 20
188.3111463211
 11
47.579512188
 21
186.8111463211
  0
LINE
  5
24A
100
AcDbEntity
  8
0
100
AcDbLine
 62
7
  6
BYLAYER
 10
48.079512188
 20
186.8111463211
 11
48.079512188
 21
188.3111463211
  0
LINE
  5
24B
100
AcDbEntity
  8
0
100
AcDbLine
 62
7
  6
BYLAYER
 10
48.579512188
 20
185.8111463211
 11
48.579512188
 21
186.3111463211
  0
LINE
  5
24C
100
AcDbEntity
  8
3
100
AcDbLine
 62
7
  6
BYLAYER
 10
48.5795121895
 20
186.359071218
 11
48.5795121895
 21
188.359071218
  0
LINE
  5
24D
100
AcDbEntity
  8
0
100
AcDbLine
 62
7
  6
BYLAYER
 10
48.579512188
 20
188.8111463211
 11
48.579512188
 21
189.3111463211
  0
LINE
  5
24E
100
AcDbEntity
  8
3
100
AcDbLine
 62
7
  6
BYLAYER
 10
49.7270121895
 20
179.7330115594
 11
49.7270121895
 21
180.9776108212
  0
LINE
  5
24F
100
AcDbEntity
  8
0
100
AcDbLine
 62
7
  6
BYLAYER
 10
35.7378714015
 20
237.7583599166
 11
36.6322985925
 21
238.2055735121
  0
LINE
  5
250
100
AcDbEntity
  8
3
100
AcDbLine
 62
7
  6
BYLAYER
 10
50.6795121895
 20
179.6295266255
 11
50.6795121895
 21
176.6295266255
  0
LINE
  5
251
100
AcDbEntity
  8
0
100
AcDbLine
 62
7
  6
BYLAYER
 10
51.079512188
 20
186.3111463211
 11
51.0794948441
 21
185.3111636763
  0
LINE
  5
252
100
AcDbEntity
  8
0
100
AcDbLine
 62
7
  6
BYLAYER
 10
52.079512188
 20
184.8111463211
 11
52.079512188
 21
185.8111463211
  0
LINE
  5
253
100
AcDbEntity
  8
3
100
AcDbLine
 62
7
  6
BYLAYER
 10
53.0795121895
 20
172.359071218
 11
53.0795121895
 21
176.6295266255
  0
LINE
  5
254
100
AcDbEntity
  8
3
100
AcDbLine
 62
7
  6
BYLAYER
 10
53.0795121895
 20
179.6295266255
 11
53.0795121895
 21
179.7330115594
  0
LINE
  5
255
100
AcDbEntity
  8
3
100
AcDbLine
 62
7
  6
BYLAYER
 10
53.0795121895
 20
180.9776108212
 11
53.0795121895
 21
181.0697262433
  0
LINE
  5
256
100
AcDbEntity
  8
3
100
AcDbLine
 62
7
  6
BYLAYER
 10
53.0795121895
 20
184.0697262433
 11
53.0795121895
 21
186.359071218
  0
LINE
  5
257
100
AcDbEntity
  8
3
100
AcDbLine
 62
7
  6
BYLAYER
 10
53.3795121895
 20
179.6295266255
 11
53.3795121895
 21
176.6295266255
  0
LINE
  5
258
100
AcDbEntity
  8
0
100
AcDbLine
 62
7
  6
BYLAYER
 10
36.0795113112
 20
237.0750800973
 11
37.0267446252
 21
237.4166814467
  0
LINE
  5
259
100
AcDbEntity
  8
0
100
AcDbLine
 62
7
  6
BYLAYER
 10
31.5795034911
 20
207.8111463211
 11
32.0795200793
 21
206.8111463211
  0
LINE
  5
25A
100
AcDbEntity
  8
3
100
AcDbLine
 62
7
  6
BYLAYER
 10
58.7795121895
 20
179.6295266255
 11
58.7795121895
 21
176.6295266255
  0
LINE
  5
25B
100
AcDbEntity
  8
3
100
AcDbLine
 62
7
  6
BYLAYER
 10
59.0795121895
 20
172.359071218
 11
59.0795121895
 21
176.6295266255
  0
LINE
  5
25C
100
AcDbEntity
  8
3
100
AcDbLine
 62
7
  6
BYLAYER
 10
59.0795121895
 20
179.6295266255
 11
59.0795121895
 21
179.7330115594
  0
LINE
  5
25D
100
AcDbEntity
  8
3
100
AcDbLine
 62
7
  6
BYLAYER
 10
59.0795121895
 20
180.9776108212
 11
59.0795121895
 21
181.0697262433
  0
LINE
  5
25E
100
AcDbEntity
  8
3
100
AcDbLine
 62
7
  6
BYLAYER
 10
59.0795121895
 20
184.0697262433
 11
59.0795121895
 21
186.359071218
  0
LINE
  5
25F
100
AcDbEntity
  8
0
100
AcDbLine
 62
7
  6
BYLAYER
 10
60.079512188
 20
185.8111463211
 11
60.079512188
 21
184.8111463211
  0
LINE
  5
260
100
AcDbEntity
  8
0
100
AcDbLine
 62
7
  6
BYLAYER
 10
61.0795279516
 20
185.3111620944
 11
61.079512188
 21
186.3111463211
  0
LINE
  5
261
100
AcDbEntity
  8
3
100
AcDbLine
 62
7
  6
BYLAYER
 10
61.4795121895
 20
179.6295266255
 11
61.4795121895
 21
176.6295266255
  0
LINE
  5
262
100
AcDbEntity
  8
3
100
AcDbLine
 62
7
  6
BYLAYER
 10
62.4320121895
 20
179.7330115594
 11
62.4320121895
 21
180.9776108212
  0
LINE
  5
263
100
AcDbEntity
  8
0
100
AcDbLine
 62
7
  6
BYLAYER
 10
63.579512188
 20
189.3111463211
 11
63.579512188
 21
188.8111463211
  0
LINE
  5
264
100
AcDbEntity
  8
0
100
AcDbLine
 62
7
  6
BYLAYER
 10
63.579512188
 20
186.3111463211
 11
63.579512188
 21
185.8111463211
  0
LINE
  5
265
100
AcDbEntity
  8
3
100
AcDbLine
 62
7
  6
BYLAYER
 10
63.5795121895
 20
186.359071218
 11
63.5795121895
 21
188.359071218
  0
LINE
  5
266
100
AcDbEntity
  8
0
100
AcDbLine
 62
7
  6
BYLAYER
 10
64.079512188
 20
188.3111463211
 11
64.079512188
 21
186.8111463211
  0
LINE
  5
267
100
AcDbEntity
  8
0
100
AcDbLine
 62
7
  6
BYLAYER
 10
64.579512188
 20
186.8111463211
 11
64.579512188
 21
188.3111463211
  0
LINE
  5
268
100
AcDbEntity
  8
0
100
AcDbLine
 62
7
  6
BYLAYER
 10
75.5267257835
 20
238.2055735121
 11
75.1322985925
 21
237.4167191301
  0
LINE
  5
269
100
AcDbEntity
  8
0
100
AcDbLine
 62
7
  6
BYLAYER
 10
76.4211529745
 20
237.7583599166
 11
76.0795284897
 21
237.0750745083
  0
LINE
  5
26A
100
AcDbEntity
  8
0
100
AcDbLine
 62
7
  6
BYLAYER
 10
31.079512188
 20
216.3111492787
 11
32.079512188
 21
216.8111549873
  0
LINE
  5
26B
100
AcDbEntity
  8
0
100
AcDbLine
 62
7
  6
BYLAYER
 10
51.5795107648
 20
184.3111463211
 11
51.0795092472
 21
185.3111491838
  0
LINE
  5
26C
100
AcDbEntity
  8
0
100
AcDbLine
 62
7
  6
BYLAYER
 10
72.079512188
 20
188.8111463211
 11
72.079512188
 21
184.3111463211
  0
LINE
  5
26D
100
AcDbEntity
  8
0
100
AcDbLine
 62
7
  6
BYLAYER
 10
73.079512188
 20
185.3111463211
 11
73.079512188
 21
188.8111463211
  0
LINE
  5
26E
100
AcDbEntity
  8
0
100
AcDbLine
 62
7
  6
BYLAYER
 10
73.5795122605
 20
184.3111463211
 11
73.579512188
 21
187.4783846757
  0
LINE
  5
26F
100
AcDbEntity
  8
0
100
AcDbLine
 62
7
  6
BYLAYER
 10
61.0795200647
 20
185.3111463211
 11
60.5795249598
 21
184.3111463211
  0
LINE
  5
270
100
AcDbEntity
  8
0
100
AcDbLine
 62
7
  6
BYLAYER
 10
78.5324333101
 20
237.585867449
 11
79.4939572578
 21
237.8605885769
  0
LINE
  5
271
100
AcDbEntity
  8
0
100
AcDbLine
 62
7
  6
BYLAYER
 10
36.0794956822
 20
237.0750744603
 11
35.7378714015
 21
237.7583599166
  0
LINE
  5
272
100
AcDbEntity
  8
0
100
AcDbLine
 62
7
  6
BYLAYER
 10
37.0267257835
 20
237.4167191301
 11
36.6322985925
 21
238.2055735121
  0
LINE
  5
273
100
AcDbEntity
  8
0
100
AcDbLine
 62
7
  6
BYLAYER
 10
75.079512188
 20
237.1931123324
 11
75.079512188
 21
236.9611463211
  0
LINE
  5
274
100
AcDbEntity
  8
0
100
AcDbLine
 62
7
  6
BYLAYER
 10
75.079512188
 20
188.4111463211
 11
75.079512188
 21
189.2111463211
  0
LINE
  5
275
100
AcDbEntity
  8
0
100
AcDbLine
 62
7
  6
BYLAYER
 10
76.079512188
 20
235.9611463211
 11
76.0795284897
 21
237.0750745083
  0
LINE
  5
276
100
AcDbEntity
  8
0
100
AcDbLine
 62
7
  6
BYLAYER
 10
76.079512188
 20
219.3111463211
 11
76.079512188
 21
204.3111463211
  0
LINE
  5
277
100
AcDbEntity
  8
0
100
AcDbLine
 62
7
  6
BYLAYER
 10
76.079987228
 20
228.4111344423
 11
76.079987228
 21
229.2111344423
  0
LINE
  5
278
100
AcDbEntity
  8
0
100
AcDbLine
 62
7
  6
BYLAYER
 10
76.179512188
 20
187.3111463211
 11
76.179512188
 21
188.4111463211
  0
LINE
  5
279
100
AcDbEntity
  8
0
100
AcDbLine
 62
7
  6
BYLAYER
 10
76.179512188
 20
189.2111463211
 11
76.179512188
 21
190.3111463211
  0
LINE
  5
27A
100
AcDbEntity
  8
0
100
AcDbLine
 62
7
  6
BYLAYER
 10
76.579512188
 20
192.102514364
 11
76.579512188
 21
193.3111463211
  0
LINE
  5
27B
100
AcDbEntity
  8
0
100
AcDbLine
 62
7
  6
BYLAYER
 10
76.579512188
 20
204.3111463211
 11
76.579512188
 21
219.3111463211
  0
LINE
  5
27C
100
AcDbEntity
  8
0
100
AcDbLine
 62
7
  6
BYLAYER
 10
76.979512188
 20
190.3111463211
 11
76.979512188
 21
189.2111463211
  0
LINE
  5
27D
100
AcDbEntity
  8
0
100
AcDbLine
 62
7
  6
BYLAYER
 10
76.979512188
 20
188.4111463211
 11
76.979512188
 21
187.3111463211
  0
LINE
  5
27E
100
AcDbEntity
  8
0
100
AcDbLine
 62
7
  6
BYLAYER
 10
77.079512188
 20
184.8111463211
 11
77.079512188
 21
184.3111463211
  0
LINE
  5
27F
100
AcDbEntity
  8
0
100
AcDbLine
 62
7
  6
BYLAYER
 10
77.079512188
 20
203.3111463211
 11
77.079512188
 21
203.8111463211
  0
LINE
  5
280
100
AcDbEntity
  8
0
100
AcDbLine
 62
7
  6
BYLAYER
 10
77.079512188
 20
219.8111463211
 11
77.079512188
 21
220.3111463211
  0
LINE
  5
281
100
AcDbEntity
  8
0
100
AcDbLine
 62
7
  6
BYLAYER
 10
77.179987228
 20
227.3111344423
 11
77.179987228
 21
228.4111344423
  0
LINE
  5
282
100
AcDbEntity
  8
0
100
AcDbLine
 62
7
  6
BYLAYER
 10
77.179987228
 20
229.2111344423
 11
77.179987228
 21
230.3111344423
  0
LINE
  5
283
100
AcDbEntity
  8
0
100
AcDbLine
 62
7
  6
BYLAYER
 10
77.3155801655
 20
238.3111463211
 11
77.3155801655
 21
239.3111463211
  0
LINE
  5
284
100
AcDbEntity
  8
0
100
AcDbLine
 62
7
  6
BYLAYER
 10
77.5709093625
 20
239.3111463211
 11
77.5709093625
 21
238.3111463211
  0
LINE
  5
285
100
AcDbEntity
  8
0
100
AcDbLine
 62
7
  6
BYLAYER
 10
77.579512188
 20
224.3111463211
 11
77.579512188
 21
225.5196795448
  0
LINE
  5
286
100
AcDbEntity
  8
0
100
AcDbLine
 62
7
  6
BYLAYER
 10
77.579512188
 20
232.1024156306
 11
77.579512188
 21
233.3111463211
  0
LINE
  5
287
100
AcDbEntity
  8
0
100
AcDbLine
 62
7
  6
BYLAYER
 10
77.979987228
 20
230.3111344423
 11
77.979987228
 21
229.2111344423
  0
LINE
  5
288
100
AcDbEntity
  8
0
100
AcDbLine
 62
7
  6
BYLAYER
 10
77.979987228
 20
228.4111344423
 11
77.979987228
 21
227.3111344423
  0
LINE
  5
289
100
AcDbEntity
  8
0
100
AcDbLine
 62
7
  6
BYLAYER
 10
78.079512188
 20
189.2111463211
 11
78.079512188
 21
188.4111463211
  0
LINE
  5
28A
100
AcDbEntity
  8
0
100
AcDbLine
 62
7
  6
BYLAYER
 10
78.579512188
 20
220.3111463211
 11
78.579512188
 21
219.8111463211
  0
LINE
  5
28B
100
AcDbEntity
  8
0
100
AcDbLine
 62
7
  6
BYLAYER
 10
78.579512188
 20
203.8111463211
 11
78.579512188
 21
203.3111463211
  0
LINE
  5
28C
100
AcDbEntity
  8
0
100
AcDbLine
 62
7
  6
BYLAYER
 10
79.079512188
 20
204.3111463211
 11
79.079512188
 21
207.3111463211
  0
LINE
  5
28D
100
AcDbEntity
  8
0
100
AcDbLine
 62
7
  6
BYLAYER
 10
79.079512188
 20
216.3111463211
 11
79.079512188
 21
219.3111463211
  0
LINE
  5
28E
100
AcDbEntity
  8
0
100
AcDbLine
 62
7
  6
BYLAYER
 10
79.079987228
 20
229.2111344423
 11
79.079987228
 21
228.4111344423
  0
LINE
  5
28F
100
AcDbEntity
  8
0
100
AcDbLine
 62
7
  6
BYLAYER
 10
79.0909172117
 20
233.3111463211
 11
79.0909172117
 21
231.8111463211
  0
LINE
  5
290
100
AcDbEntity
  8
0
100
AcDbLine
 62
7
  6
BYLAYER
 10
79.579512188
 20
204.3111463211
 11
79.579512188
 21
207.8111463211
  0
LINE
  5
291
100
AcDbEntity
  8
0
100
AcDbLine
 62
7
  6
BYLAYER
 10
79.579512188
 20
215.8111463211
 11
79.579512188
 21
219.3111463211
  0
LINE
  5
292
100
AcDbEntity
  8
0
100
AcDbLine
 62
7
  6
BYLAYER
 10
80.079512188
 20
225.3111463211
 11
80.0794964147
 21
216.8111620847
  0
LINE
  5
293
100
AcDbEntity
  8
0
100
AcDbLine
 62
7
  6
BYLAYER
 10
80.0794948329
 20
206.8111289772
 11
80.079512188
 21
192.3111463211
  0
LINE
  5
294
100
AcDbEntity
  8
0
100
AcDbLine
 62
7
  6
BYLAYER
 10
80.579512188
 20
230.9105968747
 11
80.579512188
 21
230.1446150546
  0
LINE
  5
295
100
AcDbEntity
  8
0
100
AcDbLine
 62
7
  6
BYLAYER
 10
80.5795121878
 20
227.4495284263
 11
80.5795121877
 21
225.8111463211
  0
LINE
  5
296
100
AcDbEntity
  8
0
100
AcDbLine
 62
7
  6
BYLAYER
 10
80.5795121878
 20
191.8111463211
 11
80.579512188
 21
188.3111463211
  0
LINE
  5
297
100
AcDbEntity
  8
0
100
AcDbLine
 62
7
  6
BYLAYER
 10
81.079512188
 20
188.3111463211
 11
81.079512188
 21
207.3111463211
  0
LINE
  5
298
100
AcDbEntity
  8
0
100
AcDbLine
 62
7
  6
BYLAYER
 10
81.079512188
 20
216.3111463211
 11
81.079512188
 21
230.9105968747
  0
LINE
  5
299
100
AcDbEntity
  8
3
100
AcDbLine
 62
7
  6
BYLAYER
 10
81.0799872311
 20
225.8111463211
 11
81.0799872311
 21
224.3111463211
  0
LINE
  5
29A
100
AcDbEntity
  8
3
100
AcDbLine
 62
7
  6
BYLAYER
 10
81.0799872311
 20
193.3111463211
 11
81.0799872311
 21
191.8111463211
  0
LINE
  5
29B
100
AcDbEntity
  8
0
100
AcDbLine
 62
7
  6
BYLAYER
 10
80.5795216353
 20
207.8111463211
 11
80.079503505
 21
206.8111463211
  0
LINE
  5
29C
100
AcDbEntity
  8
0
100
AcDbLine
 62
7
  6
BYLAYER
 10
80.5332031332
 20
234.223228013
 11
79.5716791855
 21
233.9485068851
  0
LINE
  5
29D
100
AcDbEntity
  8
0
100
AcDbLine
 62
7
  6
BYLAYER
 10
80.6947516644
 20
233.6578081537
 11
80.6522507837
 21
233.6456650449
  0
LINE
  5
29E
100
AcDbEntity
  8
3
100
AcDbLine
 62
7
  6
BYLAYER
 10
88.2687329145
 20
134.0697262433
 11
88.2687329145
 21
177.0697262433
  0
LINE
  5
29F
100
AcDbEntity
  8
3
100
AcDbLine
 62
7
  6
BYLAYER
 10
88.2687329145
 20
134.0697262433
 11
91.2687329145
 21
134.0697262433
  0
LINE
  5
2A0
100
AcDbEntity
  8
4
100
AcDbLine
 62
7
  6
BYLAYER
 10
235.917863803
 20
134.0697262433
 11
238.917863803
 21
134.0697262433
  0
LINE
  5
2A1
100
AcDbEntity
  8
4
100
AcDbLine
 62
7
  6
BYLAYER
 10
238.917863803
 20
139.0697262433
 11
235.917863803
 21
139.0697262433
  0
LINE
  5
2A2
100
AcDbEntity
  8
3
100
AcDbLine
 62
7
  6
BYLAYER
 10
91.2687329145
 20
139.0697262433
 11
88.2687329145
 21
139.0697262433
  0
LINE
  5
2A3
100
AcDbEntity
  8
3
100
AcDbLine
 62
7
  6
BYLAYER
 10
91.2687329145
 20
134.0697262433
 11
91.2687329145
 21
177.0697262433
  0
LINE
  5
2A4
100
AcDbEntity
  8
0
100
AcDbLine
 62
7
  6
BYLAYER
 10
81.079512188
 20
207.3111424012
 11
80.079512188
 21
206.811137655
  0
LINE
  5
2A5
100
AcDbEntity
  8
0
100
AcDbLine
 62
7
  6
BYLAYER
 10
52.079512188
 20
184.8111368739
 11
51.079512188
 21
185.3111550041
  0
LINE
  5
2A6
100
AcDbEntity
  8
0
100
AcDbLine
 62
7
  6
BYLAYER
 10
79.5718298842
 20
233.9479794397
 11
78.5324333101
 21
237.585867449
  0
LINE
  5
2A7
100
AcDbEntity
  8
0
100
AcDbLine
 62
7
  6
BYLAYER
 10
80.6947516644
 20
233.6578081537
 11
79.4939572578
 21
237.8605885769
  0
LINE
  5
2A8
100
AcDbEntity
  8
0
100
AcDbLine
 62
7
  6
BYLAYER
 10
60.079512188
 20
184.8111376242
 11
61.079512188
 21
185.3111542125
  0
LINE
  5
2A9
100
AcDbEntity
  8
0
100
AcDbLine
 62
7
  6
BYLAYER
 10
183.7286421997
 20
237.0750800973
 11
184.6758755138
 21
237.4166814467
  0
LINE
  5
2AA
100
AcDbEntity
  8
0
100
AcDbLine
 62
7
  6
BYLAYER
 10
80.5795208849
 20
215.8111463211
 11
80.0795042967
 21
216.8111463211
  0
LINE
  5
2AB
100
AcDbEntity
  8
0
100
AcDbLine
 62
7
  6
BYLAYER
 10
183.38700229
 20
237.7583599166
 11
184.281429481
 21
238.2055735121
  0
LINE
  5
2AC
100
AcDbEntity
  8
0
100
AcDbLine
 62
7
  6
BYLAYER
 10
226.1815641986
 20
237.585867449
 11
227.1430881463
 21
237.8605885769
  0
LINE
  5
2AD
100
AcDbEntity
  8
0
100
AcDbLine
 62
7
  6
BYLAYER
 10
32.0795151554
 20
206.8111443792
 11
31.079512188
 21
207.3111458892
  0
LINE
  5
2AE
100
AcDbEntity
  8
0
100
AcDbLine
 62
7
  6
BYLAYER
 10
228.1823340217
 20
234.223228013
 11
227.2208100741
 21
233.9485068851
  0
LINE
  5
2AF
100
AcDbEntity
  8
0
100
AcDbLine
 62
7
  6
BYLAYER
 10
228.3438825529
 20
233.6578081537
 11
228.3013816722
 21
233.6456650449
  0
LINE
  5
2B0
100
AcDbEntity
  8
0
100
AcDbLine
 62
7
  6
BYLAYER
 10
178.7286430765
 20
216.3111476289
 11
179.7286459881
 21
216.811149164
  0
LINE
  5
2B1
100
AcDbEntity
  8
4
100
AcDbLine
 62
7
  6
BYLAYER
 10
206.728643078
 20
172.359071218
 11
200.728643078
 21
172.359071218
  0
LINE
  5
2B2
100
AcDbEntity
  8
3
100
AcDbLine
 62
7
  6
BYLAYER
 10
59.0795121895
 20
172.359071218
 11
53.0795121895
 21
172.359071218
  0
LINE
  5
2B3
100
AcDbEntity
  8
3
100
AcDbLine
 62
7
  6
BYLAYER
 10
50.6795121895
 20
176.6295266255
 11
61.4795121895
 21
176.6295266255
  0
LINE
  5
2B4
100
AcDbEntity
  8
4
100
AcDbLine
 62
7
  6
BYLAYER
 10
198.328643078
 20
176.6295266255
 11
209.128643078
 21
176.6295266255
  0
LINE
  5
2B5
100
AcDbEntity
  8
3
100
AcDbLine
 62
7
  6
BYLAYER
 10
50.6795121895
 20
179.6295266255
 11
61.4795121895
 21
179.6295266255
  0
LINE
  5
2B6
100
AcDbEntity
  8
4
100
AcDbLine
 62
7
  6
BYLAYER
 10
198.328643078
 20
179.6295266255
 11
209.128643078
 21
179.6295266255
  0
LINE
  5
2B7
100
AcDbEntity
  8
4
100
AcDbLine
 62
7
  6
BYLAYER
 10
210.0810905599
 20
179.7330115594
 11
197.376195596
 21
179.7330115594
  0
LINE
  5
2B8
100
AcDbEntity
  8
3
100
AcDbLine
 62
7
  6
BYLAYER
 10
62.4319596714
 20
179.7330115594
 11
49.7270647075
 21
179.7330115594
  0
LINE
  5
2B9
100
AcDbEntity
  8
0
100
AcDbLine
 62
7
  6
BYLAYER
 10
76.079512188
 20
235.9611463211
 11
75.0795125298
 21
236.9611463211
  0
LINE
  5
2BA
100
AcDbEntity
  8
0
100
AcDbLine
 62
7
  6
BYLAYER
 10
80.1238459488
 20
232.7234615212
 11
80.4681555279
 21
232.3608999212
  0
LINE
  5
2BB
100
AcDbEntity
  8
0
100
AcDbLine
 62
7
  6
BYLAYER
 10
179.3399997581
 20
232.3608999009
 11
179.6843093317
 21
232.7234615059
  0
LINE
  5
2BC
100
AcDbEntity
  8
0
100
AcDbLine
 62
7
  6
BYLAYER
 10
183.7286430765
 20
235.9611463211
 11
184.7286430765
 21
236.9611459793
  0
LINE
  5
2BD
100
AcDbEntity
  8
3
100
AcDbLine
 62
7
  6
BYLAYER
 10
49.7270647075
 20
180.9776108212
 11
62.4319596714
 21
180.9776108212
  0
LINE
  5
2BE
100
AcDbEntity
  8
4
100
AcDbLine
 62
7
  6
BYLAYER
 10
197.376195596
 20
180.9776108212
 11
210.0810905599
 21
180.9776108212
  0
LINE
  5
2BF
100
AcDbEntity
  8
3
100
AcDbLine
 62
7
  6
BYLAYER
 10
41.2687329145
 20
181.0697262433
 11
84.2687329145
 21
181.0697262433
  0
LINE
  5
2C0
100
AcDbEntity
  8
4
100
AcDbLine
 62
7
  6
BYLAYER
 10
188.917863803
 20
181.0697262433
 11
231.917863803
 21
181.0697262433
  0
LINE
  5
2C1
100
AcDbEntity
  8
3
100
AcDbLine
 62
7
  6
BYLAYER
 10
41.2687329145
 20
184.0697262433
 11
84.2687329145
 21
184.0697262433
  0
LINE
  5
2C2
100
AcDbEntity
  8
4
100
AcDbLine
 62
7
  6
BYLAYER
 10
188.917863803
 20
184.0697262433
 11
231.917863803
 21
184.0697262433
  0
LINE
  5
2C3
100
AcDbEntity
  8
0
100
AcDbLine
 62
7
  6
BYLAYER
 10
35.079512188
 20
184.3111463211
 11
51.579512188
 21
184.3111463211
  0
LINE
  5
2C4
100
AcDbEntity
  8
0
100
AcDbLine
 62
7
  6
BYLAYER
 10
60.579512188
 20
184.3111463211
 11
77.079512188
 21
184.3111463211
  0
LINE
  5
2C5
100
AcDbEntity
  8
0
100
AcDbLine
 62
7
  6
BYLAYER
 10
182.7286430765
 20
184.3111463211
 11
199.2286430765
 21
184.3111463211
  0
LINE
  5
2C6
100
AcDbEntity
  8
0
100
AcDbLine
 62
7
  6
BYLAYER
 10
208.2286430765
 20
184.3111463211
 11
224.7286430765
 21
184.3111463211
  0
LINE
  5
2C7
100
AcDbEntity
  8
0
100
AcDbLine
 62
7
  6
BYLAYER
 10
224.7286430765
 20
184.8111463211
 11
221.2286430765
 21
184.8111463213
  0
LINE
  5
2C8
100
AcDbEntity
  8
0
100
AcDbLine
 62
7
  6
BYLAYER
 10
186.2286430765
 20
184.8111463213
 11
182.7286430765
 21
184.8111463211
  0
LINE
  5
2C9
100
AcDbEntity
  8
0
100
AcDbLine
 62
7
  6
BYLAYER
 10
77.079512188
 20
184.8111463211
 11
73.579512188
 21
184.8111463213
  0
LINE
  5
2CA
100
AcDbEntity
  8
0
100
AcDbLine
 62
7
  6
BYLAYER
 10
38.579512188
 20
184.8111463213
 11
35.079512188
 21
184.8111463211
  0
LINE
  5
2CB
100
AcDbEntity
  8
0
100
AcDbLine
 62
7
  6
BYLAYER
 10
198.7286257326
 20
185.3111636763
 11
186.7286430765
 21
185.3111463211
  0
LINE
  5
2CC
100
AcDbEntity
  8
0
100
AcDbLine
 62
7
  6
BYLAYER
 10
73.079512188
 20
185.3111463211
 11
61.0795279516
 21
185.3111620944
  0
LINE
  5
2CD
100
AcDbEntity
  8
0
100
AcDbLine
 62
7
  6
BYLAYER
 10
220.7286430765
 20
185.3111463211
 11
208.7286588401
 21
185.3111620944
  0
LINE
  5
2CE
100
AcDbEntity
  8
0
100
AcDbLine
 62
7
  6
BYLAYER
 10
51.0794948441
 20
185.3111636763
 11
39.079512188
 21
185.3111463211
  0
LINE
  5
2CF
100
AcDbEntity
  8
0
100
AcDbLine
 62
7
  6
BYLAYER
 10
48.579512188
 20
185.8111463211
 11
52.079512188
 21
185.8111463211
  0
LINE
  5
2D0
100
AcDbEntity
  8
0
100
AcDbLine
 62
7
  6
BYLAYER
 10
60.079512188
 20
185.8111463211
 11
63.579512188
 21
185.8111463211
  0
LINE
  5
2D1
100
AcDbEntity
  8
0
100
AcDbLine
 62
7
  6
BYLAYER
 10
196.2286430765
 20
185.8111463211
 11
199.7286430765
 21
185.8111463211
  0
LINE
  5
2D2
100
AcDbEntity
  8
0
100
AcDbLine
 62
7
  6
BYLAYER
 10
207.7286430765
 20
185.8111463211
 11
211.2286430765
 21
185.8111463211
  0
LINE
  5
2D3
100
AcDbEntity
  8
0
100
AcDbLine
 62
7
  6
BYLAYER
 10
48.579512188
 20
186.3111463211
 11
51.579512188
 21
186.3111463211
  0
LINE
  5
2D4
100
AcDbEntity
  8
0
100
AcDbLine
 62
7
  6
BYLAYER
 10
60.579512188
 20
186.3111463211
 11
63.579512188
 21
186.3111463211
  0
LINE
  5
2D5
100
AcDbEntity
  8
0
100
AcDbLine
 62
7
  6
BYLAYER
 10
196.2286430765
 20
186.3111463211
 11
199.2286430765
 21
186.3111463211
  0
LINE
  5
2D6
100
AcDbEntity
  8
0
100
AcDbLine
 62
7
  6
BYLAYER
 10
208.2286430765
 20
186.3111463211
 11
211.2286430765
 21
186.3111463211
  0
LINE
  5
2D7
100
AcDbEntity
  8
3
100
AcDbLine
 62
7
  6
BYLAYER
 10
51.5799872311
 20
186.359071218
 11
60.5799872311
 21
186.359071218
  0
LINE
  5
2D8
100
AcDbEntity
  8
4
100
AcDbLine
 62
7
  6
BYLAYER
 10
199.2291181196
 20
186.359071218
 11
208.2291181196
 21
186.359071218
  0
LINE
  5
2D9
100
AcDbEntity
  8
0
100
AcDbLine
 62
7
  6
BYLAYER
 10
212.2286430765
 20
186.8111463211
 11
211.7286430765
 21
186.8111463211
  0
LINE
  5
2DA
100
AcDbEntity
  8
0
100
AcDbLine
 62
7
  6
BYLAYER
 10
195.7286430765
 20
186.8111463211
 11
195.2286430765
 21
186.8111463211
  0
LINE
  5
2DB
100
AcDbEntity
  8
0
100
AcDbLine
 62
7
  6
BYLAYER
 10
64.579512188
 20
186.8111463211
 11
64.079512188
 21
186.8111463211
  0
LINE
  5
2DC
100
AcDbEntity
  8
0
100
AcDbLine
 62
7
  6
BYLAYER
 10
48.079512188
 20
186.8111463211
 11
47.579512188
 21
186.8111463211
  0
LINE
  5
2DD
100
AcDbEntity
  8
0
100
AcDbLine
 62
7
  6
BYLAYER
 10
224.6286430765
 20
187.3111463211
 11
223.8286430765
 21
187.3111463211
  0
LINE
  5
2DE
100
AcDbEntity
  8
0
100
AcDbLine
 62
7
  6
BYLAYER
 10
76.979512188
 20
187.3111463211
 11
76.179512188
 21
187.3111463211
  0
LINE
  5
2DF
100
AcDbEntity
  8
0
100
AcDbLine
 62
7
  6
BYLAYER
 10
183.6286430794
 20
187.3116332372
 11
182.8286430794
 21
187.3116332372
  0
LINE
  5
2E0
100
AcDbEntity
  8
0
100
AcDbLine
 62
7
  6
BYLAYER
 10
35.9795121909
 20
187.3116332372
 11
35.1795121909
 21
187.3116332372
  0
LINE
  5
2E1
100
AcDbEntity
  8
0
100
AcDbLine
 62
7
  6
BYLAYER
 10
228.7286430765
 20
188.3111463211
 11
228.2286430765
 21
188.3111463211
  0
LINE
  5
2E2
100
AcDbEntity
  8
0
100
AcDbLine
 62
7
  6
BYLAYER
 10
179.2286430765
 20
188.3111463211
 11
178.7286430765
 21
188.3111463211
  0
LINE
  5
2E3
100
AcDbEntity
  8
0
100
AcDbLine
 62
7
  6
BYLAYER
 10
81.079512188
 20
188.3111463211
 11
80.579512188
 21
188.3111463211
  0
LINE
  5
2E4
100
AcDbEntity
  8
0
100
AcDbLine
 62
7
  6
BYLAYER
 10
31.579512188
 20
188.3111463211
 11
31.079512188
 21
188.3111463211
  0
LINE
  5
2E5
100
AcDbEntity
  8
0
100
AcDbLine
 62
7
  6
BYLAYER
 10
47.579512188
 20
188.3111463211
 11
48.079512188
 21
188.3111463211
  0
LINE
  5
2E6
100
AcDbEntity
  8
0
100
AcDbLine
 62
7
  6
BYLAYER
 10
64.079512188
 20
188.3111463211
 11
64.579512188
 21
188.3111463211
  0
LINE
  5
2E7
100
AcDbEntity
  8
0
100
AcDbLine
 62
7
  6
BYLAYER
 10
195.2286430765
 20
188.3111463211
 11
195.7286430765
 21
188.3111463211
  0
LINE
  5
2E8
100
AcDbEntity
  8
0
100
AcDbLine
 62
7
  6
BYLAYER
 10
211.7286430765
 20
188.3111463211
 11
212.2286430765
 21
188.3111463211
  0
LINE
  5
2E9
100
AcDbEntity
  8
3
100
AcDbLine
 62
7
  6
BYLAYER
 10
48.5795121895
 20
188.359071218
 11
63.5795121895
 21
188.359071218
  0
LINE
  5
2EA
100
AcDbEntity
  8
4
100
AcDbLine
 62
7
  6
BYLAYER
 10
196.228643078
 20
188.359071218
 11
211.228643078
 21
188.359071218
  0
LINE
  5
2EB
100
AcDbEntity
  8
0
100
AcDbLine
 62
7
  6
BYLAYER
 10
225.7286430765
 20
188.4111463211
 11
224.6286430765
 21
188.4111463211
  0
LINE
  5
2EC
100
AcDbEntity
  8
0
100
AcDbLine
 62
7
  6
BYLAYER
 10
223.8286430765
 20
188.4111463211
 11
222.7286430765
 21
188.4111463211
  0
LINE
  5
2ED
100
AcDbEntity
  8
0
100
AcDbLine
 62
7
  6
BYLAYER
 10
78.079512188
 20
188.4111463211
 11
76.979512188
 21
188.4111463211
  0
LINE
  5
2EE
100
AcDbEntity
  8
0
100
AcDbLine
 62
7
  6
BYLAYER
 10
76.179512188
 20
188.4111463211
 11
75.079512188
 21
188.4111463211
  0
LINE
  5
2EF
100
AcDbEntity
  8
0
100
AcDbLine
 62
7
  6
BYLAYER
 10
184.7286430794
 20
188.4116332372
 11
183.6286430794
 21
188.4116332372
  0
LINE
  5
2F0
100
AcDbEntity
  8
0
100
AcDbLine
 62
7
  6
BYLAYER
 10
182.8286430794
 20
188.4116332372
 11
181.7286430794
 21
188.4116332372
  0
LINE
  5
2F1
100
AcDbEntity
  8
0
100
AcDbLine
 62
7
  6
BYLAYER
 10
37.0795121909
 20
188.4116332372
 11
35.9795121909
 21
188.4116332372
  0
LINE
  5
2F2
100
AcDbEntity
  8
0
100
AcDbLine
 62
7
  6
BYLAYER
 10
35.1795121909
 20
188.4116332372
 11
34.0795121909
 21
188.4116332372
  0
LINE
  5
2F3
100
AcDbEntity
  8
0
100
AcDbLine
 62
7
  6
BYLAYER
 10
38.8795099532
 20
188.8111463211
 11
40.079512188
 21
188.8111463211
  0
LINE
  5
2F4
100
AcDbEntity
  8
0
100
AcDbLine
 62
7
  6
BYLAYER
 10
48.579512188
 20
188.8111463211
 11
63.579512188
 21
188.8111463211
  0
LINE
  5
2F5
100
AcDbEntity
  8
0
100
AcDbLine
 62
7
  6
BYLAYER
 10
72.079512188
 20
188.8111463211
 11
73.279512188
 21
188.8111463211
  0
LINE
  5
2F6
100
AcDbEntity
  8
0
100
AcDbLine
 62
7
  6
BYLAYER
 10
186.5286408417
 20
188.8111463211
 11
187.7286430765
 21
188.8111463211
  0
LINE
  5
2F7
100
AcDbEntity
  8
0
100
AcDbLine
 62
7
  6
BYLAYER
 10
196.2286430765
 20
188.8111463211
 11
211.2286430765
 21
188.8111463211
  0
LINE
  5
2F8
100
AcDbEntity
  8
0
100
AcDbLine
 62
7
  6
BYLAYER
 10
219.7286430765
 20
188.8111463211
 11
220.9286430765
 21
188.8111463211
  0
LINE
  5
2F9
100
AcDbEntity
  8
0
100
AcDbLine
 62
7
  6
BYLAYER
 10
75.079512188
 20
189.2111463211
 11
76.179512188
 21
189.2111463211
  0
LINE
  5
2FA
100
AcDbEntity
  8
0
100
AcDbLine
 62
7
  6
BYLAYER
 10
76.979512188
 20
189.2111463211
 11
78.079512188
 21
189.2111463211
  0
LINE
  5
2FB
100
AcDbEntity
  8
0
100
AcDbLine
 62
7
  6
BYLAYER
 10
222.7286430765
 20
189.2111463211
 11
223.8286430765
 21
189.2111463211
  0
LINE
  5
2FC
100
AcDbEntity
  8
0
100
AcDbLine
 62
7
  6
BYLAYER
 10
224.6286430765
 20
189.2111463211
 11
225.7286430765
 21
189.2111463211
  0
LINE
  5
2FD
100
AcDbEntity
  8
0
100
AcDbLine
 62
7
  6
BYLAYER
 10
34.0795121909
 20
189.2116332372
 11
35.1795121909
 21
189.2116332372
  0
LINE
  5
2FE
100
AcDbEntity
  8
0
100
AcDbLine
 62
7
  6
BYLAYER
 10
35.9795121909
 20
189.2116332372
 11
37.0795121909
 21
189.2116332372
  0
LINE
  5
2FF
100
AcDbEntity
  8
0
100
AcDbLine
 62
7
  6
BYLAYER
 10
181.7286430794
 20
189.2116332372
 11
182.8286430794
 21
189.2116332372
  0
LINE
  5
300
100
AcDbEntity
  8
0
100
AcDbLine
 62
7
  6
BYLAYER
 10
183.6286430794
 20
189.2116332372
 11
184.7286430794
 21
189.2116332372
  0
LINE
  5
301
100
AcDbEntity
  8
0
100
AcDbLine
 62
7
  6
BYLAYER
 10
211.2286430765
 20
189.3111463211
 11
196.2286430765
 21
189.3111463211
  0
LINE
  5
302
100
AcDbEntity
  8
0
100
AcDbLine
 62
7
  6
BYLAYER
 10
63.579512188
 20
189.3111463211
 11
48.579512188
 21
189.3111463211
  0
LINE
  5
303
100
AcDbEntity
  8
0
100
AcDbLine
 62
7
  6
BYLAYER
 10
76.179512188
 20
190.3111463211
 11
76.979512188
 21
190.3111463211
  0
LINE
  5
304
100
AcDbEntity
  8
0
100
AcDbLine
 62
7
  6
BYLAYER
 10
223.8286430765
 20
190.3111463211
 11
224.6286430765
 21
190.3111463211
  0
LINE
  5
305
100
AcDbEntity
  8
0
100
AcDbLine
 62
7
  6
BYLAYER
 10
35.1795121909
 20
190.3116332372
 11
35.9795121909
 21
190.3116332372
  0
LINE
  5
306
100
AcDbEntity
  8
0
100
AcDbLine
 62
7
  6
BYLAYER
 10
182.8286430794
 20
190.3116332372
 11
183.6286430794
 21
190.3116332372
  0
LINE
  5
307
100
AcDbEntity
  8
0
100
AcDbLine
 62
7
  6
BYLAYER
 10
31.079512188
 20
191.8111462486
 11
34.2592616782
 21
191.8111463211
  0
LINE
  5
308
100
AcDbEntity
  8
0
100
AcDbLine
 62
7
  6
BYLAYER
 10
77.9260956019
 20
191.8111463211
 11
81.079512188
 21
191.8111462483
  0
LINE
  5
309
100
AcDbEntity
  8
0
100
AcDbLine
 62
7
  6
BYLAYER
 10
178.7286430765
 20
191.8111462486
 11
181.9083925667
 21
191.8111463211
  0
LINE
  5
30A
100
AcDbEntity
  8
0
100
AcDbLine
 62
7
  6
BYLAYER
 10
225.5752264904
 20
191.8111463211
 11
228.7286430765
 21
191.8111462483
  0
LINE
  5
30B
100
AcDbEntity
  8
0
100
AcDbLine
 62
7
  6
BYLAYER
 10
32.079512188
 20
192.3111463211
 11
35.579512188
 21
192.3111463211
  0
LINE
  5
30C
100
AcDbEntity
  8
0
100
AcDbLine
 62
7
  6
BYLAYER
 10
76.579512188
 20
192.3111463211
 11
80.079512188
 21
192.3111463211
  0
LINE
  5
30D
100
AcDbEntity
  8
0
100
AcDbLine
 62
7
  6
BYLAYER
 10
179.7286430765
 20
192.3111463211
 11
183.2286430765
 21
192.3111463211
  0
LINE
  5
30E
100
AcDbEntity
  8
0
100
AcDbLine
 62
7
  6
BYLAYER
 10
224.2286430765
 20
192.3111463211
 11
227.7286430765
 21
192.3111463211
  0
LINE
  5
30F
100
AcDbEntity
  8
0
100
AcDbLine
 62
7
  6
BYLAYER
 10
228.7286430765
 20
193.3111463211
 11
224.2286430765
 21
193.3111463211
  0
LINE
  5
310
100
AcDbEntity
  8
0
100
AcDbLine
 62
7
  6
BYLAYER
 10
183.2286430765
 20
193.3111463211
 11
178.7286430765
 21
193.3111463211
  0
LINE
  5
311
100
AcDbEntity
  8
0
100
AcDbLine
 62
7
  6
BYLAYER
 10
81.079512188
 20
193.3111463211
 11
76.579512188
 21
193.3111463211
  0
LINE
  5
312
100
AcDbEntity
  8
0
100
AcDbLine
 62
7
  6
BYLAYER
 10
35.579512188
 20
193.3111463211
 11
31.079512188
 21
193.3111463211
  0
LINE
  5
313
100
AcDbEntity
  8
0
100
AcDbLine
 62
7
  6
BYLAYER
 10
80.0795092668
 20
216.8111483554
 11
81.079512188
 21
216.3111468619
  0
LINE
  5
314
100
AcDbEntity
  8
0
100
AcDbLine
 62
7
  6
BYLAYER
 10
55.5802221342
 20
199.7939600305
 11
54.9749269218
 21
199.7952010327
  0
LINE
  5
315
100
AcDbEntity
  8
0
100
AcDbLine
 62
7
  6
BYLAYER
 10
38.5802578638
 20
199.8288140861
 11
39.1855530763
 21
199.8275730839
  0
LINE
  5
316
100
AcDbEntity
  8
0
100
AcDbLine
 62
7
  6
BYLAYER
 10
73.5802221342
 20
199.7939600305
 11
72.9747287466
 21
199.795201439
  0
LINE
  5
317
100
AcDbEntity
  8
0
100
AcDbLine
 62
7
  6
BYLAYER
 10
56.5802578638
 20
199.8288140861
 11
57.1857512514
 21
199.8275726776
  0
LINE
  5
318
100
AcDbEntity
  8
0
100
AcDbLine
 62
7
  6
BYLAYER
 10
203.2293530227
 20
199.7939600305
 11
202.6240578103
 21
199.7952010327
  0
LINE
  5
319
100
AcDbEntity
  8
0
100
AcDbLine
 62
7
  6
BYLAYER
 10
186.2293887523
 20
199.8288140861
 11
186.8346839648
 21
199.8275730839
  0
LINE
  5
31A
100
AcDbEntity
  8
0
100
AcDbLine
 62
7
  6
BYLAYER
 10
221.2293530227
 20
199.7939600305
 11
220.6238596351
 21
199.795201439
  0
LINE
  5
31B
100
AcDbEntity
  8
0
100
AcDbLine
 62
7
  6
BYLAYER
 10
204.2293887523
 20
199.8288140861
 11
204.83488214
 21
199.8275726776
  0
LINE
  5
31C
100
AcDbEntity
  8
0
100
AcDbLine
 62
7
  6
BYLAYER
 10
228.7286430765
 20
207.3111448979
 11
227.7286402139
 21
206.8111433803
  0
LINE
  5
31D
100
AcDbEntity
  8
0
100
AcDbLine
 62
7
  6
BYLAYER
 10
33.579512188
 20
203.3111463211
 11
35.079512188
 21
203.3111463211
  0
LINE
  5
31E
100
AcDbEntity
  8
0
100
AcDbLine
 62
7
  6
BYLAYER
 10
77.079512188
 20
203.3111463211
 11
78.579512188
 21
203.3111463211
  0
LINE
  5
31F
100
AcDbEntity
  8
0
100
AcDbLine
 62
7
  6
BYLAYER
 10
181.2286430765
 20
203.3111463211
 11
182.7286430765
 21
203.3111463211
  0
LINE
  5
320
100
AcDbEntity
  8
0
100
AcDbLine
 62
7
  6
BYLAYER
 10
224.7286430765
 20
203.3111463211
 11
226.2286430765
 21
203.3111463211
  0
LINE
  5
321
100
AcDbEntity
  8
0
100
AcDbLine
 62
7
  6
BYLAYER
 10
226.2286430765
 20
203.8111463211
 11
224.7286430765
 21
203.8111463211
  0
LINE
  5
322
100
AcDbEntity
  8
0
100
AcDbLine
 62
7
  6
BYLAYER
 10
182.7286430765
 20
203.8111463211
 11
181.2286430765
 21
203.8111463211
  0
LINE
  5
323
100
AcDbEntity
  8
0
100
AcDbLine
 62
7
  6
BYLAYER
 10
78.579512188
 20
203.8111463211
 11
77.079512188
 21
203.8111463211
  0
LINE
  5
324
100
AcDbEntity
  8
0
100
AcDbLine
 62
7
  6
BYLAYER
 10
35.079512188
 20
203.8111463211
 11
33.579512188
 21
203.8111463211
  0
LINE
  5
325
100
AcDbEntity
  8
0
100
AcDbLine
 62
7
  6
BYLAYER
 10
227.2286430765
 20
204.3111463211
 11
226.7286430765
 21
204.3111463211
  0
LINE
  5
326
100
AcDbEntity
  8
0
100
AcDbLine
 62
7
  6
BYLAYER
 10
224.2286430765
 20
204.3111463211
 11
223.7286430765
 21
204.3111463211
  0
LINE
  5
327
100
AcDbEntity
  8
0
100
AcDbLine
 62
7
  6
BYLAYER
 10
183.7286430765
 20
204.3111463211
 11
183.2286430765
 21
204.3111463211
  0
LINE
  5
328
100
AcDbEntity
  8
0
100
AcDbLine
 62
7
  6
BYLAYER
 10
180.7286430765
 20
204.3111463211
 11
180.2286430765
 21
204.3111463211
  0
LINE
  5
329
100
AcDbEntity
  8
0
100
AcDbLine
 62
7
  6
BYLAYER
 10
79.579512188
 20
204.3111463211
 11
79.079512188
 21
204.3111463211
  0
LINE
  5
32A
100
AcDbEntity
  8
0
100
AcDbLine
 62
7
  6
BYLAYER
 10
76.579512188
 20
204.3111463211
 11
76.079512188
 21
204.3111463211
  0
LINE
  5
32B
100
AcDbEntity
  8
0
100
AcDbLine
 62
7
  6
BYLAYER
 10
36.079512188
 20
204.3111463211
 11
35.579512188
 21
204.3111463211
  0
LINE
  5
32C
100
AcDbEntity
  8
0
100
AcDbLine
 62
7
  6
BYLAYER
 10
33.079512188
 20
204.3111463211
 11
32.579512188
 21
204.3111463211
  0
LINE
  5
32D
100
AcDbEntity
  8
0
100
AcDbLine
 62
7
  6
BYLAYER
 10
79.579512188
 20
206.8111463211
 11
80.0794948329
 21
206.8111289772
  0
LINE
  5
32E
100
AcDbEntity
  8
0
100
AcDbLine
 62
7
  6
BYLAYER
 10
32.579512188
 20
206.8111463211
 11
33.079512188
 21
206.8111463211
  0
LINE
  5
32F
100
AcDbEntity
  8
0
100
AcDbLine
 62
7
  6
BYLAYER
 10
79.079512188
 20
206.8111463211
 11
79.579512188
 21
206.8111463211
  0
LINE
  5
330
100
AcDbEntity
  8
0
100
AcDbLine
 62
7
  6
BYLAYER
 10
179.7286588498
 20
206.8111305576
 11
180.7286430765
 21
206.8111463211
  0
LINE
  5
331
100
AcDbEntity
  8
0
100
AcDbLine
 62
7
  6
BYLAYER
 10
226.7286430765
 20
206.8111463211
 11
227.2286430765
 21
206.8111463211
  0
LINE
  5
332
100
AcDbEntity
  8
0
100
AcDbLine
 62
7
  6
BYLAYER
 10
227.2286430765
 20
206.8111463211
 11
227.7286257214
 21
206.8111289772
  0
LINE
  5
333
100
AcDbEntity
  8
0
100
AcDbLine
 62
7
  6
BYLAYER
 10
32.0795279613
 20
206.8111305576
 11
32.579512188
 21
206.8111463211
  0
LINE
  5
334
100
AcDbEntity
  8
0
100
AcDbLine
 62
7
  6
BYLAYER
 10
228.2286430765
 20
207.8111463211
 11
227.2286430765
 21
207.8111463211
  0
LINE
  5
335
100
AcDbEntity
  8
0
100
AcDbLine
 62
7
  6
BYLAYER
 10
180.2286430765
 20
207.8111463211
 11
179.2286430765
 21
207.8111463211
  0
LINE
  5
336
100
AcDbEntity
  8
0
100
AcDbLine
 62
7
  6
BYLAYER
 10
80.579512188
 20
207.8111463211
 11
79.579512188
 21
207.8111463211
  0
LINE
  5
337
100
AcDbEntity
  8
0
100
AcDbLine
 62
7
  6
BYLAYER
 10
32.579512188
 20
207.8111463211
 11
31.579512188
 21
207.8111463211
  0
LINE
  5
338
100
AcDbEntity
  8
0
100
AcDbLine
 62
7
  6
BYLAYER
 10
31.5067735923
 20
233.6456650449
 11
31.4642727116
 21
233.6578081537
  0
LINE
  5
339
100
AcDbEntity
  8
0
100
AcDbLine
 62
7
  6
BYLAYER
 10
32.5873451905
 20
233.9485068851
 11
31.6258212428
 21
234.223228013
  0
LINE
  5
33A
100
AcDbEntity
  8
0
100
AcDbLine
 62
7
  6
BYLAYER
 10
32.6650671182
 20
237.8605885769
 11
33.6265910659
 21
237.585867449
  0
LINE
  5
33B
100
AcDbEntity
  8
0
100
AcDbLine
 62
7
  6
BYLAYER
 10
75.5267257835
 20
238.2055735121
 11
76.4211529745
 21
237.7583599166
  0
LINE
  5
33C
100
AcDbEntity
  8
0
100
AcDbLine
 62
7
  6
BYLAYER
 10
180.3141980067
 20
237.8605885769
 11
179.1134036001
 21
233.6578081537
  0
LINE
  5
33D
100
AcDbEntity
  8
0
100
AcDbLine
 62
7
  6
BYLAYER
 10
181.2757219544
 20
237.585867449
 11
180.236476079
 21
233.9485068851
  0
LINE
  5
33E
100
AcDbEntity
  8
0
100
AcDbLine
 62
7
  6
BYLAYER
 10
179.2286336293
 20
215.8111463211
 11
179.7286517595
 21
216.8111463211
  0
LINE
  5
33F
100
AcDbEntity
  8
0
100
AcDbLine
 62
7
  6
BYLAYER
 10
31.579512188
 20
215.8111463211
 11
32.579512188
 21
215.8111463211
  0
LINE
  5
340
100
AcDbEntity
  8
0
100
AcDbLine
 62
7
  6
BYLAYER
 10
79.579512188
 20
215.8111463211
 11
80.579512188
 21
215.8111463211
  0
LINE
  5
341
100
AcDbEntity
  8
0
100
AcDbLine
 62
7
  6
BYLAYER
 10
179.2286430765
 20
215.8111463211
 11
180.2286430765
 21
215.8111463211
  0
LINE
  5
342
100
AcDbEntity
  8
0
100
AcDbLine
 62
7
  6
BYLAYER
 10
227.2286430765
 20
215.8111463211
 11
228.2286430765
 21
215.8111463211
  0
LINE
  5
343
100
AcDbEntity
  8
0
100
AcDbLine
 62
7
  6
BYLAYER
 10
32.579512188
 20
216.8111463211
 11
32.0795295432
 21
216.8111636651
  0
LINE
  5
344
100
AcDbEntity
  8
0
100
AcDbLine
 62
7
  6
BYLAYER
 10
227.7286273032
 20
216.8111620847
 11
227.2286430765
 21
216.8111463211
  0
LINE
  5
345
100
AcDbEntity
  8
0
100
AcDbLine
 62
7
  6
BYLAYER
 10
227.2286430765
 20
216.8111463211
 11
226.7286430765
 21
216.8111463211
  0
LINE
  5
346
100
AcDbEntity
  8
0
100
AcDbLine
 62
7
  6
BYLAYER
 10
180.7286430765
 20
216.8111463211
 11
180.2286430765
 21
216.8111463211
  0
LINE
  5
347
100
AcDbEntity
  8
0
100
AcDbLine
 62
7
  6
BYLAYER
 10
79.579512188
 20
216.8111463211
 11
79.079512188
 21
216.8111463211
  0
LINE
  5
348
100
AcDbEntity
  8
0
100
AcDbLine
 62
7
  6
BYLAYER
 10
33.079512188
 20
216.8111463211
 11
32.579512188
 21
216.8111463211
  0
LINE
  5
349
100
AcDbEntity
  8
0
100
AcDbLine
 62
7
  6
BYLAYER
 10
180.2286430765
 20
216.8111463211
 11
179.7286604317
 21
216.8111636651
  0
LINE
  5
34A
100
AcDbEntity
  8
0
100
AcDbLine
 62
7
  6
BYLAYER
 10
80.0794964147
 20
216.8111620847
 11
79.579512188
 21
216.8111463211
  0
LINE
  5
34B
100
AcDbEntity
  8
0
100
AcDbLine
 62
7
  6
BYLAYER
 10
75.1322796626
 20
237.4166812704
 11
76.079513054
 21
237.0750800756
  0
LINE
  5
34C
100
AcDbEntity
  8
0
100
AcDbLine
 62
7
  6
BYLAYER
 10
199.7286430765
 20
184.8111368739
 11
198.7286430765
 21
185.3111550041
  0
LINE
  5
34D
100
AcDbEntity
  8
0
100
AcDbLine
 62
7
  6
BYLAYER
 10
207.7286430765
 20
184.8111376242
 11
208.7286430765
 21
185.3111542125
  0
LINE
  5
34E
100
AcDbEntity
  8
0
100
AcDbLine
 62
7
  6
BYLAYER
 10
32.579512188
 20
219.3111463211
 11
33.079512188
 21
219.3111463211
  0
LINE
  5
34F
100
AcDbEntity
  8
0
100
AcDbLine
 62
7
  6
BYLAYER
 10
35.579512188
 20
219.3111463211
 11
36.079512188
 21
219.3111463211
  0
LINE
  5
350
100
AcDbEntity
  8
0
100
AcDbLine
 62
7
  6
BYLAYER
 10
76.079512188
 20
219.3111463211
 11
76.579512188
 21
219.3111463211
  0
LINE
  5
351
100
AcDbEntity
  8
0
100
AcDbLine
 62
7
  6
BYLAYER
 10
79.079512188
 20
219.3111463211
 11
79.579512188
 21
219.3111463211
  0
LINE
  5
352
100
AcDbEntity
  8
0
100
AcDbLine
 62
7
  6
BYLAYER
 10
180.2286430765
 20
219.3111463211
 11
180.7286430765
 21
219.3111463211
  0
LINE
  5
353
100
AcDbEntity
  8
0
100
AcDbLine
 62
7
  6
BYLAYER
 10
183.2286430765
 20
219.3111463211
 11
183.7286430765
 21
219.3111463211
  0
LINE
  5
354
100
AcDbEntity
  8
0
100
AcDbLine
 62
7
  6
BYLAYER
 10
223.7286430765
 20
219.3111463211
 11
224.2286430765
 21
219.3111463211
  0
LINE
  5
355
100
AcDbEntity
  8
0
100
AcDbLine
 62
7
  6
BYLAYER
 10
226.7286430765
 20
219.3111463211
 11
227.2286430765
 21
219.3111463211
  0
LINE
  5
356
100
AcDbEntity
  8
0
100
AcDbLine
 62
7
  6
BYLAYER
 10
33.579512188
 20
219.8111463211
 11
35.079512188
 21
219.8111463211
  0
LINE
  5
357
100
AcDbEntity
  8
0
100
AcDbLine
 62
7
  6
BYLAYER
 10
77.079512188
 20
219.8111463211
 11
78.579512188
 21
219.8111463211
  0
LINE
  5
358
100
AcDbEntity
  8
0
100
AcDbLine
 62
7
  6
BYLAYER
 10
181.2286430765
 20
219.8111463211
 11
182.7286430765
 21
219.8111463211
  0
LINE
  5
359
100
AcDbEntity
  8
0
100
AcDbLine
 62
7
  6
BYLAYER
 10
224.7286430765
 20
219.8111463211
 11
226.2286430765
 21
219.8111463211
  0
LINE
  5
35A
100
AcDbEntity
  8
0
100
AcDbLine
 62
7
  6
BYLAYER
 10
226.2286430765
 20
220.3111463211
 11
224.7286430765
 21
220.3111463211
  0
LINE
  5
35B
100
AcDbEntity
  8
0
100
AcDbLine
 62
7
  6
BYLAYER
 10
182.7286430765
 20
220.3111463211
 11
181.2286430765
 21
220.3111463211
  0
LINE
  5
35C
100
AcDbEntity
  8
0
100
AcDbLine
 62
7
  6
BYLAYER
 10
78.579512188
 20
220.3111463211
 11
77.079512188
 21
220.3111463211
  0
LINE
  5
35D
100
AcDbEntity
  8
0
100
AcDbLine
 62
7
  6
BYLAYER
 10
35.079512188
 20
220.3111463211
 11
33.579512188
 21
220.3111463211
  0
LINE
  5
35E
100
AcDbEntity
  8
0
100
AcDbLine
 62
7
  6
BYLAYER
 10
31.079512188
 20
224.3111463211
 11
34.579512188
 21
224.3111463211
  0
LINE
  5
35F
100
AcDbEntity
  8
0
100
AcDbLine
 62
7
  6
BYLAYER
 10
77.579512188
 20
224.3111463211
 11
81.079512188
 21
224.3111463211
  0
LINE
  5
360
100
AcDbEntity
  8
0
100
AcDbLine
 62
7
  6
BYLAYER
 10
178.7286430765
 20
224.3111463211
 11
182.2286430765
 21
224.3111463211
  0
LINE
  5
361
100
AcDbEntity
  8
0
100
AcDbLine
 62
7
  6
BYLAYER
 10
225.2286430765
 20
224.3111463211
 11
228.7286430765
 21
224.3111463211
  0
LINE
  5
362
100
AcDbEntity
  8
0
100
AcDbLine
 62
7
  6
BYLAYER
 10
227.7286430765
 20
225.3111463211
 11
225.2286430765
 21
225.3111463211
  0
LINE
  5
363
100
AcDbEntity
  8
0
100
AcDbLine
 62
7
  6
BYLAYER
 10
182.2286430765
 20
225.3111463211
 11
179.7286430765
 21
225.3111463211
  0
LINE
  5
364
100
AcDbEntity
  8
0
100
AcDbLine
 62
7
  6
BYLAYER
 10
80.079512188
 20
225.3111463211
 11
77.579512188
 21
225.3111463211
  0
LINE
  5
365
100
AcDbEntity
  8
0
100
AcDbLine
 62
7
  6
BYLAYER
 10
34.579512188
 20
225.3111463211
 11
32.079512188
 21
225.3111463211
  0
LINE
  5
366
100
AcDbEntity
  8
0
100
AcDbLine
 62
7
  6
BYLAYER
 10
228.7286430765
 20
225.8111463886
 11
226.5486276542
 21
225.8111463211
  0
LINE
  5
367
100
AcDbEntity
  8
0
100
AcDbLine
 62
7
  6
BYLAYER
 10
180.8832674485
 20
225.8111463211
 11
178.7286430765
 21
225.811146394
  0
LINE
  5
368
100
AcDbEntity
  8
0
100
AcDbLine
 62
7
  6
BYLAYER
 10
81.079512188
 20
225.8111463886
 11
78.8994967657
 21
225.8111463211
  0
LINE
  5
369
100
AcDbEntity
  8
0
100
AcDbLine
 62
7
  6
BYLAYER
 10
33.23413656
 20
225.8111463211
 11
31.079512188
 21
225.811146394
  0
LINE
  5
36A
100
AcDbEntity
  8
0
100
AcDbLine
 62
7
  6
BYLAYER
 10
55.5802221342
 20
222.2939600305
 11
54.9750143773
 21
222.2952008534
  0
LINE
  5
36B
100
AcDbEntity
  8
0
100
AcDbLine
 62
7
  6
BYLAYER
 10
38.5802578638
 20
222.3288140861
 11
39.1854656207
 21
222.3275732632
  0
LINE
  5
36C
100
AcDbEntity
  8
0
100
AcDbLine
 62
7
  6
BYLAYER
 10
73.5802221342
 20
222.2939600305
 11
72.9750143773
 21
222.2952008534
  0
LINE
  5
36D
100
AcDbEntity
  8
0
100
AcDbLine
 62
7
  6
BYLAYER
 10
56.5802578638
 20
222.3288140861
 11
57.1854656207
 21
222.3275732632
  0
LINE
  5
36E
100
AcDbEntity
  8
0
100
AcDbLine
 62
7
  6
BYLAYER
 10
203.2293530227
 20
222.2939600305
 11
202.6241452659
 21
222.2952008534
  0
LINE
  5
36F
100
AcDbEntity
  8
0
100
AcDbLine
 62
7
  6
BYLAYER
 10
186.2293887523
 20
222.3288140861
 11
186.8345965092
 21
222.3275732632
  0
LINE
  5
370
100
AcDbEntity
  8
0
100
AcDbLine
 62
7
  6
BYLAYER
 10
221.2293530227
 20
222.2939600305
 11
220.6241452659
 21
222.2952008534
  0
LINE
  5
371
100
AcDbEntity
  8
0
100
AcDbLine
 62
7
  6
BYLAYER
 10
204.2293887523
 20
222.3288140861
 11
204.8345965092
 21
222.3275732632
  0
LINE
  5
372
100
AcDbEntity
  8
0
100
AcDbLine
 62
7
  6
BYLAYER
 10
179.7286430765
 20
206.8111384444
 11
178.7286430765
 21
207.3111335493
  0
LINE
  5
373
100
AcDbEntity
  8
0
100
AcDbLine
 62
7
  6
BYLAYER
 10
178.7286430765
 20
207.3111463211
 11
178.7286430765
 21
188.3111463211
  0
LINE
  5
374
100
AcDbEntity
  8
0
100
AcDbLine
 62
7
  6
BYLAYER
 10
178.7286430765
 20
216.3111463211
 11
178.7286430765
 21
230.9105968747
  0
LINE
  5
375
100
AcDbEntity
  8
0
100
AcDbLine
 62
7
  6
BYLAYER
 10
179.2286430765
 20
188.3111463211
 11
179.2286430767
 21
191.8111463211
  0
LINE
  5
376
100
AcDbEntity
  8
0
100
AcDbLine
 62
7
  6
BYLAYER
 10
179.2286430767
 20
225.8111463211
 11
179.2286430766
 21
227.4796024361
  0
LINE
  5
377
100
AcDbEntity
  8
0
100
AcDbLine
 62
7
  6
BYLAYER
 10
179.2286430765
 20
230.1718959619
 11
179.2286430765
 21
230.9105968747
  0
LINE
  5
378
100
AcDbEntity
  8
0
100
AcDbLine
 62
7
  6
BYLAYER
 10
179.7286430765
 20
192.3111463211
 11
179.7286588498
 21
206.8111305576
  0
LINE
  5
379
100
AcDbEntity
  8
0
100
AcDbLine
 62
7
  6
BYLAYER
 10
179.7286604317
 20
216.8111636651
 11
179.7286430765
 21
225.3111463211
  0
LINE
  5
37A
100
AcDbEntity
  8
0
100
AcDbLine
 62
7
  6
BYLAYER
 10
180.2286430765
 20
219.3111463211
 11
180.2286430765
 21
215.8111463211
  0
LINE
  5
37B
100
AcDbEntity
  8
0
100
AcDbLine
 62
7
  6
BYLAYER
 10
180.2286430765
 20
207.8111463211
 11
180.2286430765
 21
204.3111463211
  0
LINE
  5
37C
100
AcDbEntity
  8
0
100
AcDbLine
 62
7
  6
BYLAYER
 10
180.7172380528
 20
231.8111463211
 11
180.7172380528
 21
233.3111463211
  0
LINE
  5
37D
100
AcDbEntity
  8
0
100
AcDbLine
 62
7
  6
BYLAYER
 10
180.7286430765
 20
204.3111463211
 11
180.7286430765
 21
207.3111463211
  0
LINE
  5
37E
100
AcDbEntity
  8
0
100
AcDbLine
 62
7
  6
BYLAYER
 10
180.7286430765
 20
216.3111463211
 11
180.7286430765
 21
219.3111463211
  0
LINE
  5
37F
100
AcDbEntity
  8
0
100
AcDbLine
 62
7
  6
BYLAYER
 10
180.7291181195
 20
228.4116451103
 11
180.7291181195
 21
229.2116451103
  0
LINE
  5
380
100
AcDbEntity
  8
0
100
AcDbLine
 62
7
  6
BYLAYER
 10
181.2286430765
 20
203.3111463211
 11
181.2286430765
 21
203.8111463211
  0
LINE
  5
381
100
AcDbEntity
  8
0
100
AcDbLine
 62
7
  6
BYLAYER
 10
181.2286430765
 20
219.8111463211
 11
181.2286430765
 21
220.3111463211
  0
LINE
  5
382
100
AcDbEntity
  8
0
100
AcDbLine
 62
7
  6
BYLAYER
 10
181.7286430794
 20
188.4116332372
 11
181.7286430794
 21
189.2116332372
  0
LINE
  5
383
100
AcDbEntity
  8
0
100
AcDbLine
 62
7
  6
BYLAYER
 10
181.8291181195
 20
227.3116451103
 11
181.8291181195
 21
228.4116451103
  0
LINE
  5
384
100
AcDbEntity
  8
0
100
AcDbLine
 62
7
  6
BYLAYER
 10
181.8291181195
 20
229.2116451103
 11
181.8291181195
 21
230.3116451103
  0
LINE
  5
385
100
AcDbEntity
  8
0
100
AcDbLine
 62
7
  6
BYLAYER
 10
182.2286430765
 20
233.3111463211
 11
182.2286430765
 21
232.1029262981
  0
LINE
  5
386
100
AcDbEntity
  8
0
100
AcDbLine
 62
7
  6
BYLAYER
 10
182.2286430765
 20
225.5201902122
 11
182.2286430765
 21
224.3111463211
  0
LINE
  5
387
100
AcDbEntity
  8
0
100
AcDbLine
 62
7
  6
BYLAYER
 10
182.237245902
 20
238.3111463211
 11
182.237245902
 21
239.3111463211
  0
LINE
  5
388
100
AcDbEntity
  8
0
100
AcDbLine
 62
7
  6
BYLAYER
 10
182.492575099
 20
239.3111463211
 11
182.492575099
 21
238.3111463211
  0
LINE
  5
389
100
AcDbEntity
  8
0
100
AcDbLine
 62
7
  6
BYLAYER
 10
182.6291181195
 20
230.3116451103
 11
182.6291181195
 21
229.2116451103
  0
LINE
  5
38A
100
AcDbEntity
  8
0
100
AcDbLine
 62
7
  6
BYLAYER
 10
182.6291181195
 20
228.4116451103
 11
182.6291181195
 21
227.3116451103
  0
LINE
  5
38B
100
AcDbEntity
  8
0
100
AcDbLine
 62
7
  6
BYLAYER
 10
184.7286430765
 20
237.1931125642
 11
183.7286430765
 21
237.0750764086
  0
LINE
  5
38C
100
AcDbEntity
  8
0
100
AcDbLine
 62
7
  6
BYLAYER
 10
225.6291181165
 20
227.3111344423
 11
224.8291181165
 21
227.3111344423
  0
LINE
  5
38D
100
AcDbEntity
  8
0
100
AcDbLine
 62
7
  6
BYLAYER
 10
77.979987228
 20
227.3111344423
 11
77.179987228
 21
227.3111344423
  0
LINE
  5
38E
100
AcDbEntity
  8
0
100
AcDbLine
 62
7
  6
BYLAYER
 10
182.6291181195
 20
227.3116451103
 11
181.8291181195
 21
227.3116451103
  0
LINE
  5
38F
100
AcDbEntity
  8
0
100
AcDbLine
 62
7
  6
BYLAYER
 10
34.979987231
 20
227.3116451103
 11
34.179987231
 21
227.3116451103
  0
LINE
  5
390
100
AcDbEntity
  8
0
100
AcDbLine
 62
7
  6
BYLAYER
 10
226.7291181165
 20
228.4111344423
 11
225.6291181165
 21
228.4111344423
  0
LINE
  5
391
100
AcDbEntity
  8
0
100
AcDbLine
 62
7
  6
BYLAYER
 10
224.8291181165
 20
228.4111344423
 11
223.7291181165
 21
228.4111344423
  0
LINE
  5
392
100
AcDbEntity
  8
0
100
AcDbLine
 62
7
  6
BYLAYER
 10
79.079987228
 20
228.4111344423
 11
77.979987228
 21
228.4111344423
  0
LINE
  5
393
100
AcDbEntity
  8
0
100
AcDbLine
 62
7
  6
BYLAYER
 10
77.179987228
 20
228.4111344423
 11
76.079987228
 21
228.4111344423
  0
LINE
  5
394
100
AcDbEntity
  8
0
100
AcDbLine
 62
7
  6
BYLAYER
 10
183.7291181195
 20
228.4116451103
 11
182.6291181195
 21
228.4116451103
  0
LINE
  5
395
100
AcDbEntity
  8
0
100
AcDbLine
 62
7
  6
BYLAYER
 10
181.8291181195
 20
228.4116451103
 11
180.7291181195
 21
228.4116451103
  0
LINE
  5
396
100
AcDbEntity
  8
0
100
AcDbLine
 62
7
  6
BYLAYER
 10
36.079987231
 20
228.4116451103
 11
34.979987231
 21
228.4116451103
  0
LINE
  5
397
100
AcDbEntity
  8
0
100
AcDbLine
 62
7
  6
BYLAYER
 10
34.179987231
 20
228.4116451103
 11
33.079987231
 21
228.4116451103
  0
LINE
  5
398
100
AcDbEntity
  8
0
100
AcDbLine
 62
7
  6
BYLAYER
 10
76.079987228
 20
229.2111344423
 11
77.179987228
 21
229.2111344423
  0
LINE
  5
399
100
AcDbEntity
  8
0
100
AcDbLine
 62
7
  6
BYLAYER
 10
77.979987228
 20
229.2111344423
 11
79.079987228
 21
229.2111344423
  0
LINE
  5
39A
100
AcDbEntity
  8
0
100
AcDbLine
 62
7
  6
BYLAYER
 10
223.7291181165
 20
229.2111344423
 11
224.8291181165
 21
229.2111344423
  0
LINE
  5
39B
100
AcDbEntity
  8
0
100
AcDbLine
 62
7
  6
BYLAYER
 10
225.6291181165
 20
229.2111344423
 11
226.7291181165
 21
229.2111344423
  0
LINE
  5
39C
100
AcDbEntity
  8
0
100
AcDbLine
 62
7
  6
BYLAYER
 10
33.079987231
 20
229.2116451103
 11
34.179987231
 21
229.2116451103
  0
LINE
  5
39D
100
AcDbEntity
  8
0
100
AcDbLine
 62
7
  6
BYLAYER
 10
34.979987231
 20
229.2116451103
 11
36.079987231
 21
229.2116451103
  0
LINE
  5
39E
100
AcDbEntity
  8
0
100
AcDbLine
 62
7
  6
BYLAYER
 10
180.7291181195
 20
229.2116451103
 11
181.8291181195
 21
229.2116451103
  0
LINE
  5
39F
100
AcDbEntity
  8
0
100
AcDbLine
 62
7
  6
BYLAYER
 10
182.6291181195
 20
229.2116451103
 11
183.7291181195
 21
229.2116451103
  0
LINE
  5
3A0
100
AcDbEntity
  8
0
100
AcDbLine
 62
7
  6
BYLAYER
 10
77.179987228
 20
230.3111344423
 11
77.979987228
 21
230.3111344423
  0
LINE
  5
3A1
100
AcDbEntity
  8
0
100
AcDbLine
 62
7
  6
BYLAYER
 10
224.8291181165
 20
230.3111344423
 11
225.6291181165
 21
230.3111344423
  0
LINE
  5
3A2
100
AcDbEntity
  8
0
100
AcDbLine
 62
7
  6
BYLAYER
 10
34.179987231
 20
230.3116451103
 11
34.979987231
 21
230.3116451103
  0
LINE
  5
3A3
100
AcDbEntity
  8
0
100
AcDbLine
 62
7
  6
BYLAYER
 10
181.8291181195
 20
230.3116451103
 11
182.6291181195
 21
230.3116451103
  0
LINE
  5
3A4
100
AcDbEntity
  8
0
100
AcDbLine
 62
7
  6
BYLAYER
 10
31.079512188
 20
230.9105968747
 11
31.579512188
 21
230.9105968747
  0
LINE
  5
3A5
100
AcDbEntity
  8
0
100
AcDbLine
 62
7
  6
BYLAYER
 10
80.579512188
 20
230.9105968747
 11
81.079512188
 21
230.9105968747
  0
LINE
  5
3A6
100
AcDbEntity
  8
0
100
AcDbLine
 62
7
  6
BYLAYER
 10
178.7286430765
 20
230.9105968747
 11
179.2286430765
 21
230.9105968747
  0
LINE
  5
3A7
100
AcDbEntity
  8
0
100
AcDbLine
 62
7
  6
BYLAYER
 10
228.2286430765
 20
230.9105968747
 11
228.7286430765
 21
230.9105968747
  0
LINE
  5
3A8
100
AcDbEntity
  8
0
100
AcDbLine
 62
7
  6
BYLAYER
 10
33.0681071643
 20
231.8111463211
 11
33.2597181982
 21
231.8111463211
  0
LINE
  5
3A9
100
AcDbEntity
  8
0
100
AcDbLine
 62
7
  6
BYLAYER
 10
78.9265531914
 20
231.8111463211
 11
79.0909172117
 21
231.8111463211
  0
LINE
  5
3AA
100
AcDbEntity
  8
0
100
AcDbLine
 62
7
  6
BYLAYER
 10
180.7172380528
 20
231.8111463211
 11
180.9088490867
 21
231.8111463211
  0
LINE
  5
3AB
100
AcDbEntity
  8
0
100
AcDbLine
 62
7
  6
BYLAYER
 10
226.5756840799
 20
231.8111463211
 11
226.7400481002
 21
231.8111463211
  0
LINE
  5
3AC
100
AcDbEntity
  8
0
100
AcDbLine
 62
7
  6
BYLAYER
 10
33.0681071643
 20
232.3111463211
 11
34.579512188
 21
232.3111463211
  0
LINE
  5
3AD
100
AcDbEntity
  8
0
100
AcDbLine
 62
7
  6
BYLAYER
 10
77.579512188
 20
232.3111463211
 11
79.0909172117
 21
232.3111463211
  0
LINE
  5
3AE
100
AcDbEntity
  8
0
100
AcDbLine
 62
7
  6
BYLAYER
 10
180.7172380528
 20
232.3111463211
 11
182.2286430765
 21
232.3111463211
  0
LINE
  5
3AF
100
AcDbEntity
  8
0
100
AcDbLine
 62
7
  6
BYLAYER
 10
225.2286430765
 20
232.3111463211
 11
226.7400481002
 21
232.3111463211
  0
LINE
  5
3B0
100
AcDbEntity
  8
0
100
AcDbLine
 62
7
  6
BYLAYER
 10
226.7400481002
 20
233.3111463211
 11
225.2286430765
 21
233.3111463211
  0
LINE
  5
3B1
100
AcDbEntity
  8
0
100
AcDbLine
 62
7
  6
BYLAYER
 10
182.2286430765
 20
233.3111463211
 11
180.7166895013
 21
233.3111463211
  0
LINE
  5
3B2
100
AcDbEntity
  8
0
100
AcDbLine
 62
7
  6
BYLAYER
 10
79.0909172117
 20
233.3111463211
 11
77.579512188
 21
233.3111463211
  0
LINE
  5
3B3
100
AcDbEntity
  8
0
100
AcDbLine
 62
7
  6
BYLAYER
 10
34.579512188
 20
233.3111463211
 11
33.0675586128
 21
233.3111463211
  0
LINE
  5
3B4
100
AcDbEntity
  8
0
100
AcDbLine
 62
7
  6
BYLAYER
 10
76.079512188
 20
237.0750764325
 11
75.079512188
 21
237.1931123324
  0
LINE
  5
3B5
100
AcDbEntity
  8
0
100
AcDbLine
 62
7
  6
BYLAYER
 10
182.7286430765
 20
220.3111463211
 11
182.7286430765
 21
219.8111463211
  0
LINE
  5
3B6
100
AcDbEntity
  8
0
100
AcDbLine
 62
7
  6
BYLAYER
 10
182.7286430765
 20
203.8111463211
 11
182.7286430765
 21
203.3111463211
  0
LINE
  5
3B7
100
AcDbEntity
  8
0
100
AcDbLine
 62
7
  6
BYLAYER
 10
182.7286430765
 20
184.3111463211
 11
182.7286430765
 21
184.8111463211
  0
LINE
  5
3B8
100
AcDbEntity
  8
0
100
AcDbLine
 62
7
  6
BYLAYER
 10
182.8286430794
 20
187.3116332372
 11
182.8286430794
 21
188.4116332372
  0
LINE
  5
3B9
100
AcDbEntity
  8
0
100
AcDbLine
 62
7
  6
BYLAYER
 10
182.8286430794
 20
189.2116332372
 11
182.8286430794
 21
190.3116332372
  0
LINE
  5
3BA
100
AcDbEntity
  8
0
100
AcDbLine
 62
7
  6
BYLAYER
 10
183.2286430765
 20
219.3111463211
 11
183.2286430765
 21
204.3111463211
  0
LINE
  5
3BB
100
AcDbEntity
  8
0
100
AcDbLine
 62
7
  6
BYLAYER
 10
183.2286430765
 20
193.3111463211
 11
183.2286430765
 21
192.1030012795
  0
LINE
  5
3BC
100
AcDbEntity
  8
0
100
AcDbLine
 62
7
  6
BYLAYER
 10
183.6286430794
 20
190.3116332372
 11
183.6286430794
 21
189.2116332372
  0
LINE
  5
3BD
100
AcDbEntity
  8
0
100
AcDbLine
 62
7
  6
BYLAYER
 10
183.6286430794
 20
188.4116332372
 11
183.6286430794
 21
187.3116332372
  0
LINE
  5
3BE
100
AcDbEntity
  8
0
100
AcDbLine
 62
7
  6
BYLAYER
 10
183.7286430765
 20
204.3111463211
 11
183.7286430765
 21
219.3111463211
  0
LINE
  5
3BF
100
AcDbEntity
  8
0
100
AcDbLine
 62
7
  6
BYLAYER
 10
183.7291181195
 20
229.2116451103
 11
183.7291181195
 21
228.4116451103
  0
LINE
  5
3C0
100
AcDbEntity
  8
0
100
AcDbLine
 62
7
  6
BYLAYER
 10
183.7286265708
 20
237.0750744603
 11
183.7286430765
 21
235.9611463211
  0
LINE
  5
3C1
100
AcDbEntity
  8
0
100
AcDbLine
 62
7
  6
BYLAYER
 10
184.7286430794
 20
189.2116332372
 11
184.7286430794
 21
188.4116332372
  0
LINE
  5
3C2
100
AcDbEntity
  8
0
100
AcDbLine
 62
7
  6
BYLAYER
 10
184.7286430765
 20
236.9611463211
 11
184.7286430765
 21
237.1931123324
  0
LINE
  5
3C3
100
AcDbEntity
  8
0
100
AcDbLine
 62
7
  6
BYLAYER
 10
186.2286430765
 20
187.4507047973
 11
186.2286430037
 21
184.3111463211
  0
LINE
  5
3C4
100
AcDbEntity
  8
0
100
AcDbLine
 62
7
  6
BYLAYER
 10
186.7286430765
 20
188.8111463211
 11
186.7286430765
 21
185.3111463211
  0
LINE
  5
3C5
100
AcDbEntity
  8
0
100
AcDbLine
 62
7
  6
BYLAYER
 10
187.7286430765
 20
184.3111463211
 11
187.7286430765
 21
188.8111463211
  0
LINE
  5
3C6
100
AcDbEntity
  8
4
100
AcDbLine
 62
7
  6
BYLAYER
 10
188.917863803
 20
184.0697262433
 11
188.917863803
 21
181.0697262433
  0
LINE
  5
3C7
100
AcDbEntity
  8
0
100
AcDbLine
 62
7
  6
BYLAYER
 10
36.079512188
 20
235.9611463211
 11
76.079512188
 21
235.9611463211
  0
LINE
  5
3C8
100
AcDbEntity
  8
0
100
AcDbLine
 62
7
  6
BYLAYER
 10
183.7286430765
 20
235.9611463211
 11
223.7286430765
 21
235.9611463211
  0
LINE
  5
3C9
100
AcDbEntity
  8
0
100
AcDbLine
 62
7
  6
BYLAYER
 10
222.7286430765
 20
236.9611463211
 11
184.7286430765
 21
236.9611463211
  0
LINE
  5
3CA
100
AcDbEntity
  8
0
100
AcDbLine
 62
7
  6
BYLAYER
 10
75.079512188
 20
236.9611463211
 11
37.079512188
 21
236.9611463211
  0
LINE
  5
3CB
100
AcDbEntity
  8
0
100
AcDbLine
 62
7
  6
BYLAYER
 10
34.5881150135
 20
238.3111463211
 11
34.8434442105
 21
238.3111463211
  0
LINE
  5
3CC
100
AcDbEntity
  8
0
100
AcDbLine
 62
7
  6
BYLAYER
 10
77.3155801655
 20
238.3111463211
 11
77.5709093625
 21
238.3111463211
  0
LINE
  5
3CD
100
AcDbEntity
  8
0
100
AcDbLine
 62
7
  6
BYLAYER
 10
182.237245902
 20
238.3111463211
 11
182.492575099
 21
238.3111463211
  0
LINE
  5
3CE
100
AcDbEntity
  8
0
100
AcDbLine
 62
7
  6
BYLAYER
 10
224.964711054
 20
238.3111463211
 11
225.220040251
 21
238.3111463211
  0
LINE
  5
3CF
100
AcDbEntity
  8
0
100
AcDbLine
 62
7
  6
BYLAYER
 10
225.220040251
 20
239.3111463211
 11
224.964711054
 21
239.3111463211
  0
LINE
  5
3D0
100
AcDbEntity
  8
0
100
AcDbLine
 62
7
  6
BYLAYER
 10
182.492575099
 20
239.3111463211
 11
182.237245902
 21
239.3111463211
  0
LINE
  5
3D1
100
AcDbEntity
  8
0
100
AcDbLine
 62
7
  6
BYLAYER
 10
77.5709093625
 20
239.3111463211
 11
77.3155801655
 21
239.3111463211
  0
LINE
  5
3D2
100
AcDbEntity
  8
0
100
AcDbLine
 62
7
  6
BYLAYER
 10
34.8434442105
 20
239.3111463211
 11
34.5881150135
 21
239.3111463211
  0
LINE
  5
3D3
100
AcDbEntity
  8
0
100
AcDbLine
 62
7
  6
BYLAYER
 10
179.2286343796
 20
207.8111463211
 11
179.7286509679
 21
206.8111463211
  0
LINE
  5
3D4
100
AcDbEntity
  8
4
100
AcDbLine
 62
7
  6
BYLAYER
 10
193.917863803
 20
181.0697262433
 11
193.917863803
 21
184.0697262433
  0
LINE
  5
3D5
100
AcDbEntity
  8
0
100
AcDbLine
 62
7
  6
BYLAYER
 10
195.2286430765
 20
188.3111463211
 11
195.2286430765
 21
186.8111463211
  0
LINE
  5
3D6
100
AcDbEntity
  8
0
100
AcDbLine
 62
7
  6
BYLAYER
 10
195.7286430765
 20
186.8111463211
 11
195.7286430765
 21
188.3111463211
  0
LINE
  5
3D7
100
AcDbEntity
  8
0
100
AcDbLine
 62
7
  6
BYLAYER
 10
196.2286430765
 20
185.8111463211
 11
196.2286430765
 21
186.3111463211
  0
LINE
  5
3D8
100
AcDbEntity
  8
4
100
AcDbLine
 62
7
  6
BYLAYER
 10
196.228643078
 20
186.359071218
 11
196.228643078
 21
188.359071218
  0
LINE
  5
3D9
100
AcDbEntity
  8
0
100
AcDbLine
 62
7
  6
BYLAYER
 10
196.2286430765
 20
188.8111463211
 11
196.2286430765
 21
189.3111463211
  0
LINE
  5
3DA
100
AcDbEntity
  8
4
100
AcDbLine
 62
7
  6
BYLAYER
 10
197.376143078
 20
179.7330115594
 11
197.376143078
 21
180.9776108212
  0
LINE
  5
3DB
100
AcDbEntity
  8
0
100
AcDbLine
 62
7
  6
BYLAYER
 10
223.175856672
 20
238.2055735121
 11
222.781429481
 21
237.4167191301
  0
LINE
  5
3DC
100
AcDbEntity
  8
0
100
AcDbLine
 62
7
  6
BYLAYER
 10
224.070283863
 20
237.7583599166
 11
223.7286593782
 21
237.0750745083
  0
LINE
  5
3DD
100
AcDbEntity
  8
0
100
AcDbLine
 62
7
  6
BYLAYER
 10
37.079512188
 20
237.1931125642
 11
36.079512188
 21
237.0750764086
  0
LINE
  5
3DE
100
AcDbEntity
  8
0
100
AcDbLine
 62
7
  6
BYLAYER
 10
223.7286430765
 20
237.0750764325
 11
222.7286430765
 21
237.1931123324
  0
LINE
  5
3DF
100
AcDbEntity
  8
0
100
AcDbLine
 62
7
  6
BYLAYER
 10
179.1559044808
 20
233.6456650449
 11
179.1134036001
 21
233.6578081537
  0
LINE
  5
3E0
100
AcDbEntity
  8
0
100
AcDbLine
 62
7
  6
BYLAYER
 10
180.236476079
 20
233.9485068851
 11
179.2749521313
 21
234.223228013
  0
LINE
  5
3E1
100
AcDbEntity
  8
0
100
AcDbLine
 62
7
  6
BYLAYER
 10
180.3141980067
 20
237.8605885769
 11
181.2757219544
 21
237.585867449
  0
LINE
  5
3E2
100
AcDbEntity
  8
0
100
AcDbLine
 62
7
  6
BYLAYER
 10
199.2286391566
 20
184.3111463211
 11
198.7286344104
 21
185.3111463211
  0
LINE
  5
3E3
100
AcDbEntity
  8
4
100
AcDbLine
 62
7
  6
BYLAYER
 10
198.328643078
 20
179.6295266255
 11
198.328643078
 21
176.6295266255
  0
LINE
  5
3E4
100
AcDbEntity
  8
0
100
AcDbLine
 62
7
  6
BYLAYER
 10
198.7286430765
 20
186.3111463211
 11
198.7286257326
 21
185.3111636763
  0
LINE
  5
3E5
100
AcDbEntity
  8
0
100
AcDbLine
 62
7
  6
BYLAYER
 10
199.7286430765
 20
184.8111463211
 11
199.7286430765
 21
185.8111463211
  0
LINE
  5
3E6
100
AcDbEntity
  8
4
100
AcDbLine
 62
7
  6
BYLAYER
 10
200.728643078
 20
172.359071218
 11
200.728643078
 21
176.6295266255
  0
LINE
  5
3E7
100
AcDbEntity
  8
4
100
AcDbLine
 62
7
  6
BYLAYER
 10
200.728643078
 20
179.6295266255
 11
200.728643078
 21
179.7330115594
  0
LINE
  5
3E8
100
AcDbEntity
  8
4
100
AcDbLine
 62
7
  6
BYLAYER
 10
200.728643078
 20
180.9776108212
 11
200.728643078
 21
181.0697262433
  0
LINE
  5
3E9
100
AcDbEntity
  8
4
100
AcDbLine
 62
7
  6
BYLAYER
 10
200.728643078
 20
184.0697262433
 11
200.728643078
 21
186.359071218
  0
LINE
  5
3EA
100
AcDbEntity
  8
4
100
AcDbLine
 62
7
  6
BYLAYER
 10
201.028643078
 20
179.6295266255
 11
201.028643078
 21
176.6295266255
  0
LINE
  5
3EB
100
AcDbEntity
  8
0
100
AcDbLine
 62
7
  6
BYLAYER
 10
208.7286450184
 20
185.3111492885
 11
208.2286435085
 21
184.3111463211
  0
LINE
  5
3EC
100
AcDbEntity
  8
0
100
AcDbLine
 62
7
  6
BYLAYER
 10
227.7286430765
 20
216.8111541978
 11
228.7286430765
 21
216.3111550254
  0
LINE
  5
3ED
100
AcDbEntity
  8
0
100
AcDbLine
 62
7
  6
BYLAYER
 10
183.7286265708
 20
237.0750744603
 11
183.38700229
 21
237.7583599166
  0
LINE
  5
3EE
100
AcDbEntity
  8
0
100
AcDbLine
 62
7
  6
BYLAYER
 10
184.675856672
 20
237.4167191301
 11
184.281429481
 21
238.2055735121
  0
LINE
  5
3EF
100
AcDbEntity
  8
4
100
AcDbLine
 62
7
  6
BYLAYER
 10
206.428643078
 20
179.6295266255
 11
206.428643078
 21
176.6295266255
  0
LINE
  5
3F0
100
AcDbEntity
  8
4
100
AcDbLine
 62
7
  6
BYLAYER
 10
206.728643078
 20
172.359071218
 11
206.728643078
 21
176.6295266255
  0
LINE
  5
3F1
100
AcDbEntity
  8
4
100
AcDbLine
 62
7
  6
BYLAYER
 10
206.728643078
 20
179.6295266255
 11
206.728643078
 21
179.7330115594
  0
LINE
  5
3F2
100
AcDbEntity
  8
4
100
AcDbLine
 62
7
  6
BYLAYER
 10
206.728643078
 20
180.9776108212
 11
206.728643078
 21
181.0697262433
  0
LINE
  5
3F3
100
AcDbEntity
  8
4
100
AcDbLine
 62
7
  6
BYLAYER
 10
206.728643078
 20
184.0697262433
 11
206.728643078
 21
186.359071218
  0
LINE
  5
3F4
100
AcDbEntity
  8
0
100
AcDbLine
 62
7
  6
BYLAYER
 10
207.7286430765
 20
185.8111463211
 11
207.7286430765
 21
184.8111463211
  0
LINE
  5
3F5
100
AcDbEntity
  8
0
100
AcDbLine
 62
7
  6
BYLAYER
 10
208.7286588401
 20
185.3111620944
 11
208.7286430765
 21
186.3111463211
  0
LINE
  5
3F6
100
AcDbEntity
  8
4
100
AcDbLine
 62
7
  6
BYLAYER
 10
209.128643078
 20
179.6295266255
 11
209.128643078
 21
176.6295266255
  0
LINE
  5
3F7
100
AcDbEntity
  8
4
100
AcDbLine
 62
7
  6
BYLAYER
 10
210.081143078
 20
179.7330115594
 11
210.081143078
 21
180.9776108212
  0
LINE
  5
3F8
100
AcDbEntity
  8
0
100
AcDbLine
 62
7
  6
BYLAYER
 10
211.2286430765
 20
189.3111463211
 11
211.2286430765
 21
188.8111463211
  0
LINE
  5
3F9
100
AcDbEntity
  8
0
100
AcDbLine
 62
7
  6
BYLAYER
 10
211.2286430765
 20
186.3111463211
 11
211.2286430765
 21
185.8111463211
  0
LINE
  5
3FA
100
AcDbEntity
  8
4
100
AcDbLine
 62
7
  6
BYLAYER
 10
211.228643078
 20
186.359071218
 11
211.228643078
 21
188.359071218
  0
LINE
  5
3FB
100
AcDbEntity
  8
0
100
AcDbLine
 62
7
  6
BYLAYER
 10
211.7286430765
 20
188.3111463211
 11
211.7286430765
 21
186.8111463211
  0
LINE
  5
3FC
100
AcDbEntity
  8
0
100
AcDbLine
 62
7
  6
BYLAYER
 10
212.2286430765
 20
186.8111463211
 11
212.2286430765
 21
188.3111463211
  0
LINE
  5
3FD
100
AcDbEntity
  8
0
100
AcDbLine
 62
7
  6
BYLAYER
 10
228.2286525238
 20
207.8111463211
 11
227.7286343936
 21
206.8111463211
  0
LINE
  5
3FE
100
AcDbEntity
  8
0
100
AcDbLine
 62
7
  6
BYLAYER
 10
222.7814105511
 20
237.4166812704
 11
223.7286439425
 21
237.0750800756
  0
LINE
  5
3FF
100
AcDbEntity
  8
0
100
AcDbLine
 62
7
  6
BYLAYER
 10
219.7286430765
 20
188.8111463211
 11
219.7286430765
 21
184.3111463211
  0
LINE
  5
400
100
AcDbEntity
  8
0
100
AcDbLine
 62
7
  6
BYLAYER
 10
220.7286430765
 20
185.3111463211
 11
220.7286430765
 21
188.8111463211
  0
LINE
  5
401
100
AcDbEntity
  8
0
100
AcDbLine
 62
7
  6
BYLAYER
 10
221.228643149
 20
184.3111463211
 11
221.2286430765
 21
187.4783846757
  0
LINE
  5
402
100
AcDbEntity
  8
0
100
AcDbLine
 62
7
  6
BYLAYER
 10
223.175856672
 20
238.2055735121
 11
224.070283863
 21
237.7583599166
  0
LINE
  5
403
100
AcDbEntity
  8
0
100
AcDbLine
 62
7
  6
BYLAYER
 10
222.7286430765
 20
237.1931123324
 11
222.7286430765
 21
236.9611463211
  0
LINE
  5
404
100
AcDbEntity
  8
0
100
AcDbLine
 62
7
  6
BYLAYER
 10
222.7286430765
 20
188.4111463211
 11
222.7286430765
 21
189.2111463211
  0
LINE
  5
405
100
AcDbEntity
  8
0
100
AcDbLine
 62
7
  6
BYLAYER
 10
223.7286430765
 20
235.9611463211
 11
223.7286593782
 21
237.0750745083
  0
LINE
  5
406
100
AcDbEntity
  8
0
100
AcDbLine
 62
7
  6
BYLAYER
 10
223.7286430765
 20
219.3111463211
 11
223.7286430765
 21
204.3111463211
  0
LINE
  5
407
100
AcDbEntity
  8
0
100
AcDbLine
 62
7
  6
BYLAYER
 10
223.7291181165
 20
228.4111344423
 11
223.7291181165
 21
229.2111344423
  0
LINE
  5
408
100
AcDbEntity
  8
0
100
AcDbLine
 62
7
  6
BYLAYER
 10
223.8286430765
 20
187.3111463211
 11
223.8286430765
 21
188.4111463211
  0
LINE
  5
409
100
AcDbEntity
  8
0
100
AcDbLine
 62
7
  6
BYLAYER
 10
223.8286430765
 20
189.2111463211
 11
223.8286430765
 21
190.3111463211
  0
LINE
  5
40A
100
AcDbEntity
  8
0
100
AcDbLine
 62
7
  6
BYLAYER
 10
224.2286430765
 20
192.102514364
 11
224.2286430765
 21
193.3111463211
  0
LINE
  5
40B
100
AcDbEntity
  8
0
100
AcDbLine
 62
7
  6
BYLAYER
 10
224.2286430765
 20
204.3111463211
 11
224.2286430765
 21
219.3111463211
  0
LINE
  5
40C
100
AcDbEntity
  8
0
100
AcDbLine
 62
7
  6
BYLAYER
 10
224.6286430765
 20
190.3111463211
 11
224.6286430765
 21
189.2111463211
  0
LINE
  5
40D
100
AcDbEntity
  8
0
100
AcDbLine
 62
7
  6
BYLAYER
 10
224.6286430765
 20
188.4111463211
 11
224.6286430765
 21
187.3111463211
  0
LINE
  5
40E
100
AcDbEntity
  8
0
100
AcDbLine
 62
7
  6
BYLAYER
 10
224.7286430765
 20
184.8111463211
 11
224.7286430765
 21
184.3111463211
  0
LINE
  5
40F
100
AcDbEntity
  8
0
100
AcDbLine
 62
7
  6
BYLAYER
 10
224.7286430765
 20
203.3111463211
 11
224.7286430765
 21
203.8111463211
  0
LINE
  5
410
100
AcDbEntity
  8
0
100
AcDbLine
 62
7
  6
BYLAYER
 10
224.7286430765
 20
219.8111463211
 11
224.7286430765
 21
220.3111463211
  0
LINE
  5
411
100
AcDbEntity
  8
0
100
AcDbLine
 62
7
  6
BYLAYER
 10
224.8291181165
 20
227.3111344423
 11
224.8291181165
 21
228.4111344423
  0
LINE
  5
412
100
AcDbEntity
  8
0
100
AcDbLine
 62
7
  6
BYLAYER
 10
224.8291181165
 20
229.2111344423
 11
224.8291181165
 21
230.3111344423
  0
LINE
  5
413
100
AcDbEntity
  8
0
100
AcDbLine
 62
7
  6
BYLAYER
 10
224.964711054
 20
238.3111463211
 11
224.964711054
 21
239.3111463211
  0
LINE
  5
414
100
AcDbEntity
  8
0
100
AcDbLine
 62
7
  6
BYLAYER
 10
225.220040251
 20
239.3111463211
 11
225.220040251
 21
238.3111463211
  0
LINE
  5
415
100
AcDbEntity
  8
0
100
AcDbLine
 62
7
  6
BYLAYER
 10
225.2286430765
 20
224.3111463211
 11
225.2286430765
 21
225.5196795448
  0
LINE
  5
416
100
AcDbEntity
  8
0
100
AcDbLine
 62
7
  6
BYLAYER
 10
225.2286430765
 20
232.1024156306
 11
225.2286430765
 21
233.3111463211
  0
LINE
  5
417
100
AcDbEntity
  8
0
100
AcDbLine
 62
7
  6
BYLAYER
 10
225.6291181165
 20
230.3111344423
 11
225.6291181165
 21
229.2111344423
  0
LINE
  5
418
100
AcDbEntity
  8
0
100
AcDbLine
 62
7
  6
BYLAYER
 10
225.6291181165
 20
228.4111344423
 11
225.6291181165
 21
227.3111344423
  0
LINE
  5
419
100
AcDbEntity
  8
0
100
AcDbLine
 62
7
  6
BYLAYER
 10
225.7286430765
 20
189.2111463211
 11
225.7286430765
 21
188.4111463211
  0
LINE
  5
41A
100
AcDbEntity
  8
0
100
AcDbLine
 62
7
  6
BYLAYER
 10
226.2286430765
 20
220.3111463211
 11
226.2286430765
 21
219.8111463211
  0
LINE
  5
41B
100
AcDbEntity
  8
0
100
AcDbLine
 62
7
  6
BYLAYER
 10
226.2286430765
 20
203.8111463211
 11
226.2286430765
 21
203.3111463211
  0
LINE
  5
41C
100
AcDbEntity
  8
0
100
AcDbLine
 62
7
  6
BYLAYER
 10
226.7286430765
 20
204.3111463211
 11
226.7286430765
 21
207.3111463211
  0
LINE
  5
41D
100
AcDbEntity
  8
0
100
AcDbLine
 62
7
  6
BYLAYER
 10
226.7286430765
 20
216.3111463211
 11
226.7286430765
 21
219.3111463211
  0
LINE
  5
41E
100
AcDbEntity
  8
0
100
AcDbLine
 62
7
  6
BYLAYER
 10
226.7291181165
 20
229.2111344423
 11
226.7291181165
 21
228.4111344423
  0
LINE
  5
41F
100
AcDbEntity
  8
0
100
AcDbLine
 62
7
  6
BYLAYER
 10
226.7400481002
 20
233.3111463211
 11
226.7400481002
 21
231.8111463211
  0
LINE
  5
420
100
AcDbEntity
  8
0
100
AcDbLine
 62
7
  6
BYLAYER
 10
227.2286430765
 20
204.3111463211
 11
227.2286430765
 21
207.8111463211
  0
LINE
  5
421
100
AcDbEntity
  8
0
100
AcDbLine
 62
7
  6
BYLAYER
 10
227.2286430765
 20
215.8111463211
 11
227.2286430765
 21
219.3111463211
  0
LINE
  5
422
100
AcDbEntity
  8
0
100
AcDbLine
 62
7
  6
BYLAYER
 10
227.7286430765
 20
225.3111463211
 11
227.7286273032
 21
216.8111620847
  0
LINE
  5
423
100
AcDbEntity
  8
0
100
AcDbLine
 62
7
  6
BYLAYER
 10
227.7286257214
 20
206.8111289772
 11
227.7286430765
 21
192.3111463211
  0
LINE
  5
424
100
AcDbEntity
  8
0
100
AcDbLine
 62
7
  6
BYLAYER
 10
228.2286430765
 20
230.9105968747
 11
228.2286430765
 21
230.1446150546
  0
LINE
  5
425
100
AcDbEntity
  8
0
100
AcDbLine
 62
7
  6
BYLAYER
 10
228.2286430763
 20
227.4495284263
 11
228.2286430762
 21
225.8111463211
  0
LINE
  5
426
100
AcDbEntity
  8
0
100
AcDbLine
 62
7
  6
BYLAYER
 10
228.2286430763
 20
191.8111463211
 11
228.2286430765
 21
188.3111463211
  0
LINE
  5
427
100
AcDbEntity
  8
0
100
AcDbLine
 62
7
  6
BYLAYER
 10
228.7286430765
 20
188.3111463211
 11
228.7286430765
 21
207.3111463211
  0
LINE
  5
428
100
AcDbEntity
  8
0
100
AcDbLine
 62
7
  6
BYLAYER
 10
228.7286430765
 20
216.3111463211
 11
228.7286430765
 21
230.9105968747
  0
LINE
  5
429
100
AcDbEntity
  8
3
100
AcDbLine
 62
7
  6
BYLAYER
 10
228.7291181196
 20
225.8111463211
 11
228.7291181196
 21
224.3111463211
  0
LINE
  5
42A
100
AcDbEntity
  8
3
100
AcDbLine
 62
7
  6
BYLAYER
 10
228.7291181196
 20
193.3111463211
 11
228.7291181196
 21
191.8111463211
  0
LINE
  5
42B
100
AcDbEntity
  8
4
100
AcDbLine
 62
7
  6
BYLAYER
 10
235.917863803
 20
134.0697262433
 11
235.917863803
 21
177.0697262433
  0
LINE
  5
42C
100
AcDbEntity
  8
0
100
AcDbLine
 62
7
  6
BYLAYER
 10
223.7286430765
 20
235.9611463211
 11
222.7286434183
 21
236.9611463211
  0
LINE
  5
42D
100
AcDbEntity
  8
0
100
AcDbLine
 62
7
  6
BYLAYER
 10
227.7729768374
 20
232.7234615212
 11
228.1172864164
 21
232.3608999212
  0
LINE
  5
42E
100
AcDbEntity
  8
0
100
AcDbLine
 62
7
  6
BYLAYER
 10
228.2286517734
 20
215.8111463211
 11
227.7286351852
 21
216.8111463211
  0
LINE
  5
42F
100
AcDbEntity
  8
0
100
AcDbLine
 62
7
  6
BYLAYER
 10
227.2209607728
 20
233.9479794397
 11
226.1815641987
 21
237.585867449
  0
LINE
  5
430
100
AcDbEntity
  8
4
100
AcDbLine
 62
7
  6
BYLAYER
 10
238.917863803
 20
134.0697262433
 11
238.917863803
 21
177.0697262433
  0
LINE
  5
431
100
AcDbEntity
  8
0
100
AcDbLine
 62
7
  6
BYLAYER
 10
228.3438825529
 20
233.6578081537
 11
227.1430881463
 21
237.8605885769
  0
ARC
  5
432
100
AcDbEntity
  8
0
100
AcDbCircle
 62
7
  6
BYLAYER
 10
35.579512188
 20
188.8111463211
 40
4.5
100
AcDbArc
 50
0.0
 51
90.0
  0
ARC
  5
433
100
AcDbEntity
  8
0
100
AcDbCircle
 62
7
  6
BYLAYER
 10
35.079512188
 20
188.3111463211
 40
4.0
100
AcDbArc
 50
180.0
 51
270.0
  0
ARC
  5
434
100
AcDbEntity
  8
0
100
AcDbCircle
 62
7
  6
BYLAYER
 10
35.579512188
 20
188.8111463211
 40
3.5
100
AcDbArc
 50
0.0
 51
90.0
  0
ARC
  5
435
100
AcDbEntity
  8
0
100
AcDbCircle
 62
7
  6
BYLAYER
 10
35.079512188
 20
188.3111463211
 40
3.5
100
AcDbArc
 50
180.0000000001
 51
270.0
  0
CIRCLE
  5
436
100
AcDbEntity
  8
0
100
AcDbCircle
 62
7
  6
BYLAYER
 10
35.5795121909
 20
188.8116332372
 40
3.3
  0
CIRCLE
  5
437
100
AcDbEntity
  8
0
100
AcDbCircle
 62
7
  6
BYLAYER
 10
35.5795121909
 20
188.8116332372
 40
2.2999997533
  0
ARC
  5
438
100
AcDbEntity
  8
0
100
AcDbCircle
 62
7
  6
BYLAYER
 10
40.079512188
 20
185.3111463211
 40
1.0
100
AcDbArc
 50
180.0000000487
 51
270.0
  0
ARC
  5
439
100
AcDbEntity
  8
0
100
AcDbCircle
 62
7
  6
BYLAYER
 10
48.579512188
 20
186.8111463211
 40
1.0
100
AcDbArc
 50
180.0
 51
270.0
  0
ARC
  5
43A
100
AcDbEntity
  8
0
100
AcDbCircle
 62
7
  6
BYLAYER
 10
48.579512188
 20
188.3111463211
 40
1.0
100
AcDbArc
 50
90.0
 51
180.0
  0
ARC
  5
43B
100
AcDbEntity
  8
0
100
AcDbCircle
 62
7
  6
BYLAYER
 10
48.579512188
 20
188.3111463211
 40
0.5
100
AcDbArc
 50
90.0
 51
180.0
  0
ARC
  5
43C
100
AcDbEntity
  8
0
100
AcDbCircle
 62
7
  6
BYLAYER
 10
48.579512188
 20
186.8111463211
 40
0.5
100
AcDbArc
 50
180.0
 51
270.0
  0
ARC
  5
43D
100
AcDbEntity
  8
0
100
AcDbCircle
 62
7
  6
BYLAYER
 10
51.579512188
 20
185.8111463211
 40
0.5
100
AcDbArc
 50
0.0
 51
90.0
  0
ARC
  5
43E
100
AcDbEntity
  8
0
100
AcDbCircle
 62
7
  6
BYLAYER
 10
51.579512188
 20
184.8111463211
 40
0.5
100
AcDbArc
 50
270.0
 51
360.0
  0
ARC
  5
43F
100
AcDbEntity
  8
3
100
AcDbCircle
 62
7
  6
BYLAYER
 10
48.5799872311
 20
186.8116277955
 40
0.5
100
AcDbArc
 50
180.0
 51
270.0
  0
ARC
  5
440
100
AcDbEntity
  8
3
100
AcDbCircle
 62
7
  6
BYLAYER
 10
51.5799872311
 20
184.8116277955
 40
0.5
100
AcDbArc
 50
325.9200983881
 51
360.0
  0
ARC
  5
441
100
AcDbEntity
  8
0
100
AcDbCircle
 62
7
  6
BYLAYER
 10
47.080239999
 20
199.8113870583
 40
8.5
100
AcDbArc
 50
359.882529901
 51
179.882529901
  0
ARC
  5
442
100
AcDbEntity
  8
0
100
AcDbCircle
 62
7
  6
BYLAYER
 10
47.080239999
 20
199.8113870583
 40
8.1052964846
100
AcDbArc
 50
359.882529901
 51
179.882529901
  0
ARC
  5
443
100
AcDbEntity
  8
0
100
AcDbCircle
 62
7
  6
BYLAYER
 10
47.080239999
 20
199.8113870583
 40
7.8947035154
100
AcDbArc
 50
359.882529901
 51
179.882529901
  0
ARC
  5
444
100
AcDbEntity
  8
0
100
AcDbCircle
 62
7
  6
BYLAYER
 10
32.079512188
 20
193.3111463211
 40
1.0
100
AcDbArc
 50
180.0
 51
269.9999999513
  0
ARC
  5
445
100
AcDbEntity
  8
0
100
AcDbCircle
 62
7
  6
BYLAYER
 10
35.079512188
 20
204.3111463211
 40
1.0
100
AcDbArc
 50
270.0
 51
360.0
  0
ARC
  5
446
100
AcDbEntity
  8
0
100
AcDbCircle
 62
7
  6
BYLAYER
 10
33.579512188
 20
204.3111463211
 40
1.0
100
AcDbArc
 50
180.0
 51
270.0
  0
ARC
  5
447
100
AcDbEntity
  8
0
100
AcDbCircle
 62
7
  6
BYLAYER
 10
33.579512188
 20
204.3111463211
 40
0.5
100
AcDbArc
 50
180.0
 51
270.0
  0
ARC
  5
448
100
AcDbEntity
  8
0
100
AcDbCircle
 62
7
  6
BYLAYER
 10
35.079512188
 20
204.3111463211
 40
0.5
100
AcDbArc
 50
270.0
 51
360.0
  0
ARC
  5
449
100
AcDbEntity
  8
3
100
AcDbCircle
 62
7
  6
BYLAYER
 10
33.5799872311
 20
204.3116451104
 40
0.5
100
AcDbArc
 50
180.0
 51
270.0
  0
ARC
  5
44A
100
AcDbEntity
  8
3
100
AcDbCircle
 62
7
  6
BYLAYER
 10
84.2687329145
 20
177.0697262433
 40
7.0
100
AcDbArc
 50
0.0
 51
90.0
  0
ARC
  5
44B
100
AcDbEntity
  8
0
100
AcDbCircle
 62
7
  6
BYLAYER
 10
76.579512188
 20
188.8111463211
 40
4.5
100
AcDbArc
 50
90.0
 51
180.0
  0
ARC
  5
44C
100
AcDbEntity
  8
3
100
AcDbCircle
 62
7
  6
BYLAYER
 10
84.2687329145
 20
177.0697262433
 40
4.0
100
AcDbArc
 50
0.0
 51
90.0
  0
ARC
  5
44D
100
AcDbEntity
  8
0
100
AcDbCircle
 62
7
  6
BYLAYER
 10
77.079512188
 20
188.3111463211
 40
4.0
100
AcDbArc
 50
270.0
 51
360.0
  0
ARC
  5
44E
100
AcDbEntity
  8
3
100
AcDbCircle
 62
7
  6
BYLAYER
 10
77.0799872311
 20
188.3116277955
 40
4.0
100
AcDbArc
 50
320.9119170748
 51
333.2529741995
  0
ARC
  5
44F
100
AcDbEntity
  8
0
100
AcDbCircle
 62
7
  6
BYLAYER
 10
76.579512188
 20
188.8111463211
 40
3.5
100
AcDbArc
 50
90.0
 51
180.0
  0
ARC
  5
450
100
AcDbEntity
  8
0
100
AcDbCircle
 62
7
  6
BYLAYER
 10
77.079512188
 20
188.3111463211
 40
3.5
100
AcDbArc
 50
270.0000000003
 51
360.0
  0
CIRCLE
  5
451
100
AcDbEntity
  8
0
100
AcDbCircle
 62
7
  6
BYLAYER
 10
76.579512188
 20
188.8111463211
 40
3.3
  0
CIRCLE
  5
452
100
AcDbEntity
  8
0
100
AcDbCircle
 62
7
  6
BYLAYER
 10
76.579512188
 20
188.8111463211
 40
2.2999997533
  0
ARC
  5
453
100
AcDbEntity
  8
0
100
AcDbCircle
 62
7
  6
BYLAYER
 10
72.079512188
 20
185.3111463211
 40
1.0
100
AcDbArc
 50
270.0
 51
359.9999999513
  0
ARC
  5
454
100
AcDbEntity
  8
0
100
AcDbCircle
 62
7
  6
BYLAYER
 10
63.579512188
 20
188.3111463211
 40
1.0
100
AcDbArc
 50
0.0
 51
90.0
  0
ARC
  5
455
100
AcDbEntity
  8
0
100
AcDbCircle
 62
7
  6
BYLAYER
 10
63.579512188
 20
186.8111463211
 40
1.0
100
AcDbArc
 50
270.0
 51
360.0
  0
ARC
  5
456
100
AcDbEntity
  8
0
100
AcDbCircle
 62
7
  6
BYLAYER
 10
60.579512188
 20
184.8111463211
 40
0.5
100
AcDbArc
 50
180.0000000001
 51
270.0
  0
ARC
  5
457
100
AcDbEntity
  8
0
100
AcDbCircle
 62
7
  6
BYLAYER
 10
60.579512188
 20
185.8111463211
 40
0.5
100
AcDbArc
 50
89.9999999999
 51
180.0000000002
  0
ARC
  5
458
100
AcDbEntity
  8
0
100
AcDbCircle
 62
7
  6
BYLAYER
 10
63.579512188
 20
186.8111463211
 40
0.5
100
AcDbArc
 50
270.0
 51
360.0
  0
ARC
  5
459
100
AcDbEntity
  8
0
100
AcDbCircle
 62
7
  6
BYLAYER
 10
63.579512188
 20
188.3111463211
 40
0.5
100
AcDbArc
 50
0.0
 51
90.0
  0
ARC
  5
45A
100
AcDbEntity
  8
0
100
AcDbCircle
 62
7
  6
BYLAYER
 10
65.080239999
 20
199.8113870583
 40
8.5
100
AcDbArc
 50
359.882529901
 51
179.882529901
  0
ARC
  5
45B
100
AcDbEntity
  8
0
100
AcDbCircle
 62
7
  6
BYLAYER
 10
65.080239999
 20
199.8113870583
 40
8.1054946602
100
AcDbArc
 50
359.882529901
 51
179.882529901
  0
ARC
  5
45C
100
AcDbEntity
  8
0
100
AcDbCircle
 62
7
  6
BYLAYER
 10
65.080239999
 20
199.8113870583
 40
7.8945053398
100
AcDbArc
 50
359.882529901
 51
179.882529901
  0
ARC
  5
45D
100
AcDbEntity
  8
0
100
AcDbCircle
 62
7
  6
BYLAYER
 10
80.079512188
 20
193.3111463211
 40
1.0
100
AcDbArc
 50
270.0000000487
 51
360.0
  0
ARC
  5
45E
100
AcDbEntity
  8
0
100
AcDbCircle
 62
7
  6
BYLAYER
 10
78.579512188
 20
204.3111463211
 40
1.0
100
AcDbArc
 50
270.0
 51
360.0
  0
ARC
  5
45F
100
AcDbEntity
  8
0
100
AcDbCircle
 62
7
  6
BYLAYER
 10
77.079512188
 20
204.3111463211
 40
1.0
100
AcDbArc
 50
180.0
 51
270.0
  0
ARC
  5
460
100
AcDbEntity
  8
0
100
AcDbCircle
 62
7
  6
BYLAYER
 10
77.079512188
 20
204.3111463211
 40
0.5
100
AcDbArc
 50
180.0
 51
270.0
  0
ARC
  5
461
100
AcDbEntity
  8
0
100
AcDbCircle
 62
7
  6
BYLAYER
 10
78.579512188
 20
204.3111463211
 40
0.5
100
AcDbArc
 50
270.0
 51
360.0
  0
ARC
  5
462
100
AcDbEntity
  8
3
100
AcDbCircle
 62
7
  6
BYLAYER
 10
77.0799872311
 20
204.3116451104
 40
0.5
100
AcDbArc
 50
180.0
 51
270.0
  0
CIRCLE
  5
463
100
AcDbEntity
  8
0
100
AcDbCircle
 62
7
  6
BYLAYER
 10
56.079512188
 20
211.7611463211
 40
17.0
  0
CIRCLE
  5
464
100
AcDbEntity
  8
0
100
AcDbCircle
 62
7
  6
BYLAYER
 10
56.079512188
 20
211.7611463211
 40
16.5
  0
CIRCLE
  5
465
100
AcDbEntity
  8
0
100
AcDbCircle
 62
7
  6
BYLAYER
 10
56.079512188
 20
211.7611463211
 40
15.0
  0
CIRCLE
  5
466
100
AcDbEntity
  8
0
100
AcDbCircle
 62
7
  6
BYLAYER
 10
56.079512188
 20
211.7611463211
 40
14.5
  0
ARC
  5
467
100
AcDbEntity
  8
0
100
AcDbCircle
 62
7
  6
BYLAYER
 10
47.080239999
 20
222.3113870583
 40
8.5
100
AcDbArc
 50
179.882529901
 51
359.882529901
  0
ARC
  5
468
100
AcDbEntity
  8
0
100
AcDbCircle
 62
7
  6
BYLAYER
 10
47.080239999
 20
222.3113870583
 40
8.1052090289
100
AcDbArc
 50
179.882529901
 51
359.882529901
  0
ARC
  5
469
100
AcDbEntity
  8
0
100
AcDbCircle
 62
7
  6
BYLAYER
 10
47.080239999
 20
222.3113870583
 40
7.8947909711
100
AcDbArc
 50
179.882529901
 51
359.882529901
  0
ARC
  5
46A
100
AcDbEntity
  8
0
100
AcDbCircle
 62
7
  6
BYLAYER
 10
33.579512188
 20
219.3111463211
 40
1.0
100
AcDbArc
 50
90.0
 51
180.0
  0
ARC
  5
46B
100
AcDbEntity
  8
0
100
AcDbCircle
 62
7
  6
BYLAYER
 10
35.079512188
 20
219.3111463211
 40
1.0
100
AcDbArc
 50
0.0
 51
90.0
  0
ARC
  5
46C
100
AcDbEntity
  8
0
100
AcDbCircle
 62
7
  6
BYLAYER
 10
32.579512188
 20
207.3111463211
 40
0.5
100
AcDbArc
 50
0.0
 51
90.0
  0
ARC
  5
46D
100
AcDbEntity
  8
0
100
AcDbCircle
 62
7
  6
BYLAYER
 10
35.079512188
 20
219.3111463211
 40
0.5
100
AcDbArc
 50
0.0
 51
90.0
  0
ARC
  5
46E
100
AcDbEntity
  8
0
100
AcDbCircle
 62
7
  6
BYLAYER
 10
33.579512188
 20
219.3111463211
 40
0.5
100
AcDbArc
 50
90.0
 51
180.0
  0
ARC
  5
46F
100
AcDbEntity
  8
0
100
AcDbCircle
 62
7
  6
BYLAYER
 10
32.579512188
 20
216.3111463211
 40
0.5
100
AcDbArc
 50
270.0
 51
360.0
  0
ARC
  5
470
100
AcDbEntity
  8
0
100
AcDbCircle
 62
7
  6
BYLAYER
 10
31.579512188
 20
216.3111463211
 40
0.5
100
AcDbArc
 50
180.0
 51
270.0000000001
  0
ARC
  5
471
100
AcDbEntity
  8
0
100
AcDbCircle
 62
7
  6
BYLAYER
 10
31.579512188
 20
207.3111463211
 40
0.5
100
AcDbArc
 50
89.9999999999
 51
180.0
  0
ARC
  5
472
100
AcDbEntity
  8
0
100
AcDbCircle
 62
7
  6
BYLAYER
 10
34.579512188
 20
228.8111463211
 40
4.5
100
AcDbArc
 50
270.0
 51
90.0
  0
ARC
  5
473
100
AcDbEntity
  8
0
100
AcDbCircle
 62
7
  6
BYLAYER
 10
34.579512188
 20
228.8111463211
 40
3.5
100
AcDbArc
 50
270.0
 51
90.0
  0
CIRCLE
  5
474
100
AcDbEntity
  8
0
100
AcDbCircle
 62
7
  6
BYLAYER
 10
34.579987231
 20
228.8116451103
 40
3.3
  0
CIRCLE
  5
475
100
AcDbEntity
  8
0
100
AcDbCircle
 62
7
  6
BYLAYER
 10
34.579987231
 20
228.8116451103
 40
2.2999997533
  0
ARC
  5
476
100
AcDbEntity
  8
0
100
AcDbCircle
 62
7
  6
BYLAYER
 10
32.079512188
 20
224.3111463211
 40
1.0
100
AcDbArc
 50
90.0000000487
 51
180.0
  0
ARC
  5
477
100
AcDbEntity
  8
0
100
AcDbCircle
 62
7
  6
BYLAYER
 10
35.4186645793
 20
233.1382140706
 40
3.9449861635
100
AcDbArc
 50
164.0358294649
 51
169.7115065625
  0
ARC
  5
478
100
AcDbEntity
  8
0
100
AcDbCircle
 62
7
  6
BYLAYER
 10
35.2094640411
 20
233.176793128
 40
3.7322590256
100
AcDbArc
 50
169.7206339394
 51
172.7830434226
  0
ARC
  5
479
100
AcDbEntity
  8
0
100
AcDbCircle
 62
7
  6
BYLAYER
 10
34.8434442105
 20
237.3111463212
 40
1.9999999999
100
AcDbArc
 50
26.5650511762
 51
90.0000000007
  0
ARC
  5
47A
100
AcDbEntity
  8
0
100
AcDbCircle
 62
7
  6
BYLAYER
 10
34.5881150135
 20
237.3111463211
 40
2.0000000001
100
AcDbArc
 50
90.0000000009
 51
164.0546040979
  0
ARC
  5
47B
100
AcDbEntity
  8
0
100
AcDbCircle
 62
7
  6
BYLAYER
 10
33.0681071643
 20
233.8111463211
 40
2.0
100
AcDbArc
 50
226.4791023345
 51
270.0
  0
ARC
  5
47C
100
AcDbEntity
  8
3
100
AcDbCircle
 62
7
  6
BYLAYER
 10
34.5885900566
 20
237.3116451103
 40
2.0000000001
100
AcDbArc
 50
90.0502132297
 51
126.6589444929
  0
ARC
  5
47D
100
AcDbEntity
  8
3
100
AcDbCircle
 62
7
  6
BYLAYER
 10
34.8448998326
 20
237.3116451104
 40
2.0
100
AcDbArc
 50
26.5650511771
 51
90.0
  0
ARC
  5
47E
100
AcDbEntity
  8
0
100
AcDbCircle
 62
7
  6
BYLAYER
 10
33.0681071643
 20
233.8111463211
 40
1.5
100
AcDbArc
 50
164.0546040989
 51
270.0
  0
ARC
  5
47F
100
AcDbEntity
  8
0
100
AcDbCircle
 62
7
  6
BYLAYER
 10
34.8434442105
 20
237.3111463212
 40
1.0
100
AcDbArc
 50
26.5650511749
 51
90.0000000011
  0
ARC
  5
480
100
AcDbEntity
  8
0
100
AcDbCircle
 62
7
  6
BYLAYER
 10
34.5881150135
 20
237.3111463211
 40
1.0000000001
100
AcDbArc
 50
90.0000000011
 51
164.0546040962
  0
ARC
  5
481
100
AcDbEntity
  8
0
100
AcDbCircle
 62
7
  6
BYLAYER
 10
33.0681071643
 20
233.8111463211
 40
0.4999917214
100
AcDbArc
 50
164.0546040974
 51
269.9371406556
  0
ARC
  5
482
100
AcDbEntity
  8
0
100
AcDbCircle
 62
7
  6
BYLAYER
 10
41.079512188
 20
230.9105968747
 40
10.0
100
AcDbArc
 50
164.0546040991
 51
180.0
  0
ARC
  5
483
100
AcDbEntity
  8
0
100
AcDbCircle
 62
7
  6
BYLAYER
 10
41.079512188
 20
230.9105968747
 40
9.5
100
AcDbArc
 50
171.2186899299
 51
180.0
  0
ARC
  5
484
100
AcDbEntity
  8
0
100
AcDbCircle
 62
7
  6
BYLAYER
 10
36.579512188
 20
237.1931123324
 40
0.5
100
AcDbArc
 50
0.0
 51
26.5650511771
  0
ARC
  5
485
100
AcDbEntity
  8
3
100
AcDbCircle
 62
7
  6
BYLAYER
 10
36.58096781
 20
237.1936111216
 40
0.5000000001
100
AcDbArc
 50
0.0000000008
 51
26.5650511765
  0
ARC
  5
486
100
AcDbEntity
  8
0
100
AcDbCircle
 62
7
  6
BYLAYER
 10
65.080239999
 20
222.3113870583
 40
8.5
100
AcDbArc
 50
179.882529901
 51
359.882529901
  0
ARC
  5
487
100
AcDbEntity
  8
0
100
AcDbCircle
 62
7
  6
BYLAYER
 10
65.080239999
 20
222.3113870583
 40
8.1052090289
100
AcDbArc
 50
179.882529901
 51
359.882529901
  0
ARC
  5
488
100
AcDbEntity
  8
0
100
AcDbCircle
 62
7
  6
BYLAYER
 10
65.080239999
 20
222.3113870583
 40
7.8947909711
100
AcDbArc
 50
179.882529901
 51
359.882529901
  0
ARC
  5
489
100
AcDbEntity
  8
0
100
AcDbCircle
 62
7
  6
BYLAYER
 10
77.079512188
 20
219.3111463211
 40
1.0
100
AcDbArc
 50
90.0
 51
180.0
  0
ARC
  5
48A
100
AcDbEntity
  8
0
100
AcDbCircle
 62
7
  6
BYLAYER
 10
78.579512188
 20
219.3111463211
 40
1.0
100
AcDbArc
 50
0.0
 51
90.0
  0
ARC
  5
48B
100
AcDbEntity
  8
0
100
AcDbCircle
 62
7
  6
BYLAYER
 10
80.579512188
 20
216.3111463211
 40
0.5
100
AcDbArc
 50
270.0000000001
 51
360.0
  0
ARC
  5
48C
100
AcDbEntity
  8
0
100
AcDbCircle
 62
7
  6
BYLAYER
 10
79.579512188
 20
216.3111463211
 40
0.5
100
AcDbArc
 50
180.0
 51
270.0000000004
  0
ARC
  5
48D
100
AcDbEntity
  8
0
100
AcDbCircle
 62
7
  6
BYLAYER
 10
78.579512188
 20
219.3111463211
 40
0.5
100
AcDbArc
 50
0.0
 51
90.0
  0
ARC
  5
48E
100
AcDbEntity
  8
0
100
AcDbCircle
 62
7
  6
BYLAYER
 10
77.079512188
 20
219.3111463211
 40
0.5
100
AcDbArc
 50
90.0
 51
180.0
  0
ARC
  5
48F
100
AcDbEntity
  8
0
100
AcDbCircle
 62
7
  6
BYLAYER
 10
79.579512188
 20
207.3111463211
 40
0.5
100
AcDbArc
 50
90.0
 51
180.0
  0
ARC
  5
490
100
AcDbEntity
  8
0
100
AcDbCircle
 62
7
  6
BYLAYER
 10
80.579512188
 20
207.3111463211
 40
0.5
100
AcDbArc
 50
0.0
 51
90.0000000001
  0
ARC
  5
491
100
AcDbEntity
  8
3
100
AcDbCircle
 62
7
  6
BYLAYER
 10
80.5799872311
 20
216.3116451104
 40
0.5
100
AcDbArc
 50
325.9215095356
 51
360.0
  0
ARC
  5
492
100
AcDbEntity
  8
3
100
AcDbCircle
 62
7
  6
BYLAYER
 10
80.5799872311
 20
207.3116451104
 40
0.5
100
AcDbArc
 50
33.1395268767
 51
90.0
  0
ARC
  5
493
100
AcDbEntity
  8
0
100
AcDbCircle
 62
7
  6
BYLAYER
 10
71.079512188
 20
230.9105968747
 40
10.0
100
AcDbArc
 50
0.0
 51
15.9453959009
  0
ARC
  5
494
100
AcDbEntity
  8
3
100
AcDbCircle
 62
7
  6
BYLAYER
 10
71.0799872313
 20
230.9110956639
 40
9.9999999998
100
AcDbArc
 50
0.0
 51
15.9453959016
  0
ARC
  5
495
100
AcDbEntity
  8
0
100
AcDbCircle
 62
7
  6
BYLAYER
 10
71.079512188
 20
230.9105968747
 40
9.5
100
AcDbArc
 50
0.0
 51
8.7813100786
  0
ARC
  5
496
100
AcDbEntity
  8
3
100
AcDbCircle
 62
7
  6
BYLAYER
 10
75.579006652
 20
237.1936111216
 40
0.5
100
AcDbArc
 50
153.434948824
 51
179.9999999991
  0
ARC
  5
497
100
AcDbEntity
  8
0
100
AcDbCircle
 62
7
  6
BYLAYER
 10
77.579512188
 20
228.8111463211
 40
4.5
100
AcDbArc
 50
90.0
 51
270.0
  0
ARC
  5
498
100
AcDbEntity
  8
0
100
AcDbCircle
 62
7
  6
BYLAYER
 10
77.579512188
 20
228.8111463211
 40
3.5
100
AcDbArc
 50
90.0
 51
270.0
  0
CIRCLE
  5
499
100
AcDbEntity
  8
0
100
AcDbCircle
 62
7
  6
BYLAYER
 10
77.579987228
 20
228.8111344423
 40
3.3
  0
CIRCLE
  5
49A
100
AcDbEntity
  8
0
100
AcDbCircle
 62
7
  6
BYLAYER
 10
77.579987228
 20
228.8111344423
 40
2.2999997533
  0
ARC
  5
49B
100
AcDbEntity
  8
0
100
AcDbCircle
 62
7
  6
BYLAYER
 10
80.079512188
 20
224.3111463211
 40
1.0
100
AcDbArc
 50
0.0
 51
89.9999999944
  0
ARC
  5
49C
100
AcDbEntity
  8
0
100
AcDbCircle
 62
7
  6
BYLAYER
 10
76.7404912466
 20
233.1382469253
 40
3.9448507469
100
AcDbArc
 50
10.2772436143
 51
15.9642368504
  0
ARC
  5
49D
100
AcDbEntity
  8
0
100
AcDbCircle
 62
7
  6
BYLAYER
 10
76.9500808552
 20
233.1768715032
 40
3.7317327831
100
AcDbArc
 50
7.2167667611
 51
10.2678517311
  0
ARC
  5
49E
100
AcDbEntity
  8
0
100
AcDbCircle
 62
7
  6
BYLAYER
 10
77.3155801655
 20
237.3111463211
 40
2.0
100
AcDbArc
 50
90.0
 51
153.4349488229
  0
ARC
  5
49F
100
AcDbEntity
  8
0
100
AcDbCircle
 62
7
  6
BYLAYER
 10
77.5709093625
 20
237.3111463212
 40
2.0
100
AcDbArc
 50
15.9453959
 51
90.0000000006
  0
ARC
  5
4A0
100
AcDbEntity
  8
0
100
AcDbCircle
 62
7
  6
BYLAYER
 10
79.0909172117
 20
233.8111463211
 40
2.0
100
AcDbArc
 50
270.0
 51
313.5208976482
  0
ARC
  5
4A1
100
AcDbEntity
  8
3
100
AcDbCircle
 62
7
  6
BYLAYER
 10
77.3150746295
 20
237.3116451104
 40
2.0
100
AcDbArc
 50
96.8546963665
 51
129.1834252274
  0
ARC
  5
4A2
100
AcDbEntity
  8
3
100
AcDbCircle
 62
7
  6
BYLAYER
 10
77.5713844055
 20
237.3116451104
 40
2.0
100
AcDbArc
 50
15.9453959019
 51
90.0
  0
ARC
  5
4A3
100
AcDbEntity
  8
0
100
AcDbCircle
 62
7
  6
BYLAYER
 10
79.0909172117
 20
233.8111463211
 40
1.5
100
AcDbArc
 50
270.0
 51
15.9453959006
  0
ARC
  5
4A4
100
AcDbEntity
  8
0
100
AcDbCircle
 62
7
  6
BYLAYER
 10
77.5709093625
 20
237.3111463212
 40
1.0
100
AcDbArc
 50
15.9453958967
 51
90.0000000014
  0
ARC
  5
4A5
100
AcDbEntity
  8
0
100
AcDbCircle
 62
7
  6
BYLAYER
 10
77.3155801655
 20
237.3111463211
 40
1.0
100
AcDbArc
 50
90.0
 51
153.4349488229
  0
ARC
  5
4A6
100
AcDbEntity
  8
0
100
AcDbCircle
 62
7
  6
BYLAYER
 10
75.579512188
 20
237.1931123324
 40
0.5
100
AcDbArc
 50
153.4349488229
 51
180.0
  0
ARC
  5
4A7
100
AcDbEntity
  8
0
100
AcDbCircle
 62
7
  6
BYLAYER
 10
79.0909172117
 20
233.8111463211
 40
0.4999955025
100
AcDbArc
 50
270.0000000005
 51
15.882536555
  0
ARC
  5
4A8
100
AcDbEntity
  8
0
100
AcDbCircle
 62
7
  6
BYLAYER
 10
183.2286430765
 20
188.8111463211
 40
4.5
100
AcDbArc
 50
0.0
 51
90.0
  0
ARC
  5
4A9
100
AcDbEntity
  8
0
100
AcDbCircle
 62
7
  6
BYLAYER
 10
182.7286430765
 20
188.3111463211
 40
4.0
100
AcDbArc
 50
180.0
 51
270.0
  0
ARC
  5
4AA
100
AcDbEntity
  8
0
100
AcDbCircle
 62
7
  6
BYLAYER
 10
183.2286430765
 20
188.8111463211
 40
3.5
100
AcDbArc
 50
0.0
 51
90.0
  0
ARC
  5
4AB
100
AcDbEntity
  8
0
100
AcDbCircle
 62
7
  6
BYLAYER
 10
182.7286430765
 20
188.3111463211
 40
3.5
100
AcDbArc
 50
180.0000000001
 51
270.0
  0
CIRCLE
  5
4AC
100
AcDbEntity
  8
0
100
AcDbCircle
 62
7
  6
BYLAYER
 10
183.2286430794
 20
188.8116332372
 40
3.3
  0
CIRCLE
  5
4AD
100
AcDbEntity
  8
0
100
AcDbCircle
 62
7
  6
BYLAYER
 10
183.2286430794
 20
188.8116332372
 40
2.2999997533
  0
ARC
  5
4AE
100
AcDbEntity
  8
0
100
AcDbCircle
 62
7
  6
BYLAYER
 10
187.7286430765
 20
185.3111463211
 40
1.0
100
AcDbArc
 50
180.0000000487
 51
270.0
  0
ARC
  5
4AF
100
AcDbEntity
  8
0
100
AcDbCircle
 62
7
  6
BYLAYER
 10
196.2286430765
 20
186.8111463211
 40
1.0
100
AcDbArc
 50
180.0
 51
270.0
  0
ARC
  5
4B0
100
AcDbEntity
  8
0
100
AcDbCircle
 62
7
  6
BYLAYER
 10
196.2286430765
 20
188.3111463211
 40
1.0
100
AcDbArc
 50
90.0
 51
180.0
  0
ARC
  5
4B1
100
AcDbEntity
  8
0
100
AcDbCircle
 62
7
  6
BYLAYER
 10
196.2286430765
 20
188.3111463211
 40
0.5
100
AcDbArc
 50
90.0
 51
180.0
  0
ARC
  5
4B2
100
AcDbEntity
  8
0
100
AcDbCircle
 62
7
  6
BYLAYER
 10
196.2286430765
 20
186.8111463211
 40
0.5
100
AcDbArc
 50
180.0
 51
270.0
  0
ARC
  5
4B3
100
AcDbEntity
  8
0
100
AcDbCircle
 62
7
  6
BYLAYER
 10
199.2286430765
 20
185.8111463211
 40
0.5
100
AcDbArc
 50
0.0
 51
90.0
  0
ARC
  5
4B4
100
AcDbEntity
  8
0
100
AcDbCircle
 62
7
  6
BYLAYER
 10
199.2286430765
 20
184.8111463211
 40
0.5
100
AcDbArc
 50
270.0
 51
360.0
  0
ARC
  5
4B5
100
AcDbEntity
  8
3
100
AcDbCircle
 62
7
  6
BYLAYER
 10
196.2291181196
 20
186.8116277955
 40
0.5
100
AcDbArc
 50
180.0
 51
270.0
  0
ARC
  5
4B6
100
AcDbEntity
  8
3
100
AcDbCircle
 62
7
  6
BYLAYER
 10
199.2291181196
 20
184.8116277955
 40
0.5
100
AcDbArc
 50
325.9200983883
 51
360.0
  0
ARC
  5
4B7
100
AcDbEntity
  8
0
100
AcDbCircle
 62
7
  6
BYLAYER
 10
194.7293708875
 20
199.8113870583
 40
8.5
100
AcDbArc
 50
359.882529901
 51
179.882529901
  0
ARC
  5
4B8
100
AcDbEntity
  8
0
100
AcDbCircle
 62
7
  6
BYLAYER
 10
194.7293708875
 20
199.8113870583
 40
8.1052964846
100
AcDbArc
 50
359.882529901
 51
179.882529901
  0
ARC
  5
4B9
100
AcDbEntity
  8
0
100
AcDbCircle
 62
7
  6
BYLAYER
 10
194.7293708875
 20
199.8113870583
 40
7.8947035154
100
AcDbArc
 50
359.882529901
 51
179.882529901
  0
ARC
  5
4BA
100
AcDbEntity
  8
0
100
AcDbCircle
 62
7
  6
BYLAYER
 10
179.7286430765
 20
193.3111463211
 40
1.0
100
AcDbArc
 50
180.0
 51
269.9999999513
  0
ARC
  5
4BB
100
AcDbEntity
  8
0
100
AcDbCircle
 62
7
  6
BYLAYER
 10
182.7286430765
 20
204.3111463211
 40
1.0
100
AcDbArc
 50
270.0
 51
360.0
  0
ARC
  5
4BC
100
AcDbEntity
  8
0
100
AcDbCircle
 62
7
  6
BYLAYER
 10
181.2286430765
 20
204.3111463211
 40
1.0
100
AcDbArc
 50
180.0
 51
270.0
  0
ARC
  5
4BD
100
AcDbEntity
  8
0
100
AcDbCircle
 62
7
  6
BYLAYER
 10
181.2286430765
 20
204.3111463211
 40
0.5
100
AcDbArc
 50
180.0
 51
270.0
  0
ARC
  5
4BE
100
AcDbEntity
  8
0
100
AcDbCircle
 62
7
  6
BYLAYER
 10
182.7286430765
 20
204.3111463211
 40
0.5
100
AcDbArc
 50
270.0
 51
360.0
  0
ARC
  5
4BF
100
AcDbEntity
  8
3
100
AcDbCircle
 62
7
  6
BYLAYER
 10
181.2291181196
 20
204.3116451104
 40
0.5
100
AcDbArc
 50
180.0
 51
270.0
  0
ARC
  5
4C0
100
AcDbEntity
  8
4
100
AcDbCircle
 62
7
  6
BYLAYER
 10
231.917863803
 20
177.0697262433
 40
7.0
100
AcDbArc
 50
0.0
 51
90.0
  0
ARC
  5
4C1
100
AcDbEntity
  8
0
100
AcDbCircle
 62
7
  6
BYLAYER
 10
224.2286430765
 20
188.8111463211
 40
4.5
100
AcDbArc
 50
90.0
 51
180.0
  0
ARC
  5
4C2
100
AcDbEntity
  8
4
100
AcDbCircle
 62
7
  6
BYLAYER
 10
231.917863803
 20
177.0697262433
 40
4.0
100
AcDbArc
 50
0.0
 51
90.0
  0
ARC
  5
4C3
100
AcDbEntity
  8
0
100
AcDbCircle
 62
7
  6
BYLAYER
 10
224.7286430765
 20
188.3111463211
 40
4.0
100
AcDbArc
 50
270.0
 51
360.0
  0
ARC
  5
4C4
100
AcDbEntity
  8
3
100
AcDbCircle
 62
7
  6
BYLAYER
 10
224.7291181196
 20
188.3116277955
 40
4.0
100
AcDbArc
 50
320.9119170749
 51
333.2529741994
  0
ARC
  5
4C5
100
AcDbEntity
  8
0
100
AcDbCircle
 62
7
  6
BYLAYER
 10
224.2286430765
 20
188.8111463211
 40
3.5
100
AcDbArc
 50
90.0
 51
180.0
  0
ARC
  5
4C6
100
AcDbEntity
  8
0
100
AcDbCircle
 62
7
  6
BYLAYER
 10
224.7286430765
 20
188.3111463211
 40
3.5
100
AcDbArc
 50
270.0000000003
 51
360.0
  0
CIRCLE
  5
4C7
100
AcDbEntity
  8
0
100
AcDbCircle
 62
7
  6
BYLAYER
 10
224.2286430765
 20
188.8111463211
 40
3.3
  0
CIRCLE
  5
4C8
100
AcDbEntity
  8
0
100
AcDbCircle
 62
7
  6
BYLAYER
 10
224.2286430765
 20
188.8111463211
 40
2.2999997533
  0
ARC
  5
4C9
100
AcDbEntity
  8
0
100
AcDbCircle
 62
7
  6
BYLAYER
 10
219.7286430765
 20
185.3111463211
 40
1.0
100
AcDbArc
 50
270.0
 51
359.9999999513
  0
ARC
  5
4CA
100
AcDbEntity
  8
0
100
AcDbCircle
 62
7
  6
BYLAYER
 10
211.2286430765
 20
188.3111463211
 40
1.0
100
AcDbArc
 50
0.0
 51
90.0
  0
ARC
  5
4CB
100
AcDbEntity
  8
0
100
AcDbCircle
 62
7
  6
BYLAYER
 10
211.2286430765
 20
186.8111463211
 40
1.0
100
AcDbArc
 50
270.0
 51
360.0
  0
ARC
  5
4CC
100
AcDbEntity
  8
0
100
AcDbCircle
 62
7
  6
BYLAYER
 10
208.2286430765
 20
184.8111463211
 40
0.5
100
AcDbArc
 50
180.0000000001
 51
270.0
  0
ARC
  5
4CD
100
AcDbEntity
  8
0
100
AcDbCircle
 62
7
  6
BYLAYER
 10
208.2286430765
 20
185.8111463211
 40
0.5
100
AcDbArc
 50
89.9999999999
 51
180.0000000002
  0
ARC
  5
4CE
100
AcDbEntity
  8
0
100
AcDbCircle
 62
7
  6
BYLAYER
 10
211.2286430765
 20
186.8111463211
 40
0.5
100
AcDbArc
 50
270.0
 51
360.0
  0
ARC
  5
4CF
100
AcDbEntity
  8
0
100
AcDbCircle
 62
7
  6
BYLAYER
 10
211.2286430765
 20
188.3111463211
 40
0.5
100
AcDbArc
 50
0.0
 51
90.0
  0
ARC
  5
4D0
100
AcDbEntity
  8
0
100
AcDbCircle
 62
7
  6
BYLAYER
 10
212.7293708875
 20
199.8113870583
 40
8.5
100
AcDbArc
 50
359.882529901
 51
179.882529901
  0
ARC
  5
4D1
100
AcDbEntity
  8
0
100
AcDbCircle
 62
7
  6
BYLAYER
 10
212.7293708875
 20
199.8113870583
 40
8.1054946602
100
AcDbArc
 50
359.882529901
 51
179.882529901
  0
ARC
  5
4D2
100
AcDbEntity
  8
0
100
AcDbCircle
 62
7
  6
BYLAYER
 10
212.7293708875
 20
199.8113870583
 40
7.8945053398
100
AcDbArc
 50
359.882529901
 51
179.882529901
  0
ARC
  5
4D3
100
AcDbEntity
  8
0
100
AcDbCircle
 62
7
  6
BYLAYER
 10
227.7286430765
 20
193.3111463211
 40
1.0
100
AcDbArc
 50
270.0000000487
 51
360.0
  0
ARC
  5
4D4
100
AcDbEntity
  8
0
100
AcDbCircle
 62
7
  6
BYLAYER
 10
226.2286430765
 20
204.3111463211
 40
1.0
100
AcDbArc
 50
270.0
 51
360.0
  0
ARC
  5
4D5
100
AcDbEntity
  8
0
100
AcDbCircle
 62
7
  6
BYLAYER
 10
224.7286430765
 20
204.3111463211
 40
1.0
100
AcDbArc
 50
180.0
 51
270.0
  0
ARC
  5
4D6
100
AcDbEntity
  8
0
100
AcDbCircle
 62
7
  6
BYLAYER
 10
224.7286430765
 20
204.3111463211
 40
0.5
100
AcDbArc
 50
180.0
 51
270.0
  0
ARC
  5
4D7
100
AcDbEntity
  8
0
100
AcDbCircle
 62
7
  6
BYLAYER
 10
226.2286430765
 20
204.3111463211
 40
0.5
100
AcDbArc
 50
270.0
 51
360.0
  0
ARC
  5
4D8
100
AcDbEntity
  8
3
100
AcDbCircle
 62
7
  6
BYLAYER
 10
224.7291181196
 20
204.3116451104
 40
0.5
100
AcDbArc
 50
180.0
 51
270.0
  0
CIRCLE
  5
4D9
100
AcDbEntity
  8
0
100
AcDbCircle
 62
7
  6
BYLAYER
 10
203.7286430765
 20
211.7611463211
 40
17.0
  0
CIRCLE
  5
4DA
100
AcDbEntity
  8
0
100
AcDbCircle
 62
7
  6
BYLAYER
 10
203.7286430765
 20
211.7611463211
 40
16.5
  0
CIRCLE
  5
4DB
100
AcDbEntity
  8
0
100
AcDbCircle
 62
7
  6
BYLAYER
 10
203.7286430765
 20
211.7611463211
 40
15.0
  0
CIRCLE
  5
4DC
100
AcDbEntity
  8
0
100
AcDbCircle
 62
7
  6
BYLAYER
 10
203.7286430765
 20
211.7611463211
 40
14.5
  0
ARC
  5
4DD
100
AcDbEntity
  8
0
100
AcDbCircle
 62
7
  6
BYLAYER
 10
194.7293708875
 20
222.3113870583
 40
8.5
100
AcDbArc
 50
179.882529901
 51
359.882529901
  0
ARC
  5
4DE
100
AcDbEntity
  8
0
100
AcDbCircle
 62
7
  6
BYLAYER
 10
194.7293708875
 20
222.3113870583
 40
8.1052090289
100
AcDbArc
 50
179.882529901
 51
359.882529901
  0
ARC
  5
4DF
100
AcDbEntity
  8
0
100
AcDbCircle
 62
7
  6
BYLAYER
 10
194.7293708875
 20
222.3113870583
 40
7.8947909711
100
AcDbArc
 50
179.882529901
 51
359.882529901
  0
ARC
  5
4E0
100
AcDbEntity
  8
0
100
AcDbCircle
 62
7
  6
BYLAYER
 10
181.2286430765
 20
219.3111463211
 40
1.0
100
AcDbArc
 50
90.0
 51
180.0
  0
ARC
  5
4E1
100
AcDbEntity
  8
0
100
AcDbCircle
 62
7
  6
BYLAYER
 10
182.7286430765
 20
219.3111463211
 40
1.0
100
AcDbArc
 50
0.0
 51
90.0
  0
ARC
  5
4E2
100
AcDbEntity
  8
0
100
AcDbCircle
 62
7
  6
BYLAYER
 10
180.2286430765
 20
207.3111463211
 40
0.5
100
AcDbArc
 50
0.0
 51
90.0
  0
ARC
  5
4E3
100
AcDbEntity
  8
0
100
AcDbCircle
 62
7
  6
BYLAYER
 10
182.7286430765
 20
219.3111463211
 40
0.5
100
AcDbArc
 50
0.0
 51
90.0
  0
ARC
  5
4E4
100
AcDbEntity
  8
0
100
AcDbCircle
 62
7
  6
BYLAYER
 10
181.2286430765
 20
219.3111463211
 40
0.5
100
AcDbArc
 50
90.0
 51
180.0
  0
ARC
  5
4E5
100
AcDbEntity
  8
0
100
AcDbCircle
 62
7
  6
BYLAYER
 10
180.2286430765
 20
216.3111463211
 40
0.5
100
AcDbArc
 50
270.0
 51
360.0
  0
ARC
  5
4E6
100
AcDbEntity
  8
0
100
AcDbCircle
 62
7
  6
BYLAYER
 10
179.2286430765
 20
216.3111463211
 40
0.5
100
AcDbArc
 50
180.0
 51
270.0000000001
  0
ARC
  5
4E7
100
AcDbEntity
  8
0
100
AcDbCircle
 62
7
  6
BYLAYER
 10
179.2286430765
 20
207.3111463211
 40
0.5
100
AcDbArc
 50
89.9999999999
 51
180.0
  0
ARC
  5
4E8
100
AcDbEntity
  8
0
100
AcDbCircle
 62
7
  6
BYLAYER
 10
182.2286430765
 20
228.8111463211
 40
4.5
100
AcDbArc
 50
270.0
 51
90.0
  0
ARC
  5
4E9
100
AcDbEntity
  8
0
100
AcDbCircle
 62
7
  6
BYLAYER
 10
182.2286430765
 20
228.8111463211
 40
3.5
100
AcDbArc
 50
270.0
 51
90.0
  0
CIRCLE
  5
4EA
100
AcDbEntity
  8
0
100
AcDbCircle
 62
7
  6
BYLAYER
 10
182.2291181195
 20
228.8116451103
 40
3.3
  0
CIRCLE
  5
4EB
100
AcDbEntity
  8
0
100
AcDbCircle
 62
7
  6
BYLAYER
 10
182.2291181195
 20
228.8116451103
 40
2.2999997533
  0
ARC
  5
4EC
100
AcDbEntity
  8
0
100
AcDbCircle
 62
7
  6
BYLAYER
 10
179.7286430765
 20
224.3111463211
 40
1.0
100
AcDbArc
 50
90.0000000487
 51
180.0
  0
ARC
  5
4ED
100
AcDbEntity
  8
0
100
AcDbCircle
 62
7
  6
BYLAYER
 10
183.0677954678
 20
233.1382140706
 40
3.9449861635
100
AcDbArc
 50
164.0358294648
 51
169.7115065626
  0
ARC
  5
4EE
100
AcDbEntity
  8
0
100
AcDbCircle
 62
7
  6
BYLAYER
 10
182.8585949296
 20
233.176793128
 40
3.7322590256
100
AcDbArc
 50
169.7206339393
 51
172.7830434226
  0
ARC
  5
4EF
100
AcDbEntity
  8
0
100
AcDbCircle
 62
7
  6
BYLAYER
 10
182.492575099
 20
237.3111463212
 40
1.9999999999
100
AcDbArc
 50
26.5650511762
 51
90.0000000007
  0
ARC
  5
4F0
100
AcDbEntity
  8
0
100
AcDbCircle
 62
7
  6
BYLAYER
 10
182.2372459021
 20
237.3111463211
 40
2.0000000001
100
AcDbArc
 50
90.0000000009
 51
164.0546040979
  0
ARC
  5
4F1
100
AcDbEntity
  8
0
100
AcDbCircle
 62
7
  6
BYLAYER
 10
180.7172380528
 20
233.8111463211
 40
2.0
100
AcDbArc
 50
226.4791023345
 51
270.0
  0
ARC
  5
4F2
100
AcDbEntity
  8
3
100
AcDbCircle
 62
7
  6
BYLAYER
 10
182.2377209451
 20
237.3116451103
 40
2.0000000001
100
AcDbArc
 50
90.0502132297
 51
126.658944493
  0
ARC
  5
4F3
100
AcDbEntity
  8
3
100
AcDbCircle
 62
7
  6
BYLAYER
 10
182.4940307211
 20
237.3116451104
 40
2.0
100
AcDbArc
 50
26.5650511771
 51
90.0
  0
ARC
  5
4F4
100
AcDbEntity
  8
0
100
AcDbCircle
 62
7
  6
BYLAYER
 10
180.7172380528
 20
233.8111463211
 40
1.5
100
AcDbArc
 50
164.0546040989
 51
270.0
  0
ARC
  5
4F5
100
AcDbEntity
  8
0
100
AcDbCircle
 62
7
  6
BYLAYER
 10
182.492575099
 20
237.3111463212
 40
1.0
100
AcDbArc
 50
26.5650511749
 51
90.0000000011
  0
ARC
  5
4F6
100
AcDbEntity
  8
0
100
AcDbCircle
 62
7
  6
BYLAYER
 10
182.237245902
 20
237.3111463211
 40
1.0000000001
100
AcDbArc
 50
90.0000000011
 51
164.0546040963
  0
ARC
  5
4F7
100
AcDbEntity
  8
0
100
AcDbCircle
 62
7
  6
BYLAYER
 10
180.7172380528
 20
233.8111463211
 40
0.4999917214
100
AcDbArc
 50
164.0546040974
 51
269.9371406556
  0
ARC
  5
4F8
100
AcDbEntity
  8
0
100
AcDbCircle
 62
7
  6
BYLAYER
 10
188.7286430765
 20
230.9105968747
 40
10.0
100
AcDbArc
 50
164.0546040991
 51
180.0
  0
ARC
  5
4F9
100
AcDbEntity
  8
0
100
AcDbCircle
 62
7
  6
BYLAYER
 10
188.7286430765
 20
230.9105968747
 40
9.5
100
AcDbArc
 50
171.2186899299
 51
180.0
  0
ARC
  5
4FA
100
AcDbEntity
  8
0
100
AcDbCircle
 62
7
  6
BYLAYER
 10
184.2286430765
 20
237.1931123324
 40
0.5
100
AcDbArc
 50
0.0
 51
26.5650511771
  0
ARC
  5
4FB
100
AcDbEntity
  8
3
100
AcDbCircle
 62
7
  6
BYLAYER
 10
184.2300986985
 20
237.1936111216
 40
0.5000000001
100
AcDbArc
 50
0.0
 51
26.5650511771
  0
ARC
  5
4FC
100
AcDbEntity
  8
0
100
AcDbCircle
 62
7
  6
BYLAYER
 10
212.7293708875
 20
222.3113870583
 40
8.5
100
AcDbArc
 50
179.882529901
 51
359.882529901
  0
ARC
  5
4FD
100
AcDbEntity
  8
0
100
AcDbCircle
 62
7
  6
BYLAYER
 10
212.7293708875
 20
222.3113870583
 40
8.1052090289
100
AcDbArc
 50
179.882529901
 51
359.882529901
  0
ARC
  5
4FE
100
AcDbEntity
  8
0
100
AcDbCircle
 62
7
  6
BYLAYER
 10
212.7293708875
 20
222.3113870583
 40
7.8947909711
100
AcDbArc
 50
179.882529901
 51
359.882529901
  0
ARC
  5
4FF
100
AcDbEntity
  8
0
100
AcDbCircle
 62
7
  6
BYLAYER
 10
224.7286430765
 20
219.3111463211
 40
1.0
100
AcDbArc
 50
90.0
 51
180.0
  0
ARC
  5
500
100
AcDbEntity
  8
0
100
AcDbCircle
 62
7
  6
BYLAYER
 10
226.2286430765
 20
219.3111463211
 40
1.0
100
AcDbArc
 50
0.0
 51
90.0
  0
ARC
  5
501
100
AcDbEntity
  8
0
100
AcDbCircle
 62
7
  6
BYLAYER
 10
228.2286430765
 20
216.3111463211
 40
0.5
100
AcDbArc
 50
270.0000000001
 51
360.0
  0
ARC
  5
502
100
AcDbEntity
  8
0
100
AcDbCircle
 62
7
  6
BYLAYER
 10
227.2286430765
 20
216.3111463211
 40
0.5
100
AcDbArc
 50
180.0
 51
270.0000000004
  0
ARC
  5
503
100
AcDbEntity
  8
0
100
AcDbCircle
 62
7
  6
BYLAYER
 10
226.2286430765
 20
219.3111463211
 40
0.5
100
AcDbArc
 50
0.0
 51
90.0
  0
ARC
  5
504
100
AcDbEntity
  8
0
100
AcDbCircle
 62
7
  6
BYLAYER
 10
224.7286430765
 20
219.3111463211
 40
0.5
100
AcDbArc
 50
90.0
 51
180.0
  0
ARC
  5
505
100
AcDbEntity
  8
0
100
AcDbCircle
 62
7
  6
BYLAYER
 10
227.2286430765
 20
207.3111463211
 40
0.5
100
AcDbArc
 50
90.0
 51
180.0
  0
ARC
  5
506
100
AcDbEntity
  8
0
100
AcDbCircle
 62
7
  6
BYLAYER
 10
228.2286430765
 20
207.3111463211
 40
0.5
100
AcDbArc
 50
0.0
 51
90.0000000001
  0
ARC
  5
507
100
AcDbEntity
  8
3
100
AcDbCircle
 62
7
  6
BYLAYER
 10
228.2291181196
 20
216.3116451104
 40
0.5
100
AcDbArc
 50
325.9215095359
 51
360.0
  0
ARC
  5
508
100
AcDbEntity
  8
3
100
AcDbCircle
 62
7
  6
BYLAYER
 10
228.2291181196
 20
207.3116451104
 40
0.5
100
AcDbArc
 50
33.1395268765
 51
90.0
  0
ARC
  5
509
100
AcDbEntity
  8
0
100
AcDbCircle
 62
7
  6
BYLAYER
 10
218.7286430765
 20
230.9105968747
 40
10.0
100
AcDbArc
 50
0.0
 51
15.9453959009
  0
ARC
  5
50A
100
AcDbEntity
  8
3
100
AcDbCircle
 62
7
  6
BYLAYER
 10
218.7291181198
 20
230.9110956639
 40
9.9999999998
100
AcDbArc
 50
0.0000000001
 51
15.9453959017
  0
ARC
  5
50B
100
AcDbEntity
  8
0
100
AcDbCircle
 62
7
  6
BYLAYER
 10
218.7286430765
 20
230.9105968747
 40
9.5
100
AcDbArc
 50
0.0
 51
8.7813100786
  0
ARC
  5
50C
100
AcDbEntity
  8
3
100
AcDbCircle
 62
7
  6
BYLAYER
 10
223.2281375405
 20
237.1936111216
 40
0.5
100
AcDbArc
 50
153.4349488239
 51
180.0000000006
  0
ARC
  5
50D
100
AcDbEntity
  8
0
100
AcDbCircle
 62
7
  6
BYLAYER
 10
225.2286430765
 20
228.8111463211
 40
4.5
100
AcDbArc
 50
90.0
 51
270.0
  0
ARC
  5
50E
100
AcDbEntity
  8
0
100
AcDbCircle
 62
7
  6
BYLAYER
 10
225.2286430765
 20
228.8111463211
 40
3.5
100
AcDbArc
 50
90.0
 51
270.0
  0
CIRCLE
  5
50F
100
AcDbEntity
  8
0
100
AcDbCircle
 62
7
  6
BYLAYER
 10
225.2291181165
 20
228.8111344423
 40
3.3
  0
CIRCLE
  5
510
100
AcDbEntity
  8
0
100
AcDbCircle
 62
7
  6
BYLAYER
 10
225.2291181165
 20
228.8111344423
 40
2.2999997533
  0
ARC
  5
511
100
AcDbEntity
  8
0
100
AcDbCircle
 62
7
  6
BYLAYER
 10
227.7286430765
 20
224.3111463211
 40
1.0
100
AcDbArc
 50
0.0
 51
89.9999999944
  0
ARC
  5
512
100
AcDbEntity
  8
0
100
AcDbCircle
 62
7
  6
BYLAYER
 10
224.3896221352
 20
233.1382469253
 40
3.9448507469
100
AcDbArc
 50
10.2772436142
 51
15.9642368504
  0
ARC
  5
513
100
AcDbEntity
  8
0
100
AcDbCircle
 62
7
  6
BYLAYER
 10
224.5992117436
 20
233.1768715032
 40
3.7317327832
100
AcDbArc
 50
7.2167667611
 51
10.267851731
  0
ARC
  5
514
100
AcDbEntity
  8
0
100
AcDbCircle
 62
7
  6
BYLAYER
 10
224.964711054
 20
237.3111463211
 40
2.0
100
AcDbArc
 50
90.0
 51
153.4349488229
  0
ARC
  5
515
100
AcDbEntity
  8
0
100
AcDbCircle
 62
7
  6
BYLAYER
 10
225.220040251
 20
237.3111463212
 40
2.0
100
AcDbArc
 50
15.9453959
 51
90.0000000006
  0
ARC
  5
516
100
AcDbEntity
  8
0
100
AcDbCircle
 62
7
  6
BYLAYER
 10
226.7400481002
 20
233.8111463211
 40
2.0
100
AcDbArc
 50
270.0
 51
313.5208976482
  0
ARC
  5
517
100
AcDbEntity
  8
3
100
AcDbCircle
 62
7
  6
BYLAYER
 10
224.964205518
 20
237.3116451104
 40
2.0
100
AcDbArc
 50
96.8546963664
 51
129.1834252274
  0
ARC
  5
518
100
AcDbEntity
  8
3
100
AcDbCircle
 62
7
  6
BYLAYER
 10
225.220515294
 20
237.3116451104
 40
2.0
100
AcDbArc
 50
15.9453959017
 51
90.0
  0
ARC
  5
519
100
AcDbEntity
  8
0
100
AcDbCircle
 62
7
  6
BYLAYER
 10
226.7400481002
 20
233.8111463211
 40
1.5
100
AcDbArc
 50
270.0
 51
15.9453959006
  0
ARC
  5
51A
100
AcDbEntity
  8
0
100
AcDbCircle
 62
7
  6
BYLAYER
 10
225.220040251
 20
237.3111463212
 40
1.0
100
AcDbArc
 50
15.9453958967
 51
90.0000000014
  0
ARC
  5
51B
100
AcDbEntity
  8
0
100
AcDbCircle
 62
7
  6
BYLAYER
 10
224.964711054
 20
237.3111463211
 40
1.0
100
AcDbArc
 50
90.0
 51
153.4349488229
  0
ARC
  5
51C
100
AcDbEntity
  8
0
100
AcDbCircle
 62
7
  6
BYLAYER
 10
223.2286430765
 20
237.1931123324
 40
0.5
100
AcDbArc
 50
153.4349488229
 51
180.0
  0
ARC
  5
51D
100
AcDbEntity
  8
0
100
AcDbCircle
 62
7
  6
BYLAYER
 10
226.7400481002
 20
233.8111463211
 40
0.4999955025
100
AcDbArc
 50
270.0000000006
 51
15.8825365548
  0
SPLINE
  5
51E
100
AcDbEntity
  8
0
100
AcDbSpline
 62
7
  6
BYLAYER
 70
0
 71
3
 72
9
 73
5
 74
0
 42
0.0000001
 43
0.0000001
 44
0.0000000001
 40
0.0
 40
0.0
 40
0.0
 40
0.0
 40
0.4985318208
 40
1.0
 40
1.0
 40
1.0
 40
1.0
 10
31.6908691979
 20
232.3608999105
 30
0.0
 10
31.5919128892
 20
232.5550191201
 30
0.0
 10
31.4772389107
 20
232.9873436802
 30
0.0
 10
31.4807945473
 20
233.4280401991
 30
0.0
 10
31.5067737117
 20
233.6456651074
 30
0.0
  0
SPLINE
  5
51F
100
AcDbEntity
  8
0
100
AcDbSpline
 62
7
  6
BYLAYER
 70
0
 71
3
 72
9
 73
5
 74
0
 42
0.0000001
 43
0.0000001
 44
0.0000000001
 40
0.0
 40
0.0
 40
0.0
 40
0.0
 40
0.5305445917
 40
1.0
 40
1.0
 40
1.0
 40
1.0
 10
31.5067735923
 20
233.6456650446
 30
0.0
 10
31.5256494635
 20
233.6647212515
 30
0.0
 10
31.5565139064
 20
233.7061443418
 30
0.0
 10
31.5688889741
 20
233.757219371
 30
0.0
 10
31.5684111655
 20
233.7809484551
 30
0.0
  0
SPLINE
  5
520
100
AcDbEntity
  8
0
100
AcDbSpline
 62
7
  6
BYLAYER
 70
0
 71
3
 72
17
 73
13
 74
0
 42
0.0000001
 43
0.0000001
 44
0.0000000001
 40
0.0
 40
0.0
 40
0.0
 40
0.0
 40
0.1671689366
 40
0.3304367472
 40
0.484554343
 40
0.6288375353
 40
0.7612061854
 40
0.8764770667
 40
0.9251467146
 40
0.9643278769
 40
0.9904777397
 40
1.0
 40
1.0
 40
1.0
 40
1.0
 10
31.5795121954
 20
225.8111463211
 30
0.0
 10
31.5795122095
 20
225.7693133748
 30
0.0
 10
31.6006667931
 20
225.6867393576
 30
0.0
 10
31.6621677199
 20
225.5814736307
 30
0.0
 10
31.7391872645
 20
225.4944283626
 30
0.0
 10
31.8235802596
 20
225.4266712101
 30
0.0
 10
31.908109696
 20
225.3764678417
 30
0.0
 10
31.9757696956
 20
225.3457254846
 30
0.0
 10
32.0235319515
 20
225.3283991659
 30
0.0
 10
32.0505851948
 20
225.3191456481
 30
0.0
 10
32.0686841292
 20
225.3146072803
 30
0.0
 10
32.0771393619
 20
225.3113649215
 30
0.0
 10
32.0795121979
 20
225.3111463215
 30
0.0
  0
SPLINE
  5
521
100
AcDbEntity
  8
0
100
AcDbSpline
 62
7
  6
BYLAYER
 70
0
 71
3
 72
17
 73
13
 74
0
 42
0.0000001
 43
0.0000001
 44
0.0000000001
 40
0.0
 40
0.0
 40
0.0
 40
0.0
 40
0.0095222603
 40
0.0356721232
 40
0.0748532856
 40
0.1235229336
 40
0.2387938151
 40
0.3711624653
 40
0.5154456575
 40
0.6695632532
 40
0.8328310636
 40
1.0
 40
1.0
 40
1.0
 40
1.0
 10
32.0795121997
 20
192.3111463208
 30
0.0
 10
32.0771392961
 20
192.3109284546
 30
0.0
 10
32.0686842194
 20
192.3076843991
 30
0.0
 10
32.0505851466
 20
192.303147535
 30
0.0
 10
32.0235319722
 20
192.2938932676
 30
0.0
 10
31.9757696827
 20
192.276567314
 30
0.0
 10
31.9081097032
 20
192.2458247361
 30
0.0
 10
31.8235802589
 20
192.1956214519
 30
0.0
 10
31.7391872661
 20
192.1278642735
 30
0.0
 10
31.6621677207
 20
192.0408190132
 30
0.0
 10
31.600666794
 20
191.935553284
 30
0.0
 10
31.5795122104
 20
191.8529792674
 30
0.0
 10
31.5795121963
 20
191.8111463211
 30
0.0
  0
SPLINE
  5
522
100
AcDbEntity
  8
0
100
AcDbSpline
 62
7
  6
BYLAYER
 70
0
 71
3
 72
17
 73
13
 74
0
 42
0.0000001
 43
0.0000001
 44
0.0000000001
 40
0.0
 40
0.0
 40
0.0
 40
0.0
 40
0.1671689366
 40
0.3304367472
 40
0.484554343
 40
0.6288375353
 40
0.7612061854
 40
0.8764770668
 40
0.9251467146
 40
0.9643278769
 40
0.9904777397
 40
1.0
 40
1.0
 40
1.0
 40
1.0
 10
38.579512188
 20
184.8111463285
 30
0.0
 10
38.6213451343
 20
184.8111463426
 30
0.0
 10
38.7039191515
 20
184.8323009262
 30
0.0
 10
38.8091848785
 20
184.893801853
 30
0.0
 10
38.8962301465
 20
184.9708213976
 30
0.0
 10
38.9639872993
 20
185.0552143927
 30
0.0
 10
39.0141906666
 20
185.1397438292
 30
0.0
 10
39.0449330265
 20
185.2074038285
 30
0.0
 10
39.0622593406
 20
185.2551660848
 30
0.0
 10
39.0715128677
 20
185.2822193273
 30
0.0
 10
39.0760512169
 20
185.3003182634
 30
0.0
 10
39.0792935967
 20
185.3087734942
 30
0.0
 10
39.0795121876
 20
185.3111463311
 30
0.0
  0
SPLINE
  5
523
100
AcDbEntity
  8
0
100
AcDbSpline
 62
7
  6
BYLAYER
 70
0
 71
3
 72
17
 73
13
 74
0
 42
0.0000001
 43
0.0000001
 44
0.0000000001
 40
0.0
 40
0.0
 40
0.0
 40
0.0
 40
0.0095222604
 40
0.0356721232
 40
0.0748532856
 40
0.1235229336
 40
0.2387938151
 40
0.3711624653
 40
0.5154456575
 40
0.6695632532
 40
0.8328310636
 40
1.0
 40
1.0
 40
1.0
 40
1.0
 10
73.0795121884
 20
185.3111463328
 30
0.0
 10
73.0797300114
 20
185.3087734253
 30
0.0
 10
73.0829741665
 20
185.3003183577
 30
0.0
 10
73.0875109424
 20
185.2822192768
 30
0.0
 10
73.0967652538
 20
185.2551661064
 30
0.0
 10
73.114091186
 20
185.2074038149
 30
0.0
 10
73.1448337768
 20
185.1397438367
 30
0.0
 10
73.195037056
 20
185.0552143919
 30
0.0
 10
73.262794236
 20
184.9708213993
 30
0.0
 10
73.3498394959
 20
184.8938018538
 30
0.0
 10
73.4551052252
 20
184.8323009272
 30
0.0
 10
73.5376792418
 20
184.8111463435
 30
0.0
 10
73.579512188
 20
184.8111463294
 30
0.0
  0
SPLINE
  5
524
100
AcDbEntity
  8
0
100
AcDbSpline
 62
7
  6
BYLAYER
 70
0
 71
3
 72
17
 73
13
 74
0
 42
0.0000001
 43
0.0000001
 44
0.0000000001
 40
0.0
 40
0.0
 40
0.0
 40
0.0
 40
0.1671689366
 40
0.3304367472
 40
0.484554343
 40
0.6288375353
 40
0.7612061854
 40
0.8764770668
 40
0.9251467146
 40
0.9643278769
 40
0.9904777397
 40
1.0
 40
1.0
 40
1.0
 40
1.0
 10
80.5795121806
 20
191.8111463211
 30
0.0
 10
80.5795121665
 20
191.8529792674
 30
0.0
 10
80.5583575829
 20
191.9355532848
 30
0.0
 10
80.4968566561
 20
192.0408190109
 30
0.0
 10
80.4198371117
 20
192.127864282
 30
0.0
 10
80.3354441157
 20
192.1956214244
 30
0.0
 10
80.2509146823
 20
192.2458248257
 30
0.0
 10
80.1832546748
 20
192.2765670965
 30
0.0
 10
80.1354924321
 20
192.2938935579
 30
0.0
 10
80.1084391618
 20
192.3031467827
 30
0.0
 10
80.0903402815
 20
192.3076857384
 30
0.0
 10
80.0818849876
 20
192.3109274339
 30
0.0
 10
80.0795121781
 20
192.3111463208
 30
0.0
  0
SPLINE
  5
525
100
AcDbEntity
  8
0
100
AcDbSpline
 62
7
  6
BYLAYER
 70
0
 71
3
 72
17
 73
13
 74
0
 42
0.0000001
 43
0.0000001
 44
0.0000000001
 40
0.0
 40
0.0
 40
0.0
 40
0.0
 40
0.0095222253
 40
0.0356720835
 40
0.074853258
 40
0.1235229208
 40
0.2387938098
 40
0.3711624545
 40
0.5154456485
 40
0.669563249
 40
0.8328310624
 40
1.0
 40
1.0
 40
1.0
 40
1.0
 10
80.0795121764
 20
225.3111463212
 30
0.0
 10
80.0818790556
 20
225.3114219624
 30
0.0
 10
80.0903480279
 20
225.3145324477
 30
0.0
 10
80.1084347706
 20
225.3191876841
 30
0.0
 10
80.1354940948
 20
225.3283829419
 30
0.0
 10
80.183253402
 20
225.3457376401
 30
0.0
 10
80.2509151956
 20
225.3764628434
 30
0.0
 10
80.3354439495
 20
225.4266727601
 30
0.0
 10
80.4198371574
 20
225.4944278938
 30
0.0
 10
80.4968566445
 20
225.5814737623
 30
0.0
 10
80.5583575875
 20
225.6867393137
 30
0.0
 10
80.5795121772
 20
225.7693133744
 30
0.0
 10
80.5795121808
 20
225.8111463211
 30
0.0
  0
SPLINE
  5
526
100
AcDbEntity
  8
0
100
AcDbSpline
 62
7
  6
BYLAYER
 70
0
 71
3
 72
9
 73
5
 74
0
 42
0.0000001
 43
0.0000001
 44
0.0000000001
 40
0.0
 40
0.0
 40
0.0
 40
0.0
 40
0.4694554082
 40
1.0
 40
1.0
 40
1.0
 40
1.0
 10
80.5906132105
 20
233.7809484551
 30
0.0
 10
80.5901354019
 20
233.7572193709
 30
0.0
 10
80.6025104696
 20
233.7061443417
 30
0.0
 10
80.6333749125
 20
233.6647212515
 30
0.0
 10
80.6522507838
 20
233.6456650445
 30
0.0
  0
SPLINE
  5
527
100
AcDbEntity
  8
0
100
AcDbSpline
 62
7
  6
BYLAYER
 70
0
 71
3
 72
9
 73
5
 74
0
 42
0.0000001
 43
0.0000001
 44
0.0000000001
 40
0.0
 40
0.0
 40
0.0
 40
0.0
 40
0.5014682006
 40
1.0
 40
1.0
 40
1.0
 40
1.0
 10
80.6522506703
 20
233.6456651043
 30
0.0
 10
80.6782298371
 20
233.4280401863
 30
0.0
 10
80.6817854754
 20
232.9873436655
 30
0.0
 10
80.5671114934
 20
232.5550191056
 30
0.0
 10
80.4681551886
 20
232.3608999039
 30
0.0
  0
SPLINE
  5
528
100
AcDbEntity
  8
0
100
AcDbSpline
 62
7
  6
BYLAYER
 70
0
 71
3
 72
9
 73
5
 74
0
 42
0.0000001
 43
0.0000001
 44
0.0000000001
 40
0.0
 40
0.0
 40
0.0
 40
0.0
 40
0.4985318208
 40
1.0
 40
1.0
 40
1.0
 40
1.0
 10
179.3400000864
 20
232.3608999105
 30
0.0
 10
179.2410437777
 20
232.5550191201
 30
0.0
 10
179.1263697993
 20
232.9873436802
 30
0.0
 10
179.1299254358
 20
233.4280401991
 30
0.0
 10
179.1559046002
 20
233.6456651074
 30
0.0
  0
SPLINE
  5
529
100
AcDbEntity
  8
0
100
AcDbSpline
 62
7
  6
BYLAYER
 70
0
 71
3
 72
9
 73
5
 74
0
 42
0.0000001
 43
0.0000001
 44
0.0000000001
 40
0.0
 40
0.0
 40
0.0
 40
0.0
 40
0.5305445917
 40
1.0
 40
1.0
 40
1.0
 40
1.0
 10
179.1559044808
 20
233.6456650446
 30
0.0
 10
179.174780352
 20
233.6647212515
 30
0.0
 10
179.2056447949
 20
233.7061443418
 30
0.0
 10
179.2180198626
 20
233.757219371
 30
0.0
 10
179.217542054
 20
233.7809484551
 30
0.0
  0
SPLINE
  5
52A
100
AcDbEntity
  8
0
100
AcDbSpline
 62
7
  6
BYLAYER
 70
0
 71
3
 72
17
 73
13
 74
0
 42
0.0000001
 43
0.0000001
 44
0.0000000001
 40
0.0
 40
0.0
 40
0.0
 40
0.0
 40
0.1671689366
 40
0.3304367472
 40
0.484554343
 40
0.6288375353
 40
0.7612061854
 40
0.8764770667
 40
0.9251467146
 40
0.9643278769
 40
0.9904777397
 40
1.0
 40
1.0
 40
1.0
 40
1.0
 10
179.2286430839
 20
225.8111463211
 30
0.0
 10
179.228643098
 20
225.7693133748
 30
0.0
 10
179.2497976816
 20
225.6867393576
 30
0.0
 10
179.3112986084
 20
225.5814736307
 30
0.0
 10
179.388318153
 20
225.4944283626
 30
0.0
 10
179.4727111481
 20
225.4266712101
 30
0.0
 10
179.5572405845
 20
225.3764678417
 30
0.0
 10
179.6249005841
 20
225.3457254846
 30
0.0
 10
179.67266284
 20
225.3283991659
 30
0.0
 10
179.6997160833
 20
225.3191456481
 30
0.0
 10
179.7178150177
 20
225.3146072803
 30
0.0
 10
179.7262702504
 20
225.3113649215
 30
0.0
 10
179.7286430864
 20
225.3111463215
 30
0.0
  0
SPLINE
  5
52B
100
AcDbEntity
  8
0
100
AcDbSpline
 62
7
  6
BYLAYER
 70
0
 71
3
 72
17
 73
13
 74
0
 42
0.0000001
 43
0.0000001
 44
0.0000000001
 40
0.0
 40
0.0
 40
0.0
 40
0.0
 40
0.0095222603
 40
0.0356721232
 40
0.0748532856
 40
0.1235229336
 40
0.2387938151
 40
0.3711624653
 40
0.5154456575
 40
0.6695632532
 40
0.8328310636
 40
1.0
 40
1.0
 40
1.0
 40
1.0
 10
179.7286430882
 20
192.3111463208
 30
0.0
 10
179.7262701848
 20
192.3109284535
 30
0.0
 10
179.7178151078
 20
192.3076844006
 30
0.0
 10
179.6997160352
 20
192.3031475342
 30
0.0
 10
179.6726628607
 20
192.2938932679
 30
0.0
 10
179.6249005712
 20
192.2765673138
 30
0.0
 10
179.5572405917
 20
192.2458247362
 30
0.0
 10
179.4727111474
 20
192.1956214519
 30
0.0
 10
179.3883181546
 20
192.1278642735
 30
0.0
 10
179.3112986092
 20
192.0408190132
 30
0.0
 10
179.2497976826
 20
191.935553284
 30
0.0
 10
179.2286430989
 20
191.8529792674
 30
0.0
 10
179.2286430848
 20
191.8111463211
 30
0.0
  0
SPLINE
  5
52C
100
AcDbEntity
  8
0
100
AcDbSpline
 62
7
  6
BYLAYER
 70
0
 71
3
 72
17
 73
13
 74
0
 42
0.0000001
 43
0.0000001
 44
0.0000000001
 40
0.0
 40
0.0
 40
0.0
 40
0.0
 40
0.1671689366
 40
0.3304367472
 40
0.484554343
 40
0.6288375353
 40
0.7612061854
 40
0.8764770668
 40
0.9251467146
 40
0.9643278769
 40
0.9904777397
 40
1.0
 40
1.0
 40
1.0
 40
1.0
 10
186.2286430765
 20
184.8111463285
 30
0.0
 10
186.2704760228
 20
184.8111463426
 30
0.0
 10
186.35305004
 20
184.8323009262
 30
0.0
 10
186.458315767
 20
184.893801853
 30
0.0
 10
186.545361035
 20
184.9708213976
 30
0.0
 10
186.6131181878
 20
185.0552143927
 30
0.0
 10
186.6633215552
 20
185.1397438292
 30
0.0
 10
186.694063915
 20
185.2074038285
 30
0.0
 10
186.7113902292
 20
185.2551660848
 30
0.0
 10
186.7206437562
 20
185.2822193273
 30
0.0
 10
186.7251821055
 20
185.3003182634
 30
0.0
 10
186.7284244852
 20
185.3087734942
 30
0.0
 10
186.7286430762
 20
185.311146331
 30
0.0
  0
SPLINE
  5
52D
100
AcDbEntity
  8
0
100
AcDbSpline
 62
7
  6
BYLAYER
 70
0
 71
3
 72
17
 73
13
 74
0
 42
0.0000001
 43
0.0000001
 44
0.0000000001
 40
0.0
 40
0.0
 40
0.0
 40
0.0
 40
0.0095222604
 40
0.0356721232
 40
0.0748532856
 40
0.1235229336
 40
0.2387938151
 40
0.3711624653
 40
0.5154456575
 40
0.6695632532
 40
0.8328310636
 40
1.0
 40
1.0
 40
1.0
 40
1.0
 10
220.7286430769
 20
185.3111463328
 30
0.0
 10
220.7288609246
 20
185.3087734276
 30
0.0
 10
220.7321050227
 20
185.3003183548
 30
0.0
 10
220.7366418491
 20
185.2822192785
 30
0.0
 10
220.7458961353
 20
185.2551661058
 30
0.0
 10
220.7632220797
 20
185.2074038154
 30
0.0
 10
220.7939646632
 20
185.1397438365
 30
0.0
 10
220.8441679452
 20
185.055214392
 30
0.0
 10
220.9119251243
 20
184.9708213993
 30
0.0
 10
220.9989703844
 20
184.8938018538
 30
0.0
 10
221.1042361137
 20
184.8323009272
 30
0.0
 10
221.1868101303
 20
184.8111463435
 30
0.0
 10
221.2286430765
 20
184.8111463294
 30
0.0
  0
SPLINE
  5
52E
100
AcDbEntity
  8
0
100
AcDbSpline
 62
7
  6
BYLAYER
 70
0
 71
3
 72
17
 73
13
 74
0
 42
0.0000001
 43
0.0000001
 44
0.0000000001
 40
0.0
 40
0.0
 40
0.0
 40
0.0
 40
0.1671689366
 40
0.3304367472
 40
0.484554343
 40
0.6288375353
 40
0.7612061854
 40
0.8764770668
 40
0.9251467146
 40
0.9643278769
 40
0.9904777397
 40
1.0
 40
1.0
 40
1.0
 40
1.0
 10
228.2286430691
 20
191.8111463211
 30
0.0
 10
228.228643055
 20
191.8529792674
 30
0.0
 10
228.2074884714
 20
191.9355532848
 30
0.0
 10
228.1459875446
 20
192.0408190109
 30
0.0
 10
228.0689680003
 20
192.1278642822
 30
0.0
 10
227.9845750042
 20
192.1956214237
 30
0.0
 10
227.900045571
 20
192.2458248278
 30
0.0
 10
227.8323855628
 20
192.2765670914
 30
0.0
 10
227.7846233212
 20
192.2938935648
 30
0.0
 10
227.7575700486
 20
192.303146765
 30
0.0
 10
227.7394711729
 20
192.3076857699
 30
0.0
 10
227.7310158739
 20
192.3109274098
 30
0.0
 10
227.7286430666
 20
192.3111463208
 30
0.0
  0
SPLINE
  5
52F
100
AcDbEntity
  8
0
100
AcDbSpline
 62
7
  6
BYLAYER
 70
0
 71
3
 72
17
 73
13
 74
0
 42
0.0000001
 43
0.0000001
 44
0.0000000001
 40
0.0
 40
0.0
 40
0.0
 40
0.0
 40
0.0095222253
 40
0.0356720835
 40
0.074853258
 40
0.1235229208
 40
0.2387938098
 40
0.3711624545
 40
0.5154456485
 40
0.669563249
 40
0.8328310624
 40
1.0
 40
1.0
 40
1.0
 40
1.0
 10
227.7286430649
 20
225.3111463212
 30
0.0
 10
227.7310099402
 20
225.3114219959
 30
0.0
 10
227.7394789216
 20
225.3145324037
 30
0.0
 10
227.7575656563
 20
225.3191877088
 30
0.0
 10
227.7846249844
 20
225.3283829323
 30
0.0
 10
227.8323842897
 20
225.3457376473
 30
0.0
 10
227.9000460845
 20
225.3764628405
 30
0.0
 10
227.9845748379
 20
225.4266727611
 30
0.0
 10
228.068968046
 20
225.4944278935
 30
0.0
 10
228.145987533
 20
225.5814737624
 30
0.0
 10
228.2074884761
 20
225.6867393137
 30
0.0
 10
228.2286430657
 20
225.7693133744
 30
0.0
 10
228.2286430693
 20
225.8111463211
 30
0.0
  0
SPLINE
  5
530
100
AcDbEntity
  8
0
100
AcDbSpline
 62
7
  6
BYLAYER
 70
0
 71
3
 72
9
 73
5
 74
0
 42
0.0000001
 43
0.0000001
 44
0.0000000001
 40
0.0
 40
0.0
 40
0.0
 40
0.0
 40
0.4694554082
 40
1.0
 40
1.0
 40
1.0
 40
1.0
 10
228.2397440991
 20
233.7809484551
 30
0.0
 10
228.2392662904
 20
233.7572193709
 30
0.0
 10
228.2516413581
 20
233.7061443417
 30
0.0
 10
228.282505801
 20
233.6647212515
 30
0.0
 10
228.3013816723
 20
233.6456650445
 30
0.0
  0
SPLINE
  5
531
100
AcDbEntity
  8
0
100
AcDbSpline
 62
7
  6
BYLAYER
 70
0
 71
3
 72
9
 73
5
 74
0
 42
0.0000001
 43
0.0000001
 44
0.0000000001
 40
0.0
 40
0.0
 40
0.0
 40
0.0
 40
0.5014682006
 40
1.0
 40
1.0
 40
1.0
 40
1.0
 10
228.3013815588
 20
233.6456651043
 30
0.0
 10
228.3273607257
 20
233.4280401863
 30
0.0
 10
228.3309163639
 20
232.9873436655
 30
0.0
 10
228.216242382
 20
232.5550191056
 30
0.0
 10
228.1172860771
 20
232.3608999039
 30
0.0
  0
ENDSEC
  0
SECTION
  2
OBJECTS
  0
DICTIONARY
  5
C
100
AcDbDictionary
280
0
281
1
  3
ACAD_GROUP
350
D
  3
ACAD_MLINESTYLE
350
17
  3
ACAD_LAYOUT
350
1A
  3
ACAD_PLOTSETTINGS
350
19
  3
ACAD_PLOTSTYLENAME
350
E
  0
DICTIONARY
  5
D
102
{ACAD_REACTORS
330
C
102
}
100
AcDbDictionary
280
0
281
1
  0
ACDBDICTIONARYWDFLT
  5
E
102
{ACAD_REACTORS
330
C
102
}
100
AcDbDictionary
281
1
  3
Normal
350
F
100
AcDbDictionaryWithDefault
340
F
  0
DICTIONARY
  5
17
102
{ACAD_REACTORS
330
C
102
}
100
AcDbDictionary
280
0
281
1
  3
Standard
350
18
  0
DICTIONARY
  5
19
102
{ACAD_REACTORS
330
C
102
}
100
AcDbDictionary
281
1
  0
DICTIONARY
  5
1A
102
{ACAD_REACTORS
330
C
102
}
100
AcDbDictionary
281
1
  3
Model
350
532
  3
Layout1
350
533
  0
ACDBPLACEHOLDER
  5
F
102
{ACAD_REACTORS
330
E
102
}
  0
MLINESTYLE
  5
18
102
{ACAD_REACTORS
330
17
102
}
100
AcDbMlineStyle
  2
STANDARD
 70
0
  3

 62
256
 51
90.0
 52
90.0
 71
2
 49
0.5
 62
256
  6
BYLAYER
 49
-0.5
 62
256
  6
BYLAYER
  0
LAYOUT
  5
532
102
{ACAD_REACTORS
330
1A
102
}
100
AcDbPlotSettings
  1

  2
none_device
  4

  6

 40
0.0
 41
0.0
 42
0.0
 43
0.0
 44
210.0
 45
297.0
 46
0.0
 47
0.0
 48
0.0
 49
0.0
140
0.0
141
0.0
142
1.0
143
1.0
 70
1024
 72
1
 73
0
 74
0
  7

 75
0
147
1.0
148
0.0
149
0.0
100
AcDbLayout
  1
Model
 70
0
 71
0
 10
0.0
 20
0.0
 11
210.0
 21
297.0
 12
0.0
 22
0.0
 32
0.0
 14
0.0
 24
0.0
 34
0.0
 15
0.0
 25
0.0
 35
0.0
146
0.0
 13
0.0
 23
0.0
 33
0.0
 16
1.0
 26
0.0
 36
0.0
 17
0.0
 27
1.0
 37
0.0
 76
0
330
212
345
0
346
0
  0
LAYOUT
  5
533
102
{ACAD_REACTORS
330
1A
102
}
100
AcDbPlotSettings
  1

  2
none_device
  4

  6

 40
0.0
 41
0.0
 42
0.0
 43
0.0
 44
210.0
 45
297.0
 46
0.0
 47
0.0
 48
0.0
 49
0.0
140
0.0
141
0.0
142
1.0
143
1.0
 70
0
 72
1
 73
0
 74
0
  7

 75
0
147
1.0
148
0.0
149
0.0
100
AcDbLayout
  1
Layout1
 70
0
 71
1
 10
0.0
 20
0.0
 11
210.0
 21
297.0
 12
0.0
 22
0.0
 32
0.0
 14
0.0
 24
0.0
 34
0.0
 15
0.0
 25
0.0
 35
0.0
146
0.0
 13
0.0
 23
0.0
 33
0.0
 16
1.0
 26
0.0
 36
0.0
 17
0.0
 27
1.0
 37
0.0
 76
0
330
213
345
0
346
0
  0
ENDSEC
  0
EOF
