999
DXF file: C:\Users\sesa63760\Dev\_Creo\CAD\MCADPE0011033_3D-CAD\drw0001_1.dxf
999
Pro/ENGINEER 2019471 by Parametric Technology Corporation
  0
SECTION
  2
HEADER
  9
$ACADVER
  1
AC1024
  9
$DWGCODEPAGE
  3
ANSI_1252
  9
$EXTMAX
 10
83.0285706319
 20
117.4261213223
 30
0.0
  9
$EXTMIN
 10
0.0
 20
0.0
 30
0.0
  9
$LIMMIN
 10
0.0
 20
0.0
  9
$LIMMAX
 10
83.0285706319
 20
117.4261213223
  9
$VIEWCTR
 10
41.514285316
 20
58.7130606611
  9
$VIEWSIZE
 40
117.4261213223
  9
$CLAYER
  8
0
  9
$LTSCALE
 40
7.654443464
  9
$CELTYPE
  6
BYLAYER
  9
$DIMSCALE
 40
1.0
  9
$DIMASZ
 40
0.9884353647
  9
$DIMEXO
 40
1.0
  9
$DIMDLI
 40
5.2885245751
  9
$DIMEXE
 40
1.0
  9
$DIMCEN
 40
1.2525452941
  9
$DIMLFAC
 40
1.0
  9
$DIMBLK
  1
_FILLED
  9
$DIMALT
 70
0
  9
$DIMALTF
 40
0.0393700787
  9
$DIMTXT
 40
1.3838095105
  9
$DIMTOL
 70
1
  9
$DIMLIM
 70
0
  9
$DIMTFAC
 40
1.0
  9
$DIMTP
 40
0.01
  9
$DIMTM
 40
0.01
  9
$DIMGAP
 40
0.625
  9
$DIMDSEP
 70
46
  9
$AUNITS
 70
0
  9
$PDMODE
 70
3
  9
$PDSIZE
 40
0.3125
  9
$HANDSEED
  5
291
  9
$TILEMODE
 70
1
  9
$MEASUREMENT
 70
1
  9
$INSUNITS
 70
4
  0
ENDSEC
  0
SECTION
  2
CLASSES
  0
CLASS
  1
ACDBDICTIONARYWDFLT
  2
AcDbDictionaryWithDefault
  3
AutoCAD 2000
 90
0
 91
1
280
0
281
0
  0
CLASS
  1
ACDBPLACEHOLDER
  2
AcDbPlaceHolder
  3
AutoCAD 2000
 90
0
 91
1
280
0
281
0
  0
CLASS
  1
LAYOUT
  2
AcDbLayout
  3
AutoCAD 2000
 90
0
 91
0
280
0
281
0
  0
ENDSEC
  0
SECTION
  2
TABLES
  0
TABLE
  2
VPORT
  5
8
100
AcDbSymbolTable
 70
2
  0
VPORT
  5
1F4
100
AcDbSymbolTableRecord
100
AcDbViewportTableRecord
  2
*ACTIVE
 70
0
 10
0.0
 20
0.0
 11
1.0
 21
1.0
 12
41.514285316
 22
58.7130606611
 13
0.0
 23
0.0
 14
1.0
 24
1.0
 15
0.0
 25
0.0
 16
0.0
 26
0.0
 36
1.0
 17
0.0
 27
0.0
 37
0.0
 40
117.4261213223
 41
0.7070707071
 42
50.0
 43
0.0
 44
0.0
 50
0.0
 51
0.0
 71
0
 72
100
 73
1
 74
1
 75
0
 76
0
 77
0
 78
0
  0
ENDTAB
  0
TABLE
  2
LTYPE
  5
5
100
AcDbSymbolTable
 70
6
  0
LTYPE
  5
14
100
AcDbSymbolTableRecord
100
AcDbLinetypeTableRecord
  2
BYBLOCK
 70
0
  3

 72
65
 73
0
 40
0.0
  0
LTYPE
  5
15
100
AcDbSymbolTableRecord
100
AcDbLinetypeTableRecord
  2
BYLAYER
 70
0
  3

 72
65
 73
0
 40
0.0
  0
LTYPE
  5
16
100
AcDbSymbolTableRecord
100
AcDbLinetypeTableRecord
  2
CONTINUOUS
 70
64
  3
Solid line
 72
65
 73
0
 40
0.0
  0
LTYPE
  5
1F5
100
AcDbSymbolTableRecord
100
AcDbLinetypeTableRecord
  2
CENTER
 70
64
  3
____ _ ____ _ ____ _ ____ _ ____ _ ____ _ ____
 72
65
 73
4
 40
0.6
 49
0.375
 74
0
 49
-0.075
 74
0
 49
0.075
 74
0
 49
-0.075
 74
0
  0
LTYPE
  5
1F6
100
AcDbSymbolTableRecord
100
AcDbLinetypeTableRecord
  2
HIDDEN
 70
64
  3
- - - - - - - - - - - - - - - - - - - -
 72
65
 73
2
 40
0.2
 49
0.1
 74
0
 49
-0.1
 74
0
  0
LTYPE
  5
1F7
100
AcDbSymbolTableRecord
100
AcDbLinetypeTableRecord
  2
PHANTOM
 70
64
  3
_____ _ _ _____ _ _ _____ _ _ _____
 72
65
 73
6
 40
0.8
 49
0.45
 74
0
 49
-0.05
 74
0
 49
0.1
 74
0
 49
-0.05
 74
0
 49
0.1
 74
0
 49
-0.05
 74
0
  0
LTYPE
  5
1F8
100
AcDbSymbolTableRecord
100
AcDbLinetypeTableRecord
  2
DOT
 70
64
  3
. . . . . . . . . . . . . . . . . . . .
 72
65
 73
2
 40
0.2
 49
0.1
 74
0
 49
-0.1
 74
0
  0
LTYPE
  5
1F9
100
AcDbSymbolTableRecord
100
AcDbLinetypeTableRecord
  2
DASHED
 70
64
  3
- - - - - - - - - - - - - - - - - - - -
 72
65
 73
2
 40
0.2
 49
0.1
 74
0
 49
-0.1
 74
0
  0
ENDTAB
  0
TABLE
  2
LAYER
  5
2
100
AcDbSymbolTable
 70
36
  0
LAYER
  5
10
100
AcDbSymbolTableRecord
100
AcDbLayerTableRecord
  2
0
 70
0
 62
7
  6
CONTINUOUS
370
-3
390
F
  0
LAYER
  5
1FA
100
AcDbSymbolTableRecord
100
AcDbLayerTableRecord
  2
DEFAULT_1
 70
0
 62
7
  6
CENTER
370
-3
390
F
  0
LAYER
  5
1FB
100
AcDbSymbolTableRecord
100
AcDbLayerTableRecord
  2
DEFAULT_2
 70
0
 62
7
  6
HIDDEN
370
-3
390
F
  0
LAYER
  5
1FC
100
AcDbSymbolTableRecord
100
AcDbLayerTableRecord
  2
DEFAULT_3
 70
0
 62
7
  6
PHANTOM
370
-3
390
F
  0
LAYER
  5
1FD
100
AcDbSymbolTableRecord
100
AcDbLayerTableRecord
  2
00_COMPONENTS
 70
0
 62
7
  6
CONTINUOUS
370
-3
390
F
  0
LAYER
  5
1FE
100
AcDbSymbolTableRecord
100
AcDbLayerTableRecord
  2
01_1_DEFAULT_DATUMS
 70
0
 62
7
  6
CONTINUOUS
370
-3
390
F
  0
LAYER
  5
1FF
100
AcDbSymbolTableRecord
100
AcDbLayerTableRecord
  2
01_PLANES
 70
0
 62
7
  6
CONTINUOUS
370
-3
390
F
  0
LAYER
  5
200
100
AcDbSymbolTableRecord
100
AcDbLayerTableRecord
  2
02_COORD_SYS
 70
0
 62
7
  6
CONTINUOUS
370
-3
390
F
  0
LAYER
  5
201
100
AcDbSymbolTableRecord
100
AcDbLayerTableRecord
  2
03_AXES
 70
0
 62
7
  6
CONTINUOUS
370
-3
390
F
  0
LAYER
  5
202
100
AcDbSymbolTableRecord
100
AcDbLayerTableRecord
  2
04_POINTS
 70
0
 62
7
  6
CONTINUOUS
370
-3
390
F
  0
LAYER
  5
203
100
AcDbSymbolTableRecord
100
AcDbLayerTableRecord
  2
05_CURVES
 70
0
 62
7
  6
CONTINUOUS
370
-3
390
F
  0
LAYER
  5
204
100
AcDbSymbolTableRecord
100
AcDbLayerTableRecord
  2
06_SURFS
 70
0
 62
7
  6
CONTINUOUS
370
-3
390
F
  0
LAYER
  5
205
100
AcDbSymbolTableRecord
100
AcDbLayerTableRecord
  2
07_COSMETICS
 70
0
 62
7
  6
CONTINUOUS
370
-3
390
F
  0
LAYER
  5
206
100
AcDbSymbolTableRecord
100
AcDbLayerTableRecord
  2
10_NOTES
 70
0
 62
7
  6
CONTINUOUS
370
-3
390
F
  0
LAYER
  5
207
100
AcDbSymbolTableRecord
100
AcDbLayerTableRecord
  2
11_NOTES_PUB
 70
0
 62
7
  6
CONTINUOUS
370
-3
390
F
  0
LAYER
  5
208
100
AcDbSymbolTableRecord
100
AcDbLayerTableRecord
  2
13_REF_GTOL
 70
0
 62
7
  6
CONTINUOUS
370
-3
390
F
  0
LAYER
  5
209
100
AcDbSymbolTableRecord
100
AcDbLayerTableRecord
  2
16_MISC
 70
0
 62
7
  6
CONTINUOUS
370
-3
390
F
  0
LAYER
  5
20A
100
AcDbSymbolTableRecord
100
AcDbLayerTableRecord
  2
17_NO_PRINT
 70
0
 62
7
  6
CONTINUOUS
370
-3
390
F
  0
LAYER
  5
20B
100
AcDbSymbolTableRecord
100
AcDbLayerTableRecord
  2
18_DATUM_CAMS_JOINTS
 70
0
 62
7
  6
CONTINUOUS
370
-3
390
F
  0
LAYER
  5
20C
100
AcDbSymbolTableRecord
100
AcDbLayerTableRecord
  2
19_DATUM_FUNCTIONAL
 70
0
 62
7
  6
CONTINUOUS
370
-3
390
F
  0
LAYER
  5
20D
100
AcDbSymbolTableRecord
100
AcDbLayerTableRecord
  2
20_DATUM_KINEMATIC_SCHEME
 70
0
 62
7
  6
CONTINUOUS
370
-3
390
F
  0
ENDTAB
  0
TABLE
  2
STYLE
  5
3
100
AcDbSymbolTable
 70
1
  0
STYLE
  5
11
100
AcDbSymbolTableRecord
100
AcDbTextStyleTableRecord
  2
STANDARD
 70
0
 40
0.0
 41
1.0
 50
0.0
 71
0
 42
0.2
  3
ARIAL.TTF
  4

  0
STYLE
  5
20E
100
AcDbSymbolTableRecord
100
AcDbTextStyleTableRecord
  2
TEXTSTYLE_1
 70
0
 40
0.0
 41
0.8
 50
0.0
 71
0
 42
0.2
  3
gdt
  4

  0
ENDTAB
  0
TABLE
  2
VIEW
  5
6
100
AcDbSymbolTable
 70
0
  0
ENDTAB
  0
TABLE
  2
UCS
  5
7
100
AcDbSymbolTable
 70
0
  0
ENDTAB
  0
TABLE
  2
APPID
  5
9
100
AcDbSymbolTable
 70
1
  0
APPID
  5
20F
100
AcDbSymbolTableRecord
100
AcDbRegAppTableRecord
  2
ACAD
 70
0
  0
ENDTAB
  0
TABLE
  2
BLOCK_RECORD
  5
1
100
AcDbSymbolTable
 70
0
  0
BLOCK_RECORD
  5
210
100
AcDbSymbolTableRecord
100
AcDbBlockTableRecord
  2
*Model_Space
  0
BLOCK_RECORD
  5
211
100
AcDbSymbolTableRecord
100
AcDbBlockTableRecord
  2
*Paper_Space
  0
BLOCK_RECORD
  5
212
100
AcDbSymbolTableRecord
100
AcDbBlockTableRecord
  2
_FILLED
  0
ENDTAB
  0
TABLE
  2
DIMSTYLE
  5
A
100
AcDbSymbolTable
 70
1
100
AcDbDimStyleTable
 71
0
  0
DIMSTYLE
105
213
100
AcDbSymbolTableRecord
100
AcDbDimStyleTableRecord
  2
STANDARD
 70
0
  3

  4

 40
1.0
 41
0.9884353647
 42
1.0
 43
0.38
 44
1.0
 45
0.0
 46
0.0
 47
0.01
 48
0.01
140
1.3838095105
141
0.09
142
0.0
143
25.4
144
1.0
145
0.0
146
1.0
147
0.625
 71
1
 72
0
 73
0
 74
0
 75
0
 76
0
 77
1
 78
8
 79
2
170
0
171
1
172
0
173
0
174
0
175
0
176
0
177
0
178
0
270
2
179
2
271
2
272
2
273
2
274
2
275
0
280
0
281
0
282
0
283
1
284
8
285
0
286
0
287
3
288
0
340
11
278
46
341
212
342
212
343
212
344
212
  0
ENDTAB
  0
ENDSEC
  0
SECTION
  2
BLOCKS
  0
BLOCK
  5
20
100
AcDbEntity
  8
0
100
AcDbBlockBegin
  2
*Model_Space
 70
0
 10
0.0
 20
0.0
 30
0.0
  3
*Model_Space
  1

  0
ENDBLK
  5
21
100
AcDbEntity
  8
0
100
AcDbBlockEnd
  0
BLOCK
  5
1C
100
AcDbEntity
  8
0
100
AcDbBlockBegin
  2
*Paper_Space
 70
0
 10
0.0
 20
0.0
 30
0.0
  3
*Paper_Space
  1

  0
ENDBLK
  5
1D
100
AcDbEntity
  8
0
100
AcDbBlockEnd
  0
BLOCK
  5
214
100
AcDbEntity
  8
0
100
AcDbBlockBegin
  2
_FILLED
 70
64
 10
0.0
 20
0.0
  3
_FILLED
  1

  0
SOLID
  5
215
100
AcDbEntity
  8
0
  6
BYBLOCK
 62
0
100
AcDbTrace
 10
0.0
 20
0.0
 11
-1.0
 21
0.25
 12
-1.0
 22
-0.25
 13
-1.0
 23
-0.25
  0
ENDBLK
  5
216
100
AcDbEntity
  8
0
  6
BYBLOCK
 62
0
100
AcDbBlockEnd
  0
ENDSEC
  0
SECTION
  2
ENTITIES
  0
LINE
  5
217
100
AcDbEntity
  8
0
100
AcDbLine
 62
7
  6
BYLAYER
 10
16.7033667112
 20
11.7444744455
 11
9.6322694597
 21
15.8268819907
  0
LINE
  5
218
100
AcDbEntity
  8
0
100
AcDbLine
 62
7
  6
BYLAYER
 10
9.6322694597
 20
17.459886825
 11
16.7033667112
 21
13.3774792798
  0
LINE
  5
219
100
AcDbEntity
  8
0
100
AcDbLine
 62
7
  6
BYLAYER
 10
24.4815383602
 20
10.7646814871
 11
19.743882429
 21
13.4999065352
  0
LINE
  5
21A
100
AcDbEntity
  8
0
100
AcDbLine
 62
7
  6
BYLAYER
 10
11.2585412888
 20
18.3988096987
 11
10.3393438572
 21
18.9294965775
  0
LINE
  5
21B
100
AcDbEntity
  8
0
100
AcDbLine
 62
7
  6
BYLAYER
 10
13.874892483
 20
19.9093517482
 11
20.9459897344
 21
15.826944203
  0
LINE
  5
21C
100
AcDbEntity
  8
0
100
AcDbLine
 62
7
  6
BYLAYER
 10
17.4104705484
 20
19.092989145
 11
10.3393732969
 21
23.1753966902
  0
LINE
  5
21D
100
AcDbEntity
  8
0
100
AcDbLine
 62
7
  6
BYLAYER
 10
10.3393732969
 20
24.8084015245
 11
17.4104705484
 21
20.7259939793
  0
LINE
  5
21E
100
AcDbEntity
  8
0
100
AcDbLine
 62
7
  6
BYLAYER
 10
13.874892483
 20
26.8496222938
 11
20.9459897344
 21
22.7672147486
  0
LINE
  5
21F
100
AcDbEntity
  8
0
100
AcDbLine
 62
7
  6
BYLAYER
 10
16.7032783922
 20
85.3110795979
 11
10.3393438572
 21
74.2883604588
  0
LINE
  5
220
100
AcDbEntity
  8
0
100
AcDbLine
 62
7
  6
BYLAYER
 10
12.9104068526
 20
77.108599393
 11
15.9103943624
 21
82.3047590266
  0
LINE
  5
221
100
AcDbEntity
  8
0
100
AcDbLine
 62
7
  6
BYLAYER
 10
54.1797817645
 20
106.948019753
 11
16.7032783922
 21
85.3110795979
  0
LINE
  5
222
100
AcDbEntity
  8
0
100
AcDbLine
 62
7
  6
BYLAYER
 10
12.4606730327
 20
35.7494777325
 11
17.4104411087
 21
29.707433024
  0
LINE
  5
223
100
AcDbEntity
  8
0
100
AcDbLine
 62
7
  6
BYLAYER
 10
9.6322694597
 20
15.8268819907
 11
9.6322694597
 21
17.459886825
  0
LINE
  5
224
100
AcDbEntity
  8
0
100
AcDbLine
 62
7
  6
BYLAYER
 10
10.3393438572
 20
18.9294965775
 11
10.3393438572
 21
74.2883604588
  0
LINE
  5
225
100
AcDbEntity
  8
0
100
AcDbLine
 62
7
  6
BYLAYER
 10
14.1604016484
 20
76.386893927
 11
17.1603891582
 21
81.5830535605
  0
LINE
  5
226
100
AcDbEntity
  8
0
100
AcDbLine
 62
7
  6
BYLAYER
 10
12.4606730327
 20
54.7739840516
 11
12.4606730327
 21
35.7494777325
  0
LINE
  5
227
100
AcDbEntity
  8
0
100
AcDbLine
 62
7
  6
BYLAYER
 10
35.653705389
 20
90.1283861087
 11
45.8360006449
 21
96.0071019244
  0
LINE
  5
228
100
AcDbEntity
  8
0
100
AcDbLine
 62
7
  6
BYLAYER
 10
45.8360006449
 20
94.7823482987
 11
36.7143883056
 21
89.516014395
  0
LINE
  5
229
100
AcDbEntity
  8
0
100
AcDbLine
 62
7
  6
BYLAYER
 10
38.8357541387
 20
88.2912709675
 11
45.8360006449
 21
92.3328410473
  0
LINE
  5
22A
100
AcDbEntity
  8
0
100
AcDbLine
 62
7
  6
BYLAYER
 10
49.3715492706
 20
93.9658981518
 11
39.1892540147
 21
88.0871823361
  0
LINE
  5
22B
100
AcDbEntity
  8
0
100
AcDbLine
 62
7
  6
BYLAYER
 10
17.4104411087
 20
29.707433024
 11
22.3602091847
 21
30.0341071692
  0
LINE
  5
22C
100
AcDbEntity
  8
0
100
AcDbLine
 62
7
  6
BYLAYER
 10
22.3602091847
 20
38.3380109588
 11
18.5417660327
 21
42.999078687
  0
LINE
  5
22D
100
AcDbEntity
  8
0
100
AcDbLine
 62
7
  6
BYLAYER
 10
19.1781647854
 20
43.1569196752
 11
22.3602091847
 21
39.2726862666
  0
LINE
  5
22E
100
AcDbEntity
  8
0
100
AcDbLine
 62
7
  6
BYLAYER
 10
15.6426667958
 20
62.2450282115
 11
15.6426667958
 21
57.9992156424
  0
LINE
  5
22F
100
AcDbEntity
  8
0
100
AcDbLine
 62
7
  6
BYLAYER
 10
16.7033667112
 20
13.3774792798
 11
16.7033667112
 21
11.7444744455
  0
LINE
  5
230
100
AcDbEntity
  8
0
100
AcDbLine
 62
7
  6
BYLAYER
 10
17.4104705484
 20
20.7259939793
 11
17.4104705484
 21
19.092989145
  0
LINE
  5
231
100
AcDbEntity
  8
0
100
AcDbLine
 62
7
  6
BYLAYER
 10
18.5417660327
 20
49.0584545499
 11
18.5417660327
 21
42.999078687
  0
LINE
  5
232
100
AcDbEntity
  8
0
100
AcDbLine
 62
7
  6
BYLAYER
 10
19.1781647854
 20
43.1569196752
 11
19.1781647854
 21
48.6910378708
  0
LINE
  5
233
100
AcDbEntity
  8
0
100
AcDbLine
 62
7
  6
BYLAYER
 10
19.1782154216
 20
55.9580118698
 11
19.1782154216
 21
60.2038244389
  0
LINE
  5
234
100
AcDbEntity
  8
0
100
AcDbLine
 62
7
  6
BYLAYER
 10
48.3462648985
 20
27.1964713694
 11
46.4016713062
 21
28.3192151036
  0
LINE
  5
235
100
AcDbEntity
  8
0
100
AcDbLine
 62
7
  6
BYLAYER
 10
12.4606730327
 20
54.7739840516
 11
16.9154272071
 21
49.9974004668
  0
LINE
  5
236
100
AcDbEntity
  8
0
100
AcDbLine
 62
7
  6
BYLAYER
 10
20.9459897344
 20
22.7672147486
 11
20.9459897344
 21
21.1342099144
  0
LINE
  5
237
100
AcDbEntity
  8
0
100
AcDbLine
 62
7
  6
BYLAYER
 10
20.9459897344
 20
15.826944203
 11
20.9459897344
 21
14.1939393688
  0
LINE
  5
238
100
AcDbEntity
  8
0
100
AcDbLine
 62
7
  6
BYLAYER
 10
22.3602091847
 20
30.0341071692
 11
22.3602091847
 21
49.0586134883
  0
LINE
  5
239
100
AcDbEntity
  8
0
100
AcDbLine
 62
7
  6
BYLAYER
 10
28.6383694151
 20
74.9564254452
 11
25.6383819053
 21
69.7602658117
  0
LINE
  5
23A
100
AcDbEntity
  8
0
100
AcDbLine
 62
7
  6
BYLAYER
 10
24.4815383602
 20
66.1235453684
 11
30.8454728951
 21
77.1462645074
  0
LINE
  5
23B
100
AcDbEntity
  8
0
100
AcDbLine
 62
7
  6
BYLAYER
 10
68.3219762674
 20
98.7832046626
 11
30.8454728951
 21
77.1462645074
  0
LINE
  5
23C
100
AcDbEntity
  8
0
100
AcDbLine
 62
7
  6
BYLAYER
 10
54.6748722092
 20
89.6793388672
 11
44.4925769533
 21
83.8006230515
  0
LINE
  5
23D
100
AcDbEntity
  8
0
100
AcDbLine
 62
7
  6
BYLAYER
 10
49.5837245813
 20
28.523358618
 11
48.1694806925
 21
29.3398542363
  0
LINE
  5
23E
100
AcDbEntity
  8
0
100
AcDbLine
 62
7
  6
BYLAYER
 10
16.9154272071
 20
49.9974004668
 11
22.3602091847
 21
46.8539252413
  0
LINE
  5
23F
100
AcDbEntity
  8
0
100
AcDbLine
 62
7
  6
BYLAYER
 10
24.4815383602
 20
66.1235453684
 11
24.4815383602
 21
10.7646814871
  0
LINE
  5
240
100
AcDbEntity
  8
0
100
AcDbLine
 62
7
  6
BYLAYER
 10
44.4925769533
 20
81.3511158001
 11
54.6748722092
 21
87.2298316158
  0
LINE
  5
241
100
AcDbEntity
  8
0
100
AcDbLine
 62
7
  6
BYLAYER
 10
58.4225225464
 20
27.7475931381
 11
51.9170006581
 21
31.5034729822
  0
LINE
  5
242
100
AcDbEntity
  8
0
100
AcDbLine
 62
7
  6
BYLAYER
 10
12.4606730327
 20
54.7739840516
 11
22.3602091847
 21
49.0586134883
  0
LINE
  5
243
100
AcDbEntity
  8
0
100
AcDbLine
 62
7
  6
BYLAYER
 10
53.967768372
 20
31.054472372
 11
52.5535244832
 21
31.8709679903
  0
LINE
  5
244
100
AcDbEntity
  8
0
100
AcDbLine
 62
7
  6
BYLAYER
 10
58.4225225464
 20
31.8301052237
 11
56.8668542688
 21
32.7282504038
  0
LINE
  5
245
100
AcDbEntity
  8
0
100
AcDbLine
 62
7
  6
BYLAYER
 10
19.1782154216
 20
60.0404534087
 11
15.6426667958
 21
57.9992156424
  0
LINE
  5
246
100
AcDbEntity
  8
0
100
AcDbLine
 62
7
  6
BYLAYER
 10
61.8166209651
 20
30.9319187023
 11
60.826675593
 21
31.5034509996
  0
LINE
  5
247
100
AcDbEntity
  8
0
100
AcDbLine
 62
7
  6
BYLAYER
 10
15.6426667958
 20
57.9992156424
 11
19.1782154216
 21
55.9580118698
  0
LINE
  5
248
100
AcDbEntity
  8
0
100
AcDbLine
 62
7
  6
BYLAYER
 10
60.3317029069
 20
33.7488668563
 11
59.4831565737
 21
34.2387642273
  0
LINE
  5
249
100
AcDbEntity
  8
0
100
AcDbLine
 62
7
  6
BYLAYER
 10
54.6748722092
 20
77.6767533354
 11
44.4925769533
 21
71.7980375197
  0
LINE
  5
24A
100
AcDbEntity
  8
0
100
AcDbLine
 62
7
  6
BYLAYER
 10
44.4925769533
 20
69.3485302683
 11
54.6748722092
 21
75.227246084
  0
LINE
  5
24B
100
AcDbEntity
  8
0
100
AcDbLine
 62
7
  6
BYLAYER
 10
19.1782154216
 20
60.2038244389
 11
15.6426667958
 21
62.2450282115
  0
LINE
  5
24C
100
AcDbEntity
  8
0
100
AcDbLine
 62
7
  6
BYLAYER
 10
35.441647837
 20
17.0924658721
 11
35.441647837
 21
20.3584755406
  0
LINE
  5
24D
100
AcDbEntity
  8
0
100
AcDbLine
 62
7
  6
BYLAYER
 10
41.0984785347
 20
23.6244287716
 11
41.0984785347
 21
25.2574336058
  0
LINE
  5
24E
100
AcDbEntity
  8
0
100
AcDbLine
 62
7
  6
BYLAYER
 10
24.4815383602
 20
66.1235453684
 11
10.3393438572
 21
74.2883604588
  0
LINE
  5
24F
100
AcDbEntity
  8
0
100
AcDbLine
 62
7
  6
BYLAYER
 10
44.4925769533
 20
83.8006230515
 11
44.4925769533
 21
81.3511158001
  0
LINE
  5
250
100
AcDbEntity
  8
0
100
AcDbLine
 62
7
  6
BYLAYER
 10
44.4925769533
 20
71.7980375197
 11
44.4925769533
 21
69.3485302683
  0
LINE
  5
251
100
AcDbEntity
  8
0
100
AcDbLine
 62
7
  6
BYLAYER
 10
45.8360006449
 20
91.9246603856
 11
45.8360006449
 21
92.3328410473
  0
LINE
  5
252
100
AcDbEntity
  8
0
100
AcDbLine
 62
7
  6
BYLAYER
 10
45.8360006449
 20
94.7823482987
 11
45.8360006449
 21
96.0071019244
  0
LINE
  5
253
100
AcDbEntity
  8
0
100
AcDbLine
 62
7
  6
BYLAYER
 10
19.1781647854
 20
43.1569196752
 11
22.3602091847
 21
44.9940628995
  0
LINE
  5
254
100
AcDbEntity
  8
0
100
AcDbLine
 62
7
  6
BYLAYER
 10
25.6383819053
 20
69.7602658117
 11
12.9104068526
 21
77.108599393
  0
LINE
  5
255
100
AcDbEntity
  8
0
100
AcDbLine
 62
7
  6
BYLAYER
 10
48.3462648985
 20
27.1964713694
 11
48.3462648985
 21
29.2377901364
  0
LINE
  5
256
100
AcDbEntity
  8
0
100
AcDbLine
 62
7
  6
BYLAYER
 10
49.5837245813
 20
30.1563634523
 11
49.5837245813
 21
28.523358618
  0
LINE
  5
257
100
AcDbEntity
  8
0
100
AcDbLine
 62
7
  6
BYLAYER
 10
20.6211105817
 20
40.4608804248
 11
12.4606730327
 21
35.7494777325
  0
LINE
  5
258
100
AcDbEntity
  8
0
100
AcDbLine
 62
7
  6
BYLAYER
 10
15.9103943624
 20
82.3047590266
 11
28.6383694151
 21
74.9564254452
  0
LINE
  5
259
100
AcDbEntity
  8
0
100
AcDbLine
 62
7
  6
BYLAYER
 10
51.1393530231
 20
29.4214957565
 11
51.1393530231
 21
31.0545005908
  0
LINE
  5
25A
100
AcDbEntity
  8
0
100
AcDbLine
 62
7
  6
BYLAYER
 10
53.967768372
 20
32.6874772063
 11
53.967768372
 21
31.054472372
  0
LINE
  5
25B
100
AcDbEntity
  8
0
100
AcDbLine
 62
7
  6
BYLAYER
 10
30.8454728951
 20
77.1462645074
 11
16.7032783922
 21
85.3110795979
  0
LINE
  5
25C
100
AcDbEntity
  8
0
100
AcDbLine
 62
7
  6
BYLAYER
 10
54.6748722092
 20
75.227246084
 11
54.6748722092
 21
77.6767533354
  0
LINE
  5
25D
100
AcDbEntity
  8
0
100
AcDbLine
 62
7
  6
BYLAYER
 10
54.6748722092
 20
87.2298316158
 11
54.6748722092
 21
89.6793388672
  0
LINE
  5
25E
100
AcDbEntity
  8
0
100
AcDbLine
 62
7
  6
BYLAYER
 10
22.3602091847
 20
32.5651658968
 11
17.4104411087
 21
29.707433024
  0
LINE
  5
25F
100
AcDbEntity
  8
0
100
AcDbLine
 62
7
  6
BYLAYER
 10
10.3393732969
 20
24.8084015245
 11
13.874892483
 21
26.8496222938
  0
LINE
  5
260
100
AcDbEntity
  8
0
100
AcDbLine
 62
7
  6
BYLAYER
 10
58.4225225464
 20
31.8301052237
 11
58.4225225464
 21
27.7475931381
  0
LINE
  5
261
100
AcDbEntity
  8
0
100
AcDbLine
 62
7
  6
BYLAYER
 10
60.3317029069
 20
34.7286697569
 11
60.3317029069
 21
33.7488668563
  0
LINE
  5
262
100
AcDbEntity
  8
0
100
AcDbLine
 62
7
  6
BYLAYER
 10
60.826675593
 20
30.3603768869
 11
60.826675593
 21
31.6667807543
  0
LINE
  5
263
100
AcDbEntity
  8
0
100
AcDbLine
 62
7
  6
BYLAYER
 10
61.8166209651
 20
29.7071650767
 11
61.8166209651
 21
30.9319187023
  0
LINE
  5
264
100
AcDbEntity
  8
0
100
AcDbLine
 62
7
  6
BYLAYER
 10
9.6322694597
 20
17.459886825
 11
13.874892483
 21
19.9093517482
  0
LINE
  5
265
100
AcDbEntity
  8
0
100
AcDbLine
 62
7
  6
BYLAYER
 10
17.4104705484
 20
20.7259939793
 11
20.9459897344
 21
22.7672147486
  0
LINE
  5
266
100
AcDbEntity
  8
0
100
AcDbLine
 62
7
  6
BYLAYER
 10
17.4104705484
 20
19.092989145
 11
20.9459897344
 21
21.1342099144
  0
LINE
  5
267
100
AcDbEntity
  8
0
100
AcDbLine
 62
7
  6
BYLAYER
 10
54.6748722092
 20
75.227246084
 11
52.5535063761
 21
76.4519895115
  0
LINE
  5
268
100
AcDbEntity
  8
0
100
AcDbLine
 62
7
  6
BYLAYER
 10
16.7033667112
 20
13.3774792798
 11
20.9459897344
 21
15.826944203
  0
LINE
  5
269
100
AcDbEntity
  8
0
100
AcDbLine
 62
7
  6
BYLAYER
 10
39.1892540147
 20
88.0871823361
 11
35.653705389
 21
90.1283861087
  0
LINE
  5
26A
100
AcDbEntity
  8
0
100
AcDbLine
 62
7
  6
BYLAYER
 10
58.4225225464
 20
31.8301052237
 11
60.3317029069
 21
33.7488668563
  0
LINE
  5
26B
100
AcDbEntity
  8
0
100
AcDbLine
 62
7
  6
BYLAYER
 10
16.7033667112
 20
11.7444744455
 11
20.9459897344
 21
14.1939393688
  0
LINE
  5
26C
100
AcDbEntity
  8
0
100
AcDbLine
 62
7
  6
BYLAYER
 10
41.0984785347
 20
25.2574336058
 11
49.5837245813
 21
30.1563634523
  0
LINE
  5
26D
100
AcDbEntity
  8
0
100
AcDbLine
 62
7
  6
BYLAYER
 10
51.1393530231
 20
31.0545005908
 11
53.967768372
 21
32.6874772063
  0
LINE
  5
26E
100
AcDbEntity
  8
0
100
AcDbLine
 62
7
  6
BYLAYER
 10
35.441647837
 20
20.3584755406
 11
41.0984785347
 21
23.6244287716
  0
LINE
  5
26F
100
AcDbEntity
  8
0
100
AcDbLine
 62
7
  6
BYLAYER
 10
49.5837245813
 20
28.523358618
 11
51.1393530231
 21
29.4214957565
  0
LINE
  5
270
100
AcDbEntity
  8
0
100
AcDbLine
 62
7
  6
BYLAYER
 10
53.967768372
 20
31.054472372
 11
60.3317029069
 21
34.7286697569
  0
LINE
  5
271
100
AcDbEntity
  8
0
100
AcDbLine
 62
7
  6
BYLAYER
 10
54.6748722092
 20
87.2298316158
 11
52.5535063761
 21
88.4545750433
  0
LINE
  5
272
100
AcDbEntity
  8
0
100
AcDbLine
 62
7
  6
BYLAYER
 10
45.8360006449
 20
92.3328410473
 11
43.7146348117
 21
93.5575844748
  0
LINE
  5
273
100
AcDbEntity
  8
0
100
AcDbLine
 62
7
  6
BYLAYER
 10
74.6859108024
 20
46.1187352655
 11
74.6859108024
 21
95.1088802933
  0
LINE
  5
274
100
AcDbEntity
  8
0
100
AcDbLine
 62
7
  6
BYLAYER
 10
74.6859108024
 20
46.1187352655
 11
61.9580417325
 21
32.3199714005
  0
LINE
  5
275
100
AcDbEntity
  8
0
100
AcDbLine
 62
7
  6
BYLAYER
 10
24.4815383602
 20
10.7646814871
 11
35.441647837
 21
17.0924658721
  0
LINE
  5
276
100
AcDbEntity
  8
0
100
AcDbLine
 62
7
  6
BYLAYER
 10
60.826675593
 20
31.6667807543
 11
61.9580417325
 21
32.3199714005
  0
LINE
  5
277
100
AcDbEntity
  8
0
100
AcDbLine
 62
7
  6
BYLAYER
 10
61.8166209651
 20
30.9319187023
 11
60.826675593
 21
30.3603768869
  0
LINE
  5
278
100
AcDbEntity
  8
0
100
AcDbLine
 62
7
  6
BYLAYER
 10
58.4225225464
 20
27.7475931381
 11
61.8166209651
 21
29.7071650767
  0
LINE
  5
279
100
AcDbEntity
  8
0
100
AcDbLine
 62
7
  6
BYLAYER
 10
45.8360006449
 20
96.0071019244
 11
49.3715492706
 21
93.9658981518
  0
LINE
  5
27A
100
AcDbEntity
  8
0
100
AcDbLine
 62
7
  6
BYLAYER
 10
54.1797817645
 20
106.948019753
 11
74.6859108024
 21
95.1088802933
  0
SPLINE
  5
27B
100
AcDbEntity
  8
0
100
AcDbSpline
 62
7
  6
BYLAYER
 70
0
 71
3
 72
20
 73
16
 74
0
 42
0.0000001
 43
0.0000001
 44
0.0000000001
 40
0.0
 40
0.0
 40
0.0
 40
0.0
 40
0.0428301282
 40
0.0874299287
 40
0.135230618
 40
0.1871624602
 40
0.2436311386
 40
0.3046120667
 40
0.3697374445
 40
0.4383724609
 40
0.5826244024
 40
0.7296910527
 40
0.871189553
 40
0.9376088312
 40
1.0
 40
1.0
 40
1.0
 40
1.0
 10
26.1408456026
 20
84.7599839828
 30
0.0
 10
26.1408638006
 20
84.653236166
 30
0.0
 10
26.1693545728
 20
84.4343950733
 30
0.0
 10
26.294930816
 20
84.1184467818
 30
0.0
 10
26.4985145746
 20
83.8188606042
 30
0.0
 10
26.7745736865
 20
83.5417042048
 30
0.0
 10
27.1165934739
 20
83.2917729652
 30
0.0
 10
27.5173246995
 20
83.0737793707
 30
0.0
 10
27.9684395731
 20
82.8920714797
 30
0.0
 10
28.6351755191
 20
82.6999376337
 30
0.0
 10
29.5287891726
 20
82.5746239341
 30
0.0
 10
30.6115868347
 20
82.6045067541
 30
0.0
 10
31.4846894261
 20
82.7790926517
 30
0.0
 10
32.1190165603
 20
83.009014825
 30
0.0
 10
32.407817421
 20
83.1513310793
 30
0.0
 10
32.5424853048
 20
83.2290811542
 30
0.0
  0
SPLINE
  5
27C
100
AcDbEntity
  8
0
100
AcDbSpline
 62
7
  6
BYLAYER
 70
0
 71
3
 72
20
 73
16
 74
0
 42
0.0000001
 43
0.0000001
 44
0.0000000001
 40
0.0
 40
0.0
 40
0.0
 40
0.0
 40
0.0428301282
 40
0.0874299287
 40
0.135230618
 40
0.1871624602
 40
0.2436311386
 40
0.3046120667
 40
0.3697374445
 40
0.4383724609
 40
0.5826244024
 40
0.7296910527
 40
0.871189553
 40
0.9376088312
 40
1.0
 40
1.0
 40
1.0
 40
1.0
 10
51.3844525911
 20
99.3343002761
 30
0.0
 10
51.3844707891
 20
99.2275524592
 30
0.0
 10
51.4129615614
 20
99.0087113665
 30
0.0
 10
51.5385378045
 20
98.692763075
 30
0.0
 10
51.7421215631
 20
98.3931768974
 30
0.0
 10
52.0181806751
 20
98.116020498
 30
0.0
 10
52.3602004624
 20
97.8660892584
 30
0.0
 10
52.7609316881
 20
97.6480956639
 30
0.0
 10
53.2120465617
 20
97.4663877729
 30
0.0
 10
53.8787825076
 20
97.274253927
 30
0.0
 10
54.7723961611
 20
97.1489402273
 30
0.0
 10
55.8551938233
 20
97.1788230473
 30
0.0
 10
56.7282964147
 20
97.353408945
 30
0.0
 10
57.3626235489
 20
97.5833311182
 30
0.0
 10
57.6514244095
 20
97.7256473725
 30
0.0
 10
57.7860922934
 20
97.8033974474
 30
0.0
  0
SPLINE
  5
27D
100
AcDbEntity
  8
0
100
AcDbSpline
 62
7
  6
BYLAYER
 70
0
 71
3
 72
11
 73
7
 74
0
 42
0.0000001
 43
0.0000001
 44
0.0000000001
 40
0.0
 40
0.0
 40
0.0
 40
0.0
 40
0.217766569
 40
0.4508976191
 40
0.7103704889
 40
1.0
 40
1.0
 40
1.0
 40
1.0
 10
63.6858200305
 20
37.8437731358
 30
0.0
 10
63.6231383226
 20
37.8799284308
 30
0.0
 10
63.4791905659
 20
37.932288958
 30
0.0
 10
63.2399619111
 20
37.9382958538
 30
0.0
 10
62.9850680206
 20
37.8766942536
 30
0.0
 10
62.8192031647
 20
37.7978249619
 30
0.0
 10
62.7358559535
 20
37.7497047143
 30
0.0
  0
SPLINE
  5
27E
100
AcDbEntity
  8
0
100
AcDbSpline
 62
7
  6
BYLAYER
 70
0
 71
3
 72
11
 73
7
 74
0
 42
0.0000001
 43
0.0000001
 44
0.0000000001
 40
0.0
 40
0.0
 40
0.0
 40
0.0
 40
0.217766569
 40
0.4508976191
 40
0.7103704889
 40
1.0
 40
1.0
 40
1.0
 40
1.0
 10
56.7562024258
 20
36.2924876792
 30
0.0
 10
56.6935207179
 20
36.3286429743
 30
0.0
 10
56.5495729612
 20
36.3810035015
 30
0.0
 10
56.3103443064
 20
36.3870103973
 30
0.0
 10
56.0554504159
 20
36.325408797
 30
0.0
 10
55.88958556
 20
36.2465395053
 30
0.0
 10
55.8062383488
 20
36.1984192577
 30
0.0
  0
SPLINE
  5
27F
100
AcDbEntity
  8
0
100
AcDbSpline
 62
7
  6
BYLAYER
 70
0
 71
3
 72
11
 73
7
 74
0
 42
0.0000001
 43
0.0000001
 44
0.0000000001
 40
0.0
 40
0.0
 40
0.0
 40
0.0
 40
0.217766569
 40
0.4508976191
 40
0.7103704889
 40
1.0
 40
1.0
 40
1.0
 40
1.0
 10
29.7448358443
 20
20.3709600345
 30
0.0
 10
29.6821541364
 20
20.4071153295
 30
0.0
 10
29.5382063796
 20
20.4594758567
 30
0.0
 10
29.2989777248
 20
20.4654827526
 30
0.0
 10
29.0440838343
 20
20.4038811523
 30
0.0
 10
28.8782189784
 20
20.3250118606
 30
0.0
 10
28.7948717672
 20
20.276891613
 30
0.0
  0
SPLINE
  5
280
100
AcDbEntity
  8
0
100
AcDbSpline
 62
7
  6
BYLAYER
 70
0
 71
3
 72
12
 73
8
 74
0
 42
0.0000001
 43
0.0000001
 44
0.0000000001
 40
0.0
 40
0.0
 40
0.0
 40
0.0
 40
0.2895275442
 40
0.5486634332
 40
0.7816292092
 40
0.8918383932
 40
1.0
 40
1.0
 40
1.0
 40
1.0
 10
57.7860922934
 20
97.8033974474
 30
0.0
 10
57.9506618945
 20
97.8984111838
 30
0.0
 10
58.2492014082
 20
98.1040939736
 30
0.0
 10
58.6059809706
 20
98.4786770767
 30
0.0
 10
58.7974098305
 20
98.8317999629
 30
0.0
 10
58.8720657518
 20
99.119684049
 30
0.0
 10
58.8844211593
 20
99.2633095587
 30
0.0
 10
58.884409057
 20
99.3343002776
 30
0.0
  0
SPLINE
  5
281
100
AcDbEntity
  8
0
100
AcDbSpline
 62
7
  6
BYLAYER
 70
0
 71
3
 72
12
 73
8
 74
0
 42
0.0000001
 43
0.0000001
 44
0.0000000001
 40
0.0
 40
0.0
 40
0.0
 40
0.0
 40
0.2895275442
 40
0.5486634332
 40
0.7816292092
 40
0.8918383932
 40
1.0
 40
1.0
 40
1.0
 40
1.0
 10
32.5424853048
 20
83.2290811542
 30
0.0
 10
32.707054906
 20
83.3240948906
 30
0.0
 10
33.0055944197
 20
83.5297776804
 30
0.0
 10
33.3623739821
 20
83.9043607835
 30
0.0
 10
33.553802842
 20
84.2574836697
 30
0.0
 10
33.6284587633
 20
84.5453677557
 30
0.0
 10
33.6408141708
 20
84.6889932655
 30
0.0
 10
33.6408020685
 20
84.7599839844
 30
0.0
  0
SPLINE
  5
282
100
AcDbEntity
  8
0
100
AcDbSpline
 62
7
  6
BYLAYER
 70
0
 71
3
 72
17
 73
13
 74
0
 42
0.0000001
 43
0.0000001
 44
0.0000000001
 40
0.0
 40
0.0
 40
0.0
 40
0.0
 40
0.1286878892
 40
0.2702784801
 40
0.4174307831
 40
0.5617728703
 40
0.6954456377
 40
0.8127101002
 40
0.8646754474
 40
0.9125090257
 40
0.9571392405
 40
1.0
 40
1.0
 40
1.0
 40
1.0
 10
28.7948717672
 20
20.276891613
 30
0.0
 10
28.6542271054
 20
20.1956908644
 30
0.0
 10
28.3812174678
 20
19.9856046373
 30
0.0
 10
28.0317931587
 20
19.5880597821
 30
0.0
 10
27.7441687147
 20
19.1202647596
 30
0.0
 10
27.5421300389
 20
18.6202215967
 30
0.0
 10
27.4418431652
 20
18.1285864041
 30
0.0
 10
27.4508391813
 20
17.7411910979
 30
0.0
 10
27.5225537186
 20
17.4754936492
 30
0.0
 10
27.6024037474
 20
17.3102340229
 30
0.0
 10
27.7092597454
 20
17.1751158885
 30
0.0
 10
27.7980536776
 20
17.1071397641
 30
0.0
 10
27.8449076901
 20
17.0801140064
 30
0.0
  0
SPLINE
  5
283
100
AcDbEntity
  8
0
100
AcDbSpline
 62
7
  6
BYLAYER
 70
0
 71
3
 72
17
 73
13
 74
0
 42
0.0000001
 43
0.0000001
 44
0.0000000001
 40
0.0
 40
0.0
 40
0.0
 40
0.0
 40
0.1286878892
 40
0.2702784801
 40
0.4174307831
 40
0.5617728703
 40
0.6954456377
 40
0.8127101002
 40
0.8646754474
 40
0.9125090257
 40
0.9571392405
 40
1.0
 40
1.0
 40
1.0
 40
1.0
 10
55.8062383488
 20
36.1984192577
 30
0.0
 10
55.665593687
 20
36.1172185091
 30
0.0
 10
55.3925840494
 20
35.9071322821
 30
0.0
 10
55.0431597403
 20
35.5095874268
 30
0.0
 10
54.7555352963
 20
35.0417924044
 30
0.0
 10
54.5534966205
 20
34.5417492414
 30
0.0
 10
54.4532097468
 20
34.0501140489
 30
0.0
 10
54.4622057629
 20
33.6627187427
 30
0.0
 10
54.5339203001
 20
33.397021294
 30
0.0
 10
54.6137703289
 20
33.2317616677
 30
0.0
 10
54.720626327
 20
33.0966435332
 30
0.0
 10
54.8094202592
 20
33.0286674088
 30
0.0
 10
54.8562742717
 20
33.0016416512
 30
0.0
  0
SPLINE
  5
284
100
AcDbEntity
  8
0
100
AcDbSpline
 62
7
  6
BYLAYER
 70
0
 71
3
 72
17
 73
13
 74
0
 42
0.0000001
 43
0.0000001
 44
0.0000000001
 40
0.0
 40
0.0
 40
0.0
 40
0.0
 40
0.1286878892
 40
0.2702784801
 40
0.4174307831
 40
0.5617728703
 40
0.6954456377
 40
0.8127101002
 40
0.8646754474
 40
0.9125090257
 40
0.9571392405
 40
1.0
 40
1.0
 40
1.0
 40
1.0
 10
62.7358559535
 20
37.7497047143
 30
0.0
 10
62.5952112917
 20
37.6685039657
 30
0.0
 10
62.3222016541
 20
37.4584177386
 30
0.0
 10
61.972777345
 20
37.0608728833
 30
0.0
 10
61.685152901
 20
36.5930778609
 30
0.0
 10
61.4831142252
 20
36.0930346979
 30
0.0
 10
61.3828273515
 20
35.6013995054
 30
0.0
 10
61.3918233676
 20
35.2140041992
 30
0.0
 10
61.4635379048
 20
34.9483067505
 30
0.0
 10
61.5433879336
 20
34.7830471242
 30
0.0
 10
61.6502439317
 20
34.6479289898
 30
0.0
 10
61.7390378639
 20
34.5799528654
 30
0.0
 10
61.7858918764
 20
34.5529271077
 30
0.0
  0
SPLINE
  5
285
100
AcDbEntity
  8
0
100
AcDbSpline
 62
7
  6
BYLAYER
 70
0
 71
3
 72
20
 73
16
 74
0
 42
0.0000001
 43
0.0000001
 44
0.0000000001
 40
0.0
 40
0.0
 40
0.0
 40
0.0
 40
0.0428301282
 40
0.0874299287
 40
0.135230618
 40
0.1871624602
 40
0.2436311386
 40
0.3046120667
 40
0.3697374445
 40
0.4383724609
 40
0.5826244024
 40
0.7296910527
 40
0.871189553
 40
0.9376088312
 40
1.0
 40
1.0
 40
1.0
 40
1.0
 10
58.884409057
 20
99.3343002776
 30
0.0
 10
58.8843908591
 20
99.4410480945
 30
0.0
 10
58.8559000868
 20
99.6598891872
 30
0.0
 10
58.7303238437
 20
99.9758374787
 30
0.0
 10
58.526740085
 20
100.2754236563
 30
0.0
 10
58.2506809731
 20
100.5525800557
 30
0.0
 10
57.9086611858
 20
100.8025112953
 30
0.0
 10
57.5079299601
 20
101.0205048898
 30
0.0
 10
57.0568150865
 20
101.2022127808
 30
0.0
 10
56.3900791406
 20
101.3943466267
 30
0.0
 10
55.4964654871
 20
101.5196603264
 30
0.0
 10
54.4136678249
 20
101.4897775064
 30
0.0
 10
53.5405652335
 20
101.3151916088
 30
0.0
 10
52.9062380993
 20
101.0852694355
 30
0.0
 10
52.6174372386
 20
100.9429531812
 30
0.0
 10
52.4827693548
 20
100.8652031063
 30
0.0
  0
SPLINE
  5
286
100
AcDbEntity
  8
0
100
AcDbSpline
 62
7
  6
BYLAYER
 70
0
 71
3
 72
11
 73
7
 74
0
 42
0.0000001
 43
0.0000001
 44
0.0000000001
 40
0.0
 40
0.0
 40
0.0
 40
0.0
 40
0.217766569
 40
0.4508976191
 40
0.7103704889
 40
1.0
 40
1.0
 40
1.0
 40
1.0
 10
61.7858918764
 20
34.5529271077
 30
0.0
 10
61.8485735843
 20
34.5167718126
 30
0.0
 10
61.992521341
 20
34.4644112854
 30
0.0
 10
62.2317499958
 20
34.4584043896
 30
0.0
 10
62.4866438863
 20
34.5200059899
 30
0.0
 10
62.6525087422
 20
34.5988752816
 30
0.0
 10
62.7358559535
 20
34.6469955292
 30
0.0
  0
SPLINE
  5
287
100
AcDbEntity
  8
0
100
AcDbSpline
 62
7
  6
BYLAYER
 70
0
 71
3
 72
11
 73
7
 74
0
 42
0.0000001
 43
0.0000001
 44
0.0000000001
 40
0.0
 40
0.0
 40
0.0
 40
0.0
 40
0.217766569
 40
0.4508976191
 40
0.7103704889
 40
1.0
 40
1.0
 40
1.0
 40
1.0
 10
27.8449076901
 20
17.0801140064
 30
0.0
 10
27.907589398
 20
17.0439587113
 30
0.0
 10
28.0515371547
 20
16.9915981841
 30
0.0
 10
28.2907658096
 20
16.9855912883
 30
0.0
 10
28.5456597
 20
17.0471928886
 30
0.0
 10
28.711524556
 20
17.1260621803
 30
0.0
 10
28.7948717672
 20
17.1741824279
 30
0.0
  0
SPLINE
  5
288
100
AcDbEntity
  8
0
100
AcDbSpline
 62
7
  6
BYLAYER
 70
0
 71
3
 72
20
 73
16
 74
0
 42
0.0000001
 43
0.0000001
 44
0.0000000001
 40
0.0
 40
0.0
 40
0.0
 40
0.0
 40
0.0428301282
 40
0.0874299287
 40
0.135230618
 40
0.1871624602
 40
0.2436311386
 40
0.3046120667
 40
0.3697374445
 40
0.4383724609
 40
0.5826244024
 40
0.7296910527
 40
0.871189553
 40
0.9376088312
 40
1.0
 40
1.0
 40
1.0
 40
1.0
 10
33.6408020685
 20
84.7599839844
 30
0.0
 10
33.6407838705
 20
84.8667318013
 30
0.0
 10
33.6122930983
 20
85.085572894
 30
0.0
 10
33.4867168551
 20
85.4015211855
 30
0.0
 10
33.2831330965
 20
85.7011073631
 30
0.0
 10
33.0070739846
 20
85.9782637625
 30
0.0
 10
32.6650541972
 20
86.2281950021
 30
0.0
 10
32.2643229715
 20
86.4461885966
 30
0.0
 10
31.8132080979
 20
86.6278964876
 30
0.0
 10
31.146472152
 20
86.8200303335
 30
0.0
 10
30.2528584985
 20
86.9453440332
 30
0.0
 10
29.1700608364
 20
86.9154612132
 30
0.0
 10
28.296958245
 20
86.7408753155
 30
0.0
 10
27.6626311108
 20
86.5109531423
 30
0.0
 10
27.3738302501
 20
86.368636888
 30
0.0
 10
27.2391623662
 20
86.2908868131
 30
0.0
  0
SPLINE
  5
289
100
AcDbEntity
  8
0
100
AcDbSpline
 62
7
  6
BYLAYER
 70
0
 71
3
 72
17
 73
13
 74
0
 42
0.0000001
 43
0.0000001
 44
0.0000000001
 40
0.0
 40
0.0
 40
0.0
 40
0.0
 40
0.1286878892
 40
0.2702784801
 40
0.4174307831
 40
0.5617728703
 40
0.6954456377
 40
0.8127101002
 40
0.8646754474
 40
0.9125090257
 40
0.9571392405
 40
1.0
 40
1.0
 40
1.0
 40
1.0
 10
28.7948717672
 20
17.1741824279
 30
0.0
 10
28.9355164289
 20
17.2553831765
 30
0.0
 10
29.2085260666
 20
17.4654694035
 30
0.0
 10
29.5579503757
 20
17.8630142588
 30
0.0
 10
29.8455748197
 20
18.3308092812
 30
0.0
 10
30.0476134955
 20
18.8308524442
 30
0.0
 10
30.1479003692
 20
19.3224876368
 30
0.0
 10
30.1389043531
 20
19.7098829429
 30
0.0
 10
30.0671898158
 20
19.9755803916
 30
0.0
 10
29.987339787
 20
20.140840018
 30
0.0
 10
29.880483789
 20
20.2759581524
 30
0.0
 10
29.7916898568
 20
20.3439342768
 30
0.0
 10
29.7448358443
 20
20.3709600345
 30
0.0
  0
SPLINE
  5
28A
100
AcDbEntity
  8
0
100
AcDbSpline
 62
7
  6
BYLAYER
 70
0
 71
3
 72
17
 73
13
 74
0
 42
0.0000001
 43
0.0000001
 44
0.0000000001
 40
0.0
 40
0.0
 40
0.0
 40
0.0
 40
0.1286878892
 40
0.2702784801
 40
0.4174307831
 40
0.5617728703
 40
0.6954456377
 40
0.8127101002
 40
0.8646754474
 40
0.9125090257
 40
0.9571392405
 40
1.0
 40
1.0
 40
1.0
 40
1.0
 10
55.8062383488
 20
33.0957100726
 30
0.0
 10
55.9468830105
 20
33.1769108213
 30
0.0
 10
56.2198926481
 20
33.3869970483
 30
0.0
 10
56.5693169572
 20
33.7845419036
 30
0.0
 10
56.8569414013
 20
34.252336926
 30
0.0
 10
57.058980077
 20
34.752380089
 30
0.0
 10
57.1592669508
 20
35.2440152815
 30
0.0
 10
57.1502709346
 20
35.6314105877
 30
0.0
 10
57.0785563974
 20
35.8971080364
 30
0.0
 10
56.9987063686
 20
36.0623676627
 30
0.0
 10
56.8918503705
 20
36.1974857971
 30
0.0
 10
56.8030564383
 20
36.2654619215
 30
0.0
 10
56.7562024258
 20
36.2924876792
 30
0.0
  0
SPLINE
  5
28B
100
AcDbEntity
  8
0
100
AcDbSpline
 62
7
  6
BYLAYER
 70
0
 71
3
 72
17
 73
13
 74
0
 42
0.0000001
 43
0.0000001
 44
0.0000000001
 40
0.0
 40
0.0
 40
0.0
 40
0.0
 40
0.1286878892
 40
0.2702784801
 40
0.4174307831
 40
0.5617728703
 40
0.6954456377
 40
0.8127101002
 40
0.8646754474
 40
0.9125090257
 40
0.9571392405
 40
1.0
 40
1.0
 40
1.0
 40
1.0
 10
62.7358559535
 20
34.6469955292
 30
0.0
 10
62.8765006152
 20
34.7281962778
 30
0.0
 10
63.1495102528
 20
34.9382825048
 30
0.0
 10
63.4989345619
 20
35.3358273601
 30
0.0
 10
63.7865590059
 20
35.8036223825
 30
0.0
 10
63.9885976817
 20
36.3036655455
 30
0.0
 10
64.0888845555
 20
36.7953007381
 30
0.0
 10
64.0798885393
 20
37.1826960442
 30
0.0
 10
64.0081740021
 20
37.4483934929
 30
0.0
 10
63.9283239733
 20
37.6136531192
 30
0.0
 10
63.8214679752
 20
37.7487712537
 30
0.0
 10
63.732674043
 20
37.8167473781
 30
0.0
 10
63.6858200305
 20
37.8437731358
 30
0.0
  0
SPLINE
  5
28C
100
AcDbEntity
  8
0
100
AcDbSpline
 62
7
  6
BYLAYER
 70
0
 71
3
 72
11
 73
7
 74
0
 42
0.0000001
 43
0.0000001
 44
0.0000000001
 40
0.0
 40
0.0
 40
0.0
 40
0.0
 40
0.217766569
 40
0.4508976191
 40
0.7103704889
 40
1.0
 40
1.0
 40
1.0
 40
1.0
 10
54.8562742717
 20
33.0016416512
 30
0.0
 10
54.9189559796
 20
32.9654863561
 30
0.0
 10
55.0629037363
 20
32.9131258289
 30
0.0
 10
55.3021323911
 20
32.9071189331
 30
0.0
 10
55.5570262816
 20
32.9687205333
 30
0.0
 10
55.7228911375
 20
33.047589825
 30
0.0
 10
55.8062383488
 20
33.0957100726
 30
0.0
  0
SPLINE
  5
28D
100
AcDbEntity
  8
0
100
AcDbSpline
 62
7
  6
BYLAYER
 70
0
 71
3
 72
12
 73
8
 74
0
 42
0.0000001
 43
0.0000001
 44
0.0000000001
 40
0.0
 40
0.0
 40
0.0
 40
0.0
 40
0.2895275442
 40
0.5486634332
 40
0.7816292092
 40
0.8918383932
 40
1.0
 40
1.0
 40
1.0
 40
1.0
 10
52.4827693548
 20
100.8652031063
 30
0.0
 10
52.3181997536
 20
100.7701893699
 30
0.0
 10
52.0196602399
 20
100.5645065801
 30
0.0
 10
51.6628806776
 20
100.189923477
 30
0.0
 10
51.4714518176
 20
99.8368005908
 30
0.0
 10
51.3967958963
 20
99.5489165047
 30
0.0
 10
51.3844404889
 20
99.405290995
 30
0.0
 10
51.3844525911
 20
99.3343002761
 30
0.0
  0
SPLINE
  5
28E
100
AcDbEntity
  8
0
100
AcDbSpline
 62
7
  6
BYLAYER
 70
0
 71
3
 72
12
 73
8
 74
0
 42
0.0000001
 43
0.0000001
 44
0.0000000001
 40
0.0
 40
0.0
 40
0.0
 40
0.0
 40
0.2895275442
 40
0.5486634332
 40
0.7816292092
 40
0.8918383932
 40
1.0
 40
1.0
 40
1.0
 40
1.0
 10
27.2391623662
 20
86.2908868131
 30
0.0
 10
27.0745927651
 20
86.1958730767
 30
0.0
 10
26.7760532514
 20
85.9901902869
 30
0.0
 10
26.419273689
 20
85.6156071838
 30
0.0
 10
26.2278448291
 20
85.2624842976
 30
0.0
 10
26.1531889078
 20
84.9746002115
 30
0.0
 10
26.1408335003
 20
84.8309747017
 30
0.0
 10
26.1408456026
 20
84.7599839828
 30
0.0
  0
ENDSEC
  0
SECTION
  2
OBJECTS
  0
DICTIONARY
  5
C
100
AcDbDictionary
280
0
281
1
  3
ACAD_GROUP
350
D
  3
ACAD_MLINESTYLE
350
17
  3
ACAD_LAYOUT
350
1A
  3
ACAD_PLOTSETTINGS
350
19
  3
ACAD_PLOTSTYLENAME
350
E
  0
DICTIONARY
  5
D
102
{ACAD_REACTORS
330
C
102
}
100
AcDbDictionary
280
0
281
1
  0
ACDBDICTIONARYWDFLT
  5
E
102
{ACAD_REACTORS
330
C
102
}
100
AcDbDictionary
281
1
  3
Normal
350
F
100
AcDbDictionaryWithDefault
340
F
  0
DICTIONARY
  5
17
102
{ACAD_REACTORS
330
C
102
}
100
AcDbDictionary
280
0
281
1
  3
Standard
350
18
  0
DICTIONARY
  5
19
102
{ACAD_REACTORS
330
C
102
}
100
AcDbDictionary
281
1
  0
DICTIONARY
  5
1A
102
{ACAD_REACTORS
330
C
102
}
100
AcDbDictionary
281
1
  3
Model
350
28F
  3
Layout1
350
290
  0
ACDBPLACEHOLDER
  5
F
102
{ACAD_REACTORS
330
E
102
}
  0
MLINESTYLE
  5
18
102
{ACAD_REACTORS
330
17
102
}
100
AcDbMlineStyle
  2
STANDARD
 70
0
  3

 62
256
 51
90.0
 52
90.0
 71
2
 49
0.5
 62
256
  6
BYLAYER
 49
-0.5
 62
256
  6
BYLAYER
  0
LAYOUT
  5
28F
102
{ACAD_REACTORS
330
1A
102
}
100
AcDbPlotSettings
  1

  2
none_device
  4

  6

 40
0.0
 41
0.0
 42
0.0
 43
0.0
 44
210.0
 45
297.0
 46
0.0
 47
0.0
 48
0.0
 49
0.0
140
0.0
141
0.0
142
1.0
143
1.0
 70
1024
 72
1
 73
0
 74
0
  7

 75
0
147
1.0
148
0.0
149
0.0
100
AcDbLayout
  1
Model
 70
0
 71
0
 10
0.0
 20
0.0
 11
210.0
 21
297.0
 12
0.0
 22
0.0
 32
0.0
 14
0.0
 24
0.0
 34
0.0
 15
0.0
 25
0.0
 35
0.0
146
0.0
 13
0.0
 23
0.0
 33
0.0
 16
1.0
 26
0.0
 36
0.0
 17
0.0
 27
1.0
 37
0.0
 76
0
330
210
345
0
346
0
  0
LAYOUT
  5
290
102
{ACAD_REACTORS
330
1A
102
}
100
AcDbPlotSettings
  1

  2
none_device
  4

  6

 40
0.0
 41
0.0
 42
0.0
 43
0.0
 44
210.0
 45
297.0
 46
0.0
 47
0.0
 48
0.0
 49
0.0
140
0.0
141
0.0
142
1.0
143
1.0
 70
0
 72
1
 73
0
 74
0
  7

 75
0
147
1.0
148
0.0
149
0.0
100
AcDbLayout
  1
Layout1
 70
0
 71
1
 10
0.0
 20
0.0
 11
210.0
 21
297.0
 12
0.0
 22
0.0
 32
0.0
 14
0.0
 24
0.0
 34
0.0
 15
0.0
 25
0.0
 35
0.0
146
0.0
 13
0.0
 23
0.0
 33
0.0
 16
1.0
 26
0.0
 36
0.0
 17
0.0
 27
1.0
 37
0.0
 76
0
330
211
345
0
346
0
  0
ENDSEC
  0
EOF
