999
DXF file: C:\Users\sesa63760\Dev\_Creo\CAD\MCADID0003942_3D-CAD\drw0001_3.dxf
999
Pro/ENGINEER 2019471 by Parametric Technology Corporation
  0
SECTION
  2
HEADER
  9
$ACADVER
  1
AC1024
  9
$DWGCODEPAGE
  3
ANSI_1252
  9
$EXTMAX
 10
51.0699751135
 20
72.2275362319
 30
0.0
  9
$EXTMIN
 10
0.0
 20
0.0
 30
0.0
  9
$LIMMIN
 10
0.0
 20
0.0
  9
$LIMMAX
 10
51.0699751135
 20
72.2275362319
  9
$VIEWCTR
 10
25.5349875567
 20
36.1137681159
  9
$VIEWSIZE
 40
72.2275362319
  9
$CLAYER
  8
0
  9
$LTSCALE
 40
4.7081653247
  9
$CELTYPE
  6
BYLAYER
  9
$DIMSCALE
 40
1.0
  9
$DIMASZ
 40
0.6079758942
  9
$DIMEXO
 40
1.0
  9
$DIMDLI
 40
3.2529142244
  9
$DIMEXE
 40
1.0
  9
$DIMCEN
 40
0.7704270531
  9
$DIMLFAC
 40
1.0
  9
$DIMBLK
  1
_FILLED
  9
$DIMALT
 70
0
  9
$DIMALTF
 40
0.0393700787
  9
$DIMTXT
 40
0.8511662519
  9
$DIMTOL
 70
1
  9
$DIMLIM
 70
0
  9
$DIMTFAC
 40
1.0
  9
$DIMTP
 40
0.01
  9
$DIMTM
 40
0.01
  9
$DIMGAP
 40
0.625
  9
$DIMDSEP
 70
46
  9
$AUNITS
 70
0
  9
$PDMODE
 70
3
  9
$PDSIZE
 40
0.3125
  9
$HANDSEED
  5
27D
  9
$TILEMODE
 70
1
  9
$MEASUREMENT
 70
1
  9
$INSUNITS
 70
4
  0
ENDSEC
  0
SECTION
  2
CLASSES
  0
CLASS
  1
ACDBDICTIONARYWDFLT
  2
AcDbDictionaryWithDefault
  3
AutoCAD 2000
 90
0
 91
1
280
0
281
0
  0
CLASS
  1
ACDBPLACEHOLDER
  2
AcDbPlaceHolder
  3
AutoCAD 2000
 90
0
 91
1
280
0
281
0
  0
CLASS
  1
LAYOUT
  2
AcDbLayout
  3
AutoCAD 2000
 90
0
 91
0
280
0
281
0
  0
ENDSEC
  0
SECTION
  2
TABLES
  0
TABLE
  2
VPORT
  5
8
100
AcDbSymbolTable
 70
2
  0
VPORT
  5
1F4
100
AcDbSymbolTableRecord
100
AcDbViewportTableRecord
  2
*ACTIVE
 70
0
 10
0.0
 20
0.0
 11
1.0
 21
1.0
 12
25.5349875567
 22
36.1137681159
 13
0.0
 23
0.0
 14
1.0
 24
1.0
 15
0.0
 25
0.0
 16
0.0
 26
0.0
 36
1.0
 17
0.0
 27
0.0
 37
0.0
 40
72.2275362319
 41
0.7070707071
 42
50.0
 43
0.0
 44
0.0
 50
0.0
 51
0.0
 71
0
 72
100
 73
1
 74
1
 75
0
 76
0
 77
0
 78
0
  0
ENDTAB
  0
TABLE
  2
LTYPE
  5
5
100
AcDbSymbolTable
 70
6
  0
LTYPE
  5
14
100
AcDbSymbolTableRecord
100
AcDbLinetypeTableRecord
  2
BYBLOCK
 70
0
  3

 72
65
 73
0
 40
0.0
  0
LTYPE
  5
15
100
AcDbSymbolTableRecord
100
AcDbLinetypeTableRecord
  2
BYLAYER
 70
0
  3

 72
65
 73
0
 40
0.0
  0
LTYPE
  5
16
100
AcDbSymbolTableRecord
100
AcDbLinetypeTableRecord
  2
CONTINUOUS
 70
64
  3
Solid line
 72
65
 73
0
 40
0.0
  0
LTYPE
  5
1F5
100
AcDbSymbolTableRecord
100
AcDbLinetypeTableRecord
  2
CENTER
 70
64
  3
____ _ ____ _ ____ _ ____ _ ____ _ ____ _ ____
 72
65
 73
4
 40
0.6
 49
0.375
 74
0
 49
-0.075
 74
0
 49
0.075
 74
0
 49
-0.075
 74
0
  0
LTYPE
  5
1F6
100
AcDbSymbolTableRecord
100
AcDbLinetypeTableRecord
  2
HIDDEN
 70
64
  3
- - - - - - - - - - - - - - - - - - - -
 72
65
 73
2
 40
0.2
 49
0.1
 74
0
 49
-0.1
 74
0
  0
LTYPE
  5
1F7
100
AcDbSymbolTableRecord
100
AcDbLinetypeTableRecord
  2
PHANTOM
 70
64
  3
_____ _ _ _____ _ _ _____ _ _ _____
 72
65
 73
6
 40
0.8
 49
0.45
 74
0
 49
-0.05
 74
0
 49
0.1
 74
0
 49
-0.05
 74
0
 49
0.1
 74
0
 49
-0.05
 74
0
  0
LTYPE
  5
1F8
100
AcDbSymbolTableRecord
100
AcDbLinetypeTableRecord
  2
DOT
 70
64
  3
. . . . . . . . . . . . . . . . . . . .
 72
65
 73
2
 40
0.2
 49
0.1
 74
0
 49
-0.1
 74
0
  0
LTYPE
  5
1F9
100
AcDbSymbolTableRecord
100
AcDbLinetypeTableRecord
  2
DASHED
 70
64
  3
- - - - - - - - - - - - - - - - - - - -
 72
65
 73
2
 40
0.2
 49
0.1
 74
0
 49
-0.1
 74
0
  0
ENDTAB
  0
TABLE
  2
LAYER
  5
2
100
AcDbSymbolTable
 70
36
  0
LAYER
  5
10
100
AcDbSymbolTableRecord
100
AcDbLayerTableRecord
  2
0
 70
0
 62
7
  6
CONTINUOUS
370
-3
390
F
  0
LAYER
  5
1FA
100
AcDbSymbolTableRecord
100
AcDbLayerTableRecord
  2
DEFAULT_1
 70
0
 62
7
  6
CENTER
370
-3
390
F
  0
LAYER
  5
1FB
100
AcDbSymbolTableRecord
100
AcDbLayerTableRecord
  2
DEFAULT_2
 70
0
 62
7
  6
HIDDEN
370
-3
390
F
  0
LAYER
  5
1FC
100
AcDbSymbolTableRecord
100
AcDbLayerTableRecord
  2
DEFAULT_3
 70
0
 62
7
  6
PHANTOM
370
-3
390
F
  0
LAYER
  5
1FD
100
AcDbSymbolTableRecord
100
AcDbLayerTableRecord
  2
00_COMPONENTS
 70
0
 62
7
  6
CONTINUOUS
370
-3
390
F
  0
LAYER
  5
1FE
100
AcDbSymbolTableRecord
100
AcDbLayerTableRecord
  2
01_1_DEFAULT_DATUMS
 70
0
 62
7
  6
CONTINUOUS
370
-3
390
F
  0
LAYER
  5
1FF
100
AcDbSymbolTableRecord
100
AcDbLayerTableRecord
  2
01_PLANES
 70
0
 62
7
  6
CONTINUOUS
370
-3
390
F
  0
LAYER
  5
200
100
AcDbSymbolTableRecord
100
AcDbLayerTableRecord
  2
02_COORD_SYS
 70
0
 62
7
  6
CONTINUOUS
370
-3
390
F
  0
LAYER
  5
201
100
AcDbSymbolTableRecord
100
AcDbLayerTableRecord
  2
03_AXES
 70
0
 62
7
  6
CONTINUOUS
370
-3
390
F
  0
LAYER
  5
202
100
AcDbSymbolTableRecord
100
AcDbLayerTableRecord
  2
04_POINTS
 70
0
 62
7
  6
CONTINUOUS
370
-3
390
F
  0
LAYER
  5
203
100
AcDbSymbolTableRecord
100
AcDbLayerTableRecord
  2
05_CURVES
 70
0
 62
7
  6
CONTINUOUS
370
-3
390
F
  0
LAYER
  5
204
100
AcDbSymbolTableRecord
100
AcDbLayerTableRecord
  2
06_SURFS
 70
0
 62
7
  6
CONTINUOUS
370
-3
390
F
  0
LAYER
  5
205
100
AcDbSymbolTableRecord
100
AcDbLayerTableRecord
  2
07_COSMETICS
 70
0
 62
7
  6
CONTINUOUS
370
-3
390
F
  0
LAYER
  5
206
100
AcDbSymbolTableRecord
100
AcDbLayerTableRecord
  2
10_NOTES
 70
0
 62
7
  6
CONTINUOUS
370
-3
390
F
  0
LAYER
  5
207
100
AcDbSymbolTableRecord
100
AcDbLayerTableRecord
  2
11_NOTES_PUB
 70
0
 62
7
  6
CONTINUOUS
370
-3
390
F
  0
LAYER
  5
208
100
AcDbSymbolTableRecord
100
AcDbLayerTableRecord
  2
13_REF_GTOL
 70
0
 62
7
  6
CONTINUOUS
370
-3
390
F
  0
LAYER
  5
209
100
AcDbSymbolTableRecord
100
AcDbLayerTableRecord
  2
16_MISC
 70
0
 62
7
  6
CONTINUOUS
370
-3
390
F
  0
LAYER
  5
20A
100
AcDbSymbolTableRecord
100
AcDbLayerTableRecord
  2
17_NO_PRINT
 70
0
 62
7
  6
CONTINUOUS
370
-3
390
F
  0
LAYER
  5
20B
100
AcDbSymbolTableRecord
100
AcDbLayerTableRecord
  2
18_DATUM_CAMS_JOINTS
 70
0
 62
7
  6
CONTINUOUS
370
-3
390
F
  0
LAYER
  5
20C
100
AcDbSymbolTableRecord
100
AcDbLayerTableRecord
  2
19_DATUM_FUNCTIONAL
 70
0
 62
7
  6
CONTINUOUS
370
-3
390
F
  0
LAYER
  5
20D
100
AcDbSymbolTableRecord
100
AcDbLayerTableRecord
  2
20_DATUM_KINEMATIC_SCHEME
 70
0
 62
7
  6
CONTINUOUS
370
-3
390
F
  0
ENDTAB
  0
TABLE
  2
STYLE
  5
3
100
AcDbSymbolTable
 70
1
  0
STYLE
  5
11
100
AcDbSymbolTableRecord
100
AcDbTextStyleTableRecord
  2
STANDARD
 70
0
 40
0.0
 41
1.0
 50
0.0
 71
0
 42
0.2
  3
ARIAL.TTF
  4

  0
STYLE
  5
20E
100
AcDbSymbolTableRecord
100
AcDbTextStyleTableRecord
  2
TEXTSTYLE_1
 70
0
 40
0.0
 41
0.8
 50
0.0
 71
0
 42
0.2
  3
gdt
  4

  0
ENDTAB
  0
TABLE
  2
VIEW
  5
6
100
AcDbSymbolTable
 70
0
  0
ENDTAB
  0
TABLE
  2
UCS
  5
7
100
AcDbSymbolTable
 70
0
  0
ENDTAB
  0
TABLE
  2
APPID
  5
9
100
AcDbSymbolTable
 70
1
  0
APPID
  5
20F
100
AcDbSymbolTableRecord
100
AcDbRegAppTableRecord
  2
ACAD
 70
0
  0
ENDTAB
  0
TABLE
  2
BLOCK_RECORD
  5
1
100
AcDbSymbolTable
 70
0
  0
BLOCK_RECORD
  5
210
100
AcDbSymbolTableRecord
100
AcDbBlockTableRecord
  2
*Model_Space
  0
BLOCK_RECORD
  5
211
100
AcDbSymbolTableRecord
100
AcDbBlockTableRecord
  2
*Paper_Space
  0
BLOCK_RECORD
  5
212
100
AcDbSymbolTableRecord
100
AcDbBlockTableRecord
  2
_FILLED
  0
ENDTAB
  0
TABLE
  2
DIMSTYLE
  5
A
100
AcDbSymbolTable
 70
1
100
AcDbDimStyleTable
 71
0
  0
DIMSTYLE
105
213
100
AcDbSymbolTableRecord
100
AcDbDimStyleTableRecord
  2
STANDARD
 70
0
  3

  4

 40
1.0
 41
0.6079758942
 42
1.0
 43
0.38
 44
1.0
 45
0.0
 46
0.0
 47
0.01
 48
0.01
140
0.8511662519
141
0.09
142
0.0
143
25.4
144
1.0
145
0.0
146
1.0
147
0.625
 71
1
 72
0
 73
0
 74
0
 75
0
 76
0
 77
1
 78
8
 79
2
170
0
171
1
172
0
173
0
174
0
175
0
176
0
177
0
178
0
270
2
179
2
271
2
272
2
273
2
274
2
275
0
280
0
281
0
282
0
283
1
284
8
285
0
286
0
287
3
288
0
340
11
278
46
341
212
342
212
343
212
344
212
  0
ENDTAB
  0
ENDSEC
  0
SECTION
  2
BLOCKS
  0
BLOCK
  5
20
100
AcDbEntity
  8
0
100
AcDbBlockBegin
  2
*Model_Space
 70
0
 10
0.0
 20
0.0
 30
0.0
  3
*Model_Space
  1

  0
ENDBLK
  5
21
100
AcDbEntity
  8
0
100
AcDbBlockEnd
  0
BLOCK
  5
1C
100
AcDbEntity
  8
0
100
AcDbBlockBegin
  2
*Paper_Space
 70
0
 10
0.0
 20
0.0
 30
0.0
  3
*Paper_Space
  1

  0
ENDBLK
  5
1D
100
AcDbEntity
  8
0
100
AcDbBlockEnd
  0
BLOCK
  5
214
100
AcDbEntity
  8
0
100
AcDbBlockBegin
  2
_FILLED
 70
64
 10
0.0
 20
0.0
  3
_FILLED
  1

  0
SOLID
  5
215
100
AcDbEntity
  8
0
  6
BYBLOCK
 62
0
100
AcDbTrace
 10
0.0
 20
0.0
 11
-1.0
 21
0.25
 12
-1.0
 22
-0.25
 13
-1.0
 23
-0.25
  0
ENDBLK
  5
216
100
AcDbEntity
  8
0
  6
BYBLOCK
 62
0
100
AcDbBlockEnd
  0
ENDSEC
  0
SECTION
  2
ENTITIES
  0
LINE
  5
217
100
AcDbEntity
  8
0
100
AcDbLine
 62
7
  6
BYLAYER
 10
31.2922065861
 20
5.7905797101
 11
21.1922389462
 21
5.7905797101
  0
LINE
  5
218
100
AcDbEntity
  8
0
100
AcDbLine
 62
7
  6
BYLAYER
 10
31.4922389462
 20
5.9905797101
 11
26.965080561
 21
5.9905797101
  0
LINE
  5
219
100
AcDbEntity
  8
0
100
AcDbLine
 62
7
  6
BYLAYER
 10
25.5193973315
 20
5.9905797101
 11
20.9922389462
 21
5.9905797101
  0
LINE
  5
21A
100
AcDbEntity
  8
0
100
AcDbLine
 62
7
  6
BYLAYER
 10
32.0422147169
 20
6.1905797101
 11
20.4422389462
 21
6.1905797101
  0
LINE
  5
21B
100
AcDbEntity
  8
0
100
AcDbLine
 62
7
  6
BYLAYER
 10
32.2422389462
 20
6.3905797101
 11
20.2422389462
 21
6.3905797101
  0
LINE
  5
21C
100
AcDbEntity
  8
0
100
AcDbLine
 62
7
  6
BYLAYER
 10
34.7422389462
 20
10.7905797101
 11
17.7422389462
 21
10.7905797101
  0
LINE
  5
21D
100
AcDbEntity
  8
0
100
AcDbLine
 62
7
  6
BYLAYER
 10
20.4422389462
 20
6.1905797101
 11
20.2422389462
 21
6.3905797101
  0
LINE
  5
21E
100
AcDbEntity
  8
0
100
AcDbLine
 62
7
  6
BYLAYER
 10
20.8922389462
 20
64.8405797101
 11
20.2422389462
 21
64.1905797101
  0
LINE
  5
21F
100
AcDbEntity
  8
0
100
AcDbLine
 62
7
  6
BYLAYER
 10
17.7422389462
 20
14.7905797101
 11
34.7422389462
 21
14.7905797101
  0
LINE
  5
220
100
AcDbEntity
  8
0
100
AcDbLine
 62
7
  6
BYLAYER
 10
34.7422389462
 20
18.7905797101
 11
17.7422389462
 21
18.7905797101
  0
LINE
  5
221
100
AcDbEntity
  8
0
100
AcDbLine
 62
7
  6
BYLAYER
 10
20.9922389462
 20
49.2905797101
 11
20.2422389462
 21
48.5405797101
  0
LINE
  5
222
100
AcDbEntity
  8
0
100
AcDbLine
 62
7
  6
BYLAYER
 10
17.7422389462
 20
22.7905797101
 11
34.7422389462
 21
22.7905797101
  0
LINE
  5
223
100
AcDbEntity
  8
0
100
AcDbLine
 62
7
  6
BYLAYER
 10
21.0923223968
 20
66.6253093456
 11
20.8922389462
 21
65.4905797101
  0
LINE
  5
224
100
AcDbEntity
  8
0
100
AcDbLine
 62
7
  6
BYLAYER
 10
31.5922389462
 20
58.0405797101
 11
32.2422389462
 21
58.6905797101
  0
LINE
  5
225
100
AcDbEntity
  8
0
100
AcDbLine
 62
7
  6
BYLAYER
 10
17.7422389462
 20
14.7905797101
 11
17.7422389462
 21
10.7905797101
  0
LINE
  5
226
100
AcDbEntity
  8
0
100
AcDbLine
 62
7
  6
BYLAYER
 10
17.7422389462
 20
18.7905797101
 11
17.7422389462
 21
22.7905797101
  0
LINE
  5
227
100
AcDbEntity
  8
0
100
AcDbLine
 62
7
  6
BYLAYER
 10
18.1752516481
 20
14.1700720534
 11
18.1752516481
 21
11.4110873759
  0
LINE
  5
228
100
AcDbEntity
  8
0
100
AcDbLine
 62
7
  6
BYLAYER
 10
18.1752516481
 20
19.411087078
 11
18.1752516481
 21
22.1700723423
  0
LINE
  5
229
100
AcDbEntity
  8
0
100
AcDbLine
 62
7
  6
BYLAYER
 10
20.2422389462
 20
6.3905797102
 11
20.2422389462
 21
10.7905797101
  0
LINE
  5
22A
100
AcDbEntity
  8
0
100
AcDbLine
 62
7
  6
BYLAYER
 10
20.2422389462
 20
14.7905797101
 11
20.2422389462
 21
18.7905797101
  0
LINE
  5
22B
100
AcDbEntity
  8
0
100
AcDbLine
 62
7
  6
BYLAYER
 10
20.2422389462
 20
22.7905797101
 11
20.2422389462
 21
48.5405797101
  0
LINE
  5
22C
100
AcDbEntity
  8
0
100
AcDbLine
 62
7
  6
BYLAYER
 10
20.2422389462
 20
58.6905797101
 11
20.2422389462
 21
64.1905797101
  0
LINE
  5
22D
100
AcDbEntity
  8
0
100
AcDbLine
 62
7
  6
BYLAYER
 10
20.8922389462
 20
55.2905797101
 11
20.8922389462
 21
58.0405797101
  0
LINE
  5
22E
100
AcDbEntity
  8
0
100
AcDbLine
 62
7
  6
BYLAYER
 10
20.8922389462
 20
64.8405797101
 11
20.8922389462
 21
65.4905797101
  0
LINE
  5
22F
100
AcDbEntity
  8
0
100
AcDbLine
 62
7
  6
BYLAYER
 10
20.9922389462
 20
5.9905797101
 11
20.9922389462
 21
6.1905797101
  0
LINE
  5
230
100
AcDbEntity
  8
0
100
AcDbLine
 62
7
  6
BYLAYER
 10
20.9922389462
 20
49.2905797101
 11
20.9922389462
 21
55.0905797101
  0
LINE
  5
231
100
AcDbEntity
  8
0
100
AcDbLine
 62
7
  6
BYLAYER
 10
23.5260835751
 20
43.2905797101
 11
23.5260835751
 21
48.5405797101
  0
LINE
  5
232
100
AcDbEntity
  8
0
100
AcDbLine
 62
7
  6
BYLAYER
 10
25.5193973315
 20
5.9905797101
 11
25.5193973315
 21
6.1905797101
  0
LINE
  5
233
100
AcDbEntity
  8
0
100
AcDbLine
 62
7
  6
BYLAYER
 10
25.8092262443
 20
14.1700723464
 11
25.8092262443
 21
11.4110870739
  0
LINE
  5
234
100
AcDbEntity
  8
0
100
AcDbLine
 62
7
  6
BYLAYER
 10
25.8092262443
 20
19.4110873642
 11
25.8092262443
 21
22.1700720471
  0
LINE
  5
235
100
AcDbEntity
  8
0
100
AcDbLine
 62
7
  6
BYLAYER
 10
26.5020465674
 20
14.1159771507
 11
26.5020465674
 21
11.4651822696
  0
LINE
  5
236
100
AcDbEntity
  8
0
100
AcDbLine
 62
7
  6
BYLAYER
 10
26.5020465674
 20
19.4651821331
 11
26.5020465674
 21
22.1159772872
  0
LINE
  5
237
100
AcDbEntity
  8
0
100
AcDbLine
 62
7
  6
BYLAYER
 10
26.965080561
 20
6.1905797101
 11
26.965080561
 21
5.9905797101
  0
LINE
  5
238
100
AcDbEntity
  8
0
100
AcDbLine
 62
7
  6
BYLAYER
 10
28.9583943173
 20
48.5405797101
 11
28.9583943173
 21
43.2905797101
  0
LINE
  5
239
100
AcDbEntity
  8
0
100
AcDbLine
 62
7
  6
BYLAYER
 10
31.4922389462
 20
5.9905797101
 11
31.4922389462
 21
6.1905797101
  0
LINE
  5
23A
100
AcDbEntity
  8
0
100
AcDbLine
 62
7
  6
BYLAYER
 10
31.4922389462
 20
49.2905797101
 11
31.4922389462
 21
55.0905797101
  0
LINE
  5
23B
100
AcDbEntity
  8
0
100
AcDbLine
 62
7
  6
BYLAYER
 10
31.5922389462
 20
55.2905797101
 11
31.5922389462
 21
58.0405797101
  0
LINE
  5
23C
100
AcDbEntity
  8
0
100
AcDbLine
 62
7
  6
BYLAYER
 10
31.5922389462
 20
64.8405797101
 11
31.5922389462
 21
65.4905797101
  0
LINE
  5
23D
100
AcDbEntity
  8
0
100
AcDbLine
 62
7
  6
BYLAYER
 10
32.2422389462
 20
6.3905797102
 11
32.2422389462
 21
10.7905797101
  0
LINE
  5
23E
100
AcDbEntity
  8
0
100
AcDbLine
 62
7
  6
BYLAYER
 10
32.2422389462
 20
14.7905797101
 11
32.2422389462
 21
18.7905797101
  0
LINE
  5
23F
100
AcDbEntity
  8
0
100
AcDbLine
 62
7
  6
BYLAYER
 10
32.2422389462
 20
22.7905797101
 11
32.2422389462
 21
48.5405797101
  0
LINE
  5
240
100
AcDbEntity
  8
0
100
AcDbLine
 62
7
  6
BYLAYER
 10
32.2422389462
 20
58.6905797101
 11
32.2422389462
 21
64.1905797101
  0
LINE
  5
241
100
AcDbEntity
  8
0
100
AcDbLine
 62
7
  6
BYLAYER
 10
34.4824313251
 20
14.1159772884
 11
34.4824313251
 21
11.4651821319
  0
LINE
  5
242
100
AcDbEntity
  8
0
100
AcDbLine
 62
7
  6
BYLAYER
 10
34.4824313251
 20
19.4651822688
 11
34.4824313251
 21
22.1159771515
  0
LINE
  5
243
100
AcDbEntity
  8
0
100
AcDbLine
 62
7
  6
BYLAYER
 10
34.7422389462
 20
10.7905797101
 11
34.7422389462
 21
14.7905797101
  0
LINE
  5
244
100
AcDbEntity
  8
0
100
AcDbLine
 62
7
  6
BYLAYER
 10
34.7422389462
 20
18.7905797101
 11
34.7422389462
 21
22.7905797101
  0
LINE
  5
245
100
AcDbEntity
  8
0
100
AcDbLine
 62
7
  6
BYLAYER
 10
23.5260835751
 20
43.2905797101
 11
28.9583943173
 21
43.2905797101
  0
LINE
  5
246
100
AcDbEntity
  8
0
100
AcDbLine
 62
7
  6
BYLAYER
 10
31.3921554957
 20
66.6253093456
 11
31.5922389462
 21
65.4905797101
  0
LINE
  5
247
100
AcDbEntity
  8
0
100
AcDbLine
 62
7
  6
BYLAYER
 10
20.2422389462
 20
48.5405797101
 11
23.5260835751
 21
48.5405797101
  0
LINE
  5
248
100
AcDbEntity
  8
0
100
AcDbLine
 62
7
  6
BYLAYER
 10
28.9583943173
 20
48.5405797101
 11
32.2422389462
 21
48.5405797101
  0
LINE
  5
249
100
AcDbEntity
  8
0
100
AcDbLine
 62
7
  6
BYLAYER
 10
20.8922389462
 20
58.0405797101
 11
20.2422389462
 21
58.6905797101
  0
LINE
  5
24A
100
AcDbEntity
  8
0
100
AcDbLine
 62
7
  6
BYLAYER
 10
31.4922389462
 20
49.2905797101
 11
32.2422389462
 21
48.5405797101
  0
LINE
  5
24B
100
AcDbEntity
  8
0
100
AcDbLine
 62
7
  6
BYLAYER
 10
31.4922389462
 20
49.2905797101
 11
20.9922389462
 21
49.2905797101
  0
LINE
  5
24C
100
AcDbEntity
  8
0
100
AcDbLine
 62
7
  6
BYLAYER
 10
20.9922389462
 20
55.0905797101
 11
31.4922389462
 21
55.0905797101
  0
LINE
  5
24D
100
AcDbEntity
  8
0
100
AcDbLine
 62
7
  6
BYLAYER
 10
31.592226228
 20
55.2905797101
 11
20.8922389462
 21
55.2905797101
  0
LINE
  5
24E
100
AcDbEntity
  8
0
100
AcDbLine
 62
7
  6
BYLAYER
 10
20.8922389462
 20
58.0405797101
 11
31.5922389462
 21
58.0405797101
  0
LINE
  5
24F
100
AcDbEntity
  8
0
100
AcDbLine
 62
7
  6
BYLAYER
 10
32.2422389462
 20
58.6905797101
 11
20.2422389462
 21
58.6905797101
  0
LINE
  5
250
100
AcDbEntity
  8
0
100
AcDbLine
 62
7
  6
BYLAYER
 10
32.0422389462
 20
6.1905797101
 11
32.2422389462
 21
6.3905797101
  0
LINE
  5
251
100
AcDbEntity
  8
0
100
AcDbLine
 62
7
  6
BYLAYER
 10
31.5922389462
 20
64.8405797101
 11
32.2422389462
 21
64.1905797101
  0
LINE
  5
252
100
AcDbEntity
  8
0
100
AcDbLine
 62
7
  6
BYLAYER
 10
20.2422389462
 20
64.1905797101
 11
32.2422389462
 21
64.1905797101
  0
LINE
  5
253
100
AcDbEntity
  8
0
100
AcDbLine
 62
7
  6
BYLAYER
 10
31.5922389462
 20
64.8405797101
 11
20.8922389462
 21
64.8405797101
  0
LINE
  5
254
100
AcDbEntity
  8
0
100
AcDbLine
 62
7
  6
BYLAYER
 10
20.8922389462
 20
65.4905797101
 11
31.5922389462
 21
65.4905797101
  0
LINE
  5
255
100
AcDbEntity
  8
0
100
AcDbLine
 62
7
  6
BYLAYER
 10
21.0923223968
 20
66.6253093456
 11
31.3921554957
 21
66.6253093456
  0
LINE
  5
256
100
AcDbEntity
  8
0
100
AcDbLine
 62
7
  6
BYLAYER
 10
21.2893083671
 20
66.7905797101
 11
31.1951428063
 21
66.7905797101
  0
ARC
  5
257
100
AcDbEntity
  8
0
100
AcDbCircle
 62
7
  6
BYLAYER
 10
24.8497419489
 20
5.4178333934
 40
16.7796936817
100
AcDbArc
 50
84.3488988474
 51
86.7219661973
  0
ARC
  5
258
100
AcDbEntity
  8
0
100
AcDbCircle
 62
7
  6
BYLAYER
 10
24.8497419487
 20
-2.5821666062
 40
16.7796936813
100
AcDbArc
 50
84.3488988465
 51
86.7219661964
  0
ARC
  5
259
100
AcDbEntity
  8
0
100
AcDbCircle
 62
7
  6
BYLAYER
 10
24.8497419533
 20
36.1633259708
 40
16.7796936254
100
AcDbArc
 50
273.2780337988
 51
275.6511011566
  0
ARC
  5
25A
100
AcDbEntity
  8
0
100
AcDbCircle
 62
7
  6
BYLAYER
 10
24.849741953
 20
28.1633259703
 40
16.779693625
100
AcDbArc
 50
273.2780337996
 51
275.6511011574
  0
ARC
  5
25B
100
AcDbEntity
  8
0
100
AcDbCircle
 62
7
  6
BYLAYER
 10
18.7855091574
 20
7.5250720964
 40
6.6729635467
100
AcDbArc
 50
95.2471592908
 51
98.994686081
  0
ARC
  5
25C
100
AcDbEntity
  8
0
100
AcDbCircle
 62
7
  6
BYLAYER
 10
18.7841931598
 20
26.0455532333
 40
6.6623532578
100
AcDbArc
 50
261.002328751
 51
264.7558258876
  0
ARC
  5
25D
100
AcDbEntity
  8
0
100
AcDbCircle
 62
7
  6
BYLAYER
 10
18.7806959457
 20
15.5636001509
 40
6.6341568879
100
AcDbArc
 50
95.2361947184
 51
99.005650643
  0
ARC
  5
25E
100
AcDbEntity
  8
0
100
AcDbCircle
 62
7
  6
BYLAYER
 10
18.7790624539
 20
18.0044837396
 40
6.620986862
100
AcDbArc
 50
260.9905990197
 51
264.7675556085
  0
ARC
  5
25F
100
AcDbEntity
  8
0
100
AcDbCircle
 62
7
  6
BYLAYER
 10
35.1235386261
 20
11.687804581
 40
2.5113823422
100
AcDbArc
 50
98.7329118402
 51
104.7902152423
  0
ARC
  5
260
100
AcDbEntity
  8
0
100
AcDbCircle
 62
7
  6
BYLAYER
 10
35.1227269511
 20
21.8894565079
 40
2.5074059781
100
AcDbArc
 50
255.2049772881
 51
261.2718956294
  0
ARC
  5
261
100
AcDbEntity
  8
0
100
AcDbCircle
 62
7
  6
BYLAYER
 10
35.1170260274
 20
19.7190834423
 40
2.4794778777
100
AcDbArc
 50
98.6939038862
 51
104.8292231963
  0
ARC
  5
262
100
AcDbEntity
  8
0
100
AcDbCircle
 62
7
  6
BYLAYER
 10
35.1160190592
 20
13.8572396873
 40
2.4745449613
100
AcDbArc
 50
255.1646556669
 51
261.3122172506
  0
ARC
  5
263
100
AcDbEntity
  8
0
100
AcDbCircle
 62
7
  6
BYLAYER
 10
21.1922389462
 20
5.9905797101
 40
0.2
100
AcDbArc
 50
180.0
 51
270.0
  0
ARC
  5
264
100
AcDbEntity
  8
0
100
AcDbCircle
 62
7
  6
BYLAYER
 10
31.2922389462
 20
5.9905797101
 40
0.2
100
AcDbArc
 50
270.0
 51
360.0
  0
ARC
  5
265
100
AcDbEntity
  8
0
100
AcDbCircle
 62
7
  6
BYLAYER
 10
31.1951939451
 20
66.5905797101
 40
0.2
100
AcDbArc
 50
10.0
 51
90.0
  0
ARC
  5
266
100
AcDbEntity
  8
0
100
AcDbCircle
 62
7
  6
BYLAYER
 10
21.2892839474
 20
66.5905797101
 40
0.2
100
AcDbArc
 50
90.0
 51
170.0
  0
ARC
  5
267
100
AcDbEntity
  8
0
100
AcDbCircle
 62
7
  6
BYLAYER
 10
31.2922389462
 20
55.0905797101
 40
0.2
100
AcDbArc
 50
0.0
 51
90.0
  0
ARC
  5
268
100
AcDbEntity
  8
0
100
AcDbCircle
 62
7
  6
BYLAYER
 10
21.1922389462
 20
55.0905797101
 40
0.2
100
AcDbArc
 50
90.0
 51
180.0
  0
SPLINE
  5
269
100
AcDbEntity
  8
0
100
AcDbSpline
 62
7
  6
BYLAYER
 70
0
 71
3
 72
42
 73
38
 74
0
 42
0.0000001
 43
0.0000001
 44
0.0000000001
 40
0.0
 40
0.0
 40
0.0
 40
0.0
 40
0.007830741
 40
0.015695291
 40
0.0235246052
 40
0.0313425214
 40
0.0391584887
 40
0.0469725099
 40
0.0625940508
 40
0.0782174776
 40
0.0938398251
 40
0.1250811119
 40
0.1563241249
 40
0.1875677554
 40
0.2188116904
 40
0.2500557686
 40
0.3125420224
 40
0.3750291748
 40
0.4375166848
 40
0.5000043809
 40
0.5624920582
 40
0.6249796157
 40
0.6874667259
 40
0.7499529772
 40
0.7811970661
 40
0.8124410145
 40
0.8436847327
 40
0.8749278003
 40
0.9061693074
 40
0.937404762
 40
0.953027777
 40
0.9608414124
 40
0.9686566544
 40
0.9764753123
 40
0.9843046226
 40
0.9921690963
 40
1.0
 40
1.0
 40
1.0
 40
1.0
 10
26.965080561
 20
5.9905797101
 30
0.0
 10
26.965080561
 20
5.986631795
 30
0.0
 10
26.9631809623
 20
5.9786925066
 30
0.0
 10
26.9568218186
 20
5.9685308812
 30
0.0
 10
26.9483469865
 20
5.960151251
 30
0.0
 10
26.9389521349
 20
5.9529369939
 30
0.0
 10
26.9289454826
 20
5.9466195617
 30
0.0
 10
26.9151115372
 20
5.9390618059
 30
0.0
 10
26.8970617115
 20
5.9311092064
 30
0.0
 10
26.874822965
 20
5.9231003701
 30
0.0
 10
26.8447325307
 20
5.9137444294
 30
0.0
 10
26.8065272199
 20
5.9040937173
 30
0.0
 10
26.7601828246
 20
5.8948107339
 30
0.0
 10
26.7135448545
 20
5.8871526325
 30
0.0
 10
26.6667132581
 20
5.8808017948
 30
0.0
 10
26.6040995863
 20
5.8737400956
 30
0.0
 10
26.5256020302
 20
5.8671447259
 30
0.0
 10
26.4312280439
 20
5.8619129593
 30
0.0
 10
26.3367567167
 20
5.858930423
 30
0.0
 10
26.2422444294
 20
5.8579715
 30
0.0
 10
26.147732111
 20
5.8589370929
 30
0.0
 10
26.053261142
 20
5.8619181638
 30
0.0
 10
25.9588845627
 20
5.86711177
 30
0.0
 10
25.8803904473
 20
5.8737478504
 30
0.0
 10
25.817775484
 20
5.8807968742
 30
0.0
 10
25.770944502
 20
5.887153907
 30
0.0
 10
25.7243052505
 20
5.8948005625
 30
0.0
 10
25.6779618161
 20
5.9041050519
 30
0.0
 10
25.6321237091
 20
5.9156486235
 30
0.0
 10
25.5946660257
 20
5.928005202
 30
0.0
 10
25.569414902
 20
5.9391466901
 30
0.0
 10
25.5555400243
 20
5.9466294135
 30
0.0
 10
25.5455219819
 20
5.9529309582
 30
0.0
 10
25.5361322511
 20
5.9601521781
 30
0.0
 10
25.5276567422
 20
5.9685309696
 30
0.0
 10
25.5212965684
 20
5.9786922645
 30
0.0
 10
25.5193973315
 20
5.986631713
 30
0.0
 10
25.5193973315
 20
5.9905797101
 30
0.0
  0
SPLINE
  5
26A
100
AcDbEntity
  8
0
100
AcDbSpline
 62
7
  6
BYLAYER
 70
0
 71
3
 72
11
 73
7
 74
0
 42
0.0000001
 43
0.0000001
 44
0.0000000001
 40
0.0
 40
0.0
 40
0.0
 40
0.0
 40
0.2489621357
 40
0.4984115847
 40
0.7487034744
 40
1.0
 40
1.0
 40
1.0
 40
1.0
 10
30.4922388885
 20
22.7905767924
 30
0.0
 10
30.8293493112
 20
22.7905793048
 30
0.0
 10
31.5046149507
 20
22.7593775695
 30
0.0
 10
32.5103624523
 20
22.6230922957
 30
0.0
 10
33.5050261063
 20
22.4070943021
 30
0.0
 10
34.1581327486
 20
22.2190063408
 30
0.0
 10
34.4824313251
 20
22.1159771515
 30
0.0
  0
SPLINE
  5
26B
100
AcDbEntity
  8
0
100
AcDbSpline
 62
7
  6
BYLAYER
 70
0
 71
3
 72
11
 73
7
 74
0
 42
0.0000001
 43
0.0000001
 44
0.0000000001
 40
0.0
 40
0.0
 40
0.0
 40
0.0
 40
0.2489621356
 40
0.4984115847
 40
0.7487034747
 40
1.0
 40
1.0
 40
1.0
 40
1.0
 10
30.4922388884
 20
18.7905826279
 30
0.0
 10
30.1551284754
 20
18.790580119
 30
0.0
 10
29.4798628536
 20
18.8217818317
 30
0.0
 10
28.4741153839
 20
18.9580671408
 30
0.0
 10
27.4794517631
 20
19.1740651446
 30
0.0
 10
26.8263451343
 20
19.3621530833
 30
0.0
 10
26.5020465674
 20
19.4651822696
 30
0.0
  0
SPLINE
  5
26C
100
AcDbEntity
  8
0
100
AcDbSpline
 62
7
  6
BYLAYER
 70
0
 71
3
 72
11
 73
7
 74
0
 42
0.0000001
 43
0.0000001
 44
0.0000000001
 40
0.0
 40
0.0
 40
0.0
 40
0.0
 40
0.2512100578
 40
0.5014744696
 40
0.7509613322
 40
1.0
 40
1.0
 40
1.0
 40
1.0
 10
25.8092262443
 20
19.4110873642
 30
0.0
 10
25.4985569874
 20
19.315748605
 30
0.0
 10
24.873057866
 20
19.1421136052
 30
0.0
 10
23.9212476063
 20
18.9437397717
 30
0.0
 10
22.9596376185
 20
18.8190389176
 30
0.0
 10
22.3143989778
 20
18.7905806266
 30
0.0
 10
21.9922388963
 20
18.7905826277
 30
0.0
  0
SPLINE
  5
26D
100
AcDbEntity
  8
0
100
AcDbSpline
 62
7
  6
BYLAYER
 70
0
 71
3
 72
11
 73
7
 74
0
 42
0.0000001
 43
0.0000001
 44
0.0000000001
 40
0.0
 40
0.0
 40
0.0
 40
0.0
 40
0.2512965522
 40
0.5015884568
 40
0.7510379025
 40
1.0
 40
1.0
 40
1.0
 40
1.0
 10
26.5020465674
 20
22.1159771507
 30
0.0
 10
26.8263451691
 20
22.219006348
 30
0.0
 10
27.4794518439
 20
22.4070943314
 30
0.0
 10
28.4741155261
 20
22.6230923047
 30
0.0
 10
29.4798629625
 20
22.759377575
 30
0.0
 10
30.155128527
 20
22.7905793028
 30
0.0
 10
30.4922388885
 20
22.7905767924
 30
0.0
  0
SPLINE
  5
26E
100
AcDbEntity
  8
0
100
AcDbSpline
 62
7
  6
BYLAYER
 70
0
 71
3
 72
11
 73
7
 74
0
 42
0.0000001
 43
0.0000001
 44
0.0000000001
 40
0.0
 40
0.0
 40
0.0
 40
0.0
 40
0.2490353768
 40
0.4985182809
 40
0.7487842678
 40
1.0
 40
1.0
 40
1.0
 40
1.0
 10
21.9922388806
 20
22.7905767926
 30
0.0
 10
22.314394637
 20
22.7905792985
 30
0.0
 10
22.9596227769
 20
22.7621103282
 30
0.0
 10
23.9212286923
 20
22.6374341322
 30
0.0
 10
24.8730369811
 20
22.4390305586
 30
0.0
 10
25.4985500353
 20
22.2654129398
 30
0.0
 10
25.8092262443
 20
22.1700720471
 30
0.0
  0
SPLINE
  5
26F
100
AcDbEntity
  8
0
100
AcDbSpline
 62
7
  6
BYLAYER
 70
0
 71
3
 72
11
 73
7
 74
0
 42
0.0000001
 43
0.0000001
 44
0.0000000001
 40
0.0
 40
0.0
 40
0.0
 40
0.0
 40
0.2512100575
 40
0.5014744695
 40
0.7509613322
 40
1.0
 40
1.0
 40
1.0
 40
1.0
 10
18.1752516481
 20
22.1700720533
 30
0.0
 10
18.4859208956
 20
22.2654108096
 30
0.0
 10
19.1114200031
 20
22.4390457876
 30
0.0
 10
20.0632302291
 20
22.6374196364
 30
0.0
 10
21.0248401859
 20
22.7621205212
 30
0.0
 10
21.6700788087
 20
22.7905787903
 30
0.0
 10
21.9922388806
 20
22.7905767926
 30
0.0
  0
SPLINE
  5
270
100
AcDbEntity
  8
0
100
AcDbSpline
 62
7
  6
BYLAYER
 70
0
 71
3
 72
11
 73
7
 74
0
 42
0.0000001
 43
0.0000001
 44
0.0000000001
 40
0.0
 40
0.0
 40
0.0
 40
0.0
 40
0.2490353767
 40
0.4985182809
 40
0.748784268
 40
1.0
 40
1.0
 40
1.0
 40
1.0
 10
21.9922388963
 20
18.7905826277
 30
0.0
 10
21.6700831495
 20
18.7905801252
 30
0.0
 10
21.0248550274
 20
18.8190490724
 30
0.0
 10
20.0632491431
 20
18.9437253001
 30
0.0
 10
19.1114408884
 20
19.1421288907
 30
0.0
 10
18.4859278477
 20
19.3157464861
 30
0.0
 10
18.1752516481
 20
19.4110873759
 30
0.0
  0
SPLINE
  5
271
100
AcDbEntity
  8
0
100
AcDbSpline
 62
7
  6
BYLAYER
 70
0
 71
3
 72
11
 73
7
 74
0
 42
0.0000001
 43
0.0000001
 44
0.0000000001
 40
0.0
 40
0.0
 40
0.0
 40
0.0
 40
0.2512965524
 40
0.5015884569
 40
0.7510379025
 40
1.0
 40
1.0
 40
1.0
 40
1.0
 10
34.4824313251
 20
19.4651822688
 30
0.0
 10
34.1581327139
 20
19.3621530685
 30
0.0
 10
33.5050260255
 20
19.1740650626
 30
0.0
 10
32.5103623102
 20
18.9580670994
 30
0.0
 10
31.5046148418
 20
18.8217818644
 30
0.0
 10
30.8293492595
 20
18.790580114
 30
0.0
 10
30.4922388884
 20
18.7905826279
 30
0.0
  0
SPLINE
  5
272
100
AcDbEntity
  8
0
100
AcDbSpline
 62
7
  6
BYLAYER
 70
0
 71
3
 72
11
 73
7
 74
0
 42
0.0000001
 43
0.0000001
 44
0.0000000001
 40
0.0
 40
0.0
 40
0.0
 40
0.0
 40
0.2512965522
 40
0.5015884568
 40
0.7510379025
 40
1.0
 40
1.0
 40
1.0
 40
1.0
 10
26.5020465674
 20
14.1159771507
 30
0.0
 10
26.8263451691
 20
14.219006348
 30
0.0
 10
27.4794518439
 20
14.4070943314
 30
0.0
 10
28.4741155261
 20
14.6230923047
 30
0.0
 10
29.4798629625
 20
14.759377575
 30
0.0
 10
30.155128527
 20
14.7905793028
 30
0.0
 10
30.4922388885
 20
14.7905767924
 30
0.0
  0
SPLINE
  5
273
100
AcDbEntity
  8
0
100
AcDbSpline
 62
7
  6
BYLAYER
 70
0
 71
3
 72
11
 73
7
 74
0
 42
0.0000001
 43
0.0000001
 44
0.0000000001
 40
0.0
 40
0.0
 40
0.0
 40
0.0
 40
0.2490353768
 40
0.4985182809
 40
0.7487842678
 40
1.0
 40
1.0
 40
1.0
 40
1.0
 10
21.9922388806
 20
14.7905767926
 30
0.0
 10
22.314394637
 20
14.7905792985
 30
0.0
 10
22.9596227769
 20
14.7621103282
 30
0.0
 10
23.9212286923
 20
14.6374341323
 30
0.0
 10
24.8730369811
 20
14.4390305586
 30
0.0
 10
25.4985500353
 20
14.2654129398
 30
0.0
 10
25.8092262443
 20
14.1700720471
 30
0.0
  0
SPLINE
  5
274
100
AcDbEntity
  8
0
100
AcDbSpline
 62
7
  6
BYLAYER
 70
0
 71
3
 72
11
 73
7
 74
0
 42
0.0000001
 43
0.0000001
 44
0.0000000001
 40
0.0
 40
0.0
 40
0.0
 40
0.0
 40
0.2489621356
 40
0.4984115847
 40
0.7487034747
 40
1.0
 40
1.0
 40
1.0
 40
1.0
 10
30.4922388884
 20
10.7905826279
 30
0.0
 10
30.1551284754
 20
10.790580119
 30
0.0
 10
29.4798628536
 20
10.8217818317
 30
0.0
 10
28.4741153839
 20
10.9580671408
 30
0.0
 10
27.4794517631
 20
11.1740651446
 30
0.0
 10
26.8263451343
 20
11.3621530833
 30
0.0
 10
26.5020465674
 20
11.4651822696
 30
0.0
  0
SPLINE
  5
275
100
AcDbEntity
  8
0
100
AcDbSpline
 62
7
  6
BYLAYER
 70
0
 71
3
 72
11
 73
7
 74
0
 42
0.0000001
 43
0.0000001
 44
0.0000000001
 40
0.0
 40
0.0
 40
0.0
 40
0.0
 40
0.2512100578
 40
0.5014744696
 40
0.7509613322
 40
1.0
 40
1.0
 40
1.0
 40
1.0
 10
25.8092262443
 20
11.4110873641
 30
0.0
 10
25.4985569874
 20
11.315748605
 30
0.0
 10
24.873057866
 20
11.1421136052
 30
0.0
 10
23.9212476063
 20
10.9437397717
 30
0.0
 10
22.9596376185
 20
10.8190389176
 30
0.0
 10
22.3143989778
 20
10.7905806266
 30
0.0
 10
21.9922388963
 20
10.7905826277
 30
0.0
  0
SPLINE
  5
276
100
AcDbEntity
  8
0
100
AcDbSpline
 62
7
  6
BYLAYER
 70
0
 71
3
 72
11
 73
7
 74
0
 42
0.0000001
 43
0.0000001
 44
0.0000000001
 40
0.0
 40
0.0
 40
0.0
 40
0.0
 40
0.2489621357
 40
0.4984115847
 40
0.7487034744
 40
1.0
 40
1.0
 40
1.0
 40
1.0
 10
30.4922388885
 20
14.7905767924
 30
0.0
 10
30.8293493112
 20
14.7905793048
 30
0.0
 10
31.5046149507
 20
14.7593775695
 30
0.0
 10
32.5103624523
 20
14.6230922957
 30
0.0
 10
33.5050261063
 20
14.4070943021
 30
0.0
 10
34.1581327486
 20
14.2190063408
 30
0.0
 10
34.4824313251
 20
14.1159771514
 30
0.0
  0
SPLINE
  5
277
100
AcDbEntity
  8
0
100
AcDbSpline
 62
7
  6
BYLAYER
 70
0
 71
3
 72
11
 73
7
 74
0
 42
0.0000001
 43
0.0000001
 44
0.0000000001
 40
0.0
 40
0.0
 40
0.0
 40
0.0
 40
0.2512965524
 40
0.5015884569
 40
0.7510379025
 40
1.0
 40
1.0
 40
1.0
 40
1.0
 10
34.4824313251
 20
11.4651822689
 30
0.0
 10
34.1581327139
 20
11.3621530685
 30
0.0
 10
33.5050260255
 20
11.1740650626
 30
0.0
 10
32.5103623102
 20
10.9580670994
 30
0.0
 10
31.5046148418
 20
10.8217818644
 30
0.0
 10
30.8293492595
 20
10.790580114
 30
0.0
 10
30.4922388884
 20
10.7905826279
 30
0.0
  0
SPLINE
  5
278
100
AcDbEntity
  8
0
100
AcDbSpline
 62
7
  6
BYLAYER
 70
0
 71
3
 72
11
 73
7
 74
0
 42
0.0000001
 43
0.0000001
 44
0.0000000001
 40
0.0
 40
0.0
 40
0.0
 40
0.0
 40
0.2512100575
 40
0.5014744695
 40
0.7509613322
 40
1.0
 40
1.0
 40
1.0
 40
1.0
 10
18.1752516481
 20
14.1700720534
 30
0.0
 10
18.4859208956
 20
14.2654108097
 30
0.0
 10
19.1114200031
 20
14.4390457876
 30
0.0
 10
20.0632302291
 20
14.6374196364
 30
0.0
 10
21.0248401859
 20
14.7621205212
 30
0.0
 10
21.6700788087
 20
14.7905787903
 30
0.0
 10
21.9922388806
 20
14.7905767926
 30
0.0
  0
SPLINE
  5
279
100
AcDbEntity
  8
0
100
AcDbSpline
 62
7
  6
BYLAYER
 70
0
 71
3
 72
11
 73
7
 74
0
 42
0.0000001
 43
0.0000001
 44
0.0000000001
 40
0.0
 40
0.0
 40
0.0
 40
0.0
 40
0.2490353767
 40
0.4985182809
 40
0.748784268
 40
1.0
 40
1.0
 40
1.0
 40
1.0
 10
21.9922388963
 20
10.7905826277
 30
0.0
 10
21.6700831495
 20
10.7905801252
 30
0.0
 10
21.0248550274
 20
10.8190490724
 30
0.0
 10
20.0632491431
 20
10.9437253001
 30
0.0
 10
19.1114408884
 20
11.1421288907
 30
0.0
 10
18.4859278477
 20
11.3157464861
 30
0.0
 10
18.1752516481
 20
11.4110873759
 30
0.0
  0
SPLINE
  5
27A
100
AcDbEntity
  8
0
100
AcDbSpline
 62
7
  6
BYLAYER
 70
0
 71
3
 72
19
 73
15
 74
0
 42
0.0000001
 43
0.0000001
 44
0.0000000001
 40
0.0
 40
0.0
 40
0.0
 40
0.0
 40
0.1249628375
 40
0.2499375524
 40
0.3124450209
 40
0.3749633085
 40
0.4374791617
 40
0.5000000047
 40
0.5625208474
 40
0.6250366972
 40
0.6875549825
 40
0.7500624518
 40
0.8750371623
 40
1.0
 40
1.0
 40
1.0
 40
1.0
 10
23.5260835751
 20
48.5405797101
 30
0.0
 10
23.7396382576
 20
48.6372543265
 30
0.0
 10
24.1736654228
 20
48.8159553705
 30
0.0
 10
24.7343879264
 20
48.9902412628
 30
0.0
 10
25.19238831
 20
49.0921946388
 30
0.0
 10
25.5399360111
 20
49.1481889743
 30
0.0
 10
25.8903349341
 20
49.1824877077
 30
0.0
 10
26.2422386068
 20
49.1938809934
 30
0.0
 10
26.5941422263
 20
49.1824863655
 30
0.0
 10
26.9445410257
 20
49.1481865578
 30
0.0
 10
27.2920886051
 20
49.09219161
 30
0.0
 10
27.7500890182
 20
48.9902385196
 30
0.0
 10
28.3108120424
 20
48.8159544419
 30
0.0
 10
28.7448396344
 20
48.6372543267
 30
0.0
 10
28.9583943173
 20
48.5405797101
 30
0.0
  0
ENDSEC
  0
SECTION
  2
OBJECTS
  0
DICTIONARY
  5
C
100
AcDbDictionary
280
0
281
1
  3
ACAD_GROUP
350
D
  3
ACAD_MLINESTYLE
350
17
  3
ACAD_LAYOUT
350
1A
  3
ACAD_PLOTSETTINGS
350
19
  3
ACAD_PLOTSTYLENAME
350
E
  0
DICTIONARY
  5
D
102
{ACAD_REACTORS
330
C
102
}
100
AcDbDictionary
280
0
281
1
  0
ACDBDICTIONARYWDFLT
  5
E
102
{ACAD_REACTORS
330
C
102
}
100
AcDbDictionary
281
1
  3
Normal
350
F
100
AcDbDictionaryWithDefault
340
F
  0
DICTIONARY
  5
17
102
{ACAD_REACTORS
330
C
102
}
100
AcDbDictionary
280
0
281
1
  3
Standard
350
18
  0
DICTIONARY
  5
19
102
{ACAD_REACTORS
330
C
102
}
100
AcDbDictionary
281
1
  0
DICTIONARY
  5
1A
102
{ACAD_REACTORS
330
C
102
}
100
AcDbDictionary
281
1
  3
Model
350
27B
  3
Layout1
350
27C
  0
ACDBPLACEHOLDER
  5
F
102
{ACAD_REACTORS
330
E
102
}
  0
MLINESTYLE
  5
18
102
{ACAD_REACTORS
330
17
102
}
100
AcDbMlineStyle
  2
STANDARD
 70
0
  3

 62
256
 51
90.0
 52
90.0
 71
2
 49
0.5
 62
256
  6
BYLAYER
 49
-0.5
 62
256
  6
BYLAYER
  0
LAYOUT
  5
27B
102
{ACAD_REACTORS
330
1A
102
}
100
AcDbPlotSettings
  1

  2
none_device
  4

  6

 40
0.0
 41
0.0
 42
0.0
 43
0.0
 44
210.0
 45
297.0
 46
0.0
 47
0.0
 48
0.0
 49
0.0
140
0.0
141
0.0
142
1.0
143
1.0
 70
1024
 72
1
 73
0
 74
0
  7

 75
0
147
1.0
148
0.0
149
0.0
100
AcDbLayout
  1
Model
 70
0
 71
0
 10
0.0
 20
0.0
 11
210.0
 21
297.0
 12
0.0
 22
0.0
 32
0.0
 14
0.0
 24
0.0
 34
0.0
 15
0.0
 25
0.0
 35
0.0
146
0.0
 13
0.0
 23
0.0
 33
0.0
 16
1.0
 26
0.0
 36
0.0
 17
0.0
 27
1.0
 37
0.0
 76
0
330
210
345
0
346
0
  0
LAYOUT
  5
27C
102
{ACAD_REACTORS
330
1A
102
}
100
AcDbPlotSettings
  1

  2
none_device
  4

  6

 40
0.0
 41
0.0
 42
0.0
 43
0.0
 44
210.0
 45
297.0
 46
0.0
 47
0.0
 48
0.0
 49
0.0
140
0.0
141
0.0
142
1.0
143
1.0
 70
0
 72
1
 73
0
 74
0
  7

 75
0
147
1.0
148
0.0
149
0.0
100
AcDbLayout
  1
Layout1
 70
0
 71
1
 10
0.0
 20
0.0
 11
210.0
 21
297.0
 12
0.0
 22
0.0
 32
0.0
 14
0.0
 24
0.0
 34
0.0
 15
0.0
 25
0.0
 35
0.0
146
0.0
 13
0.0
 23
0.0
 33
0.0
 16
1.0
 26
0.0
 36
0.0
 17
0.0
 27
1.0
 37
0.0
 76
0
330
211
345
0
346
0
  0
ENDSEC
  0
EOF
