999
DXF file: C:\Users\sesa63760\Dev\_Creo\CAD\MCADID0001739_3D-CAD\drw0001_1.dxf
999
Pro/ENGINEER 2019471 by Parametric Technology Corporation
  0
SECTION
  2
HEADER
  9
$ACADVER
  1
AC1024
  9
$DWGCODEPAGE
  3
ANSI_1252
  9
$EXTMAX
 10
80.4633310169
 20
113.798139581
 30
0.0
  9
$EXTMIN
 10
0.0
 20
0.0
 30
0.0
  9
$LIMMIN
 10
0.0
 20
0.0
  9
$LIMMAX
 10
80.4633310169
 20
113.798139581
  9
$VIEWCTR
 10
40.2316655084
 20
56.8990697905
  9
$VIEWSIZE
 40
113.798139581
  9
$CLAYER
  8
0
  9
$LTSCALE
 40
7.4179528023
  9
$CELTYPE
  6
BYLAYER
  9
$DIMSCALE
 40
1.0
  9
$DIMASZ
 40
0.9578967978
  9
$DIMEXO
 40
1.0
  9
$DIMDLI
 40
5.1251310271
  9
$DIMEXE
 40
1.0
  9
$DIMCEN
 40
1.2138468222
  9
$DIMLFAC
 40
1.0
  9
$DIMBLK
  1
_FILLED
  9
$DIMALT
 70
0
  9
$DIMALTF
 40
0.0393700787
  9
$DIMTXT
 40
1.3410555169
  9
$DIMTOL
 70
1
  9
$DIMLIM
 70
0
  9
$DIMTFAC
 40
1.0
  9
$DIMTP
 40
0.01
  9
$DIMTM
 40
0.01
  9
$DIMGAP
 40
0.625
  9
$DIMDSEP
 70
46
  9
$AUNITS
 70
0
  9
$PDMODE
 70
3
  9
$PDSIZE
 40
0.3125
  9
$HANDSEED
  5
438
  9
$TILEMODE
 70
1
  9
$MEASUREMENT
 70
1
  9
$INSUNITS
 70
4
  0
ENDSEC
  0
SECTION
  2
CLASSES
  0
CLASS
  1
ACDBDICTIONARYWDFLT
  2
AcDbDictionaryWithDefault
  3
AutoCAD 2000
 90
0
 91
1
280
0
281
0
  0
CLASS
  1
ACDBPLACEHOLDER
  2
AcDbPlaceHolder
  3
AutoCAD 2000
 90
0
 91
1
280
0
281
0
  0
CLASS
  1
LAYOUT
  2
AcDbLayout
  3
AutoCAD 2000
 90
0
 91
0
280
0
281
0
  0
ENDSEC
  0
SECTION
  2
TABLES
  0
TABLE
  2
VPORT
  5
8
100
AcDbSymbolTable
 70
2
  0
VPORT
  5
1F4
100
AcDbSymbolTableRecord
100
AcDbViewportTableRecord
  2
*ACTIVE
 70
0
 10
0.0
 20
0.0
 11
1.0
 21
1.0
 12
40.2316655084
 22
56.8990697905
 13
0.0
 23
0.0
 14
1.0
 24
1.0
 15
0.0
 25
0.0
 16
0.0
 26
0.0
 36
1.0
 17
0.0
 27
0.0
 37
0.0
 40
113.798139581
 41
0.7070707071
 42
50.0
 43
0.0
 44
0.0
 50
0.0
 51
0.0
 71
0
 72
100
 73
1
 74
1
 75
0
 76
0
 77
0
 78
0
  0
ENDTAB
  0
TABLE
  2
LTYPE
  5
5
100
AcDbSymbolTable
 70
6
  0
LTYPE
  5
14
100
AcDbSymbolTableRecord
100
AcDbLinetypeTableRecord
  2
BYBLOCK
 70
0
  3

 72
65
 73
0
 40
0.0
  0
LTYPE
  5
15
100
AcDbSymbolTableRecord
100
AcDbLinetypeTableRecord
  2
BYLAYER
 70
0
  3

 72
65
 73
0
 40
0.0
  0
LTYPE
  5
16
100
AcDbSymbolTableRecord
100
AcDbLinetypeTableRecord
  2
CONTINUOUS
 70
64
  3
Solid line
 72
65
 73
0
 40
0.0
  0
LTYPE
  5
1F5
100
AcDbSymbolTableRecord
100
AcDbLinetypeTableRecord
  2
CENTER
 70
64
  3
____ _ ____ _ ____ _ ____ _ ____ _ ____ _ ____
 72
65
 73
4
 40
0.6
 49
0.375
 74
0
 49
-0.075
 74
0
 49
0.075
 74
0
 49
-0.075
 74
0
  0
LTYPE
  5
1F6
100
AcDbSymbolTableRecord
100
AcDbLinetypeTableRecord
  2
HIDDEN
 70
64
  3
- - - - - - - - - - - - - - - - - - - -
 72
65
 73
2
 40
0.2
 49
0.1
 74
0
 49
-0.1
 74
0
  0
LTYPE
  5
1F7
100
AcDbSymbolTableRecord
100
AcDbLinetypeTableRecord
  2
PHANTOM
 70
64
  3
_____ _ _ _____ _ _ _____ _ _ _____
 72
65
 73
6
 40
0.8
 49
0.45
 74
0
 49
-0.05
 74
0
 49
0.1
 74
0
 49
-0.05
 74
0
 49
0.1
 74
0
 49
-0.05
 74
0
  0
LTYPE
  5
1F8
100
AcDbSymbolTableRecord
100
AcDbLinetypeTableRecord
  2
DOT
 70
64
  3
. . . . . . . . . . . . . . . . . . . .
 72
65
 73
2
 40
0.2
 49
0.1
 74
0
 49
-0.1
 74
0
  0
LTYPE
  5
1F9
100
AcDbSymbolTableRecord
100
AcDbLinetypeTableRecord
  2
DASHED
 70
64
  3
- - - - - - - - - - - - - - - - - - - -
 72
65
 73
2
 40
0.2
 49
0.1
 74
0
 49
-0.1
 74
0
  0
ENDTAB
  0
TABLE
  2
LAYER
  5
2
100
AcDbSymbolTable
 70
36
  0
LAYER
  5
10
100
AcDbSymbolTableRecord
100
AcDbLayerTableRecord
  2
0
 70
0
 62
7
  6
CONTINUOUS
370
-3
390
F
  0
LAYER
  5
1FA
100
AcDbSymbolTableRecord
100
AcDbLayerTableRecord
  2
DEFAULT_1
 70
0
 62
7
  6
CENTER
370
-3
390
F
  0
LAYER
  5
1FB
100
AcDbSymbolTableRecord
100
AcDbLayerTableRecord
  2
DEFAULT_2
 70
0
 62
8
  6
HIDDEN
370
-3
390
F
  0
LAYER
  5
1FC
100
AcDbSymbolTableRecord
100
AcDbLayerTableRecord
  2
DEFAULT_3
 70
0
 62
7
  6
PHANTOM
370
-3
390
F
  0
LAYER
  5
1FD
100
AcDbSymbolTableRecord
100
AcDbLayerTableRecord
  2
00_COMPONENTS
 70
0
 62
7
  6
CONTINUOUS
370
-3
390
F
  0
LAYER
  5
1FE
100
AcDbSymbolTableRecord
100
AcDbLayerTableRecord
  2
01_1_DEFAULT_DATUMS
 70
0
 62
7
  6
CONTINUOUS
370
-3
390
F
  0
LAYER
  5
1FF
100
AcDbSymbolTableRecord
100
AcDbLayerTableRecord
  2
01_PLANES
 70
0
 62
7
  6
CONTINUOUS
370
-3
390
F
  0
LAYER
  5
200
100
AcDbSymbolTableRecord
100
AcDbLayerTableRecord
  2
02_COORD_SYS
 70
0
 62
7
  6
CONTINUOUS
370
-3
390
F
  0
LAYER
  5
201
100
AcDbSymbolTableRecord
100
AcDbLayerTableRecord
  2
03_AXES
 70
0
 62
7
  6
CONTINUOUS
370
-3
390
F
  0
LAYER
  5
202
100
AcDbSymbolTableRecord
100
AcDbLayerTableRecord
  2
04_POINTS
 70
0
 62
7
  6
CONTINUOUS
370
-3
390
F
  0
LAYER
  5
203
100
AcDbSymbolTableRecord
100
AcDbLayerTableRecord
  2
05_CURVES
 70
0
 62
7
  6
CONTINUOUS
370
-3
390
F
  0
LAYER
  5
204
100
AcDbSymbolTableRecord
100
AcDbLayerTableRecord
  2
06_SURFS
 70
0
 62
7
  6
CONTINUOUS
370
-3
390
F
  0
LAYER
  5
205
100
AcDbSymbolTableRecord
100
AcDbLayerTableRecord
  2
07_COSMETICS
 70
0
 62
7
  6
CONTINUOUS
370
-3
390
F
  0
LAYER
  5
206
100
AcDbSymbolTableRecord
100
AcDbLayerTableRecord
  2
10_NOTES
 70
0
 62
7
  6
CONTINUOUS
370
-3
390
F
  0
LAYER
  5
207
100
AcDbSymbolTableRecord
100
AcDbLayerTableRecord
  2
11_NOTES_PUB
 70
0
 62
7
  6
CONTINUOUS
370
-3
390
F
  0
LAYER
  5
208
100
AcDbSymbolTableRecord
100
AcDbLayerTableRecord
  2
13_REF_GTOL
 70
0
 62
7
  6
CONTINUOUS
370
-3
390
F
  0
LAYER
  5
209
100
AcDbSymbolTableRecord
100
AcDbLayerTableRecord
  2
16_MISC
 70
0
 62
7
  6
CONTINUOUS
370
-3
390
F
  0
LAYER
  5
20A
100
AcDbSymbolTableRecord
100
AcDbLayerTableRecord
  2
17_NO_PRINT
 70
0
 62
7
  6
CONTINUOUS
370
-3
390
F
  0
LAYER
  5
20B
100
AcDbSymbolTableRecord
100
AcDbLayerTableRecord
  2
18_DATUM_CAMS_JOINTS
 70
0
 62
7
  6
CONTINUOUS
370
-3
390
F
  0
LAYER
  5
20C
100
AcDbSymbolTableRecord
100
AcDbLayerTableRecord
  2
19_DATUM_FUNCTIONAL
 70
0
 62
7
  6
CONTINUOUS
370
-3
390
F
  0
LAYER
  5
20D
100
AcDbSymbolTableRecord
100
AcDbLayerTableRecord
  2
20_DATUM_KINEMATIC_SCHEME
 70
0
 62
7
  6
CONTINUOUS
370
-3
390
F
  0
ENDTAB
  0
TABLE
  2
STYLE
  5
3
100
AcDbSymbolTable
 70
1
  0
STYLE
  5
11
100
AcDbSymbolTableRecord
100
AcDbTextStyleTableRecord
  2
STANDARD
 70
0
 40
0.0
 41
0.8
 50
0.0
 71
0
 42
0.2
  3
txt
  4

  0
STYLE
  5
20E
100
AcDbSymbolTableRecord
100
AcDbTextStyleTableRecord
  2
TEXTSTYLE_1
 70
0
 40
0.0
 41
0.8
 50
0.0
 71
0
 42
0.2
  3
gdt
  4

  0
ENDTAB
  0
TABLE
  2
VIEW
  5
6
100
AcDbSymbolTable
 70
0
  0
ENDTAB
  0
TABLE
  2
UCS
  5
7
100
AcDbSymbolTable
 70
0
  0
ENDTAB
  0
TABLE
  2
APPID
  5
9
100
AcDbSymbolTable
 70
1
  0
APPID
  5
20F
100
AcDbSymbolTableRecord
100
AcDbRegAppTableRecord
  2
ACAD
 70
0
  0
ENDTAB
  0
TABLE
  2
BLOCK_RECORD
  5
1
100
AcDbSymbolTable
 70
0
  0
BLOCK_RECORD
  5
210
100
AcDbSymbolTableRecord
100
AcDbBlockTableRecord
  2
*Model_Space
  0
BLOCK_RECORD
  5
211
100
AcDbSymbolTableRecord
100
AcDbBlockTableRecord
  2
*Paper_Space
  0
BLOCK_RECORD
  5
212
100
AcDbSymbolTableRecord
100
AcDbBlockTableRecord
  2
_FILLED
  0
ENDTAB
  0
TABLE
  2
DIMSTYLE
  5
A
100
AcDbSymbolTable
 70
1
100
AcDbDimStyleTable
 71
0
  0
DIMSTYLE
105
213
100
AcDbSymbolTableRecord
100
AcDbDimStyleTableRecord
  2
STANDARD
 70
0
  3

  4

 40
1.0
 41
0.9578967978
 42
1.0
 43
0.38
 44
1.0
 45
0.0
 46
0.0
 47
0.01
 48
0.01
140
1.3410555169
141
0.09
142
0.0
143
25.4
144
1.0
145
0.0
146
1.0
147
0.625
 71
1
 72
0
 73
0
 74
0
 75
0
 76
0
 77
1
 78
8
 79
2
170
0
171
1
172
0
173
0
174
0
175
0
176
0
177
0
178
0
270
2
179
2
271
2
272
2
273
2
274
2
275
0
280
0
281
0
282
0
283
1
284
8
285
0
286
0
287
3
288
0
340
11
278
46
341
212
342
212
343
212
344
212
  0
ENDTAB
  0
ENDSEC
  0
SECTION
  2
BLOCKS
  0
BLOCK
  5
20
100
AcDbEntity
  8
0
100
AcDbBlockBegin
  2
*Model_Space
 70
0
 10
0.0
 20
0.0
 30
0.0
  3
*Model_Space
  1

  0
ENDBLK
  5
21
100
AcDbEntity
  8
0
100
AcDbBlockEnd
  0
BLOCK
  5
1C
100
AcDbEntity
  8
0
100
AcDbBlockBegin
  2
*Paper_Space
 70
0
 10
0.0
 20
0.0
 30
0.0
  3
*Paper_Space
  1

  0
ENDBLK
  5
1D
100
AcDbEntity
  8
0
100
AcDbBlockEnd
  0
BLOCK
  5
214
100
AcDbEntity
  8
0
100
AcDbBlockBegin
  2
_FILLED
 70
64
 10
0.0
 20
0.0
  3
_FILLED
  1

  0
SOLID
  5
215
100
AcDbEntity
  8
0
  6
BYBLOCK
 62
0
100
AcDbTrace
 10
0.0
 20
0.0
 11
-1.0
 21
0.25
 12
-1.0
 22
-0.25
 13
-1.0
 23
-0.25
  0
ENDBLK
  5
216
100
AcDbEntity
  8
0
  6
BYBLOCK
 62
0
100
AcDbBlockEnd
  0
ENDSEC
  0
SECTION
  2
ENTITIES
  0
LINE
  5
217
100
AcDbEntity
  8
0
100
AcDbLine
 62
7
  6
CONTINUOUS
 10
9.8539188225
 20
95.3868207095
 11
10.9145745783
 21
95.9991869403
  0
LINE
  5
218
100
AcDbEntity
  8
0
100
AcDbLine
 62
7
  6
CONTINUOUS
 10
20.7433179155
 20
101.6737806791
 11
21.8039736714
 21
102.2861469099
  0
LINE
  5
219
100
AcDbEntity
  8
0
100
AcDbLine
 62
7
  6
CONTINUOUS
 10
10.7539147933
 20
95.2976770073
 11
11.8589879654
 21
95.9356874922
  0
LINE
  5
21A
100
AcDbEntity
  8
0
100
AcDbLine
 62
7
  6
CONTINUOUS
 10
21.5988964701
 20
101.5589927227
 11
22.7039696422
 21
102.1970032077
  0
LINE
  5
21B
100
AcDbEntity
  8
0
100
AcDbLine
 62
7
  6
CONTINUOUS
 10
13.1262511111
 20
96.1774434476
 11
12.2906605697
 21
95.6950179033
  0
LINE
  5
21C
100
AcDbEntity
  8
0
100
AcDbLine
 62
7
  6
CONTINUOUS
 10
21.0599561646
 20
100.7579428541
 11
21.9438359611
 21
101.2682480464
  0
LINE
  5
21D
100
AcDbEntity
  8
0
100
AcDbLine
 62
7
  6
CONTINUOUS
 10
20.7433439079
 20
101.6737356333
 11
20.5410389129
 21
101.4861691572
  0
LINE
  5
21E
100
AcDbEntity
  8
0
100
AcDbLine
 62
7
  6
CONTINUOUS
 10
23.0023180313
 20
100.654628256
 11
22.2797197045
 21
100.2374384078
  0
LINE
  5
21F
100
AcDbEntity
  8
0
100
AcDbLine
 62
7
  6
CONTINUOUS
 10
14.1480255765
 20
95.5426306382
 11
13.4254272604
 21
95.1254407962
  0
LINE
  5
220
100
AcDbEntity
  8
0
100
AcDbLine
 62
7
  6
CONTINUOUS
 10
14.2184804445
 20
94.6851703939
 11
14.9258462742
 21
95.0935658083
  0
LINE
  5
221
100
AcDbEntity
  8
0
100
AcDbLine
 62
7
  6
CONTINUOUS
 10
23.0575404022
 20
99.7883735778
 11
23.7645871243
 21
100.1965847565
  0
LINE
  5
222
100
AcDbEntity
  8
0
100
AcDbLine
 62
7
  6
CONTINUOUS
 10
15.0708028552
 20
95.0547813727
 11
14.2691543083
 21
94.591952131
  0
LINE
  5
223
100
AcDbEntity
  8
0
100
AcDbLine
 62
7
  6
CONTINUOUS
 10
14.7008256698
 20
94.3512832355
 11
24.3126535404
 21
99.9006415188
  0
LINE
  5
224
100
AcDbEntity
  8
0
100
AcDbLine
 62
7
  6
CONTINUOUS
 10
15.3824303716
 20
94.091649987
 11
24.7929377226
 21
99.5247751306
  0
LINE
  5
225
100
AcDbEntity
  8
0
100
AcDbLine
 62
7
  6
CONTINUOUS
 10
15.1733505754
 20
92.7461722915
 11
27.1234054243
 21
99.645498492
  0
LINE
  5
226
100
AcDbEntity
  8
0
100
AcDbLine
 62
7
  6
CONTINUOUS
 10
24.5492098769
 20
99.5531239072
 11
15.1619344901
 21
94.1334119117
  0
LINE
  5
227
100
AcDbEntity
  8
0
100
AcDbLine
 62
7
  6
CONTINUOUS
 10
59.8248277872
 20
11.6842166743
 11
60.0748181223
 21
11.7089712232
  0
LINE
  5
228
100
AcDbEntity
  8
0
100
AcDbLine
 62
7
  6
CONTINUOUS
 10
10.0116812759
 20
92.6557265549
 11
9.9500143553
 21
92.4902636406
  0
LINE
  5
229
100
AcDbEntity
  8
0
100
AcDbLine
 62
7
  6
CONTINUOUS
 10
13.4868961478
 20
89.2030025762
 11
13.6126859877
 21
89.2756269406
  0
LINE
  5
22A
100
AcDbEntity
  8
0
100
AcDbLine
 62
7
  6
CONTINUOUS
 10
13.6270652007
 20
89.4708081861
 11
13.6126843914
 21
89.4627099151
  0
LINE
  5
22B
100
AcDbEntity
  8
0
100
AcDbLine
 62
7
  6
CONTINUOUS
 10
13.6270652007
 20
89.4708081861
 11
13.6126859877
 21
89.462935276
  0
LINE
  5
22C
100
AcDbEntity
  8
0
100
AcDbLine
 62
7
  6
CONTINUOUS
 10
19.0624540637
 20
90.5008481417
 11
19.8402682847
 21
90.9499167109
  0
LINE
  5
22D
100
AcDbEntity
  8
0
100
AcDbLine
 62
7
  6
CONTINUOUS
 10
20.017045716
 20
90.8478565223
 11
19.3099418787
 21
90.4396123684
  0
LINE
  5
22E
100
AcDbEntity
  8
0
100
AcDbLine
 62
7
  6
CONTINUOUS
 10
19.133173501
 20
89.153623675
 11
18.7089021451
 21
88.9086719556
  0
LINE
  5
22F
100
AcDbEntity
  8
0
100
AcDbLine
 62
7
  6
CONTINUOUS
 10
22.0676556758
 20
90.8070372059
 11
20.9362895362
 21
90.1538465597
  0
LINE
  5
230
100
AcDbEntity
  8
0
100
AcDbLine
 62
7
  6
CONTINUOUS
 10
40.3452691562
 20
101.1080640416
 11
40.3453201773
 21
101.1080894914
  0
LWPOLYLINE
  5
231
100
AcDbEntity
  8
0
100
AcDbPolyline
 62
7
  6
CONTINUOUS
 90
7
 70
0
 10
28.2490798489
 20
94.0998827973
 10
28.0818111443
 20
93.8885663606
 10
27.712523847
 20
93.2569147125
 10
27.3373775695
 20
92.4084543192
 10
27.1373998094
 20
91.8791262472
 10
26.686778369
 20
90.483167324
 10
26.1155199905
 20
88.1885028599
  0
LINE
  5
232
100
AcDbEntity
  8
0
100
AcDbLine
 62
7
  6
CONTINUOUS
 10
28.2497137409
 20
94.099079674
 11
28.2468272403
 21
94.0959175092
  0
LINE
  5
233
100
AcDbEntity
  8
0
100
AcDbLine
 62
7
  6
CONTINUOUS
 10
23.4111735743
 20
88.7250039189
 11
24.5425397138
 21
89.3781945651
  0
LINE
  5
234
100
AcDbEntity
  8
0
100
AcDbLine
 62
7
  6
CONTINUOUS
 10
24.6132589294
 20
88.1942916179
 11
23.9061550922
 21
87.786047464
  0
LINE
  5
235
100
AcDbEntity
  8
0
100
AcDbLine
 62
7
  6
CONTINUOUS
 10
24.0122221398
 20
87.64316286
 11
24.7900363607
 21
88.0922314293
  0
LINE
  5
236
100
AcDbEntity
  8
0
100
AcDbLine
 62
7
  6
CONTINUOUS
 10
25.5678664791
 20
86.3367907459
 11
25.8157090638
 21
86.4798818748
  0
LINE
  5
237
100
AcDbEntity
  8
0
100
AcDbLine
 62
7
  6
CONTINUOUS
 10
9.9508506487
 20
59.3954855091
 11
9.9508506487
 21
92.4901647276
  0
LINE
  5
238
100
AcDbEntity
  8
0
100
AcDbLine
 62
7
  6
CONTINUOUS
 10
10.0972987301
 20
59.1913634321
 11
10.0972987301
 21
92.2086915066
  0
LINE
  5
239
100
AcDbEntity
  8
0
100
AcDbLine
 62
7
  6
CONTINUOUS
 10
56.3800798702
 20
99.7827236346
 11
46.7634676841
 21
94.230603142
  0
LINE
  5
23A
100
AcDbEntity
  8
0
100
AcDbLine
 62
7
  6
CONTINUOUS
 10
56.5362461281
 20
100.9296603193
 11
56.5363058719
 21
100.9296901315
  0
LINE
  5
23B
100
AcDbEntity
  8
0
100
AcDbLine
 62
7
  6
CONTINUOUS
 10
39.8059687972
 20
87.9962659806
 11
40.5232274508
 21
88.2353510793
  0
LINE
  5
23C
100
AcDbEntity
  8
0
100
AcDbLine
 62
7
  6
CONTINUOUS
 10
40.5744209547
 20
88.1649710893
 11
39.8302651016
 21
87.9169202994
  0
LINE
  5
23D
100
AcDbEntity
  8
0
100
AcDbLine
 62
7
  6
CONTINUOUS
 10
59.824822364
 20
11.684207281
 11
53.1779909476
 21
15.5216703735
  0
LINE
  5
23E
100
AcDbEntity
  8
0
100
AcDbLine
 62
7
  6
CONTINUOUS
 10
43.0762233558
 20
21.3537966716
 11
53.1072799751
 21
15.5624944489
  0
LINE
  5
23F
100
AcDbEntity
  8
0
100
AcDbLine
 62
7
  6
CONTINUOUS
 10
53.0037238148
 20
15.7913661462
 11
42.9725242891
 21
21.5827294001
  0
LINE
  5
240
100
AcDbEntity
  8
0
100
AcDbLine
 62
7
  6
CONTINUOUS
 10
59.7212662037
 20
11.9131003549
 11
53.0744347873
 21
15.7505634474
  0
LINE
  5
241
100
AcDbEntity
  8
0
100
AcDbLine
 62
7
  6
CONTINUOUS
 10
13.4868961478
 20
57.2344227225
 11
13.4868961478
 21
89.2030025762
  0
LINE
  5
242
100
AcDbEntity
  8
0
100
AcDbLine
 62
7
  6
CONTINUOUS
 10
13.6126859877
 20
89.462935276
 11
13.6126859877
 21
57.0241758611
  0
LINE
  5
243
100
AcDbEntity
  8
0
100
AcDbLine
 62
7
  6
CONTINUOUS
 10
13.7591340691
 20
56.8200537841
 11
13.7591340691
 21
89.5465993151
  0
LINE
  5
244
100
AcDbEntity
  8
0
100
AcDbLine
 62
7
  6
CONTINUOUS
 10
14.8197986568
 20
92.133799006
 11
14.8197986568
 21
56.2076926523
  0
LINE
  5
245
100
AcDbEntity
  8
0
100
AcDbLine
 62
7
  6
CONTINUOUS
 10
14.9258462742
 20
95.0935658083
 11
14.9258462742
 21
94.9710911512
  0
LINE
  5
246
100
AcDbEntity
  8
0
100
AcDbLine
 62
7
  6
CONTINUOUS
 10
14.2184691766
 20
94.619471056
 11
14.2184804445
 21
94.6851703939
  0
LINE
  5
247
100
AcDbEntity
  8
0
100
AcDbLine
 62
7
  6
CONTINUOUS
 10
44.5666154673
 20
94.0188073119
 11
44.5665794624
 21
94.0187832513
  0
LINE
  5
248
100
AcDbEntity
  8
0
100
AcDbLine
 62
7
  6
CONTINUOUS
 10
48.3496030976
 20
94.0497015088
 11
49.6223900046
 21
94.7845409858
  0
LINE
  5
249
100
AcDbEntity
  8
0
100
AcDbLine
 62
7
  6
CONTINUOUS
 10
55.4206414698
 20
98.1321430475
 11
56.6934283768
 21
98.8669825245
  0
LINE
  5
24A
100
AcDbEntity
  8
0
100
AcDbLine
 62
7
  6
CONTINUOUS
 10
38.6493934481
 20
88.3782314329
 11
38.8968797933
 21
88.521116888
  0
LINE
  5
24B
100
AcDbEntity
  8
0
100
AcDbLine
 62
7
  6
CONTINUOUS
 10
58.5897881934
 20
99.8337592529
 11
57.5114548416
 21
99.2111869182
  0
LINE
  5
24C
100
AcDbEntity
  8
0
100
AcDbLine
 62
7
  6
CONTINUOUS
 10
47.7534218881
 20
93.5774175948
 11
46.6750885363
 21
92.9548452601
  0
LINE
  5
24D
100
AcDbEntity
  8
0
100
AcDbLine
 62
7
  6
CONTINUOUS
 10
38.9110224589
 20
88.4476332803
 11
38.3665525042
 21
88.1332852818
  0
LINE
  5
24E
100
AcDbEntity
  8
0
100
AcDbLine
 62
7
  6
CONTINUOUS
 10
48.7080184058
 20
93.8427750155
 11
49.6272470567
 21
94.3734887566
  0
LINE
  5
24F
100
AcDbEntity
  8
0
100
AcDbLine
 62
7
  6
CONTINUOUS
 10
55.779056778
 20
97.9252165542
 11
56.6982854288
 21
98.4559302953
  0
LINE
  5
250
100
AcDbEntity
  8
0
100
AcDbLine
 62
7
  6
CONTINUOUS
 10
49.0615732684
 20
93.6386546382
 11
49.9808019193
 21
94.1693683793
  0
LINE
  5
251
100
AcDbEntity
  8
0
100
AcDbLine
 62
7
  6
CONTINUOUS
 10
56.1326116405
 20
97.7210961769
 11
57.0518402914
 21
98.251809918
  0
LINE
  5
252
100
AcDbEntity
  8
0
100
AcDbLine
 62
7
  6
CONTINUOUS
 10
42.7017172238
 20
89.4930952285
 11
40.5232274508
 21
88.2353510793
  0
LINE
  5
253
100
AcDbEntity
  8
0
100
AcDbLine
 62
7
  6
CONTINUOUS
 10
40.5585832315
 20
88.1741147962
 11
42.6824026432
 21
89.4002951859
  0
LINE
  5
254
100
AcDbEntity
  8
0
100
AcDbLine
 62
7
  6
CONTINUOUS
 10
57.6219244539
 20
97.8002006205
 11
57.4805027811
 21
97.718551267
  0
LINE
  5
255
100
AcDbEntity
  8
0
100
AcDbLine
 62
7
  6
CONTINUOUS
 10
50.5508860817
 20
93.7177590818
 11
50.4094644089
 21
93.6361097283
  0
LINE
  5
256
100
AcDbEntity
  8
0
100
AcDbLine
 62
7
  6
CONTINUOUS
 10
50.1222415219
 20
93.02629139
 11
50.935399165
 21
93.4957653718
  0
LINE
  5
257
100
AcDbEntity
  8
0
100
AcDbLine
 62
7
  6
CONTINUOUS
 10
57.193279894
 20
97.1087329288
 11
58.0064375372
 21
97.5782069105
  0
LINE
  5
258
100
AcDbEntity
  8
0
100
AcDbLine
 62
7
  6
CONTINUOUS
 10
41.4778258742
 20
87.6434018153
 11
40.8909296893
 21
87.3045591676
  0
LINE
  5
259
100
AcDbEntity
  8
0
100
AcDbLine
 62
7
  6
CONTINUOUS
 10
41.7606674091
 20
87.8066994769
 11
42.4313130954
 21
88.1938946332
  0
LINE
  5
25A
100
AcDbEntity
  8
0
100
AcDbLine
 62
7
  6
CONTINUOUS
 10
41.1773084918
 20
87.2657763614
 11
42.3830264971
 21
87.9618938212
  0
LINE
  5
25B
100
AcDbEntity
  8
0
100
AcDbLine
 62
7
  6
CONTINUOUS
 10
38.2958415317
 20
85.6021267433
 11
38.3665525042
 21
85.6429514986
  0
LINE
  5
25C
100
AcDbEntity
  8
0
100
AcDbLine
 62
7
  6
CONTINUOUS
 10
54.6022396487
 20
88.6435624594
 11
55.2674822857
 21
88.865308967
  0
LINE
  5
25D
100
AcDbEntity
  8
0
100
AcDbLine
 62
7
  6
CONTINUOUS
 10
55.2823032378
 20
88.859215588
 11
54.5381473846
 21
88.6111647981
  0
LINE
  5
25E
100
AcDbEntity
  8
0
100
AcDbLine
 62
7
  6
CONTINUOUS
 10
53.0744347873
 20
17.8734697319
 11
54.6300761826
 21
16.975340072
  0
LINE
  5
25F
100
AcDbEntity
  8
0
100
AcDbLine
 62
7
  6
CONTINUOUS
 10
54.6300761826
 20
17.0161651928
 11
53.0037238148
 21
17.9551189282
  0
LINE
  5
260
100
AcDbEntity
  8
0
100
AcDbLine
 62
7
  6
CONTINUOUS
 10
18.7089021451
 20
54.942171403
 11
18.7089021451
 21
53.9623685025
  0
LINE
  5
261
100
AcDbEntity
  8
0
100
AcDbLine
 62
7
  6
CONTINUOUS
 10
18.7089021451
 20
88.9086719556
 11
18.7089021451
 21
89.8884748562
  0
LINE
  5
262
100
AcDbEntity
  8
0
100
AcDbLine
 62
7
  6
CONTINUOUS
 10
18.9563899601
 20
89.8272390829
 11
18.9563899601
 21
89.2556873909
  0
LINE
  5
263
100
AcDbEntity
  8
0
100
AcDbLine
 62
7
  6
CONTINUOUS
 10
18.9563899601
 20
53.9011327292
 11
18.9563899601
 21
54.4726844212
  0
LINE
  5
264
100
AcDbEntity
  8
0
100
AcDbLine
 62
7
  6
CONTINUOUS
 10
21.3138896514
 20
101.7247468836
 11
21.3129399495
 21
101.7173436071
  0
LINE
  5
265
100
AcDbEntity
  8
0
100
AcDbLine
 62
7
  6
CONTINUOUS
 10
44.4755224917
 20
93.9404538838
 11
44.4751058396
 21
93.9399973445
  0
LINE
  5
266
100
AcDbEntity
  8
0
100
AcDbLine
 62
7
  6
CONTINUOUS
 10
66.3358470287
 20
16.3815064113
 11
64.6709930642
 21
17.342688551
  0
LINE
  5
267
100
AcDbEntity
  8
0
100
AcDbLine
 62
7
  6
CONTINUOUS
 10
66.0498340652
 20
16.7507798948
 11
67.4286980293
 21
15.9547104235
  0
LINE
  5
268
100
AcDbEntity
  8
0
100
AcDbLine
 62
7
  6
CONTINUOUS
 10
65.8864773595
 20
17.130864509
 11
64.6709930642
 21
17.8326088186
  0
LINE
  5
269
100
AcDbEntity
  8
0
100
AcDbLine
 62
7
  6
CONTINUOUS
 10
38.3665525042
 20
33.0193721255
 11
54.6300761826
 21
23.6298347716
  0
LINE
  5
26A
100
AcDbEntity
  8
0
100
AcDbLine
 62
7
  6
CONTINUOUS
 10
38.3665525042
 20
33.3156712085
 11
29.8868582558
 21
38.2113142112
  0
LINE
  5
26B
100
AcDbEntity
  8
0
100
AcDbLine
 62
7
  6
CONTINUOUS
 10
38.3665525042
 20
33.4847774579
 11
29.7832608291
 21
38.4402153491
  0
LINE
  5
26C
100
AcDbEntity
  8
0
100
AcDbLine
 62
7
  6
CONTINUOUS
 10
14.9233602403
 20
55.9788089718
 11
14.8197986568
 21
56.2076926523
  0
LINE
  5
26D
100
AcDbEntity
  8
0
100
AcDbLine
 62
7
  6
CONTINUOUS
 10
19.8402682847
 20
90.9499167109
 11
19.8402682847
 21
90.745794634
  0
LINE
  5
26E
100
AcDbEntity
  8
0
100
AcDbLine
 62
7
  6
CONTINUOUS
 10
21.3129126236
 20
101.7173391184
 11
21.3129126236
 21
101.4510476433
  0
LINE
  5
26F
100
AcDbEntity
  8
0
100
AcDbLine
 62
7
  6
CONTINUOUS
 10
21.3550121844
 20
101.4503628802
 11
21.3550120874
 21
101.676580555
  0
LINE
  5
270
100
AcDbEntity
  8
0
100
AcDbLine
 62
7
  6
CONTINUOUS
 10
22.0676556758
 20
90.8070372059
 11
22.0676556758
 21
89.5006333385
  0
LINE
  5
271
100
AcDbEntity
  8
0
100
AcDbLine
 62
7
  6
CONTINUOUS
 10
22.2797197045
 20
100.0537279774
 11
22.2797197045
 21
100.2374384078
  0
LINE
  5
272
100
AcDbEntity
  8
0
100
AcDbLine
 62
7
  6
CONTINUOUS
 10
26.1155199905
 20
88.1885028599
 11
25.7932255199
 21
86.3517482692
  0
LINE
  5
273
100
AcDbEntity
  8
0
100
AcDbLine
 62
7
  6
CONTINUOUS
 10
65.3780415548
 20
95.9309780578
 11
65.1446972885
 21
95.7962574871
  0
LINE
  5
274
100
AcDbEntity
  8
0
100
AcDbLine
 62
7
  6
CONTINUOUS
 10
53.6189047419
 20
89.1418777789
 11
53.4279867059
 21
89.0316518574
  0
LINE
  5
275
100
AcDbEntity
  8
0
100
AcDbLine
 62
7
  6
CONTINUOUS
 10
53.6931506448
 20
89.1684133668
 11
53.6330471808
 21
89.1337128228
  0
LINE
  5
276
100
AcDbEntity
  8
0
100
AcDbLine
 62
7
  6
CONTINUOUS
 10
55.6023339493
 20
89.862430128
 11
56.8751208563
 21
90.597269605
  0
LINE
  5
277
100
AcDbEntity
  8
0
100
AcDbLine
 62
7
  6
CONTINUOUS
 10
62.6733723214
 20
93.9448716667
 11
63.9461592284
 21
94.6797111437
  0
LINE
  5
278
100
AcDbEntity
  8
0
100
AcDbLine
 62
7
  6
CONTINUOUS
 10
55.2664655145
 20
88.8683592949
 11
65.6396788065
 21
94.8573010322
  0
LINE
  5
279
100
AcDbEntity
  8
0
100
AcDbLine
 62
7
  6
CONTINUOUS
 10
53.1097899791
 20
86.2596293259
 11
53.1239333234
 21
86.2677949407
  0
LINE
  5
27A
100
AcDbEntity
  8
0
100
AcDbLine
 62
7
  6
CONTINUOUS
 10
64.6709930642
 20
19.2206629277
 11
66.0498340652
 21
18.4246067137
  0
LINE
  5
27B
100
AcDbEntity
  8
0
100
AcDbLine
 62
7
  6
CONTINUOUS
 10
38.3665525042
 20
35.5505296186
 11
39.9221938995
 21
34.6523999587
  0
LINE
  5
27C
100
AcDbEntity
  8
0
100
AcDbLine
 62
7
  6
CONTINUOUS
 10
39.9221938995
 20
34.7503792033
 11
38.4019076961
 21
35.6280969955
  0
LINE
  5
27D
100
AcDbEntity
  8
0
100
AcDbLine
 62
7
  6
CONTINUOUS
 10
18.7089021451
 20
53.9623685025
 11
18.8124637286
 21
53.7334848219
  0
LINE
  5
27E
100
AcDbEntity
  8
0
100
AcDbLine
 62
7
  6
CONTINUOUS
 10
23.7645871243
 20
100.1965847565
 11
23.7646464247
 21
100.0741443362
  0
LINE
  5
27F
100
AcDbEntity
  8
0
100
AcDbLine
 62
7
  6
CONTINUOUS
 10
23.8784056342
 20
100.1398228544
 11
23.8783893627
 21
100.1961974929
  0
LINE
  5
280
100
AcDbEntity
  8
0
100
AcDbLine
 62
7
  6
CONTINUOUS
 10
23.0032962061
 20
100.7193720916
 11
23.0032961261
 21
100.6546282548
  0
LINE
  5
281
100
AcDbEntity
  8
0
100
AcDbLine
 62
7
  6
CONTINUOUS
 10
23.0575404022
 20
99.7883735778
 11
23.0575404022
 21
99.6658989207
  0
LINE
  5
282
100
AcDbEntity
  8
0
100
AcDbLine
 62
7
  6
CONTINUOUS
 10
23.5526031736
 20
51.8191195168
 11
23.5526031736
 21
51.2475678248
  0
LINE
  5
283
100
AcDbEntity
  8
0
100
AcDbLine
 62
7
  6
CONTINUOUS
 10
23.5526031736
 20
86.6021224866
 11
23.5526031736
 21
87.1736741785
  0
LINE
  5
284
100
AcDbEntity
  8
0
100
AcDbLine
 62
7
  6
CONTINUOUS
 10
23.6586702212
 20
87.0307895745
 11
23.6586702212
 21
86.050986674
  0
LINE
  5
285
100
AcDbEntity
  8
0
100
AcDbLine
 62
7
  6
CONTINUOUS
 10
23.6586702212
 20
51.1046832208
 11
23.6586702212
 21
52.0844861214
  0
LINE
  5
286
100
AcDbEntity
  8
0
100
AcDbLine
 62
7
  6
CONTINUOUS
 10
24.6132589294
 20
87.990169541
 11
24.6132589294
 21
88.1942916179
  0
LINE
  5
287
100
AcDbEntity
  8
0
100
AcDbLine
 62
7
  6
CONTINUOUS
 10
25.5678664791
 20
50.0024331836
 11
25.5678664791
 21
49.5941819751
  0
LINE
  5
288
100
AcDbEntity
  8
0
100
AcDbLine
 62
7
  6
CONTINUOUS
 10
25.5678664791
 20
85.9285395373
 11
25.5678664791
 21
86.3367907459
  0
LINE
  5
289
100
AcDbEntity
  8
0
100
AcDbLine
 62
7
  6
CONTINUOUS
 10
18.9563899601
 20
54.4726844212
 11
19.0978134436
 21
54.7176384398
  0
LWPOLYLINE
  5
28A
100
AcDbEntity
  8
0
100
AcDbPolyline
 62
7
  6
CONTINUOUS
 90
6
 70
0
 10
44.4754794193
 20
93.9404068187
 10
44.0715988036
 20
93.3491279245
 10
43.6653579953
 20
92.4997434582
 10
43.4200352559
 20
91.8761281568
 10
42.7707543472
 20
89.8247953116
 10
42.0186033829
 20
86.2109637234
  0
LINE
  5
28B
100
AcDbEntity
  8
0
100
AcDbLine
 62
7
  6
CONTINUOUS
 10
58.8428711635
 20
85.9054375826
 11
70.7929260125
 21
92.804763783
  0
LINE
  5
28C
100
AcDbEntity
  8
0
100
AcDbLine
 62
7
  6
CONTINUOUS
 10
64.6709930642
 20
24.5688384375
 11
63.2567736139
 21
25.3853199466
  0
LWPOLYLINE
  5
28D
100
AcDbEntity
  8
0
100
AcDbPolyline
 62
7
  6
CONTINUOUS
 90
6
 70
0
 10
27.3334861773
 20
48.5748240279
 10
27.6624756508
 20
46.3609472542
 10
28.5703716
 20
42.0222926525
 10
28.8933178347
 20
40.792030263
 10
29.4355848215
 20
39.0597613247
 10
29.6796325949
 20
38.4419718071
  0
LINE
  5
28E
100
AcDbEntity
  8
0
100
AcDbLine
 62
7
  6
CONTINUOUS
 10
23.6586702212
 20
52.0028340521
 11
23.5526031736
 21
51.8191195168
  0
LINE
  5
28F
100
AcDbEntity
  8
0
100
AcDbLine
 62
7
  6
CONTINUOUS
 10
25.5678664791
 20
49.5941819751
 11
39.9221938995
 21
41.3068946583
  0
LINE
  5
290
100
AcDbEntity
  8
0
100
AcDbLine
 62
7
  6
CONTINUOUS
 10
25.5678664791
 20
49.8333269342
 11
23.7622263815
 21
50.8757901469
  0
LINE
  5
291
100
AcDbEntity
  8
0
100
AcDbLine
 62
7
  6
CONTINUOUS
 10
18.8124583055
 20
53.7334754286
 11
13.8626902295
 21
56.5911607102
  0
LINE
  5
292
100
AcDbEntity
  8
0
100
AcDbLine
 62
7
  6
CONTINUOUS
 10
23.656159334
 20
51.0186747509
 11
19.0599461205
 21
53.6722396553
  0
LINE
  5
293
100
AcDbEntity
  8
0
100
AcDbLine
 62
7
  6
CONTINUOUS
 10
25.5678664791
 20
50.0024331836
 11
23.6586702212
 21
51.1046832208
  0
LINE
  5
294
100
AcDbEntity
  8
0
100
AcDbLine
 62
7
  6
CONTINUOUS
 10
18.7089021451
 20
53.9623685025
 11
13.7591340691
 21
56.8200537841
  0
LINE
  5
295
100
AcDbEntity
  8
0
100
AcDbLine
 62
7
  6
CONTINUOUS
 10
23.5526031736
 20
51.2475678248
 11
18.9563899601
 21
53.9011327292
  0
LINE
  5
296
100
AcDbEntity
  8
0
100
AcDbLine
 62
7
  6
CONTINUOUS
 10
10.2008548905
 20
58.9624703582
 11
13.5904523082
 21
57.0055296486
  0
LINE
  5
297
100
AcDbEntity
  8
0
100
AcDbLine
 62
7
  6
CONTINUOUS
 10
13.4868961478
 20
57.2344227225
 11
10.0972987301
 21
59.1913634321
  0
LINE
  5
298
100
AcDbEntity
  8
0
100
AcDbLine
 62
7
  6
CONTINUOUS
 10
67.4286980293
 20
26.1609906376
 11
66.0498340652
 21
26.9570601089
  0
LINE
  5
299
100
AcDbEntity
  8
0
100
AcDbLine
 62
7
  6
CONTINUOUS
 10
18.9563899601
 20
54.4726844212
 11
23.5526031736
 21
51.8191195168
  0
LINE
  5
29A
100
AcDbEntity
  8
0
100
AcDbLine
 62
7
  6
CONTINUOUS
 10
23.6586702212
 20
52.0844861214
 11
18.7089021451
 21
54.942171403
  0
LINE
  5
29B
100
AcDbEntity
  8
0
100
AcDbLine
 62
7
  6
CONTINUOUS
 10
69.7267855002
 20
27.4877841377
 11
68.3479215362
 21
28.283853609
  0
LINE
  5
29C
100
AcDbEntity
  8
0
100
AcDbLine
 62
7
  6
CONTINUOUS
 10
42.8687896421
 20
21.5849261867
 11
42.8688234293
 21
21.5848485228
  0
LINE
  5
29D
100
AcDbEntity
  8
0
100
AcDbLine
 62
7
  6
CONTINUOUS
 10
31.6136543357
 20
46.1037236933
 11
31.6136543347
 21
37.383476832
  0
LINE
  5
29E
100
AcDbEntity
  8
0
100
AcDbLine
 62
7
  6
CONTINUOUS
 10
66.0537862924
 20
95.2714065797
 11
65.6396788065
 21
94.8573010322
  0
LINE
  5
29F
100
AcDbEntity
  8
0
100
AcDbLine
 62
7
  6
CONTINUOUS
 10
59.7212662037
 20
76.0085400996
 11
72.3784248898
 21
83.3161104539
  0
LINE
  5
2A0
100
AcDbEntity
  8
0
100
AcDbLine
 62
7
  6
CONTINUOUS
 10
62.688527973
 20
32.7399117018
 11
62.3729055932
 21
32.9221322454
  0
LINE
  5
2A1
100
AcDbEntity
  8
0
100
AcDbLine
 62
7
  6
CONTINUOUS
 10
62.5426089833
 20
33.9218903081
 11
62.3729055932
 21
34.0198663895
  0
LINE
  5
2A2
100
AcDbEntity
  8
0
100
AcDbLine
 62
7
  6
CONTINUOUS
 10
57.9110494099
 20
37.371571685
 11
58.618159135
 21
36.9633309305
  0
LINE
  5
2A3
100
AcDbEntity
  8
0
100
AcDbLine
 62
7
  6
CONTINUOUS
 10
65.8659507944
 20
32.9828286983
 11
67.2801946831
 21
32.16633308
  0
LINE
  5
2A4
100
AcDbEntity
  8
0
100
AcDbLine
 62
7
  6
CONTINUOUS
 10
68.8358301905
 20
31.6764371199
 11
67.9872985203
 21
32.1663260253
  0
LINE
  5
2A5
100
AcDbEntity
  8
0
100
AcDbLine
 62
7
  6
CONTINUOUS
 10
67.9872985203
 20
33.391079651
 11
67.280176576
 21
33.7993274601
  0
LINE
  5
2A6
100
AcDbEntity
  8
0
100
AcDbLine
 62
7
  6
CONTINUOUS
 10
70.8227964479
 20
81.9280718651
 11
62.3375504013
 21
77.0291420186
  0
LINE
  5
2A7
100
AcDbEntity
  8
0
100
AcDbLine
 62
7
  6
CONTINUOUS
 10
62.3375504013
 20
76.2942898432
 11
70.8227964479
 21
81.1932196896
  0
LINE
  5
2A8
100
AcDbEntity
  8
0
100
AcDbLine
 62
7
  6
CONTINUOUS
 10
70.8227964479
 20
79.9684660639
 11
62.3375504013
 21
75.0695362175
  0
LINE
  5
2A9
100
AcDbEntity
  8
0
100
AcDbLine
 62
7
  6
CONTINUOUS
 10
62.3375504013
 20
74.3346840421
 11
70.8227964479
 21
79.2336138885
  0
LINE
  5
2AA
100
AcDbEntity
  8
0
100
AcDbLine
 62
7
  6
CONTINUOUS
 10
67.6337420751
 20
34.0034521506
 11
67.9872985203
 21
33.7993308595
  0
LINE
  5
2AB
100
AcDbEntity
  8
0
100
AcDbLine
 62
7
  6
CONTINUOUS
 10
66.7226133026
 20
36.3352025216
 11
67.6460853857
 21
35.8020477274
  0
LINE
  5
2AC
100
AcDbEntity
  8
0
100
AcDbLine
 62
7
  6
CONTINUOUS
 10
67.9872985203
 20
36.4070485595
 11
67.4171720296
 21
36.7362037959
  0
LINE
  5
2AD
100
AcDbEntity
  8
0
100
AcDbLine
 62
7
  6
CONTINUOUS
 10
59.7212662037
 20
32.6328938567
 11
55.8321627153
 21
36.0815144047
  0
LINE
  5
2AE
100
AcDbEntity
  8
0
100
AcDbLine
 62
7
  6
CONTINUOUS
 10
56.9635288549
 20
36.7347050509
 11
57.0695953137
 21
36.6406517632
  0
LINE
  5
2AF
100
AcDbEntity
  8
0
100
AcDbLine
 62
7
  6
CONTINUOUS
 10
57.7766991509
 20
37.0488959171
 11
60.0040947851
 21
35.073776876
  0
LINE
  5
2B0
100
AcDbEntity
  8
0
100
AcDbLine
 62
7
  6
CONTINUOUS
 10
13.1262511111
 20
96.1774434476
 11
13.6546605494
 21
95.2577879073
  0
LWPOLYLINE
  5
2B1
100
AcDbEntity
  8
0
100
AcDbPolyline
 62
7
  6
CONTINUOUS
 90
6
 70
0
 10
40.519433155
 20
31.7764340213
 10
41.218687378
 20
27.5675192579
 10
41.7795939669
 20
25.0865462448
 10
42.0180276053
 20
24.170229864
 10
42.454106416
 20
22.6968480413
 10
42.8683283768
 20
21.5847018415
  0
LINE
  5
2B2
100
AcDbEntity
  8
0
100
AcDbLine
 62
7
  6
CONTINUOUS
 10
38.2958415317
 20
85.6021267433
 11
38.2958415317
 21
87.7658801992
  0
LINE
  5
2B3
100
AcDbEntity
  8
0
100
AcDbLine
 62
7
  6
CONTINUOUS
 10
38.3665525042
 20
88.1332852818
 11
38.3665525042
 21
85.6021277887
  0
LINE
  5
2B4
100
AcDbEntity
  8
0
100
AcDbLine
 62
7
  6
CONTINUOUS
 10
38.3665525042
 20
33.0193721255
 11
38.3665525042
 21
35.5505296186
  0
LINE
  5
2B5
100
AcDbEntity
  8
0
100
AcDbLine
 62
7
  6
CONTINUOUS
 10
38.4019076961
 20
35.6280969955
 11
38.4019076961
 21
35.5709418263
  0
LINE
  5
2B6
100
AcDbEntity
  8
0
100
AcDbLine
 62
7
  6
CONTINUOUS
 10
38.8968797933
 20
88.521116888
 11
38.8968797933
 21
88.4476332803
  0
LINE
  5
2B7
100
AcDbEntity
  8
0
100
AcDbLine
 62
7
  6
CONTINUOUS
 10
39.8059687972
 20
87.9962659806
 11
39.8059687972
 21
87.9309474599
  0
LINE
  5
2B8
100
AcDbEntity
  8
0
100
AcDbLine
 62
7
  6
CONTINUOUS
 10
39.9221938995
 20
84.7039981287
 11
39.9221938995
 21
78.0495034291
  0
LINE
  5
2B9
100
AcDbEntity
  8
0
100
AcDbLine
 62
7
  6
CONTINUOUS
 10
39.9221938995
 20
41.3068946583
 11
39.9221938995
 21
34.6523999587
  0
LINE
  5
2BA
100
AcDbEntity
  8
0
100
AcDbLine
 62
7
  6
CONTINUOUS
 10
40.5232274508
 20
88.2353510793
 11
40.5232274508
 21
88.1479066679
  0
LINE
  5
2BB
100
AcDbEntity
  8
0
100
AcDbLine
 62
7
  6
CONTINUOUS
 10
40.5585832315
 20
88.1596918729
 11
40.5585832315
 21
88.1741147962
  0
LINE
  5
2BC
100
AcDbEntity
  8
0
100
AcDbLine
 62
7
  6
CONTINUOUS
 10
41.1773084755
 20
87.1392220387
 11
41.1773084918
 21
87.2657763614
  0
LINE
  5
2BD
100
AcDbEntity
  8
0
100
AcDbLine
 62
7
  6
CONTINUOUS
 10
70.8227964479
 20
78.0088602628
 11
62.3375504013
 21
73.1099304164
  0
LINE
  5
2BE
100
AcDbEntity
  8
0
100
AcDbLine
 62
7
  6
CONTINUOUS
 10
62.3375504013
 20
72.375078241
 11
70.8227964479
 21
77.2740080874
  0
LINE
  5
2BF
100
AcDbEntity
  8
0
100
AcDbLine
 62
7
  6
CONTINUOUS
 10
70.8227964479
 20
76.0492544617
 11
62.3375504013
 21
71.1503246153
  0
LINE
  5
2C0
100
AcDbEntity
  8
0
100
AcDbLine
 62
7
  6
CONTINUOUS
 10
62.3375504013
 20
70.4154724398
 11
70.8227964479
 21
75.3144022863
  0
LINE
  5
2C1
100
AcDbEntity
  8
0
100
AcDbLine
 62
7
  6
CONTINUOUS
 10
70.8227964479
 20
74.0896486606
 11
62.3375504013
 21
69.1907188142
  0
LINE
  5
2C2
100
AcDbEntity
  8
0
100
AcDbLine
 62
7
  6
CONTINUOUS
 10
55.8321627153
 20
47.2267723985
 11
54.27652132
 21
48.1249020584
  0
LINE
  5
2C3
100
AcDbEntity
  8
0
100
AcDbLine
 62
7
  6
CONTINUOUS
 10
54.7714975388
 20
48.1249076254
 11
55.9028730991
 21
47.4717224182
  0
LINE
  5
2C4
100
AcDbEntity
  8
0
100
AcDbLine
 62
7
  6
CONTINUOUS
 10
56.7867483688
 20
47.982024997
 11
56.9635288549
 21
47.8799630447
  0
LINE
  5
2C5
100
AcDbEntity
  8
0
100
AcDbLine
 62
7
  6
CONTINUOUS
 10
60.9586861429
 20
35.4178532694
 11
62.3729055932
 21
34.1638094337
  0
LWPOLYLINE
  5
2C6
100
AcDbEntity
  8
0
100
AcDbPolyline
 62
7
  6
CONTINUOUS
 90
3
 70
0
 10
13.5654397736
 20
89.5677098701
 10
13.5942552122
 20
89.5321580491
 10
13.6126822328
 20
89.4627051978
  0
LINE
  5
2C7
100
AcDbEntity
  8
0
100
AcDbLine
 62
7
  6
CONTINUOUS
 10
59.7212662037
 20
11.9131003549
 11
59.8248277872
 21
11.6842166743
  0
LINE
  5
2C8
100
AcDbEntity
  8
0
100
AcDbLine
 62
7
  6
CONTINUOUS
 10
41.4778258742
 20
87.4392791174
 11
41.4778258742
 21
87.6434018153
  0
LINE
  5
2C9
100
AcDbEntity
  8
0
100
AcDbLine
 62
7
  6
CONTINUOUS
 10
41.7606674091
 20
87.602576779
 11
41.7606674091
 21
87.8066994769
  0
LINE
  5
2CA
100
AcDbEntity
  8
0
100
AcDbLine
 62
7
  6
CONTINUOUS
 10
62.3375504013
 20
68.4558666387
 11
70.8227964479
 21
73.3547964852
  0
LINE
  5
2CB
100
AcDbEntity
  8
0
100
AcDbLine
 62
7
  6
CONTINUOUS
 10
55.2664749352
 20
64.1574647435
 11
56.3978410748
 21
64.8106553897
  0
LINE
  5
2CC
100
AcDbEntity
  8
0
100
AcDbLine
 62
7
  6
CONTINUOUS
 10
56.6807011946
 20
64.7407389142
 11
56.4685520473
 21
64.618255278
  0
LINE
  5
2CD
100
AcDbEntity
  8
0
100
AcDbLine
 62
7
  6
CONTINUOUS
 10
70.8227964479
 20
72.1300428595
 11
62.3375504013
 21
67.231113013
  0
LINE
  5
2CE
100
AcDbEntity
  8
0
100
AcDbLine
 62
7
  6
CONTINUOUS
 10
62.3375504013
 20
66.4962608376
 11
70.8227964479
 21
71.3951906841
  0
LINE
  5
2CF
100
AcDbEntity
  8
0
100
AcDbLine
 62
7
  6
CONTINUOUS
 10
55.8321627153
 20
62.6994932031
 11
56.9635288549
 21
63.3526838493
  0
LINE
  5
2D0
100
AcDbEntity
  8
0
100
AcDbLine
 62
7
  6
CONTINUOUS
 10
57.2413917709
 20
63.5029534519
 11
56.9635288549
 21
63.3425301802
  0
LINE
  5
2D1
100
AcDbEntity
  8
0
100
AcDbLine
 62
7
  6
CONTINUOUS
 10
59.7212662037
 20
64.0467796886
 11
60.8526323432
 21
64.6999703348
  0
LINE
  5
2D2
100
AcDbEntity
  8
0
100
AcDbLine
 62
7
  6
CONTINUOUS
 10
60.0041077385
 20
64.1284271084
 11
60.8526323432
 21
64.6183200931
  0
LINE
  5
2D3
100
AcDbEntity
  8
0
100
AcDbLine
 62
7
  6
CONTINUOUS
 10
57.953474227
 20
49.8803840901
 11
56.8221080874
 21
50.5335638584
  0
LINE
  5
2D4
100
AcDbEntity
  8
0
100
AcDbLine
 62
7
  6
CONTINUOUS
 10
46.3215366177
 20
83.5814009095
 11
46.3215366177
 21
92.3424798266
  0
LINE
  5
2D5
100
AcDbEntity
  8
0
100
AcDbLine
 62
7
  6
CONTINUOUS
 10
46.8341780678
 20
94.2714275574
 11
46.8341780678
 21
94.1353480612
  0
LINE
  5
2D6
100
AcDbEntity
  8
0
100
AcDbLine
 62
7
  6
CONTINUOUS
 10
47.0463121629
 20
93.9856583493
 11
47.0463121629
 21
93.9040101984
  0
LINE
  5
2D7
100
AcDbEntity
  8
0
100
AcDbLine
 62
7
  6
CONTINUOUS
 10
58.2504137115
 20
62.2014912202
 11
72.3784248898
 21
70.3582885802
  0
LINE
  5
2D8
100
AcDbEntity
  8
0
100
AcDbLine
 62
7
  6
CONTINUOUS
 10
54.7714975388
 20
54.2486757539
 11
55.9028730991
 21
53.5954905466
  0
LINE
  5
2D9
100
AcDbEntity
  8
0
100
AcDbLine
 62
7
  6
CONTINUOUS
 10
54.27652132
 20
54.6569213955
 11
55.8321627153
 21
53.7587917355
  0
LINE
  5
2DA
100
AcDbEntity
  8
0
100
AcDbLine
 62
7
  6
CONTINUOUS
 10
56.9635288549
 20
54.2078567774
 11
56.7867483688
 21
54.3099187297
  0
LINE
  5
2DB
100
AcDbEntity
  8
0
100
AcDbLine
 62
7
  6
CONTINUOUS
 10
69.7267855002
 20
38.409548634
 11
69.1893850531
 21
38.886082681
  0
LINE
  5
2DC
100
AcDbEntity
  8
0
100
AcDbLine
 62
7
  6
CONTINUOUS
 10
13.4868961478
 20
89.2030025762
 11
10.0972987301
 21
92.2086915066
  0
LINE
  5
2DD
100
AcDbEntity
  8
0
100
AcDbLine
 62
7
  6
CONTINUOUS
 10
10.1842648533
 20
92.565942564
 11
13.5655140167
 21
89.567656358
  0
LINE
  5
2DE
100
AcDbEntity
  8
0
100
AcDbLine
 62
7
  6
CONTINUOUS
 10
10.1624581117
 20
92.7359133197
 11
13.7591340691
 21
89.5465993151
  0
LINE
  5
2DF
100
AcDbEntity
  8
0
100
AcDbLine
 62
7
  6
CONTINUOUS
 10
60.2445115028
 20
36.3386010829
 11
58.8834164067
 21
38.4431928721
  0
LINE
  5
2E0
100
AcDbEntity
  8
0
100
AcDbLine
 62
7
  6
CONTINUOUS
 10
62.5426089833
 20
35.1126545477
 11
61.3405224505
 21
36.9713795214
  0
LINE
  5
2E1
100
AcDbEntity
  8
0
100
AcDbLine
 62
7
  6
CONTINUOUS
 10
21.9438359611
 20
101.2682480464
 11
22.4722453995
 21
100.3485925061
  0
LINE
  5
2E2
100
AcDbEntity
  8
0
100
AcDbLine
 62
7
  6
CONTINUOUS
 10
49.6223900046
 20
94.7845409858
 11
49.6533218094
 21
94.3584348316
  0
LINE
  5
2E3
100
AcDbEntity
  8
0
100
AcDbLine
 62
7
  6
CONTINUOUS
 10
55.8321627153
 20
53.7587917355
 11
56.9635288549
 21
54.4119823817
  0
LINE
  5
2E4
100
AcDbEntity
  8
0
100
AcDbLine
 62
7
  6
CONTINUOUS
 10
55.9028730991
 20
53.5954905466
 11
56.9635288549
 21
54.2078567774
  0
LINE
  5
2E5
100
AcDbEntity
  8
0
100
AcDbLine
 62
7
  6
CONTINUOUS
 10
68.4893214015
 20
43.389084759
 11
72.3784248898
 21
39.940464211
  0
LINE
  5
2E6
100
AcDbEntity
  8
0
100
AcDbLine
 62
7
  6
CONTINUOUS
 10
53.0037238148
 20
15.7913661462
 11
53.0037238148
 21
17.9551189282
  0
LINE
  5
2E7
100
AcDbEntity
  8
0
100
AcDbLine
 62
7
  6
CONTINUOUS
 10
53.0744347873
 20
88.4192785719
 11
53.0744347873
 21
86.2963722874
  0
LINE
  5
2E8
100
AcDbEntity
  8
0
100
AcDbLine
 62
7
  6
CONTINUOUS
 10
53.0744347873
 20
15.7505634474
 11
53.0744347873
 21
17.8734697319
  0
LINE
  5
2E9
100
AcDbEntity
  8
0
100
AcDbLine
 62
7
  6
CONTINUOUS
 10
53.1097899791
 20
86.2759604196
 11
53.1097899791
 21
86.2596293259
  0
LINE
  5
2EA
100
AcDbEntity
  8
0
100
AcDbLine
 62
7
  6
CONTINUOUS
 10
53.6931506448
 20
89.0990128567
 11
53.6931506448
 21
89.1684133668
  0
LINE
  5
2EB
100
AcDbEntity
  8
0
100
AcDbLine
 62
7
  6
CONTINUOUS
 10
54.27652132
 20
48.1249020584
 11
54.27652132
 21
54.6569213955
  0
LINE
  5
2EC
100
AcDbEntity
  8
0
100
AcDbLine
 62
7
  6
CONTINUOUS
 10
54.6300761826
 20
85.3982426274
 11
54.6300761826
 21
78.7437479278
  0
LINE
  5
2ED
100
AcDbEntity
  8
0
100
AcDbLine
 62
7
  6
CONTINUOUS
 10
54.6300761826
 20
23.6298347716
 11
54.6300761826
 21
16.975340072
  0
LINE
  5
2EE
100
AcDbEntity
  8
0
100
AcDbLine
 62
7
  6
CONTINUOUS
 10
54.7714975388
 20
48.1249076254
 11
54.7714966556
 21
54.3711537172
  0
LINE
  5
2EF
100
AcDbEntity
  8
0
100
AcDbLine
 62
7
  6
CONTINUOUS
 10
55.2664655145
 20
88.8539363716
 11
55.2664655145
 21
88.8683592949
  0
LINE
  5
2F0
100
AcDbEntity
  8
0
100
AcDbLine
 62
7
  6
CONTINUOUS
 10
55.2664749352
 20
64.1574647435
 11
55.2664749352
 21
66.6186964421
  0
LINE
  5
2F1
100
AcDbEntity
  8
0
100
AcDbLine
 62
7
  6
CONTINUOUS
 10
55.6200274426
 20
66.4145774245
 11
55.6200274426
 21
65.3531159191
  0
LINE
  5
2F2
100
AcDbEntity
  8
0
100
AcDbLine
 62
7
  6
CONTINUOUS
 10
55.8321627153
 20
36.0815144047
 11
55.8321627153
 21
47.2267723985
  0
LINE
  5
2F3
100
AcDbEntity
  8
0
100
AcDbLine
 62
7
  6
CONTINUOUS
 10
55.8321627153
 20
53.7587917355
 11
55.8321627153
 21
62.6994932031
  0
LINE
  5
2F4
100
AcDbEntity
  8
0
100
AcDbLine
 62
7
  6
CONTINUOUS
 10
55.9028730991
 20
47.4717224182
 11
55.9028730991
 21
53.5954905466
  0
LINE
  5
2F5
100
AcDbEntity
  8
0
100
AcDbLine
 62
7
  6
CONTINUOUS
 10
57.953474227
 20
53.5546449672
 11
56.8221080874
 21
52.901454321
  0
LINE
  5
2F6
100
AcDbEntity
  8
0
100
AcDbLine
 62
7
  6
CONTINUOUS
 10
54.27652132
 20
48.1249020584
 11
54.7714975388
 21
48.4106750058
  0
LINE
  5
2F7
100
AcDbEntity
  8
0
100
AcDbLine
 62
7
  6
CONTINUOUS
 10
56.8221080874
 20
49.2271934439
 11
57.953474227
 21
49.8803840901
  0
LINE
  5
2F8
100
AcDbEntity
  8
0
100
AcDbLine
 62
7
  6
CONTINUOUS
 10
58.038280794
 20
62.3239634465
 11
58.2504137115
 21
62.2014912202
  0
LINE
  5
2F9
100
AcDbEntity
  8
0
100
AcDbLine
 62
7
  6
CONTINUOUS
 10
55.6200274426
 20
65.3531159191
 11
56.6806920304
 21
64.7407547873
  0
LINE
  5
2FA
100
AcDbEntity
  8
0
100
AcDbLine
 62
7
  6
CONTINUOUS
 10
67.9872985203
 20
40.8088745678
 11
69.1893850531
 21
38.9501495941
  0
LINE
  5
2FB
100
AcDbEntity
  8
0
100
AcDbLine
 62
7
  6
CONTINUOUS
 10
56.6934283768
 20
98.8669825245
 11
56.7243601816
 21
98.4408763703
  0
LINE
  5
2FC
100
AcDbEntity
  8
0
100
AcDbLine
 62
7
  6
CONTINUOUS
 10
56.3800798702
 20
99.7827236346
 11
56.3800798702
 21
99.7244033881
  0
LINE
  5
2FD
100
AcDbEntity
  8
0
100
AcDbLine
 62
7
  6
CONTINUOUS
 10
56.3978410748
 20
64.8106553897
 11
56.3978410748
 21
64.9040551683
  0
LINE
  5
2FE
100
AcDbEntity
  8
0
100
AcDbLine
 62
7
  6
CONTINUOUS
 10
56.4685520473
 20
64.618255278
 11
56.4685520473
 21
64.8632310928
  0
LINE
  5
2FF
100
AcDbEntity
  8
0
100
AcDbLine
 62
7
  6
CONTINUOUS
 10
56.6806920304
 20
64.7407547873
 11
56.6806920304
 21
64.3325035787
  0
LINE
  5
300
100
AcDbEntity
  8
0
100
AcDbLine
 62
7
  6
CONTINUOUS
 10
56.8221080874
 20
52.901454321
 11
56.8221080874
 21
49.2271934439
  0
LINE
  5
301
100
AcDbEntity
  8
0
100
AcDbLine
 62
7
  6
CONTINUOUS
 10
56.8750555002
 20
99.6602520881
 11
56.8750555002
 21
99.5786039372
  0
LINE
  5
302
100
AcDbEntity
  8
0
100
AcDbLine
 62
7
  6
CONTINUOUS
 10
56.9635288549
 20
36.7347050509
 11
56.9635288549
 21
48.084088649
  0
LINE
  5
303
100
AcDbEntity
  8
0
100
AcDbLine
 62
7
  6
CONTINUOUS
 10
56.9635288549
 20
54.2078567774
 11
56.9635288549
 21
63.3526838493
  0
LINE
  5
304
100
AcDbEntity
  8
0
100
AcDbLine
 62
7
  6
CONTINUOUS
 10
57.9110494099
 20
37.371571685
 11
57.9110494099
 21
36.9297622748
  0
LINE
  5
305
100
AcDbEntity
  8
0
100
AcDbLine
 62
7
  6
CONTINUOUS
 10
57.953474227
 20
49.8803840901
 11
57.953474227
 21
53.5546449672
  0
LINE
  5
306
100
AcDbEntity
  8
0
100
AcDbLine
 62
7
  6
CONTINUOUS
 10
58.618159135
 20
37.4532323808
 11
58.618159135
 21
36.9633309305
  0
LINE
  5
307
100
AcDbEntity
  8
0
100
AcDbLine
 62
7
  6
CONTINUOUS
 10
59.7212662037
 20
11.9131003549
 11
59.7212662037
 21
32.6328938567
  0
LINE
  5
308
100
AcDbEntity
  8
0
100
AcDbLine
 62
7
  6
CONTINUOUS
 10
59.7212662037
 20
64.0467796886
 11
59.7212662037
 21
76.0085400995
  0
LINE
  5
309
100
AcDbEntity
  8
0
100
AcDbLine
 62
7
  6
CONTINUOUS
 10
55.9028730991
 20
47.4717224182
 11
56.9635288549
 21
48.084088649
  0
LINE
  5
30A
100
AcDbEntity
  8
0
100
AcDbLine
 62
7
  6
CONTINUOUS
 10
55.8321627153
 20
47.2267723985
 11
56.9635288549
 21
47.8799630447
  0
LINE
  5
30B
100
AcDbEntity
  8
0
100
AcDbLine
 62
7
  6
CONTINUOUS
 10
38.3665525042
 20
35.5505296186
 11
38.4514062322
 21
35.5995196489
  0
LINE
  5
30C
100
AcDbEntity
  8
0
100
AcDbLine
 62
7
  6
CONTINUOUS
 10
55.2664749352
 20
66.6186964421
 11
59.7212662037
 21
64.0467796886
  0
LINE
  5
30D
100
AcDbEntity
  8
0
100
AcDbLine
 62
7
  6
CONTINUOUS
 10
60.0041077385
 20
64.1284271084
 11
59.9333955441
 21
64.1692518894
  0
LINE
  5
30E
100
AcDbEntity
  8
0
100
AcDbLine
 62
7
  6
CONTINUOUS
 10
23.6586702212
 20
86.050986674
 11
18.7089021451
 21
88.9086719556
  0
LINE
  5
30F
100
AcDbEntity
  8
0
100
AcDbLine
 62
7
  6
CONTINUOUS
 10
60.8526323432
 20
64.6183200931
 11
60.7819201488
 21
64.659144874
  0
LINE
  5
310
100
AcDbEntity
  8
0
100
AcDbLine
 62
7
  6
CONTINUOUS
 10
23.5526031736
 20
86.6021224866
 11
23.6586702212
 21
86.5408828972
  0
LINE
  5
311
100
AcDbEntity
  8
0
100
AcDbLine
 62
7
  6
CONTINUOUS
 10
18.9563899601
 20
89.2556873909
 11
23.5526031736
 21
86.6021224866
  0
LINE
  5
312
100
AcDbEntity
  8
0
100
AcDbLine
 62
7
  6
CONTINUOUS
 10
23.6586702212
 20
87.0307895745
 11
25.5678664791
 21
85.9285395373
  0
LINE
  5
313
100
AcDbEntity
  8
0
100
AcDbLine
 62
7
  6
CONTINUOUS
 10
10.4003602554
 20
94.6853048342
 11
18.7089021451
 21
89.8884748562
  0
LINE
  5
314
100
AcDbEntity
  8
0
100
AcDbLine
 62
7
  6
CONTINUOUS
 10
18.9563899601
 20
89.8272390829
 11
23.5526031736
 21
87.1736741785
  0
LINE
  5
315
100
AcDbEntity
  8
0
100
AcDbLine
 62
7
  6
CONTINUOUS
 10
39.9221938995
 20
78.0495034291
 11
25.5678664791
 21
86.3367907459
  0
LINE
  5
316
100
AcDbEntity
  8
0
100
AcDbLine
 62
7
  6
CONTINUOUS
 10
25.8351568679
 20
86.5907148136
 11
24.0122221398
 21
87.64316286
  0
LINE
  5
317
100
AcDbEntity
  8
0
100
AcDbLine
 62
7
  6
CONTINUOUS
 10
19.0624540637
 20
90.5008481417
 11
10.7539147933
 21
95.2976770073
  0
LINE
  5
318
100
AcDbEntity
  8
0
100
AcDbLine
 62
7
  6
CONTINUOUS
 10
23.9061550922
 20
87.786047464
 11
19.3099418787
 21
90.4396123684
  0
LINE
  5
319
100
AcDbEntity
  8
0
100
AcDbLine
 62
7
  6
CONTINUOUS
 10
20.9362895362
 20
90.1538465597
 11
23.4111735743
 21
88.7250039189
  0
LINE
  5
31A
100
AcDbEntity
  8
0
100
AcDbLine
 62
7
  6
CONTINUOUS
 10
25.9782547193
 20
87.4062287596
 11
24.6132589294
 21
88.1942916179
  0
LINE
  5
31B
100
AcDbEntity
  8
0
100
AcDbLine
 62
7
  6
CONTINUOUS
 10
20.017045716
 20
90.8478565223
 11
15.9511647964
 21
93.1952408608
  0
LINE
  5
31C
100
AcDbEntity
  8
0
100
AcDbLine
 62
7
  6
CONTINUOUS
 10
56.6806920304
 20
64.3325035787
 11
58.038280794
 21
62.3239634465
  0
LINE
  5
31D
100
AcDbEntity
  8
0
100
AcDbLine
 62
7
  6
CONTINUOUS
 10
67.7222143719
 20
43.5462447955
 11
69.083309468
 21
41.4416530063
  0
LINE
  5
31E
100
AcDbEntity
  8
0
100
AcDbLine
 62
7
  6
CONTINUOUS
 10
55.8321627153
 20
62.6994932031
 11
55.2664749352
 21
64.1574647435
  0
LINE
  5
31F
100
AcDbEntity
  8
0
100
AcDbLine
 62
7
  6
CONTINUOUS
 10
56.9635288549
 20
63.3425301802
 11
56.4685520473
 21
64.618255278
  0
LINE
  5
320
100
AcDbEntity
  8
0
100
AcDbLine
 62
7
  6
CONTINUOUS
 10
56.3978410748
 20
64.8106553897
 11
56.9635288549
 21
63.3526838493
  0
LINE
  5
321
100
AcDbEntity
  8
0
100
AcDbLine
 62
7
  6
CONTINUOUS
 10
60.0041077385
 20
63.2140158874
 11
60.0041077385
 21
64.1284271084
  0
LINE
  5
322
100
AcDbEntity
  8
0
100
AcDbLine
 62
7
  6
CONTINUOUS
 10
60.2445115028
 20
36.3386010829
 11
60.2445115028
 21
35.0143425465
  0
LINE
  5
323
100
AcDbEntity
  8
0
100
AcDbLine
 62
7
  6
CONTINUOUS
 10
60.8526323432
 20
64.6183200931
 11
60.8526323432
 21
76.6617307457
  0
LINE
  5
324
100
AcDbEntity
  8
0
100
AcDbLine
 62
7
  6
CONTINUOUS
 10
61.3405224505
 20
36.9713795214
 11
61.3405224505
 21
35.0792640443
  0
LINE
  5
325
100
AcDbEntity
  8
0
100
AcDbLine
 62
7
  6
CONTINUOUS
 10
62.3375504013
 20
77.0291420186
 11
62.3375504013
 21
76.2942898432
  0
LINE
  5
326
100
AcDbEntity
  8
0
100
AcDbLine
 62
7
  6
CONTINUOUS
 10
62.3375504013
 20
75.0695362175
 11
62.3375504013
 21
74.3346840421
  0
LINE
  5
327
100
AcDbEntity
  8
0
100
AcDbLine
 62
7
  6
CONTINUOUS
 10
62.3375504013
 20
73.1099304164
 11
62.3375504013
 21
72.375078241
  0
LINE
  5
328
100
AcDbEntity
  8
0
100
AcDbLine
 62
7
  6
CONTINUOUS
 10
62.3375504013
 20
71.1503246153
 11
62.3375504013
 21
70.4154724398
  0
LINE
  5
329
100
AcDbEntity
  8
0
100
AcDbLine
 62
7
  6
CONTINUOUS
 10
62.3375504013
 20
69.1907188142
 11
62.3375504013
 21
68.4558666387
  0
LINE
  5
32A
100
AcDbEntity
  8
0
100
AcDbLine
 62
7
  6
CONTINUOUS
 10
62.3375504013
 20
67.231113013
 11
62.3375504013
 21
66.4962608376
  0
LINE
  5
32B
100
AcDbEntity
  8
0
100
AcDbLine
 62
7
  6
CONTINUOUS
 10
62.3729055932
 20
34.1638094337
 11
62.3729055932
 21
23.2420449375
  0
LINE
  5
32C
100
AcDbEntity
  8
0
100
AcDbLine
 62
7
  6
CONTINUOUS
 10
62.5426089833
 20
35.1126545477
 11
62.5426089833
 21
33.9218903081
  0
LINE
  5
32D
100
AcDbEntity
  8
0
100
AcDbLine
 62
7
  6
CONTINUOUS
 10
58.8834164067
 20
38.4431928721
 11
58.618159135
 21
37.4532323808
  0
LINE
  5
32E
100
AcDbEntity
  8
0
100
AcDbLine
 62
7
  6
CONTINUOUS
 10
14.9794572779
 20
94.1959382963
 11
14.2197959
 21
94.6194708285
  0
LINE
  5
32F
100
AcDbEntity
  8
0
100
AcDbLine
 62
7
  6
CONTINUOUS
 10
13.3129395948
 20
95.1250686635
 11
11.8589879654
 21
95.9356874922
  0
LINE
  5
330
100
AcDbEntity
  8
0
100
AcDbLine
 62
7
  6
CONTINUOUS
 10
24.5425397138
 20
89.3781945651
 11
22.0676556758
 21
90.8070372059
  0
LINE
  5
331
100
AcDbEntity
  8
0
100
AcDbLine
 62
7
  6
CONTINUOUS
 10
14.1480255765
 20
95.5426306382
 11
14.9258462742
 21
95.0935658083
  0
LINE
  5
332
100
AcDbEntity
  8
0
100
AcDbLine
 62
7
  6
CONTINUOUS
 10
13.1262511111
 20
96.1774434476
 11
15.0708028552
 21
95.0547813727
  0
LINE
  5
333
100
AcDbEntity
  8
0
100
AcDbLine
 62
7
  6
CONTINUOUS
 10
59.7212662037
 20
76.0085400995
 11
58.545316834
 21
85.2607348053
  0
LINE
  5
334
100
AcDbEntity
  8
0
100
AcDbLine
 62
7
  6
CONTINUOUS
 10
59.6206853845
 20
86.3545061518
 11
60.8526323432
 21
76.6617307457
  0
LINE
  5
335
100
AcDbEntity
  8
0
100
AcDbLine
 62
7
  6
CONTINUOUS
 10
64.6709930642
 20
14.3625582234
 11
64.6709930642
 21
24.5688384375
  0
LINE
  5
336
100
AcDbEntity
  8
0
100
AcDbLine
 62
7
  6
CONTINUOUS
 10
65.1446972885
 20
95.7962574871
 11
65.1446972885
 21
95.7819686595
  0
LINE
  5
337
100
AcDbEntity
  8
0
100
AcDbLine
 62
7
  6
CONTINUOUS
 10
66.0498340652
 20
16.7507798948
 11
66.0498340652
 21
26.9570601089
  0
LINE
  5
338
100
AcDbEntity
  8
0
100
AcDbLine
 62
7
  6
CONTINUOUS
 10
67.7222143719
 20
43.5462447955
 11
58.8834164067
 21
38.4431928721
  0
LINE
  5
339
100
AcDbEntity
  8
0
100
AcDbLine
 62
7
  6
CONTINUOUS
 10
57.9110494099
 20
37.371571685
 11
58.7216820568
 21
37.8395878683
  0
LINE
  5
33A
100
AcDbEntity
  8
0
100
AcDbLine
 62
7
  6
CONTINUOUS
 10
55.8321627153
 20
36.0815144047
 11
56.9635288549
 21
36.7347050509
  0
LINE
  5
33B
100
AcDbEntity
  8
0
100
AcDbLine
 62
7
  6
CONTINUOUS
 10
68.0047760844
 20
43.1093340596
 11
68.4893214015
 21
43.389084759
  0
LINE
  5
33C
100
AcDbEntity
  8
0
100
AcDbLine
 62
7
  6
CONTINUOUS
 10
57.0695953137
 20
36.6406517632
 11
57.7766991509
 21
37.0488959171
  0
LINE
  5
33D
100
AcDbEntity
  8
0
100
AcDbLine
 62
7
  6
CONTINUOUS
 10
39.9221938995
 20
84.6631730079
 11
38.2958415317
 21
85.6021267433
  0
LINE
  5
33E
100
AcDbEntity
  8
0
100
AcDbLine
 62
7
  6
CONTINUOUS
 10
38.3665525042
 20
85.6021277887
 11
39.9221938995
 21
84.7039981287
  0
LINE
  5
33F
100
AcDbEntity
  8
0
100
AcDbLine
 62
7
  6
CONTINUOUS
 10
28.264625733
 20
93.5572923127
 11
38.2958415317
 21
87.7658801992
  0
LINE
  5
340
100
AcDbEntity
  8
0
100
AcDbLine
 62
7
  6
CONTINUOUS
 10
54.6300761826
 20
78.7437479278
 11
38.3665525042
 21
88.1332852818
  0
LINE
  5
341
100
AcDbEntity
  8
0
100
AcDbLine
 62
7
  6
CONTINUOUS
 10
42.1661571244
 20
85.9804559647
 11
54.6300761826
 21
78.7845720033
  0
LINE
  5
342
100
AcDbEntity
  8
0
100
AcDbLine
 62
7
  6
CONTINUOUS
 10
38.6493934481
 20
88.3782314329
 11
28.6183233658
 21
94.169542416
  0
LINE
  5
343
100
AcDbEntity
  8
0
100
AcDbLine
 62
7
  6
CONTINUOUS
 10
42.1008307111
 20
86.6060382896
 11
40.8909296893
 21
87.3045591676
  0
LINE
  5
344
100
AcDbEntity
  8
0
100
AcDbLine
 62
7
  6
CONTINUOUS
 10
39.8302651016
 20
87.9169202994
 11
38.9110224589
 21
88.4476332803
  0
LINE
  5
345
100
AcDbEntity
  8
0
100
AcDbLine
 62
7
  6
CONTINUOUS
 10
67.4286980293
 20
15.9547104235
 11
67.4286980293
 21
26.1609906376
  0
LINE
  5
346
100
AcDbEntity
  8
0
100
AcDbLine
 62
7
  6
CONTINUOUS
 10
67.9872985203
 20
33.391079651
 11
67.9872985203
 21
33.7993308595
  0
LINE
  5
347
100
AcDbEntity
  8
0
100
AcDbLine
 62
7
  6
CONTINUOUS
 10
67.9872985203
 20
36.4070485595
 11
67.9872985203
 21
37.065364514
  0
LINE
  5
348
100
AcDbEntity
  8
0
100
AcDbLine
 62
7
  6
CONTINUOUS
 10
68.3479215362
 20
28.283853609
 11
68.3479215362
 21
29.7617397742
  0
LINE
  5
349
100
AcDbEntity
  8
0
100
AcDbLine
 62
7
  6
CONTINUOUS
 10
68.3479215362
 20
31.9581249401
 11
68.3479215362
 21
37.2735690664
  0
LINE
  5
34A
100
AcDbEntity
  8
0
100
AcDbLine
 62
7
  6
CONTINUOUS
 10
68.4893214015
 20
43.389084759
 11
68.4893214015
 21
68.1129270373
  0
LINE
  5
34B
100
AcDbEntity
  8
0
100
AcDbLine
 62
7
  6
CONTINUOUS
 10
68.8358301905
 20
30.0434322856
 11
68.8358301905
 21
31.6764371199
  0
LINE
  5
34C
100
AcDbEntity
  8
0
100
AcDbLine
 62
7
  6
CONTINUOUS
 10
69.083309468
 20
40.1145377135
 11
69.083309468
 21
41.4416530063
  0
LINE
  5
34D
100
AcDbEntity
  8
0
100
AcDbLine
 62
7
  6
CONTINUOUS
 10
69.1893850531
 20
38.9501495941
 11
69.1893850531
 21
37.7593853545
  0
LINE
  5
34E
100
AcDbEntity
  8
0
100
AcDbLine
 62
7
  6
CONTINUOUS
 10
69.7267855002
 20
38.409548634
 11
69.7267855002
 21
27.4877841377
  0
LINE
  5
34F
100
AcDbEntity
  8
0
100
AcDbLine
 62
7
  6
CONTINUOUS
 10
60.2445115028
 20
36.3386010829
 11
61.3405224505
 21
36.9713795214
  0
LINE
  5
350
100
AcDbEntity
  8
0
100
AcDbLine
 62
7
  6
CONTINUOUS
 10
67.9872985203
 20
40.8088745678
 11
69.083309468
 21
41.4416530063
  0
LINE
  5
351
100
AcDbEntity
  8
0
100
AcDbLine
 62
7
  6
CONTINUOUS
 10
60.9586861429
 20
35.4178532694
 11
60.2869374976
 21
35.0300213232
  0
LINE
  5
352
100
AcDbEntity
  8
0
100
AcDbLine
 62
7
  6
CONTINUOUS
 10
68.6394178171
 20
39.8005358254
 11
69.0196701815
 21
40.0200733199
  0
LINE
  5
353
100
AcDbEntity
  8
0
100
AcDbLine
 62
7
  6
CONTINUOUS
 10
62.5426089833
 20
35.1126545477
 11
69.1893850531
 21
38.9501495941
  0
LINE
  5
354
100
AcDbEntity
  8
0
100
AcDbLine
 62
7
  6
CONTINUOUS
 10
39.8059687972
 20
87.9962659806
 11
38.8968797933
 21
88.521116888
  0
LINE
  5
355
100
AcDbEntity
  8
0
100
AcDbLine
 62
7
  6
CONTINUOUS
 10
42.1243448025
 20
86.7190155645
 11
41.1773082153
 21
87.2657762018
  0
LINE
  5
356
100
AcDbEntity
  8
0
100
AcDbLine
 62
7
  6
CONTINUOUS
 10
41.4778258742
 20
87.6434018153
 11
40.5585832315
 21
88.1741147962
  0
LINE
  5
357
100
AcDbEntity
  8
0
100
AcDbLine
 62
7
  6
CONTINUOUS
 10
70.8227964479
 20
71.3951906841
 11
70.186386698
 21
71.7626137123
  0
LINE
  5
358
100
AcDbEntity
  8
0
100
AcDbLine
 62
7
  6
CONTINUOUS
 10
22.2797197045
 20
100.0537279774
 11
21.0599561646
 21
100.7579428541
  0
LINE
  5
359
100
AcDbEntity
  8
0
100
AcDbLine
 62
7
  6
CONTINUOUS
 10
22.2797197045
 20
100.2374384078
 11
23.0575404022
 21
99.7883735778
  0
LINE
  5
35A
100
AcDbEntity
  8
0
100
AcDbLine
 62
7
  6
CONTINUOUS
 10
20.7594267299
 20
101.3600857446
 11
20.5410389129
 21
101.4861691572
  0
LINE
  5
35B
100
AcDbEntity
  8
0
100
AcDbLine
 62
7
  6
CONTINUOUS
 10
21.8710839238
 20
101.3102505045
 11
21.9438359611
 21
101.2682480464
  0
LINE
  5
35C
100
AcDbEntity
  8
0
100
AcDbLine
 62
7
  6
CONTINUOUS
 10
70.8227964479
 20
73.3547964852
 11
70.186386698
 21
73.7222195134
  0
LINE
  5
35D
100
AcDbEntity
  8
0
100
AcDbLine
 62
7
  6
CONTINUOUS
 10
21.5988964701
 20
101.5589927227
 11
23.0022925254
 21
100.7199721423
  0
LINE
  5
35E
100
AcDbEntity
  8
0
100
AcDbLine
 62
7
  6
CONTINUOUS
 10
23.8783893628
 20
100.1961974929
 11
24.6122994244
 21
99.7574292258
  0
LINE
  5
35F
100
AcDbEntity
  8
0
100
AcDbLine
 62
7
  6
CONTINUOUS
 10
46.9756017792
 20
93.9448339339
 11
46.7634676841
 21
94.230603142
  0
LINE
  5
360
100
AcDbEntity
  8
0
100
AcDbLine
 62
7
  6
CONTINUOUS
 10
46.8341780678
 20
94.2714275574
 11
47.0463121629
 21
93.9856583493
  0
LINE
  5
361
100
AcDbEntity
  8
0
100
AcDbLine
 62
7
  6
CONTINUOUS
 10
70.8227964479
 20
71.3951906841
 11
70.8227964479
 21
72.1300428595
  0
LINE
  5
362
100
AcDbEntity
  8
0
100
AcDbLine
 62
7
  6
CONTINUOUS
 10
70.8227964479
 20
73.3547964852
 11
70.8227964479
 21
74.0896486606
  0
LINE
  5
363
100
AcDbEntity
  8
0
100
AcDbLine
 62
7
  6
CONTINUOUS
 10
70.8227964479
 20
75.3144022863
 11
70.8227964479
 21
76.0492544617
  0
LINE
  5
364
100
AcDbEntity
  8
0
100
AcDbLine
 62
7
  6
CONTINUOUS
 10
70.8227964479
 20
77.2740080874
 11
70.8227964479
 21
78.0088602628
  0
LINE
  5
365
100
AcDbEntity
  8
0
100
AcDbLine
 62
7
  6
CONTINUOUS
 10
70.8227964479
 20
79.2336138885
 11
70.8227964479
 21
79.9684660639
  0
LINE
  5
366
100
AcDbEntity
  8
0
100
AcDbLine
 62
7
  6
CONTINUOUS
 10
70.8227964479
 20
81.1932196896
 11
70.8227964479
 21
81.9280718651
  0
LINE
  5
367
100
AcDbEntity
  8
0
100
AcDbLine
 62
7
  6
CONTINUOUS
 10
72.3784248898
 20
19.2206707092
 11
72.3784248898
 21
39.940464211
  0
LINE
  5
368
100
AcDbEntity
  8
0
100
AcDbLine
 62
7
  6
CONTINUOUS
 10
72.3784248898
 20
70.3582885802
 11
72.3784248898
 21
83.3161104539
  0
LINE
  5
369
100
AcDbEntity
  8
0
100
AcDbLine
 62
7
  6
CONTINUOUS
 10
65.8864773595
 20
17.130864509
 11
66.0498340652
 21
18.1063187755
  0
LINE
  5
36A
100
AcDbEntity
  8
0
100
AcDbLine
 62
7
  6
CONTINUOUS
 10
66.3358470287
 20
16.3815064113
 11
66.3670210118
 21
16.5676560687
  0
LINE
  5
36B
100
AcDbEntity
  8
0
100
AcDbLine
 62
7
  6
CONTINUOUS
 10
67.6460853857
 20
35.8020477274
 11
62.6885279731
 21
32.7399117018
  0
LINE
  5
36C
100
AcDbEntity
  8
0
100
AcDbLine
 62
7
  6
CONTINUOUS
 10
72.3784248898
 20
39.940464211
 11
69.7267855002
 21
38.409548634
  0
LINE
  5
36D
100
AcDbEntity
  8
0
100
AcDbLine
 62
7
  6
CONTINUOUS
 10
59.7212662037
 20
32.6328938567
 11
62.3729055932
 21
34.1638094337
  0
LINE
  5
36E
100
AcDbEntity
  8
0
100
AcDbLine
 62
7
  6
CONTINUOUS
 10
62.5426089833
 20
33.9218903081
 11
69.1893850531
 21
37.7593853545
  0
LINE
  5
36F
100
AcDbEntity
  8
0
100
AcDbLine
 62
7
  6
CONTINUOUS
 10
67.6337466017
 20
34.0034599912
 11
63.4516628101
 21
31.588947201
  0
LINE
  5
370
100
AcDbEntity
  8
0
100
AcDbLine
 62
7
  6
CONTINUOUS
 10
41.1949819841
 20
87.8066981171
 11
41.7606674091
 21
87.8066994769
  0
LINE
  5
371
100
AcDbEntity
  8
0
100
AcDbLine
 62
7
  6
CONTINUOUS
 10
15.3824303716
 20
94.091649987
 11
15.2130115244
 21
94.1208283052
  0
LINE
  5
372
100
AcDbEntity
  8
0
100
AcDbLine
 62
7
  6
CONTINUOUS
 10
22.7039696422
 20
102.1970032077
 11
32.3171761553
 21
96.6469413987
  0
LINE
  5
373
100
AcDbEntity
  8
0
100
AcDbLine
 62
7
  6
CONTINUOUS
 10
32.4582742787
 20
96.7345759975
 11
22.9539654004
 21
102.22176715
  0
LINE
  5
374
100
AcDbEntity
  8
0
100
AcDbLine
 62
7
  6
CONTINUOUS
 10
70.8227964479
 20
75.3144022863
 11
70.186386698
 21
75.6818253145
  0
LINE
  5
375
100
AcDbEntity
  8
0
100
AcDbLine
 62
7
  6
CONTINUOUS
 10
54.6230046916
 20
85.3859941686
 11
53.1097899791
 21
86.2596293259
  0
LINE
  5
376
100
AcDbEntity
  8
0
100
AcDbLine
 62
7
  6
CONTINUOUS
 10
53.0744347873
 20
86.2963722874
 11
54.6300761826
 21
85.3982426274
  0
LINE
  5
377
100
AcDbEntity
  8
0
100
AcDbLine
 62
7
  6
CONTINUOUS
 10
70.8227964479
 20
77.2740080874
 11
70.186386698
 21
77.6414311156
  0
LINE
  5
378
100
AcDbEntity
  8
0
100
AcDbLine
 62
7
  6
CONTINUOUS
 10
53.0744347873
 20
88.4192785719
 11
58.545316834
 21
85.2607348053
  0
LINE
  5
379
100
AcDbEntity
  8
0
100
AcDbLine
 62
7
  6
CONTINUOUS
 10
44.4911672118
 20
93.3992435746
 11
53.0806480717
 21
88.4401854388
  0
LINE
  5
37A
100
AcDbEntity
  8
0
100
AcDbLine
 62
7
  6
CONTINUOUS
 10
49.9808019193
 20
94.1693683793
 11
50.4094644089
 21
93.6361097283
  0
LINE
  5
37B
100
AcDbEntity
  8
0
100
AcDbLine
 62
7
  6
CONTINUOUS
 10
62.3729055932
 20
29.3331253149
 11
67.2801946831
 21
32.16633308
  0
LINE
  5
37C
100
AcDbEntity
  8
0
100
AcDbLine
 62
7
  6
CONTINUOUS
 10
67.9872985203
 20
32.1663260253
 11
62.3729055932
 21
28.9248741063
  0
LINE
  5
37D
100
AcDbEntity
  8
0
100
AcDbLine
 62
7
  6
CONTINUOUS
 10
68.8358301905
 20
31.6764371199
 11
62.3729055932
 21
27.945088137
  0
LINE
  5
37E
100
AcDbEntity
  8
0
100
AcDbLine
 62
7
  6
CONTINUOUS
 10
58.8428711635
 20
85.9054375826
 11
53.4279867059
 21
89.0316518574
  0
LINE
  5
37F
100
AcDbEntity
  8
0
100
AcDbLine
 62
7
  6
CONTINUOUS
 10
53.4385928108
 20
89.0500225855
 11
44.8446946026
 21
94.0115722668
  0
LINE
  5
380
100
AcDbEntity
  8
0
100
AcDbLine
 62
7
  6
CONTINUOUS
 10
53.6189047419
 20
89.1418777789
 11
54.5381473846
 21
88.6111647981
  0
LINE
  5
381
100
AcDbEntity
  8
0
100
AcDbLine
 62
7
  6
CONTINUOUS
 10
70.8227964479
 20
79.2336138885
 11
70.186386698
 21
79.6010369168
  0
LINE
  5
382
100
AcDbEntity
  8
0
100
AcDbLine
 62
7
  6
CONTINUOUS
 10
53.6931506448
 20
89.1684133668
 11
54.6022396487
 21
88.6435624594
  0
LINE
  5
383
100
AcDbEntity
  8
0
100
AcDbLine
 62
7
  6
CONTINUOUS
 10
59.6206853845
 20
86.3545061518
 11
55.2664655145
 21
88.8683592949
  0
LINE
  5
384
100
AcDbEntity
  8
0
100
AcDbLine
 62
7
  6
CONTINUOUS
 10
46.9756017792
 20
93.9448339339
 11
47.6827115044
 21
93.5365931794
  0
LINE
  5
385
100
AcDbEntity
  8
0
100
AcDbLine
 62
7
  6
CONTINUOUS
 10
47.7534218881
 20
93.5774175948
 11
47.0463121629
 21
93.9856583493
  0
LINE
  5
386
100
AcDbEntity
  8
0
100
AcDbLine
 62
7
  6
CONTINUOUS
 10
48.3496030976
 20
94.0497015088
 11
55.6023339493
 21
89.862430128
  0
LINE
  5
387
100
AcDbEntity
  8
0
100
AcDbLine
 62
7
  6
CONTINUOUS
 10
70.8227964479
 20
81.1932196896
 11
70.186386698
 21
81.5606427179
  0
LINE
  5
388
100
AcDbEntity
  8
0
100
AcDbLine
 62
7
  6
CONTINUOUS
 10
56.4154915924
 20
90.3319041098
 11
50.1645191191
 21
93.9408231053
  0
LINE
  5
389
100
AcDbEntity
  8
0
100
AcDbLine
 62
7
  6
CONTINUOUS
 10
49.9808019193
 20
94.1693683793
 11
49.6272470567
 21
94.3734887566
  0
LINE
  5
38A
100
AcDbEntity
  8
0
100
AcDbLine
 62
7
  6
CONTINUOUS
 10
56.8751208563
 20
90.597269605
 11
49.6223900046
 21
94.7845409858
  0
LINE
  5
38B
100
AcDbEntity
  8
0
100
AcDbLine
 62
7
  6
CONTINUOUS
 10
71.2024755201
 20
92.5683051596
 11
72.3784248898
 21
83.3161104539
  0
LINE
  5
38C
100
AcDbEntity
  8
0
100
AcDbLine
 62
7
  6
CONTINUOUS
 10
62.3729055932
 20
26.3120833027
 11
68.8358301905
 21
30.0434322856
  0
LINE
  5
38D
100
AcDbEntity
  8
0
100
AcDbLine
 62
7
  6
CONTINUOUS
 10
62.3729055932
 20
24.875021553
 11
63.2567736139
 21
25.3853199466
  0
LINE
  5
38E
100
AcDbEntity
  8
0
100
AcDbLine
 62
7
  6
CONTINUOUS
 10
66.0498340652
 20
26.9570601089
 11
68.3479215362
 21
28.283853609
  0
LINE
  5
38F
100
AcDbEntity
  8
0
100
AcDbLine
 62
7
  6
CONTINUOUS
 10
64.6709930642
 20
24.5688384375
 11
62.3729055932
 21
23.2420449375
  0
LINE
  5
390
100
AcDbEntity
  8
0
100
AcDbLine
 62
7
  6
CONTINUOUS
 10
67.4286980293
 20
26.1609906376
 11
69.7267855002
 21
27.4877841377
  0
LINE
  5
391
100
AcDbEntity
  8
0
100
AcDbLine
 62
7
  6
CONTINUOUS
 10
53.0744347873
 20
17.8734697319
 11
53.1097908845
 21
17.8938824623
  0
LINE
  5
392
100
AcDbEntity
  8
0
100
AcDbLine
 62
7
  6
CONTINUOUS
 10
40.5683750604
 20
101.0688680579
 11
48.5235773476
 21
96.4760348878
  0
LINE
  5
393
100
AcDbEntity
  8
0
100
AcDbLine
 62
7
  6
CONTINUOUS
 10
40.8183874381
 20
101.0936237996
 11
48.6646906356
 21
96.5636610178
  0
LINE
  5
394
100
AcDbEntity
  8
0
100
AcDbLine
 62
7
  6
CONTINUOUS
 10
57.0518402914
 20
98.251809918
 11
57.4805027811
 21
97.718551267
  0
LINE
  5
395
100
AcDbEntity
  8
0
100
AcDbLine
 62
7
  6
CONTINUOUS
 10
27.1234054243
 20
99.645498492
 11
27.3733957594
 21
99.6702530409
  0
LINE
  5
396
100
AcDbEntity
  8
0
100
AcDbLine
 62
7
  6
CONTINUOUS
 10
55.4206414698
 20
98.1321430475
 11
62.6733723214
 21
93.9448716667
  0
LINE
  5
397
100
AcDbEntity
  8
0
100
AcDbLine
 62
7
  6
CONTINUOUS
 10
63.4865299646
 20
94.4143456485
 11
57.2355574913
 21
98.023264644
  0
LINE
  5
398
100
AcDbEntity
  8
0
100
AcDbLine
 62
7
  6
CONTINUOUS
 10
57.0518402914
 20
98.251809918
 11
56.6982854288
 21
98.4559302953
  0
LINE
  5
399
100
AcDbEntity
  8
0
100
AcDbLine
 62
7
  6
CONTINUOUS
 10
63.9461592284
 20
94.6797111437
 11
56.6934283768
 21
98.8669825245
  0
LINE
  5
39A
100
AcDbEntity
  8
0
100
AcDbLine
 62
7
  6
CONTINUOUS
 10
66.0498340652
 20
17.225177984
 11
65.8864773595
 21
17.130864509
  0
LINE
  5
39B
100
AcDbEntity
  8
0
100
AcDbLine
 62
7
  6
CONTINUOUS
 10
64.6709930642
 20
15.4203082642
 11
66.3358470287
 21
16.3815064113
  0
LINE
  5
39C
100
AcDbEntity
  8
0
100
AcDbLine
 62
7
  6
CONTINUOUS
 10
56.8043451165
 20
99.6194276727
 11
56.3093694865
 21
99.7418992192
  0
LINE
  5
39D
100
AcDbEntity
  8
0
100
AcDbLine
 62
7
  6
CONTINUOUS
 10
56.3800798702
 20
99.7827236346
 11
56.8750555002
 21
99.6602520881
  0
LINE
  5
39E
100
AcDbEntity
  8
0
100
AcDbLine
 62
7
  6
CONTINUOUS
 10
57.5114548416
 20
99.2111869182
 11
56.8043451165
 21
99.6194276727
  0
LINE
  5
39F
100
AcDbEntity
  8
0
100
AcDbLine
 62
7
  6
CONTINUOUS
 10
57.5821652254
 20
99.2520113336
 11
56.8750555002
 21
99.6602520881
  0
LINE
  5
3A0
100
AcDbEntity
  8
0
100
AcDbLine
 62
7
  6
CONTINUOUS
 10
65.1482328077
 20
95.7819686595
 11
66.0484829683
 21
95.2622207452
  0
LINE
  5
3A1
100
AcDbEntity
  8
0
100
AcDbLine
 62
7
  6
CONTINUOUS
 10
66.0537862924
 20
95.2714065797
 11
65.1446972885
 21
95.7962574871
  0
LINE
  5
3A2
100
AcDbEntity
  8
0
100
AcDbLine
 62
7
  6
CONTINUOUS
 10
56.759432693
 20
100.8905411647
 11
65.3638991159
 21
95.9228129657
  0
LINE
  5
3A3
100
AcDbEntity
  8
0
100
AcDbLine
 62
7
  6
CONTINUOUS
 10
65.3780415548
 20
95.9309780578
 11
70.7929260125
 21
92.804763783
  0
LINE
  5
3A4
100
AcDbEntity
  8
0
100
AcDbLine
 62
7
  6
CONTINUOUS
 10
65.6039063613
 20
95.9533436481
 11
57.0094317124
 21
100.9152536467
  0
LINE
  5
3A5
100
AcDbEntity
  8
0
100
AcDbLine
 62
7
  6
CONTINUOUS
 10
65.628037313
 20
95.9557420001
 11
71.0593225778
 21
92.8200589291
  0
LINE
  5
3A6
100
AcDbEntity
  8
0
100
AcDbLine
 62
7
  6
CONTINUOUS
 10
64.6709930642
 20
14.4115080157
 11
66.2697476941
 21
15.3345439219
  0
LINE
  5
3A7
100
AcDbEntity
  8
0
100
AcDbLine
 62
7
  6
CONTINUOUS
 10
72.0248729712
 20
18.6082974237
 11
67.4286980293
 21
15.9547104235
  0
LINE
  5
3A8
100
AcDbEntity
  8
0
100
AcDbLine
 62
7
  6
CONTINUOUS
 10
64.6709930642
 20
14.3625582234
 11
60.0748181223
 21
11.7089712232
  0
ARC
  5
3A9
100
AcDbEntity
  8
0
100
AcDbCircle
 62
7
  6
CONTINUOUS
 10
47.7521520064
 20
23.6987407528
 40
5.2272881051
100
AcDbArc
 50
203.43379004
 51
203.8791986533
  0
ARC
  5
3AA
100
AcDbEntity
  8
0
100
AcDbCircle
 62
7
  6
CONTINUOUS
 10
15.5327589482
 20
95.7277271431
 40
1.6384733758
100
AcDbArc
 50
256.8836909447
 51
258.7451541385
  0
ARC
  5
3AB
100
AcDbEntity
  8
0
100
AcDbCircle
 62
7
  6
CONTINUOUS
 10
15.6776392233
 20
92.0467765221
 40
0.8709589246
100
AcDbArc
 50
149.0181712588
 51
150.9822535299
  0
ARC
  5
3AC
100
AcDbEntity
  8
0
100
AcDbCircle
 62
7
  6
CONTINUOUS
 10
47.157268451
 20
92.2692033269
 40
0.8449504076
100
AcDbArc
 50
141.2686595549
 51
150.0580906004
  0
ARC
  5
3AD
100
AcDbEntity
  8
0
100
AcDbCircle
 62
7
  6
CONTINUOUS
 10
39.1166684062
 20
87.696876489
 40
0.829765821
100
AcDbArc
 50
155.6324659071
 51
158.7506078651
  0
ARC
  5
3AE
100
AcDbEntity
  8
0
100
AcDbCircle
 62
7
  6
CONTINUOUS
 10
39.1143550596
 20
87.7058104291
 40
0.8232468057
100
AcDbArc
 50
141.2361443154
 51
144.379580539
  0
ARC
  5
3AF
100
AcDbEntity
  8
0
100
AcDbCircle
 62
7
  6
CONTINUOUS
 10
30.1368540141
 20
38.644329362
 40
0.5
100
AcDbArc
 50
203.8732674896
 51
240.0204827931
  0
ARC
  5
3B0
100
AcDbEntity
  8
0
100
AcDbCircle
 62
7
  6
CONTINUOUS
 10
44.8447582132
 20
93.6033118502
 40
0.5
100
AcDbArc
 50
123.742748761
 51
137.6793462856
  0
ARC
  5
3B1
100
AcDbEntity
  8
0
100
AcDbCircle
 62
7
  6
CONTINUOUS
 10
56.7594359542
 20
100.4822384959
 40
0.5
100
AcDbArc
 50
59.9991840158
 51
116.507790303
  0
ARC
  5
3B2
100
AcDbEntity
  8
0
100
AcDbCircle
 62
7
  6
CONTINUOUS
 10
43.326219114
 20
21.7868118224
 40
0.5
100
AcDbArc
 50
203.8238804683
 51
240.000395529
  0
ARC
  5
3B3
100
AcDbEntity
  8
0
100
AcDbCircle
 62
7
  6
CONTINUOUS
 10
10.4508506487
 20
59.3954855091
 40
0.5
100
AcDbArc
 50
180.0
 51
240.0005612632
  0
ARC
  5
3B4
100
AcDbEntity
  8
0
100
AcDbCircle
 62
7
  6
CONTINUOUS
 10
40.5683916799
 20
100.6606086487
 40
0.5
100
AcDbArc
 50
60.0005495752
 51
116.4960825075
  0
ARC
  5
3B5
100
AcDbEntity
  8
0
100
AcDbCircle
 62
7
  6
CONTINUOUS
 10
28.6183368309
 20
93.7612824483
 40
0.5
100
AcDbArc
 50
123.7521110827
 51
137.9899935519
  0
ARC
  5
3B6
100
AcDbEntity
  8
0
100
AcDbCircle
 62
7
  6
CONTINUOUS
 10
14.1126859877
 20
57.0241758611
 40
0.5
100
AcDbArc
 50
180.0
 51
240.0005612632
  0
ARC
  5
3B7
100
AcDbEntity
  8
0
100
AcDbCircle
 62
7
  6
CONTINUOUS
 10
24.149204827
 20
87.3655410296
 40
0.4856941785
100
AcDbArc
 50
120.0276074773
 51
123.0283971888
  0
ARC
  5
3B8
100
AcDbEntity
  8
0
100
AcDbCircle
 62
7
  6
CONTINUOUS
 10
65.5445532795
 20
95.8110434044
 40
0.1670438375
100
AcDbArc
 50
60.0171512545
 51
66.9710676361
  0
ARC
  5
3B9
100
AcDbEntity
  8
0
100
AcDbCircle
 62
7
  6
CONTINUOUS
 10
53.2615547645
 20
15.6663144736
 40
0.1670365336
100
AcDbArc
 50
233.0483521266
 51
239.9841053449
  0
ARC
  5
3BA
100
AcDbEntity
  8
0
100
AcDbCircle
 62
7
  6
CONTINUOUS
 10
23.739098119
 20
51.1623446892
 40
0.1658803625
100
AcDbArc
 50
240.002719776
 51
243.1209655895
  0
SPLINE
  5
3BB
100
AcDbEntity
  8
0
100
AcDbSpline
 62
7
  6
CONTINUOUS
 70
0
 71
3
 72
22
 73
18
 74
0
 42
0.0000001
 43
0.0000001
 44
0.0000000001
 40
0.0
 40
0.0
 40
0.0
 40
0.0
 40
0.1199971338
 40
0.2417510411
 40
0.364900658
 40
0.4893216599
 40
0.5519883457
 40
0.614964689
 40
0.6782694451
 40
0.7419275829
 40
0.8059296435
 40
0.8380786178
 40
0.8703377708
 40
0.9027027683
 40
0.9351600052
 40
0.9677133928
 40
1.0
 40
1.0
 40
1.0
 40
1.0
 10
27.4635914889
 20
48.4995399571
 30
0.0
 10
27.5140491497
 20
48.0888180225
 30
0.0
 10
27.6300307448
 20
47.2631020681
 30
0.0
 10
27.8354433404
 20
46.021536059
 30
0.0
 10
28.069459109
 20
44.7695137
 30
0.0
 10
28.2873942019
 20
43.7220139624
 30
0.0
 10
28.4757676159
 20
42.8804814103
 30
0.0
 10
28.625174328
 20
42.2462407813
 30
0.0
 10
28.7830960231
 20
41.6105390928
 30
0.0
 10
28.9505563498
 20
40.9736250389
 30
0.0
 10
29.0986913935
 20
40.4427706184
 30
0.0
 10
29.2246319242
 20
40.0182249288
 30
0.0
 10
29.3235031164
 20
39.6994758843
 30
0.0
 10
29.4271473758
 20
39.3811241805
 30
0.0
 10
29.5370408353
 20
39.0637871923
 30
0.0
 10
29.6537911816
 20
38.749205801
 30
0.0
 10
29.7381069543
 20
38.5420097256
 30
0.0
 10
29.7831678521
 20
38.4401953428
 30
0.0
  0
SPLINE
  5
3BC
100
AcDbEntity
  8
0
100
AcDbSpline
 62
7
  6
CONTINUOUS
 70
0
 71
3
 72
10
 73
6
 74
0
 42
0.0000001
 43
0.0000001
 44
0.0000000001
 40
0.0
 40
0.0
 40
0.0
 40
0.0
 40
0.278331216
 40
0.5377118374
 40
1.0
 40
1.0
 40
1.0
 40
1.0
 10
31.6136543347
 20
37.383476832
 30
0.0
 10
31.6136543347
 20
37.366264945
 30
0.0
 10
31.6155000453
 20
37.3329429648
 30
0.0
 10
31.6267443084
 20
37.2720968748
 30
0.0
 10
31.644663712
 20
37.2299208013
 30
0.0
 10
31.6611279126
 20
37.2065501539
 30
0.0
  0
SPLINE
  5
3BD
100
AcDbEntity
  8
0
100
AcDbSpline
 62
7
  6
CONTINUOUS
 70
0
 71
3
 72
11
 73
7
 74
0
 42
0.0000001
 43
0.0000001
 44
0.0000000001
 40
0.0
 40
0.0
 40
0.0
 40
0.0
 40
0.2177855945
 40
0.450915609
 40
0.7102988195
 40
1.0
 40
1.0
 40
1.0
 40
1.0
 10
29.8868582559
 20
38.2113142112
 30
0.0
 10
29.8703646299
 20
38.2208366555
 30
0.0
 10
29.8395056027
 20
38.2467796659
 30
0.0
 10
29.8066547643
 20
38.300496309
 30
0.0
 10
29.7871419234
 20
38.3666930805
 30
0.0
 10
29.7833010346
 20
38.4148732215
 30
0.0
 10
29.7833020955
 20
38.4402072851
 30
0.0
  0
SPLINE
  5
3BE
100
AcDbEntity
  8
0
100
AcDbSpline
 62
7
  6
CONTINUOUS
 70
0
 71
3
 72
9
 73
5
 74
0
 42
0.0000001
 43
0.0000001
 44
0.0000000001
 40
0.0
 40
0.0
 40
0.0
 40
0.0
 40
0.2408469819
 40
1.0
 40
1.0
 40
1.0
 40
1.0
 10
29.6796371547
 20
38.4419863737
 30
0.0
 10
29.6798382926
 20
38.4415300371
 30
0.0
 10
29.6807996039
 20
38.4396904261
 30
0.0
 10
29.6822673087
 20
38.4381413065
 30
0.0
 10
29.683507923
 20
38.4371760325
 30
0.0
  0
SPLINE
  5
3BF
100
AcDbEntity
  8
0
100
AcDbSpline
 62
7
  6
CONTINUOUS
 70
0
 71
3
 72
12
 73
8
 74
0
 42
0.0000001
 43
0.0000001
 44
0.0000000001
 40
0.0
 40
0.0
 40
0.0
 40
0.0
 40
0.0624196194
 40
0.1402611259
 40
0.3504769584
 40
0.6380408942
 40
1.0
 40
1.0
 40
1.0
 40
1.0
 10
29.683507923
 20
38.4371760325
 30
0.0
 10
29.6851764213
 20
38.4358778386
 30
0.0
 10
29.6894861281
 20
38.4336924343
 30
0.0
 10
29.70105512
 20
38.4308359638
 30
0.0
 10
29.7207220749
 20
38.4304477138
 30
0.0
 10
29.749673151
 20
38.433568925
 30
0.0
 10
29.7713160642
 20
38.437673793
 30
0.0
 10
29.7833006325
 20
38.4402528978
 30
0.0
  0
SPLINE
  5
3C0
100
AcDbEntity
  8
0
100
AcDbSpline
 62
7
  6
CONTINUOUS
 70
0
 71
3
 72
11
 73
7
 74
0
 42
0.0000001
 43
0.0000001
 44
0.0000000001
 40
0.0
 40
0.0
 40
0.0
 40
0.0
 40
0.2277304608
 40
0.4762009641
 40
0.7369688581
 40
1.0
 40
1.0
 40
1.0
 40
1.0
 10
62.7193749331
 20
30.7170867923
 30
0.0
 10
62.7953268482
 20
30.7609373893
 30
0.0
 10
62.9442305249
 20
30.8702090102
 30
0.0
 10
63.1425310522
 20
31.07470016
 30
0.0
 10
63.3167464077
 20
31.3169451649
 30
0.0
 10
63.4110611882
 20
31.4961439437
 30
0.0
 10
63.4516628101
 20
31.588947201
 30
0.0
  0
SPLINE
  5
3C1
100
AcDbEntity
  8
0
100
AcDbSpline
 62
7
  6
CONTINUOUS
 70
0
 71
3
 72
14
 73
10
 74
0
 42
0.0000001
 43
0.0000001
 44
0.0000000001
 40
0.0
 40
0.0
 40
0.0
 40
0.0
 40
0.2889994749
 40
0.4221930671
 40
0.5481257536
 40
0.6675544581
 40
0.7816066054
 40
0.8918102257
 40
1.0
 40
1.0
 40
1.0
 40
1.0
 10
64.6710328662
 20
19.2288746977
 30
0.0
 10
64.7626572118
 20
19.2812670815
 30
0.0
 10
64.903278786
 20
19.3474828948
 30
0.0
 10
65.0959892951
 20
19.4029101439
 30
0.0
 10
65.232779125
 20
19.4253534189
 30
0.0
 10
65.3643858893
 20
19.4295485534
 30
0.0
 10
65.4895837224
 20
19.4152787822
 30
0.0
 10
65.6070478772
 20
19.3826060841
 30
0.0
 10
65.6796725046
 20
19.3485578307
 30
0.0
 10
65.713887862
 20
19.3287961316
 30
0.0
  0
SPLINE
  5
3C2
100
AcDbEntity
  8
0
100
AcDbSpline
 62
7
  6
CONTINUOUS
 70
0
 71
3
 72
11
 73
7
 74
0
 42
0.0000001
 43
0.0000001
 44
0.0000000001
 40
0.0
 40
0.0
 40
0.0
 40
0.0
 40
0.289702809
 40
0.549088757
 40
0.7822160314
 40
1.0
 40
1.0
 40
1.0
 40
1.0
 10
67.6337466017
 20
34.0034599912
 30
0.0
 10
67.6556857024
 20
34.0161264612
 30
0.0
 10
67.6993296421
 20
34.0368891508
 30
0.0
 10
67.7664113182
 20
34.0530887683
 30
0.0
 10
67.8293536264
 20
34.0514956184
 30
0.0
 10
67.8672483347
 20
34.037743669
 30
0.0
 10
67.8837411125
 20
34.0282217728
 30
0.0
  0
SPLINE
  5
3C3
100
AcDbEntity
  8
0
100
AcDbSpline
 62
7
  6
CONTINUOUS
 70
0
 71
3
 72
10
 73
6
 74
0
 42
0.0000001
 43
0.0000001
 44
0.0000000001
 40
0.0
 40
0.0
 40
0.0
 40
0.0
 40
0.2287515638
 40
0.5980614728
 40
1.0
 40
1.0
 40
1.0
 40
1.0
 10
62.367671989
 20
30.5983115777
 30
0.0
 10
62.3961003422
 20
30.6004877735
 30
0.0
 10
62.470075417
 20
30.611507414
 30
0.0
 10
62.5895303426
 20
30.649190944
 30
0.0
 10
62.6759891639
 20
30.6920381564
 30
0.0
 10
62.7193749331
 20
30.7170867923
 30
0.0
  0
SPLINE
  5
3C4
100
AcDbEntity
  8
0
100
AcDbSpline
 62
7
  6
CONTINUOUS
 70
0
 71
3
 72
11
 73
7
 74
0
 42
0.0000001
 43
0.0000001
 44
0.0000000001
 40
0.0
 40
0.0
 40
0.0
 40
0.0
 40
0.2353324568
 40
0.4769299348
 40
0.7303771293
 40
1.0
 40
1.0
 40
1.0
 40
1.0
 10
65.713887862
 20
19.3287961316
 30
0.0
 10
65.7551597646
 20
19.304958797
 30
0.0
 10
65.8340471003
 20
19.2478704384
 30
0.0
 10
65.9348169066
 20
19.1383819928
 30
0.0
 10
66.017420778
 20
19.0064683981
 30
0.0
 10
66.0583111215
 20
18.9082154483
 30
0.0
 10
66.0757524722
 20
18.8564698613
 30
0.0
  0
SPLINE
  5
3C5
100
AcDbEntity
  8
0
100
AcDbSpline
 62
7
  6
CONTINUOUS
 70
0
 71
3
 72
9
 73
5
 74
0
 42
0.0000001
 43
0.0000001
 44
0.0000000001
 40
0.0
 40
0.0
 40
0.0
 40
0.0
 40
0.4824556146
 40
1.0
 40
1.0
 40
1.0
 40
1.0
 10
62.6885279731
 20
32.7399117018
 30
0.0
 10
62.6308017417
 20
32.7042559226
 30
0.0
 10
62.5170809766
 20
32.6205533796
 30
0.0
 10
62.4155132041
 20
32.522721175
 30
0.0
 10
62.3660839363
 20
32.469294644
 30
0.0
  0
SPLINE
  5
3C6
100
AcDbEntity
  8
0
100
AcDbSpline
 62
7
  6
CONTINUOUS
 70
0
 71
3
 72
15
 73
11
 74
0
 42
0.0000001
 43
0.0000001
 44
0.0000000001
 40
0.0
 40
0.0
 40
0.0
 40
0.0
 40
0.1141475829
 40
0.2373370756
 40
0.3669780685
 40
0.5000016033
 40
0.6330249151
 40
0.7626652568
 40
0.8858537231
 40
1.0
 40
1.0
 40
1.0
 40
1.0
 10
67.9872985203
 20
33.391079651
 30
0.0
 10
67.9872985203
 20
33.335187615
 30
0.0
 10
67.9770538086
 20
33.2188685854
 30
0.0
 10
67.9362502634
 20
33.0433911724
 30
0.0
 10
67.8708543999
 20
32.8656504155
 30
0.0
 10
67.7833592859
 20
32.6923251616
 30
0.0
 10
67.6770037402
 20
32.529889287
 30
0.0
 10
67.5557748558
 20
32.3843846361
 30
0.0
 10
67.424210101
 20
32.2613096817
 30
0.0
 10
67.3285981246
 20
32.1942786531
 30
0.0
 10
67.2801946831
 20
32.16633308
 30
0.0
  0
SPLINE
  5
3C7
100
AcDbEntity
  8
0
100
AcDbSpline
 62
7
  6
CONTINUOUS
 70
0
 71
3
 72
13
 73
9
 74
0
 42
0.0000001
 43
0.0000001
 44
0.0000000001
 40
0.0
 40
0.0
 40
0.0
 40
0.0
 40
0.1137571406
 40
0.236546915
 40
0.4978550317
 40
0.7603311345
 40
0.8844925152
 40
1.0
 40
1.0
 40
1.0
 40
1.0
 10
67.9872985203
 20
36.4070485595
 30
0.0
 10
67.9872985203
 20
36.3797651278
 30
0.0
 10
67.9823884665
 20
36.3229792608
 30
0.0
 10
67.955837381
 20
36.2062797036
 30
0.0
 10
67.8937437059
 20
36.0626308263
 30
0.0
 10
67.8026984113
 20
35.9349853198
 30
0.0
 10
67.7160822927
 20
35.8509242569
 30
0.0
 10
67.6696549959
 20
35.8166059758
 30
0.0
 10
67.6460853857
 20
35.8020477274
 30
0.0
  0
SPLINE
  5
3C8
100
AcDbEntity
  8
0
100
AcDbSpline
 62
7
  6
CONTINUOUS
 70
0
 71
3
 72
11
 73
7
 74
0
 42
0.0000001
 43
0.0000001
 44
0.0000000001
 40
0.0
 40
0.0
 40
0.0
 40
0.0
 40
0.2177825102
 40
0.4509091639
 40
0.7102957096
 40
1.0
 40
1.0
 40
1.0
 40
1.0
 10
67.8837411125
 20
34.0282217728
 30
0.0
 10
67.9002344332
 20
34.0186995632
 30
0.0
 10
67.9310928009
 20
33.9927572365
 30
0.0
 10
67.9639451471
 20
33.9390422639
 30
0.0
 10
67.9834574976
 20
33.8728452542
 30
0.0
 10
67.9872985203
 20
33.8246650461
 30
0.0
 10
67.9872985203
 20
33.7993308595
 30
0.0
  0
SPLINE
  5
3C9
100
AcDbEntity
  8
0
100
AcDbSpline
 62
7
  6
CONTINUOUS
 70
0
 71
3
 72
11
 73
7
 74
0
 42
0.0000001
 43
0.0000001
 44
0.0000000001
 40
0.0
 40
0.0
 40
0.0
 40
0.0
 40
0.2177825102
 40
0.4509091639
 40
0.7102957096
 40
1.0
 40
1.0
 40
1.0
 40
1.0
 10
31.7172117425
 20
37.1545859203
 30
0.0
 10
31.7007184218
 20
37.1641081299
 30
0.0
 10
31.6698600541
 20
37.1900504566
 30
0.0
 10
31.6370077079
 20
37.2437654292
 30
0.0
 10
31.6174953574
 20
37.3099624388
 30
0.0
 10
31.6136543347
 20
37.358142647
 30
0.0
 10
31.6136543347
 20
37.3834768335
 30
0.0
  0
SPLINE
  5
3CA
100
AcDbEntity
  8
0
100
AcDbSpline
 62
7
  6
CONTINUOUS
 70
0
 71
3
 72
9
 73
5
 74
0
 42
0.0000001
 43
0.0000001
 44
0.0000000001
 40
0.0
 40
0.0
 40
0.0
 40
0.0
 40
0.5089923153
 40
1.0
 40
1.0
 40
1.0
 40
1.0
 10
56.5361480732
 20
100.9296920743
 30
0.0
 10
54.4368339992
 20
99.8823171903
 30
0.0
 10
50.3706446208
 20
97.7051345951
 30
0.0
 10
46.4487432906
 20
95.2763765105
 30
0.0
 10
44.5669176375
 20
94.0190956207
 30
0.0
  0
SPLINE
  5
3CB
100
AcDbEntity
  8
0
100
AcDbSpline
 62
7
  6
CONTINUOUS
 70
0
 71
3
 72
13
 73
9
 74
0
 42
0.0000001
 43
0.0000001
 44
0.0000000001
 40
0.0
 40
0.0
 40
0.0
 40
0.0
 40
0.1092392738
 40
0.2191886615
 40
0.3322935372
 40
0.4506510081
 40
0.7086018444
 40
1.0
 40
1.0
 40
1.0
 40
1.0
 10
42.0186040196
 20
86.2109636584
 30
0.0
 10
42.017146165
 20
86.2004992689
 30
0.0
 10
42.0161906641
 20
86.1791693958
 30
0.0
 10
42.0209096248
 20
86.1471975024
 30
0.0
 10
42.0316113526
 20
86.1157757455
 30
0.0
 10
42.0542818639
 20
86.074000432
 30
0.0
 10
42.0978659214
 20
86.0251933505
 30
0.0
 10
42.1417545696
 20
85.9945569034
 30
0.0
 10
42.1661571369
 20
85.9804562413
 30
0.0
  0
SPLINE
  5
3CC
100
AcDbEntity
  8
0
100
AcDbSpline
 62
7
  6
CONTINUOUS
 70
0
 71
3
 72
10
 73
6
 74
0
 42
0.0000001
 43
0.0000001
 44
0.0000000001
 40
0.0
 40
0.0
 40
0.0
 40
0.0
 40
0.4622886554
 40
0.7216722219
 40
1.0
 40
1.0
 40
1.0
 40
1.0
 10
58.7667458382
 20
99.8811068009
 30
0.0
 10
58.7382746359
 20
99.8836806672
 30
0.0
 10
58.6927893489
 20
99.8781126792
 30
0.0
 10
58.6344746732
 20
99.8574252853
 30
0.0
 10
58.6046944322
 20
99.8423637285
 30
0.0
 10
58.5897881977
 20
99.8337592547
 30
0.0
  0
SPLINE
  5
3CD
100
AcDbEntity
  8
0
100
AcDbSpline
 62
7
  6
CONTINUOUS
 70
0
 71
3
 72
22
 73
18
 74
0
 42
0.0000001
 43
0.0000001
 44
0.0000000001
 40
0.0
 40
0.0
 40
0.0
 40
0.0
 40
0.0263731007
 40
0.0539328753
 40
0.082123683
 40
0.110850468
 40
0.1399946342
 40
0.1694944401
 40
0.2293887233
 40
0.2902019847
 40
0.3517691492
 40
0.4140160218
 40
0.4768797211
 40
0.6042695276
 40
0.733840892
 40
0.8656402027
 40
1.0
 40
1.0
 40
1.0
 40
1.0
 10
44.4910794394
 20
93.3993641342
 30
0.0
 10
44.4447410346
 20
93.3484454511
 30
0.0
 10
44.3590652942
 20
93.2361667493
 30
0.0
 10
44.2425689252
 20
93.056151941
 30
0.0
 10
44.1325098934
 20
92.8649288476
 30
0.0
 10
44.0287533813
 20
92.6656101633
 30
0.0
 10
43.9296467077
 20
92.4601512954
 30
0.0
 10
43.8025887512
 20
92.1779607405
 30
0.0
 10
43.6536276687
 20
91.8151311989
 30
0.0
 10
43.4858864121
 20
91.3697951681
 30
0.0
 10
43.327693515
 20
90.9144718859
 30
0.0
 10
43.1780117993
 20
90.4506662865
 30
0.0
 10
42.987987987
 20
89.8194612605
 30
0.0
 10
42.7683440107
 20
89.0137804368
 30
0.0
 10
42.5342286233
 20
88.0261041484
 30
0.0
 10
42.3286235366
 20
87.0135359518
 30
0.0
 10
42.2152227416
 20
86.3277953628
 30
0.0
 10
42.1660916932
 20
85.9805051954
 30
0.0
  0
SPLINE
  5
3CE
100
AcDbEntity
  8
0
100
AcDbSpline
 62
7
  6
CONTINUOUS
 70
0
 71
3
 72
9
 73
5
 74
0
 42
0.0000001
 43
0.0000001
 44
0.0000000001
 40
0.0
 40
0.0
 40
0.0
 40
0.0
 40
0.5090889688
 40
1.0
 40
1.0
 40
1.0
 40
1.0
 10
56.759432693
 20
100.8905411647
 30
0.0
 10
54.6692917571
 20
99.8477434077
 30
0.0
 10
50.6216226785
 20
97.6805177944
 30
0.0
 10
46.7175724364
 20
95.2628757587
 30
0.0
 10
44.8446946026
 20
94.0115722668
 30
0.0
  0
SPLINE
  5
3CF
100
AcDbEntity
  8
0
100
AcDbSpline
 62
7
  6
CONTINUOUS
 70
0
 71
3
 72
9
 73
5
 74
0
 42
0.0000001
 43
0.0000001
 44
0.0000000001
 40
0.0
 40
0.0
 40
0.0
 40
0.0
 40
0.5189988256
 40
1.0
 40
1.0
 40
1.0
 40
1.0
 10
44.7094609685
 20
93.9023719463
 30
0.0
 10
44.7301991796
 20
93.9242641324
 30
0.0
 10
44.7727543966
 20
93.9640848932
 30
0.0
 10
44.8205569082
 20
93.9975873238
 30
0.0
 10
44.84475943
 20
94.0115623563
 30
0.0
  0
SPLINE
  5
3D0
100
AcDbEntity
  8
0
100
AcDbSpline
 62
7
  6
CONTINUOUS
 70
0
 71
3
 72
11
 73
7
 74
0
 42
0.0000001
 43
0.0000001
 44
0.0000000001
 40
0.0
 40
0.0
 40
0.0
 40
0.0
 40
0.2858010284
 40
0.5442748571
 40
0.7789259438
 40
1.0
 40
1.0
 40
1.0
 40
1.0
 10
44.8447212757
 20
94.0115389624
 30
0.0
 10
44.8199719662
 20
94.0238850657
 30
0.0
 10
44.7707061174
 20
94.0435701163
 30
0.0
 10
44.6956605292
 20
94.0560259062
 30
0.0
 10
44.62593698
 20
94.0492208167
 30
0.0
 10
44.5847563384
 20
94.0309203295
 30
0.0
 10
44.5669690928
 20
94.0190326566
 30
0.0
  0
SPLINE
  5
3D1
100
AcDbEntity
  8
0
100
AcDbSpline
 62
7
  6
CONTINUOUS
 70
0
 71
3
 72
11
 73
7
 74
0
 42
0.0000001
 43
0.0000001
 44
0.0000000001
 40
0.0
 40
0.0
 40
0.0
 40
0.0
 40
0.2290792627
 40
0.4811107583
 40
0.7430372938
 40
1.0
 40
1.0
 40
1.0
 40
1.0
 10
44.4912075121
 20
93.3992086155
 30
0.0
 10
44.4912085701
 20
93.4419458448
 30
0.0
 10
44.5031650663
 20
93.5318031158
 30
0.0
 10
44.5478007964
 20
93.6637434874
 30
0.0
 10
44.6165329114
 20
93.7908145651
 30
0.0
 10
44.6764925177
 20
93.8675689708
 30
0.0
 10
44.7094609685
 20
93.9023719463
 30
0.0
  0
SPLINE
  5
3D2
100
AcDbEntity
  8
0
100
AcDbSpline
 62
7
  6
CONTINUOUS
 70
0
 71
3
 72
11
 73
7
 74
0
 42
0.0000001
 43
0.0000001
 44
0.0000000001
 40
0.0
 40
0.0
 40
0.0
 40
0.0
 40
0.2896927002
 40
0.5490735811
 40
0.7822067038
 40
1.0
 40
1.0
 40
1.0
 40
1.0
 10
56.7594686828
 20
100.8905085985
 30
0.0
 10
56.7814051246
 20
100.9031709367
 30
0.0
 10
56.8250430064
 20
100.9239276079
 30
0.0
 10
56.8921156334
 20
100.9401206403
 30
0.0
 10
56.9550499154
 20
100.9385253809
 30
0.0
 10
56.9929405223
 20
100.9247746847
 30
0.0
 10
57.0094317124
 20
100.9152536466
 30
0.0
  0
SPLINE
  5
3D3
100
AcDbEntity
  8
0
100
AcDbSpline
 62
7
  6
CONTINUOUS
 70
0
 71
3
 72
14
 73
10
 74
0
 42
0.0000001
 43
0.0000001
 44
0.0000000001
 40
0.0
 40
0.0
 40
0.0
 40
0.0
 40
0.1135362788
 40
0.2286494244
 40
0.3468366654
 40
0.4690730339
 40
0.595817485
 40
0.7270397331
 40
1.0
 40
1.0
 40
1.0
 40
1.0
 10
44.4750528669
 20
93.9399298987
 30
0.0
 10
44.4601601042
 20
93.9235882012
 30
0.0
 10
44.4335119133
 20
93.8874525526
 30
0.0
 10
44.4050822517
 20
93.8257130821
 30
0.0
 10
44.3887540848
 20
93.7579964198
 30
0.0
 10
44.3849061085
 20
93.6862319448
 30
0.0
 10
44.3935484357
 20
93.612346976
 30
0.0
 10
44.4216337585
 20
93.5125224365
 30
0.0
 10
44.4599173353
 20
93.4421611546
 30
0.0
 10
44.4912084178
 20
93.3991913269
 30
0.0
  0
SPLINE
  5
3D4
100
AcDbEntity
  8
0
100
AcDbSpline
 62
7
  6
CONTINUOUS
 70
0
 71
3
 72
9
 73
5
 74
0
 42
0.0000001
 43
0.0000001
 44
0.0000000001
 40
0.0
 40
0.0
 40
0.0
 40
0.0
 40
0.477376317
 40
1.0
 40
1.0
 40
1.0
 40
1.0
 10
46.6750885363
 20
92.9548452601
 30
0.0
 10
46.6423541821
 20
92.9359461847
 30
0.0
 10
46.5783998589
 20
92.8882126757
 30
0.0
 10
46.5240451805
 20
92.8301262765
 30
0.0
 10
46.4981325352
 20
92.7978629866
 30
0.0
  0
SPLINE
  5
3D5
100
AcDbEntity
  8
0
100
AcDbSpline
 62
7
  6
CONTINUOUS
 70
0
 71
3
 72
9
 73
5
 74
0
 42
0.0000001
 43
0.0000001
 44
0.0000000001
 40
0.0
 40
0.0
 40
0.0
 40
0.0
 40
0.2518828568
 40
1.0
 40
1.0
 40
1.0
 40
1.0
 10
46.4250919733
 20
92.6909364142
 30
0.0
 10
46.41965268
 20
92.6815152777
 30
0.0
 10
46.3987706998
 20
92.6437066586
 30
0.0
 10
46.3807091606
 20
92.6043314172
 30
0.0
 10
46.3690092454
 20
92.574213647
 30
0.0
  0
SPLINE
  5
3D6
100
AcDbEntity
  8
0
100
AcDbSpline
 62
7
  6
CONTINUOUS
 70
0
 71
3
 72
9
 73
5
 74
0
 42
0.0000001
 43
0.0000001
 44
0.0000000001
 40
0.0
 40
0.0
 40
0.0
 40
0.0
 40
0.5226225986
 40
1.0
 40
1.0
 40
1.0
 40
1.0
 10
46.3690092454
 20
92.574213647
 30
0.0
 10
46.3540247302
 20
92.535640702
 30
0.0
 10
46.3308971013
 20
92.4595241892
 30
0.0
 10
46.3215381849
 20
92.380270712
 30
0.0
 10
46.3215366178
 20
92.3424719769
 30
0.0
  0
SPLINE
  5
3D7
100
AcDbEntity
  8
0
100
AcDbSpline
 62
7
  6
CONTINUOUS
 70
0
 71
3
 72
11
 73
7
 74
0
 42
0.0000001
 43
0.0000001
 44
0.0000000001
 40
0.0
 40
0.0
 40
0.0
 40
0.0
 40
0.2146870453
 40
0.4453837265
 40
0.7056265278
 40
1.0
 40
1.0
 40
1.0
 40
1.0
 10
56.5361634788
 20
100.9296189513
 30
0.0
 10
56.5513291208
 20
100.9371818095
 30
0.0
 10
56.5859007129
 20
100.9472339544
 30
0.0
 10
56.6423094897
 20
100.9442504623
 30
0.0
 10
56.7018198985
 20
100.9251093755
 30
0.0
 10
56.7401672553
 20
100.9034280561
 30
0.0
 10
56.7594878882
 20
100.8905179225
 30
0.0
  0
SPLINE
  5
3D8
100
AcDbEntity
  8
0
100
AcDbSpline
 62
7
  6
CONTINUOUS
 70
0
 71
3
 72
9
 73
5
 74
0
 42
0.0000001
 43
0.0000001
 44
0.0000000001
 40
0.0
 40
0.0
 40
0.0
 40
0.0
 40
0.2469613898
 40
1.0
 40
1.0
 40
1.0
 40
1.0
 10
53.1072812226
 20
15.5624966096
 30
0.0
 10
53.11181574
 20
15.5598786551
 30
0.0
 10
53.1306714602
 20
15.5501454103
 30
0.0
 10
53.1513585553
 20
15.5440711121
 30
0.0
 10
53.1671246022
 20
15.5415544344
 30
0.0
  0
SPLINE
  5
3D9
100
AcDbEntity
  8
0
100
AcDbSpline
 62
7
  6
CONTINUOUS
 70
0
 71
3
 72
9
 73
5
 74
0
 42
0.0000001
 43
0.0000001
 44
0.0000000001
 40
0.0
 40
0.0
 40
0.0
 40
0.0
 40
0.2578740668
 40
1.0
 40
1.0
 40
1.0
 40
1.0
 10
53.0037238151
 20
15.7913875199
 30
0.0
 10
53.0037241891
 20
15.7858984264
 30
0.0
 10
53.004101521
 20
15.7646156974
 30
0.0
 10
53.006013143
 20
15.7433482989
 30
0.0
 10
53.0084380058
 20
15.7277386674
 30
0.0
  0
SPLINE
  5
3DA
100
AcDbEntity
  8
0
100
AcDbSpline
 62
7
  6
CONTINUOUS
 70
0
 71
3
 72
9
 73
5
 74
0
 42
0.0000001
 43
0.0000001
 44
0.0000000001
 40
0.0
 40
0.0
 40
0.0
 40
0.0
 40
0.5255054812
 40
1.0
 40
1.0
 40
1.0
 40
1.0
 10
53.0084380058
 20
15.7277386674
 30
0.0
 10
53.0117149888
 20
15.706643662
 30
0.0
 10
53.0214675434
 20
15.6668992912
 30
0.0
 10
53.0400927638
 20
15.6302244976
 30
0.0
 10
53.0511936488
 20
15.6144661578
 30
0.0
  0
SPLINE
  5
3DB
100
AcDbEntity
  8
0
100
AcDbSpline
 62
7
  6
CONTINUOUS
 70
0
 71
3
 72
9
 73
5
 74
0
 42
0.0000001
 43
0.0000001
 44
0.0000000001
 40
0.0
 40
0.0
 40
0.0
 40
0.0
 40
0.5080271547
 40
1.0
 40
1.0
 40
1.0
 40
1.0
 10
53.0511936488
 20
15.6144661578
 30
0.0
 10
53.058695136
 20
15.6038173684
 30
0.0
 10
53.0755716728
 20
15.5842360668
 30
0.0
 10
53.0963570586
 20
15.5688035573
 30
0.0
 10
53.1072812226
 20
15.5624966096
 30
0.0
  0
SPLINE
  5
3DC
100
AcDbEntity
  8
0
100
AcDbSpline
 62
7
  6
CONTINUOUS
 70
0
 71
3
 72
11
 73
7
 74
0
 42
0.0000001
 43
0.0000001
 44
0.0000000001
 40
0.0
 40
0.0
 40
0.0
 40
0.0
 40
0.2177894718
 40
0.4509205632
 40
0.7103017903
 40
1.0
 40
1.0
 40
1.0
 40
1.0
 10
43.0762215263
 20
21.3537977278
 30
0.0
 10
43.0597297344
 20
21.3633191951
 30
0.0
 10
43.0288739674
 20
21.3892586623
 30
0.0
 10
42.9960256634
 20
21.4429676063
 30
0.0
 10
42.976510288
 20
21.5091538351
 30
0.0
 10
42.972665699
 20
21.5573273756
 30
0.0
 10
42.9726666195
 20
21.5826579657
 30
0.0
  0
SPLINE
  5
3DD
100
AcDbEntity
  8
0
100
AcDbSpline
 62
7
  6
CONTINUOUS
 70
0
 71
3
 72
14
 73
10
 74
0
 42
0.0000001
 43
0.0000001
 44
0.0000000001
 40
0.0
 40
0.0
 40
0.0
 40
0.0
 40
0.0559202755
 40
0.1239883151
 40
0.2115494919
 40
0.3219149654
 40
0.4564381791
 40
0.6151239278
 40
1.0
 40
1.0
 40
1.0
 40
1.0
 10
42.868844767
 20
21.5848174951
 30
0.0
 10
42.869655162
 20
21.5829745081
 30
0.0
 10
42.8726572469
 20
21.5793932414
 30
0.0
 10
42.8796475608
 20
21.5760642928
 30
0.0
 10
42.8890611736
 20
21.574074962
 30
0.0
 10
42.9010320702
 20
21.5733060149
 30
0.0
 10
42.9155694127
 20
21.5736936075
 30
0.0
 10
42.9398915104
 20
21.5759377629
 30
0.0
 10
42.9591813964
 20
21.579561263
 30
0.0
 10
42.9726643056
 20
21.5827577986
 30
0.0
  0
SPLINE
  5
3DE
100
AcDbEntity
  8
0
100
AcDbSpline
 62
7
  6
CONTINUOUS
 70
0
 71
3
 72
21
 73
17
 74
0
 42
0.0000001
 43
0.0000001
 44
0.0000000001
 40
0.0
 40
0.0
 40
0.0
 40
0.0
 40
0.1199367486
 40
0.2416570711
 40
0.3648011473
 40
0.4892116782
 40
0.6148543754
 40
0.6781564859
 40
0.7418071645
 40
0.8058240486
 40
0.8702506552
 40
0.9026223646
 40
0.9350535434
 40
0.9675096248
 40
0.9837636438
 40
1.0
 40
1.0
 40
1.0
 40
1.0
 10
40.6487342349
 20
31.701783624
 30
0.0
 10
40.6983822852
 20
31.290411371
 30
0.0
 10
40.813216278
 20
30.4633196589
 30
0.0
 10
41.0169830635
 20
29.21949915
 30
0.0
 10
41.2501340426
 20
27.9651167596
 30
0.0
 10
41.5110272721
 20
26.7023864611
 30
0.0
 10
41.7517370003
 20
25.6468059481
 30
0.0
 10
41.961024701
 20
24.7995860191
 30
0.0
 10
42.1278375624
 20
24.1612362819
 30
0.0
 10
42.3058061291
 20
23.5218635581
 30
0.0
 10
42.4655617866
 20
22.9896877574
 30
0.0
 10
42.6021460491
 20
22.564614213
 30
0.0
 10
42.7107993033
 20
22.2466317283
 30
0.0
 10
42.8078922225
 20
21.9836109942
 30
0.0
 10
42.8905407837
 20
21.7750031338
 30
0.0
 10
42.9336973397
 20
21.671370371
 30
0.0
 10
42.9560093219
 20
21.6199054338
 30
0.0
  0
SPLINE
  5
3DF
100
AcDbEntity
  8
0
100
AcDbSpline
 62
7
  6
CONTINUOUS
 70
0
 71
3
 72
9
 73
5
 74
0
 42
0.0000001
 43
0.0000001
 44
0.0000000001
 40
0.0
 40
0.0
 40
0.0
 40
0.0
 40
0.4882749037
 40
1.0
 40
1.0
 40
1.0
 40
1.0
 10
21.0345541876
 20
101.4549592312
 30
0.0
 10
21.0757415033
 20
101.4694972952
 30
0.0
 10
21.1633906422
 20
101.4904636481
 30
0.0
 10
21.2532500684
 20
101.4946948415
 30
0.0
 10
21.2990002796
 20
101.4931735333
 30
0.0
  0
SPLINE
  5
3E0
100
AcDbEntity
  8
0
100
AcDbSpline
 62
7
  6
CONTINUOUS
 70
0
 71
3
 72
10
 73
6
 74
0
 42
0.0000001
 43
0.0000001
 44
0.0000000001
 40
0.0
 40
0.0
 40
0.0
 40
0.0
 40
0.2271664355
 40
0.5958347382
 40
1.0
 40
1.0
 40
1.0
 40
1.0
 10
21.2990002796
 20
101.4931735333
 30
0.0
 10
21.3448525564
 20
101.4916488311
 30
0.0
 10
21.4649072496
 20
101.4779394142
 30
0.0
 10
21.6596805463
 20
101.4201500455
 30
0.0
 10
21.8003954206
 20
101.3510616076
 30
0.0
 10
21.8710839238
 20
101.3102505045
 30
0.0
  0
SPLINE
  5
3E1
100
AcDbEntity
  8
0
100
AcDbSpline
 62
7
  6
CONTINUOUS
 70
0
 71
3
 72
11
 73
7
 74
0
 42
0.0000001
 43
0.0000001
 44
0.0000000001
 40
0.0
 40
0.0
 40
0.0
 40
0.0
 40
0.2671614069
 40
0.5232350897
 40
0.7675454614
 40
1.0
 40
1.0
 40
1.0
 40
1.0
 10
21.0345823417
 20
101.4549018723
 30
0.0
 10
20.1138197287
 20
101.1293508466
 30
0.0
 10
18.3340453243
 20
100.4220023639
 30
0.0
 10
15.8213909232
 20
99.1650669869
 30
0.0
 10
13.5457328685
 20
97.7436892506
 30
0.0
 10
12.1700074556
 20
96.6665183391
 30
0.0
 10
11.5342481018
 20
96.1027085953
 30
0.0
  0
SPLINE
  5
3E2
100
AcDbEntity
  8
0
100
AcDbSpline
 62
7
  6
CONTINUOUS
 70
0
 71
3
 72
11
 73
7
 74
0
 42
0.0000001
 43
0.0000001
 44
0.0000000001
 40
0.0
 40
0.0
 40
0.0
 40
0.0
 40
0.2720817877
 40
0.5301663199
 40
0.7729821673
 40
1.0
 40
1.0
 40
1.0
 40
1.0
 10
21.8710839257
 20
101.3102505121
 30
0.0
 10
20.908070677
 20
100.977220828
 30
0.0
 10
19.057377557
 20
100.2496236513
 30
0.0
 10
16.4701593607
 20
98.9404973207
 30
0.0
 10
14.1756978649
 20
97.4586124678
 30
0.0
 10
12.8177011552
 20
96.3305578796
 30
0.0
 10
12.2039829974
 20
95.7421744121
 30
0.0
  0
SPLINE
  5
3E3
100
AcDbEntity
  8
0
100
AcDbSpline
 62
7
  6
CONTINUOUS
 70
0
 71
3
 72
10
 73
6
 74
0
 42
0.0000001
 43
0.0000001
 44
0.0000000001
 40
0.0
 40
0.0
 40
0.0
 40
0.0
 40
0.2824151982
 40
0.5428613391
 40
1.0
 40
1.0
 40
1.0
 40
1.0
 10
10.0972987301
 20
59.1913634321
 30
0.0
 10
10.080269504
 20
59.201195038
 30
0.0
 10
10.04865188
 20
59.2222454161
 30
0.0
 10
9.9969649103
 20
59.2689682508
 30
0.0
 10
9.9689026952
 20
59.3126864868
 30
0.0
 10
9.9591873475
 20
59.3429964072
 30
0.0
  0
SPLINE
  5
3E4
100
AcDbEntity
  8
0
100
AcDbSpline
 62
7
  6
CONTINUOUS
 70
0
 71
3
 72
9
 73
5
 74
0
 42
0.0000001
 43
0.0000001
 44
0.0000000001
 40
0.0
 40
0.0
 40
0.0
 40
0.0
 40
0.2539001325
 40
1.0
 40
1.0
 40
1.0
 40
1.0
 10
9.9591873475
 20
59.3429964072
 30
0.0
 10
9.9578113107
 20
59.3472893638
 30
0.0
 10
9.9530132164
 20
59.3643894428
 30
0.0
 10
9.9508579325
 20
59.382238207
 30
0.0
 10
9.9508573704
 20
59.3954855092
 30
0.0
  0
SPLINE
  5
3E5
100
AcDbEntity
  8
0
100
AcDbSpline
 62
7
  6
CONTINUOUS
 70
0
 71
3
 72
11
 73
7
 74
0
 42
0.0000001
 43
0.0000001
 44
0.0000000001
 40
0.0
 40
0.0
 40
0.0
 40
0.0
 40
0.2895411595
 40
0.5491183966
 40
0.7822559144
 40
1.0
 40
1.0
 40
1.0
 40
1.0
 10
13.4868961478
 20
57.2344227225
 30
0.0
 10
13.4868961478
 20
57.2091032965
 30
0.0
 10
13.4907621685
 20
57.1609248704
 30
0.0
 10
13.5102387226
 20
57.0947192888
 30
0.0
 10
13.5430920049
 20
57.0409787203
 30
0.0
 10
13.5739762057
 20
57.015074217
 30
0.0
 10
13.590466296
 20
57.0055538772
 30
0.0
  0
SPLINE
  5
3E6
100
AcDbEntity
  8
0
100
AcDbSpline
 62
7
  6
CONTINUOUS
 70
0
 71
3
 72
9
 73
5
 74
0
 42
0.0000001
 43
0.0000001
 44
0.0000000001
 40
0.0
 40
0.0
 40
0.0
 40
0.0
 40
0.2476963235
 40
1.0
 40
1.0
 40
1.0
 40
1.0
 10
10.2008665048
 20
58.9624904753
 30
0.0
 10
10.1968934919
 20
58.9647842442
 30
0.0
 10
10.1812351754
 20
58.9746958885
 30
0.0
 10
10.1672583382
 20
58.9872203918
 30
0.0
 10
10.158020813
 20
58.9976516354
 30
0.0
  0
SPLINE
  5
3E7
100
AcDbEntity
  8
0
100
AcDbSpline
 62
7
  6
CONTINUOUS
 70
0
 71
3
 72
10
 73
6
 74
0
 42
0.0000001
 43
0.0000001
 44
0.0000000001
 40
0.0
 40
0.0
 40
0.0
 40
0.0
 40
0.4576160647
 40
0.7179695711
 40
1.0
 40
1.0
 40
1.0
 40
1.0
 10
10.158020813
 20
58.9976516354
 30
0.0
 10
10.1371260553
 20
59.0212465167
 30
0.0
 10
10.1139334506
 20
59.0670564467
 30
0.0
 10
10.099661045
 20
59.1344792158
 30
0.0
 10
10.0972987301
 20
59.1719395085
 30
0.0
 10
10.0972987301
 20
59.1913634321
 30
0.0
  0
SPLINE
  5
3E8
100
AcDbEntity
  8
0
100
AcDbSpline
 62
7
  6
CONTINUOUS
 70
0
 71
3
 72
15
 73
11
 74
0
 42
0.0000001
 43
0.0000001
 44
0.0000000001
 40
0.0
 40
0.0
 40
0.0
 40
0.0
 40
0.1141242661
 40
0.2373486253
 40
0.3669740476
 40
0.5000015346
 40
0.6330288076
 40
0.7626536034
 40
0.8858770013
 40
1.0
 40
1.0
 40
1.0
 40
1.0
 10
46.3215366177
 20
92.3424719746
 30
0.0
 10
46.3215366177
 20
92.370412219
 30
0.0
 10
46.3266667929
 20
92.4285734588
 30
0.0
 10
46.3470576618
 20
92.516313291
 30
0.0
 10
46.3797621168
 20
92.6051873598
 30
0.0
 10
46.4235040687
 20
92.6918504138
 30
0.0
 10
46.4766850076
 20
92.7730637216
 30
0.0
 10
46.5372993914
 20
92.8458235676
 30
0.0
 10
46.6030882192
 20
92.9073521852
 30
0.0
 10
46.6508918076
 20
92.9408753557
 30
0.0
 10
46.6750885363
 20
92.9548452601
 30
0.0
  0
SPLINE
  5
3E9
100
AcDbEntity
  8
0
100
AcDbSpline
 62
7
  6
CONTINUOUS
 70
0
 71
3
 72
11
 73
7
 74
0
 42
0.0000001
 43
0.0000001
 44
0.0000000001
 40
0.0
 40
0.0
 40
0.0
 40
0.0
 40
0.289702809
 40
0.549088757
 40
0.7822160314
 40
1.0
 40
1.0
 40
1.0
 40
1.0
 10
58.5897881934
 20
99.8337592529
 30
0.0
 10
58.6117272941
 20
99.846425723
 30
0.0
 10
58.6553712338
 20
99.8671884125
 30
0.0
 10
58.7224529099
 20
99.88338803
 30
0.0
 10
58.7853952181
 20
99.8817948801
 30
0.0
 10
58.8232899264
 20
99.8680429307
 30
0.0
 10
58.8397827042
 20
99.8585210345
 30
0.0
  0
SPLINE
  5
3EA
100
AcDbEntity
  8
0
100
AcDbSpline
 62
7
  6
CONTINUOUS
 70
0
 71
3
 72
9
 73
5
 74
0
 42
0.0000001
 43
0.0000001
 44
0.0000000001
 40
0.0
 40
0.0
 40
0.0
 40
0.0
 40
0.5090178488
 40
1.0
 40
1.0
 40
1.0
 40
1.0
 10
40.345180729
 20
101.108101409
 30
0.0
 10
38.2393465159
 20
100.0579175151
 30
0.0
 10
34.1608560486
 20
97.8746420754
 30
0.0
 10
30.2274882014
 20
95.4383253777
 30
0.0
 10
28.3404110863
 20
94.1770133606
 30
0.0
  0
SPLINE
  5
3EB
100
AcDbEntity
  8
0
100
AcDbSpline
 62
7
  6
CONTINUOUS
 70
0
 71
3
 72
12
 73
8
 74
0
 42
0.0000001
 43
0.0000001
 44
0.0000000001
 40
0.0
 40
0.0
 40
0.0
 40
0.0
 40
0.1093041206
 40
0.2193377497
 40
0.4501925066
 40
0.7083622895
 40
1.0
 40
1.0
 40
1.0
 40
1.0
 10
25.7932331597
 20
86.3517478861
 30
0.0
 10
25.7917866719
 20
86.3412907347
 30
0.0
 10
25.7908556535
 20
86.3199742425
 30
0.0
 10
25.7972557354
 20
86.2767358866
 30
0.0
 10
25.8217081913
 20
86.2229452325
 30
0.0
 10
25.8725852292
 20
86.1661976279
 30
0.0
 10
25.9164621731
 20
86.1355339317
 30
0.0
 10
25.9408552043
 20
86.1214504766
 30
0.0
  0
SPLINE
  5
3EC
100
AcDbEntity
  8
0
100
AcDbSpline
 62
7
  6
CONTINUOUS
 70
0
 71
3
 72
11
 73
7
 74
0
 42
0.0000001
 43
0.0000001
 44
0.0000000001
 40
0.0
 40
0.0
 40
0.0
 40
0.0
 40
0.2206003752
 40
0.4553329045
 40
0.7142337202
 40
1.0
 40
1.0
 40
1.0
 40
1.0
 10
28.3404853617
 20
94.1770519277
 30
0.0
 10
28.3582410029
 20
94.1889139255
 30
0.0
 10
28.3994137865
 20
94.207163565
 30
0.0
 10
28.4691392288
 20
94.2139940149
 30
0.0
 10
28.544284579
 20
94.2016780088
 30
0.0
 10
28.5935694477
 20
94.1818864965
 30
0.0
 10
28.6183224897
 20
94.1695400368
 30
0.0
  0
SPLINE
  5
3ED
100
AcDbEntity
  8
0
100
AcDbSpline
 62
7
  6
CONTINUOUS
 70
0
 71
3
 72
13
 73
9
 74
0
 42
0.0000001
 43
0.0000001
 44
0.0000000001
 40
0.0
 40
0.0
 40
0.0
 40
0.0
 40
0.1136773026
 40
0.2289180673
 40
0.3472139243
 40
0.469539492
 40
0.7268453923
 40
1.0
 40
1.0
 40
1.0
 40
1.0
 10
28.246832901
 20
94.0959127565
 30
0.0
 10
28.2320795797
 20
94.0795441076
 30
0.0
 10
28.2057114015
 20
94.0433946319
 30
0.0
 10
28.1776660279
 20
93.9817440962
 30
0.0
 10
28.161671611
 20
93.9142064485
 30
0.0
 10
28.1568189682
 20
93.8173441429
 30
0.0
 10
28.1833506257
 20
93.6912816678
 30
0.0
 10
28.2335135251
 20
93.5998084517
 30
0.0
 10
28.2647832243
 20
93.5570770339
 30
0.0
  0
SPLINE
  5
3EE
100
AcDbEntity
  8
0
100
AcDbSpline
 62
7
  6
CONTINUOUS
 70
0
 71
3
 72
9
 73
5
 74
0
 42
0.0000001
 43
0.0000001
 44
0.0000000001
 40
0.0
 40
0.0
 40
0.0
 40
0.0
 40
0.5091147376
 40
1.0
 40
1.0
 40
1.0
 40
1.0
 10
40.5683750604
 20
101.0688680579
 30
0.0
 10
38.4717534418
 20
100.0232780662
 30
0.0
 10
34.4118610856
 20
97.8500005623
 30
0.0
 10
30.4964172503
 20
95.4248491508
 30
0.0
 10
28.6183233658
 20
94.169542416
 30
0.0
  0
SPLINE
  5
3EF
100
AcDbEntity
  8
0
100
AcDbSpline
 62
7
  6
CONTINUOUS
 70
0
 71
3
 72
9
 73
5
 74
0
 42
0.0000001
 43
0.0000001
 44
0.0000000001
 40
0.0
 40
0.0
 40
0.0
 40
0.0
 40
0.4773766538
 40
1.0
 40
1.0
 40
1.0
 40
1.0
 10
38.6493934503
 20
88.3782314342
 30
0.0
 10
38.6166601322
 20
88.3593329569
 30
0.0
 10
38.5527077344
 20
88.3116012412
 30
0.0
 10
38.4983543806
 20
88.253517151
 30
0.0
 10
38.4724422799
 20
88.2212551753
 30
0.0
  0
SPLINE
  5
3F0
100
AcDbEntity
  8
0
100
AcDbSpline
 62
7
  6
CONTINUOUS
 70
0
 71
3
 72
9
 73
5
 74
0
 42
0.0000001
 43
0.0000001
 44
0.0000000001
 40
0.0
 40
0.0
 40
0.0
 40
0.0
 40
0.5226229306
 40
1.0
 40
1.0
 40
1.0
 40
1.0
 10
38.3433169408
 20
87.9976069808
 30
0.0
 10
38.3283315248
 20
87.9590329275
 30
0.0
 10
38.305202118
 20
87.8829141012
 30
0.0
 10
38.2958440214
 20
87.8036580786
 30
0.0
 10
38.2958415321
 20
87.7658581523
 30
0.0
  0
SPLINE
  5
3F1
100
AcDbEntity
  8
0
100
AcDbSpline
 62
7
  6
CONTINUOUS
 70
0
 71
3
 72
23
 73
19
 74
0
 42
0.0000001
 43
0.0000001
 44
0.0000000001
 40
0.0
 40
0.0
 40
0.0
 40
0.0
 40
0.0130751344
 40
0.0265361641
 40
0.0539540478
 40
0.0821259818
 40
0.1108855771
 40
0.1400614931
 40
0.1695784218
 40
0.2294371639
 40
0.2902330157
 40
0.3517958568
 40
0.4140370461
 40
0.4768959062
 40
0.6042824589
 40
0.7338403462
 40
0.8656426984
 40
1.0
 40
1.0
 40
1.0
 40
1.0
 10
28.2644161578
 20
93.5575800722
 30
0.0
 10
28.2413879613
 20
93.5322882608
 30
0.0
 10
28.1969079507
 20
93.4788922453
 30
0.0
 10
28.1130362925
 20
93.3653266341
 30
0.0
 10
28.014013962
 20
93.2140557217
 30
0.0
 10
27.9046999022
 20
93.0222706147
 30
0.0
 10
27.8013596415
 20
92.8220660266
 30
0.0
 10
27.7025138128
 20
92.6157133157
 30
0.0
 10
27.575562654
 20
92.3327260832
 30
0.0
 10
27.4259081379
 20
91.9693906712
 30
0.0
 10
27.2583811696
 20
91.523051171
 30
0.0
 10
27.1003225151
 20
91.0666840498
 30
0.0
 10
26.9507028321
 20
90.6018182243
 30
0.0
 10
26.7608037114
 20
89.96915917
 30
0.0
 10
26.5416436768
 20
89.1615813265
 30
0.0
 10
26.3075775982
 20
88.1717276489
 30
0.0
 10
26.1027804944
 20
87.1568034035
 30
0.0
 10
25.9896810226
 20
86.4695251472
 30
0.0
 10
25.940854469
 20
86.1214510321
 30
0.0
  0
SPLINE
  5
3F2
100
AcDbEntity
  8
0
100
AcDbSpline
 62
7
  6
CONTINUOUS
 70
0
 71
3
 72
15
 73
11
 74
0
 42
0.0000001
 43
0.0000001
 44
0.0000000001
 40
0.0
 40
0.0
 40
0.0
 40
0.0
 40
0.1141246025
 40
0.2373514783
 40
0.3669784542
 40
0.5000084613
 40
0.6330371754
 40
0.7626617061
 40
0.885880795
 40
1.0
 40
1.0
 40
1.0
 40
1.0
 10
28.2647849134
 20
93.5571914178
 30
0.0
 10
28.2647834498
 20
93.5851306011
 30
0.0
 10
28.2699189218
 20
93.6432900988
 30
0.0
 10
28.2903134958
 20
93.7310259651
 30
0.0
 10
28.3230181789
 20
93.8198975828
 30
0.0
 10
28.3667614057
 20
93.906557088
 30
0.0
 10
28.4199425296
 20
93.9877666057
 30
0.0
 10
28.4805558193
 20
94.0605212779
 30
0.0
 10
28.5463412358
 20
94.1220451521
 30
0.0
 10
28.5941418918
 20
94.1555647969
 30
0.0
 10
28.6183368309
 20
94.1695336569
 30
0.0
  0
SPLINE
  5
3F3
100
AcDbEntity
  8
0
100
AcDbSpline
 62
7
  6
CONTINUOUS
 70
0
 71
3
 72
11
 73
7
 74
0
 42
0.0000001
 43
0.0000001
 44
0.0000000001
 40
0.0
 40
0.0
 40
0.0
 40
0.0
 40
0.2896998255
 40
0.5490835505
 40
0.7822134163
 40
1.0
 40
1.0
 40
1.0
 40
1.0
 10
40.5683911029
 20
101.0688601904
 30
0.0
 10
40.5903301026
 20
101.0815266021
 30
0.0
 10
40.6339735818
 20
101.102289804
 30
0.0
 10
40.7010552638
 20
101.1184899682
 30
0.0
 10
40.7639982138
 20
101.1168980321
 30
0.0
 10
40.8018937689
 20
101.1031461586
 30
0.0
 10
40.8183868612
 20
101.0936241327
 30
0.0
  0
SPLINE
  5
3F4
100
AcDbEntity
  8
0
100
AcDbSpline
 62
7
  6
CONTINUOUS
 70
0
 71
3
 72
11
 73
7
 74
0
 42
0.0000001
 43
0.0000001
 44
0.0000000001
 40
0.0
 40
0.0
 40
0.0
 40
0.0
 40
0.2139350051
 40
0.4450834826
 40
0.7055478425
 40
1.0
 40
1.0
 40
1.0
 40
1.0
 10
40.3453216592
 20
101.1080877823
 30
0.0
 10
40.3604131977
 20
101.1156201809
 30
0.0
 10
40.3949463615
 20
101.1255467736
 30
0.0
 10
40.4512754659
 20
101.1226490086
 30
0.0
 10
40.5107528229
 20
101.1034229598
 30
0.0
 10
40.5490747496
 20
101.0817705902
 30
0.0
 10
40.5683733231
 20
101.0688671587
 30
0.0
  0
SPLINE
  5
3F5
100
AcDbEntity
  8
0
100
AcDbSpline
 62
7
  6
CONTINUOUS
 70
0
 71
3
 72
10
 73
6
 74
0
 42
0.0000001
 43
0.0000001
 44
0.0000000001
 40
0.0
 40
0.0
 40
0.0
 40
0.0
 40
0.2185776931
 40
0.4534410506
 40
1.0
 40
1.0
 40
1.0
 40
1.0
 10
23.025777291
 20
100.6872874562
 30
0.0
 10
23.0257727634
 20
100.6842387883
 30
0.0
 10
23.0246335584
 20
100.6778681224
 30
0.0
 10
23.0177992976
 20
100.6655100257
 30
0.0
 10
23.0089199938
 20
100.658439878
 30
0.0
 10
23.0023180313
 20
100.654628256
 30
0.0
  0
SPLINE
  5
3F6
100
AcDbEntity
  8
0
100
AcDbSpline
 62
7
  6
CONTINUOUS
 70
0
 71
3
 72
12
 73
8
 74
0
 42
0.0000001
 43
0.0000001
 44
0.0000000001
 40
0.0
 40
0.0
 40
0.0
 40
0.0
 40
0.2577721589
 40
0.5073692442
 40
0.7535998638
 40
0.876501577
 40
1.0
 40
1.0
 40
1.0
 40
1.0
 10
22.9539654004
 20
102.22176715
 30
0.0
 10
22.8642954844
 20
102.273536929
 30
0.0
 10
22.6779395911
 20
102.3599121438
 30
0.0
 10
22.3792327455
 20
102.4242191049
 30
0.0
 10
22.1272638716
 20
102.4096569193
 30
0.0
 10
21.9367798263
 20
102.3536734862
 30
0.0
 10
21.8469342733
 20
102.310950077
 30
0.0
 10
21.8039736714
 20
102.2861469099
 30
0.0
  0
SPLINE
  5
3F7
100
AcDbEntity
  8
0
100
AcDbSpline
 62
7
  6
CONTINUOUS
 70
0
 71
3
 72
17
 73
13
 74
0
 42
0.0000001
 43
0.0000001
 44
0.0000000001
 40
0.0
 40
0.0
 40
0.0
 40
0.0
 40
0.042857965
 40
0.0874854797
 40
0.1353180708
 40
0.1872814984
 40
0.3045423159
 40
0.4382097446
 40
0.5825520305
 40
0.7297107839
 40
0.8713099826
 40
1.0
 40
1.0
 40
1.0
 40
1.0
 10
9.9503729623
 20
94.4032606807
 30
0.0
 10
9.9725550552
 20
94.4160793262
 30
0.0
 10
10.0214687479
 20
94.4363986849
 30
0.0
 10
10.1021994446
 20
94.4482393722
 30
0.0
 10
10.1889006212
 20
94.4418504385
 30
0.0
 10
10.3148781391
 20
94.4083523624
 30
0.0
 10
10.4759211812
 20
94.3202936665
 30
0.0
 10
10.6538472156
 20
94.1627233994
 30
0.0
 10
10.811126665
 20
93.9614132194
 30
0.0
 10
10.9349119965
 20
93.7326247955
 30
0.0
 10
11.0152384736
 20
93.4951192887
 30
0.0
 10
11.0367616273
 20
93.3333620584
 30
0.0
 10
11.0367616273
 20
93.2564339005
 30
0.0
  0
SPLINE
  5
3F8
100
AcDbEntity
  8
0
100
AcDbSpline
 62
7
  6
CONTINUOUS
 70
0
 71
3
 72
18
 73
14
 74
0
 42
0.0000001
 43
0.0000001
 44
0.0000000001
 40
0.0
 40
0.0
 40
0.0
 40
0.0
 40
0.0568610532
 40
0.1134914567
 40
0.170393303
 40
0.227615703
 40
0.2856319782
 40
0.3448693348
 40
0.4681643917
 40
0.5983951229
 40
0.7332575776
 40
0.868563043
 40
1.0
 40
1.0
 40
1.0
 40
1.0
 10
9.8539188225
 20
95.3868207095
 30
0.0
 10
9.8007002384
 20
95.3560951291
 30
0.0
 10
9.7002531669
 20
95.2840592513
 30
0.0
 10
9.5736854068
 20
95.148853047
 30
0.0
 10
9.4735851011
 20
94.9926646246
 30
0.0
 10
9.4008328301
 20
94.8205649345
 30
0.0
 10
9.35456893
 20
94.6370897027
 30
0.0
 10
9.3254097361
 20
94.3781106775
 30
0.0
 10
9.3491592537
 20
94.0379838608
 30
0.0
 10
9.4584689694
 20
93.6306143292
 30
0.0
 10
9.6391524474
 20
93.235299156
 30
0.0
 10
9.8802438812
 20
92.8723652436
 30
0.0
 10
10.0779836038
 20
92.6601863153
 30
0.0
 10
10.1842648532
 20
92.5659425641
 30
0.0
  0
SPLINE
  5
3F9
100
AcDbEntity
  8
0
100
AcDbSpline
 62
7
  6
CONTINUOUS
 70
0
 71
3
 72
11
 73
7
 74
0
 42
0.0000001
 43
0.0000001
 44
0.0000000001
 40
0.0
 40
0.0
 40
0.0
 40
0.0
 40
0.2324715468
 40
0.4726023002
 40
0.727015295
 40
1.0
 40
1.0
 40
1.0
 40
1.0
 10
10.9145761434
 20
95.9991842065
 30
0.0
 10
10.9539835278
 20
96.0219318717
 30
0.0
 10
11.039718465
 20
96.0590741946
 30
0.0
 10
11.1805541725
 20
96.0856681182
 30
0.0
 10
11.3316380211
 20
96.083506099
 30
0.0
 10
11.4335354955
 20
96.0639815002
 30
0.0
 10
11.4851463142
 20
96.0501531448
 30
0.0
  0
SPLINE
  5
3FA
100
AcDbEntity
  8
0
100
AcDbSpline
 62
7
  6
CONTINUOUS
 70
0
 71
3
 72
11
 73
7
 74
0
 42
0.0000001
 43
0.0000001
 44
0.0000000001
 40
0.0
 40
0.0
 40
0.0
 40
0.0
 40
0.2367223938
 40
0.499178317
 40
0.7621474442
 40
1.0
 40
1.0
 40
1.0
 40
1.0
 10
13.4254272604
 20
95.1254407962
 30
0.0
 10
13.4174649716
 20
95.120843794
 30
0.0
 10
13.3989430288
 20
95.1141420949
 30
0.0
 10
13.3693120319
 20
95.110783311
 30
0.0
 10
13.3396228497
 20
95.1139746479
 30
0.0
 10
13.3209850157
 20
95.1205287589
 30
0.0
 10
13.3129395948
 20
95.1250686635
 30
0.0
  0
SPLINE
  5
3FB
100
AcDbEntity
  8
0
100
AcDbSpline
 62
7
  6
CONTINUOUS
 70
0
 71
3
 72
10
 73
6
 74
0
 42
0.0000001
 43
0.0000001
 44
0.0000000001
 40
0.0
 40
0.0
 40
0.0
 40
0.0
 40
0.5482755342
 40
0.7825733319
 40
1.0
 40
1.0
 40
1.0
 40
1.0
 10
14.2197959
 20
94.6194708285
 30
0.0
 10
14.2129363392
 20
94.6232952261
 30
0.0
 10
14.2036848649
 20
94.6304291268
 30
0.0
 10
14.1965375813
 20
94.6430588459
 30
0.0
 10
14.1953600604
 20
94.6495809849
 30
0.0
 10
14.1953592637
 20
94.6526954586
 30
0.0
  0
SPLINE
  5
3FC
100
AcDbEntity
  8
0
100
AcDbSpline
 62
7
  6
CONTINUOUS
 70
0
 71
3
 72
9
 73
5
 74
0
 42
0.0000001
 43
0.0000001
 44
0.0000000001
 40
0.0
 40
0.0
 40
0.0
 40
0.0
 40
0.5172420125
 40
1.0
 40
1.0
 40
1.0
 40
1.0
 10
15.1609425816
 20
94.1319992238
 30
0.0
 10
15.1285684322
 20
94.1395770478
 30
0.0
 10
15.0665004036
 20
94.1564480146
 30
0.0
 10
15.0065617749
 20
94.1808266283
 30
0.0
 10
14.9794572779
 20
94.1959382963
 30
0.0
  0
SPLINE
  5
3FD
100
AcDbEntity
  8
0
100
AcDbSpline
 62
7
  6
CONTINUOUS
 70
0
 71
3
 72
9
 73
5
 74
0
 42
0.0000001
 43
0.0000001
 44
0.0000000001
 40
0.0
 40
0.0
 40
0.0
 40
0.0
 40
0.4627758184
 40
1.0
 40
1.0
 40
1.0
 40
1.0
 10
11.6064383675
 20
96.0482724901
 30
0.0
 10
11.5885417741
 20
96.0542118909
 30
0.0
 10
11.5473151387
 20
96.0589944289
 30
0.0
 10
11.5065979185
 20
96.0545117153
 30
0.0
 10
11.4851463142
 20
96.0501531448
 30
0.0
  0
SPLINE
  5
3FE
100
AcDbEntity
  8
0
100
AcDbSpline
 62
7
  6
CONTINUOUS
 70
0
 71
3
 72
11
 73
7
 74
0
 42
0.0000001
 43
0.0000001
 44
0.0000000001
 40
0.0
 40
0.0
 40
0.0
 40
0.0
 40
0.2896413964
 40
0.5491107671
 40
0.7822355978
 40
1.0
 40
1.0
 40
1.0
 40
1.0
 10
11.0367616273
 20
93.2564339005
 30
0.0
 10
11.0367616273
 20
93.2108424061
 30
0.0
 10
11.0298317033
 20
93.1241165925
 30
0.0
 10
10.9947304661
 20
93.004958112
 30
0.0
 10
10.9356025628
 20
92.9082440597
 30
0.0
 10
10.8800311938
 20
92.8615911132
 30
0.0
 10
10.850352787
 20
92.8444404783
 30
0.0
  0
SPLINE
  5
3FF
100
AcDbEntity
  8
0
100
AcDbSpline
 62
7
  6
CONTINUOUS
 70
0
 71
3
 72
10
 73
6
 74
0
 42
0.0000001
 43
0.0000001
 44
0.0000000001
 40
0.0
 40
0.0
 40
0.0
 40
0.0
 40
0.2825308369
 40
0.5429812839
 40
1.0
 40
1.0
 40
1.0
 40
1.0
 10
22.7039696422
 20
102.1970032077
 30
0.0
 10
22.7210419623
 20
102.2068598575
 30
0.0
 10
22.7551646655
 20
102.2237515296
 30
0.0
 10
22.8216242992
 20
102.2451545253
 30
0.0
 10
22.8736392097
 20
102.2475403298
 30
0.0
 10
22.9047846554
 20
102.2406981322
 30
0.0
  0
SPLINE
  5
400
100
AcDbEntity
  8
0
100
AcDbSpline
 62
7
  6
CONTINUOUS
 70
0
 71
3
 72
9
 73
5
 74
0
 42
0.0000001
 43
0.0000001
 44
0.0000000001
 40
0.0
 40
0.0
 40
0.0
 40
0.0
 40
0.2538008267
 40
1.0
 40
1.0
 40
1.0
 40
1.0
 10
22.9047846554
 20
102.2406981322
 30
0.0
 10
22.9091484972
 20
102.2397394602
 30
0.0
 10
22.9261978786
 20
102.2353349597
 30
0.0
 10
22.9425775491
 20
102.2283149599
 30
0.0
 10
22.9539537861
 20
102.221747033
 30
0.0
  0
SPLINE
  5
401
100
AcDbEntity
  8
0
100
AcDbSpline
 62
7
  6
CONTINUOUS
 70
0
 71
3
 72
9
 73
5
 74
0
 42
0.0000001
 43
0.0000001
 44
0.0000000001
 40
0.0
 40
0.0
 40
0.0
 40
0.0
 40
0.260967087
 40
1.0
 40
1.0
 40
1.0
 40
1.0
 10
24.4519612765
 20
99.5028142095
 30
0.0
 10
24.452762178
 20
99.5108956802
 30
0.0
 10
24.4565482997
 20
99.5417814831
 30
0.0
 10
24.4633055736
 20
99.5723515137
 30
0.0
 10
24.4703312734
 20
99.5942501253
 30
0.0
  0
SPLINE
  5
402
100
AcDbEntity
  8
0
100
AcDbSpline
 62
7
  6
CONTINUOUS
 70
0
 71
3
 72
10
 73
6
 74
0
 42
0.0000001
 43
0.0000001
 44
0.0000000001
 40
0.0
 40
0.0
 40
0.0
 40
0.0
 40
0.5240858156
 40
0.7643541565
 40
1.0
 40
1.0
 40
1.0
 40
1.0
 10
24.4703312734
 20
99.5942501253
 30
0.0
 10
24.4822292692
 20
99.6313353409
 30
0.0
 10
24.5088757002
 20
99.6839550024
 30
0.0
 10
24.5642828311
 20
99.7344321333
 30
0.0
 10
24.595922048
 20
99.7512285579
 30
0.0
 10
24.6122994302
 20
99.7574290979
 30
0.0
  0
SPLINE
  5
403
100
AcDbEntity
  8
0
100
AcDbSpline
 62
7
  6
CONTINUOUS
 70
0
 71
3
 72
11
 73
7
 74
0
 42
0.0000001
 43
0.0000001
 44
0.0000000001
 40
0.0
 40
0.0
 40
0.0
 40
0.0
 40
0.272984705
 40
0.5273976998
 40
0.7675284532
 40
1.0
 40
1.0
 40
1.0
 40
1.0
 10
21.3138896514
 20
101.7247468836
 30
0.0
 10
21.2622788328
 20
101.738575239
 30
0.0
 10
21.1603813584
 20
101.7580998378
 30
0.0
 10
21.0092975098
 20
101.760261857
 30
0.0
 10
20.8684618023
 20
101.7336679334
 30
0.0
 10
20.7827268651
 20
101.6965256105
 30
0.0
 10
20.7433194807
 20
101.6737779453
 30
0.0
  0
SPLINE
  5
404
100
AcDbEntity
  8
0
100
AcDbSpline
 62
7
  6
CONTINUOUS
 70
0
 71
3
 72
12
 73
8
 74
0
 42
0.0000001
 43
0.0000001
 44
0.0000000001
 40
0.0
 40
0.0
 40
0.0
 40
0.0
 40
0.1081630792
 40
0.2183718576
 40
0.4513543113
 40
0.7104491201
 40
1.0
 40
1.0
 40
1.0
 40
1.0
 10
21.8039778759
 20
102.2861396275
 30
0.0
 10
21.833489092
 20
102.3031778354
 30
0.0
 10
21.896149737
 20
102.3325318686
 30
0.0
 10
22.0337512122
 20
102.3705835116
 30
0.0
 10
22.2264767859
 20
102.3757487153
 30
0.0
 10
22.4678243784
 20
102.3173600779
 30
0.0
 10
22.6249682457
 20
102.2426136534
 30
0.0
 10
22.7039696422
 20
102.1970032077
 30
0.0
  0
SPLINE
  5
405
100
AcDbEntity
  8
0
100
AcDbSpline
 62
7
  6
CONTINUOUS
 70
0
 71
3
 72
10
 73
6
 74
0
 42
0.0000001
 43
0.0000001
 44
0.0000000001
 40
0.0
 40
0.0
 40
0.0
 40
0.0
 40
0.2186856046
 40
0.4535946304
 40
1.0
 40
1.0
 40
1.0
 40
1.0
 10
14.1953592637
 20
94.6526954586
 30
0.0
 10
14.1953584904
 20
94.6557188529
 30
0.0
 10
14.1964623305
 20
94.6620389638
 30
0.0
 10
14.2031941773
 20
94.674312564
 30
0.0
 10
14.2119568721
 20
94.6813612961
 30
0.0
 10
14.2184804445
 20
94.6851703939
 30
0.0
  0
SPLINE
  5
406
100
AcDbEntity
  8
0
100
AcDbSpline
 62
7
  6
CONTINUOUS
 70
0
 71
3
 72
11
 73
7
 74
0
 42
0.0000001
 43
0.0000001
 44
0.0000000001
 40
0.0
 40
0.0
 40
0.0
 40
0.0
 40
0.2177490368
 40
0.4508914017
 40
0.7104631294
 40
1.0
 40
1.0
 40
1.0
 40
1.0
 10
13.8627018438
 20
56.5911808272
 30
0.0
 10
13.8462111971
 20
56.6007014941
 30
0.0
 10
13.8153261124
 20
56.6266073126
 30
0.0
 10
13.7824747372
 20
56.6803502782
 30
0.0
 10
13.7629984898
 20
56.7465562009
 30
0.0
 10
13.7591340691
 20
56.7947344508
 30
0.0
 10
13.7591340691
 20
56.8200537841
 30
0.0
  0
SPLINE
  5
407
100
AcDbEntity
  8
0
100
AcDbSpline
 62
7
  6
CONTINUOUS
 70
0
 71
3
 72
17
 73
13
 74
0
 42
0.0000001
 43
0.0000001
 44
0.0000000001
 40
0.0
 40
0.0
 40
0.0
 40
0.0
 40
0.042857965
 40
0.0874854797
 40
0.1353180708
 40
0.1872814984
 40
0.3045423159
 40
0.4382097446
 40
0.5825520305
 40
0.7297107839
 40
0.8713099826
 40
1.0
 40
1.0
 40
1.0
 40
1.0
 10
10.850352787
 20
92.8444404783
 30
0.0
 10
10.8281706941
 20
92.8316218328
 30
0.0
 10
10.7792570014
 20
92.8113024741
 30
0.0
 10
10.6985263047
 20
92.7994617868
 30
0.0
 10
10.6118251281
 20
92.8058507205
 30
0.0
 10
10.4858476102
 20
92.8393487966
 30
0.0
 10
10.3248045681
 20
92.9274074926
 30
0.0
 10
10.1468785337
 20
93.0849777596
 30
0.0
 10
9.9895990843
 20
93.2862879396
 30
0.0
 10
9.8658137528
 20
93.5150763636
 30
0.0
 10
9.7854872757
 20
93.7525818703
 30
0.0
 10
9.763964122
 20
93.9143391006
 30
0.0
 10
9.763964122
 20
93.9912672586
 30
0.0
  0
SPLINE
  5
408
100
AcDbEntity
  8
0
100
AcDbSpline
 62
7
  6
CONTINUOUS
 70
0
 71
3
 72
11
 73
7
 74
0
 42
0.0000001
 43
0.0000001
 44
0.0000000001
 40
0.0
 40
0.0
 40
0.0
 40
0.0
 40
0.1628032424
 40
0.3846310401
 40
0.6645208097
 40
1.0
 40
1.0
 40
1.0
 40
1.0
 10
13.5654780523
 20
89.5676880173
 30
0.0
 10
13.5735251969
 20
89.5605612793
 30
0.0
 10
13.5977355682
 20
89.5502672689
 30
0.0
 10
13.6410321744
 20
89.5433369401
 30
0.0
 10
13.6965019188
 20
89.5424702284
 30
0.0
 10
13.7370459126
 20
89.544942622
 30
0.0
 10
13.7591342783
 20
89.5465993365
 30
0.0
  0
SPLINE
  5
409
100
AcDbEntity
  8
0
100
AcDbSpline
 62
7
  6
CONTINUOUS
 70
0
 71
3
 72
11
 73
7
 74
0
 42
0.0000001
 43
0.0000001
 44
0.0000000001
 40
0.0
 40
0.0
 40
0.0
 40
0.0
 40
0.1979512588
 40
0.4216253249
 40
0.6874045028
 40
1.0
 40
1.0
 40
1.0
 40
1.0
 10
10.1842716687
 20
92.5659502528
 30
0.0
 10
10.1754046513
 20
92.5737967119
 30
0.0
 10
10.1601982678
 20
92.594947074
 30
0.0
 10
10.1500051843
 20
92.6354573781
 30
0.0
 10
10.1507688914
 20
92.6837882453
 30
0.0
 10
10.1576061597
 20
92.7178639323
 30
0.0
 10
10.1624454141
 20
92.7359243722
 30
0.0
  0
SPLINE
  5
40A
100
AcDbEntity
  8
0
100
AcDbSpline
 62
7
  6
CONTINUOUS
 70
0
 71
3
 72
11
 73
7
 74
0
 42
0.0000001
 43
0.0000001
 44
0.0000000001
 40
0.0
 40
0.0
 40
0.0
 40
0.0
 40
0.2914938873
 40
0.5510000071
 40
0.7833008
 40
1.0
 40
1.0
 40
1.0
 40
1.0
 10
24.7929299532
 20
99.5247590986
 30
0.0
 10
24.7715943646
 20
99.5376500822
 30
0.0
 10
24.7291784979
 20
99.5588638835
 30
0.0
 10
24.6638042733
 20
99.57606179
 30
0.0
 10
24.6023576591
 20
99.5753882866
 30
0.0
 10
24.5653028165
 20
99.5623180228
 30
0.0
 10
24.5492151431
 20
99.5531202266
 30
0.0
  0
SPLINE
  5
40B
100
AcDbEntity
  8
0
100
AcDbSpline
 62
7
  6
CONTINUOUS
 70
0
 71
3
 72
10
 73
6
 74
0
 42
0.0000001
 43
0.0000001
 44
0.0000000001
 40
0.0
 40
0.0
 40
0.0
 40
0.0
 40
0.2812264306
 40
0.533265362
 40
1.0
 40
1.0
 40
1.0
 40
1.0
 10
24.6122994244
 20
99.7574292258
 30
0.0
 10
24.636360266
 20
99.7430446267
 30
0.0
 10
24.6786833543
 20
99.7098240437
 30
0.0
 10
24.741914428
 20
99.6319822807
 30
0.0
 10
24.7729485151
 20
99.5667865025
 30
0.0
 10
24.7929377226
 20
99.5247751306
 30
0.0
  0
SPLINE
  5
40C
100
AcDbEntity
  8
0
100
AcDbSpline
 62
7
  6
CONTINUOUS
 70
0
 71
3
 72
11
 73
7
 74
0
 42
0.0000001
 43
0.0000001
 44
0.0000000001
 40
0.0
 40
0.0
 40
0.0
 40
0.0
 40
0.237380094
 40
0.5007110975
 40
0.7636656549
 40
1.0
 40
1.0
 40
1.0
 40
1.0
 10
23.7645871243
 20
100.1965847565
 30
0.0
 10
23.7726745749
 20
100.2012540203
 30
0.0
 10
23.7915200493
 20
100.2080124381
 30
0.0
 10
23.8216127
 20
100.2112753714
 30
0.0
 10
23.8516425807
 20
100.2078211972
 30
0.0
 10
23.8703857692
 20
100.2009287389
 30
0.0
 10
23.8783893628
 20
100.1961974929
 30
0.0
  0
SPLINE
  5
40D
100
AcDbEntity
  8
0
100
AcDbSpline
 62
7
  6
CONTINUOUS
 70
0
 71
3
 72
11
 73
7
 74
0
 42
0.0000001
 43
0.0000001
 44
0.0000000001
 40
0.0
 40
0.0
 40
0.0
 40
0.0
 40
0.287358533
 40
0.5479832688
 40
0.7821612895
 40
1.0
 40
1.0
 40
1.0
 40
1.0
 10
23.0022925254
 20
100.7199721423
 30
0.0
 10
23.005743564
 20
100.7179089739
 30
0.0
 10
23.0120445584
 20
100.7134657026
 30
0.0
 10
23.0196986712
 20
100.7055276607
 30
0.0
 10
23.0246609505
 20
100.6967129544
 30
0.0
 10
23.0257818177
 20
100.690335465
 30
0.0
 10
23.025777291
 20
100.6872874562
 30
0.0
  0
SPLINE
  5
40E
100
AcDbEntity
  8
0
100
AcDbSpline
 62
7
  6
CONTINUOUS
 70
0
 71
3
 72
9
 73
5
 74
0
 42
0.0000001
 43
0.0000001
 44
0.0000000001
 40
0.0
 40
0.0
 40
0.0
 40
0.0
 40
0.247620984
 40
1.0
 40
1.0
 40
1.0
 40
1.0
 10
15.1270727246
 20
94.1132775526
 30
0.0
 10
15.130914192
 20
94.1154861049
 30
0.0
 10
15.1467671729
 20
94.1238071773
 30
0.0
 10
15.1638921186
 20
94.1296553008
 30
0.0
 10
15.1770192117
 20
94.1326464438
 30
0.0
  0
SPLINE
  5
40F
100
AcDbEntity
  8
0
100
AcDbSpline
 62
7
  6
CONTINUOUS
 70
0
 71
3
 72
9
 73
5
 74
0
 42
0.0000001
 43
0.0000001
 44
0.0000000001
 40
0.0
 40
0.0
 40
0.0
 40
0.0
 40
0.2465221141
 40
1.0
 40
1.0
 40
1.0
 40
1.0
 10
15.1770192117
 20
94.1326464438
 30
0.0
 10
15.1795201485
 20
94.133216308
 30
0.0
 10
15.1897101998
 20
94.1353265806
 30
0.0
 10
15.2000636061
 20
94.1366345914
 30
0.0
 10
15.2078834666
 20
94.1371943367
 30
0.0
  0
SPLINE
  5
410
100
AcDbEntity
  8
0
100
AcDbSpline
 62
7
  6
CONTINUOUS
 70
0
 71
3
 72
9
 73
5
 74
0
 42
0.0000001
 43
0.0000001
 44
0.0000000001
 40
0.0
 40
0.0
 40
0.0
 40
0.0
 40
0.2262471693
 40
1.0
 40
1.0
 40
1.0
 40
1.0
 10
15.2078834666
 20
94.1371943367
 30
0.0
 10
15.221565106
 20
94.1381736679
 30
0.0
 10
15.2824848279
 20
94.1367071726
 30
0.0
 10
15.3413634373
 20
94.1143023332
 30
0.0
 10
15.3824362583
 20
94.0916398698
 30
0.0
  0
SPLINE
  5
411
100
AcDbEntity
  8
0
100
AcDbSpline
 62
7
  6
CONTINUOUS
 70
0
 71
3
 72
12
 73
8
 74
0
 42
0.0000001
 43
0.0000001
 44
0.0000000001
 40
0.0
 40
0.0
 40
0.0
 40
0.0
 40
0.2895508799
 40
0.5486456887
 40
0.7816281424
 40
0.8918369208
 40
1.0
 40
1.0
 40
1.0
 40
1.0
 10
10.7539147933
 20
95.2976770073
 30
0.0
 10
10.6749133968
 20
95.3432874529
 30
0.0
 10
10.5177695295
 20
95.4180338775
 30
0.0
 10
10.276421937
 20
95.4764225149
 30
0.0
 10
10.0836963633
 20
95.4712573111
 30
0.0
 10
9.9460948881
 20
95.4332056681
 30
0.0
 10
9.8834342431
 20
95.403851635
 30
0.0
 10
9.853923027
 20
95.3868134271
 30
0.0
  0
SPLINE
  5
412
100
AcDbEntity
  8
0
100
AcDbSpline
 62
7
  6
CONTINUOUS
 70
0
 71
3
 72
13
 73
9
 74
0
 42
0.0000001
 43
0.0000001
 44
0.0000000001
 40
0.0
 40
0.0
 40
0.0
 40
0.0
 40
0.1141741714
 40
0.2375656607
 40
0.5000015697
 40
0.7624366157
 40
0.8858271039
 40
1.0
 40
1.0
 40
1.0
 40
1.0
 10
10.4003628747
 20
94.6853035219
 30
0.0
 10
10.4003628628
 20
94.7132309139
 30
0.0
 10
10.405508557
 20
94.7713953211
 30
0.0
 10
10.4332478942
 20
94.8908112531
 30
0.0
 10
10.4978812931
 20
95.0372505148
 30
0.0
 10
10.5923838735
 20
95.166444658
 30
0.0
 10
10.6819306429
 20
95.25017533
 30
0.0
 10
10.7297291964
 20
95.2837135298
 30
0.0
 10
10.7539147933
 20
95.2976770073
 30
0.0
  0
SPLINE
  5
413
100
AcDbEntity
  8
0
100
AcDbSpline
 62
7
  6
CONTINUOUS
 70
0
 71
3
 72
23
 73
19
 74
0
 42
0.0000001
 43
0.0000001
 44
0.0000000001
 40
0.0
 40
0.0
 40
0.0
 40
0.0
 40
0.0610631536
 40
0.1162876232
 40
0.1662151741
 40
0.212559351
 40
0.2578598006
 40
0.3049617375
 40
0.3562110485
 40
0.4129820502
 40
0.4756829541
 40
0.5439613273
 40
0.6168997542
 40
0.6932007061
 40
0.7713191964
 40
0.8495777062
 40
0.9263734359
 40
1.0
 40
1.0
 40
1.0
 40
1.0
 10
10.4003602554
 20
94.6853048342
 30
0.0
 10
10.3478318311
 20
94.715631448
 30
0.0
 10
10.2432474783
 20
94.7661453506
 30
0.0
 10
10.0827446893
 20
94.809472456
 30
0.0
 10
9.9306793989
 20
94.8143044993
 30
0.0
 10
9.7923493199
 20
94.7789296506
 30
0.0
 10
9.6741646567
 20
94.7035755909
 30
0.0
 10
9.5817924477
 20
94.5921623634
 30
0.0
 10
9.5178474348
 20
94.4503177837
 30
0.0
 10
9.4830681489
 20
94.2832452964
 30
0.0
 10
9.4777006353
 20
94.09603588
 30
0.0
 10
9.5016164432
 20
93.89427921
 30
0.0
 10
9.5539642141
 20
93.6841326335
 30
0.0
 10
9.6330584581
 20
93.4721252238
 30
0.0
 10
9.736401801
 20
93.2649356042
 30
0.0
 10
9.8607638004
 20
93.0690422635
 30
0.0
 10
10.0021998316
 20
92.8907797696
 30
0.0
 10
10.1077390541
 20
92.7844348537
 30
0.0
 10
10.1624581117
 20
92.7359133197
 30
0.0
  0
SPLINE
  5
414
100
AcDbEntity
  8
0
100
AcDbSpline
 62
7
  6
CONTINUOUS
 70
0
 71
3
 72
11
 73
7
 74
0
 42
0.0000001
 43
0.0000001
 44
0.0000000001
 40
0.0
 40
0.0
 40
0.0
 40
0.0
 40
0.2896413964
 40
0.5491107671
 40
0.7822355978
 40
1.0
 40
1.0
 40
1.0
 40
1.0
 10
9.763964122
 20
93.9912672586
 30
0.0
 10
9.763964122
 20
94.0368587529
 30
0.0
 10
9.770894046
 20
94.1235845665
 30
0.0
 10
9.8059952832
 20
94.242743047
 30
0.0
 10
9.8651231866
 20
94.3394570993
 30
0.0
 10
9.9206945555
 20
94.3861100458
 30
0.0
 10
9.9503729623
 20
94.4032606807
 30
0.0
  0
SPLINE
  5
415
100
AcDbEntity
  8
0
100
AcDbSpline
 62
7
  6
CONTINUOUS
 70
0
 71
3
 72
11
 73
7
 74
0
 42
0.0000001
 43
0.0000001
 44
0.0000000001
 40
0.0
 40
0.0
 40
0.0
 40
0.0
 40
0.2177456295
 40
0.4508837762
 40
0.7104602913
 40
1.0
 40
1.0
 40
1.0
 40
1.0
 10
27.3733871947
 20
99.6702382057
 30
0.0
 10
27.3568976405
 20
99.679758236
 30
0.0
 10
27.3190227677
 20
99.6935514849
 30
0.0
 10
27.256057826
 20
99.695132625
 30
0.0
 10
27.1889866264
 20
99.6788977493
 30
0.0
 10
27.145331745
 20
99.6581575835
 30
0.0
 10
27.1234054243
 20
99.645498492
 30
0.0
  0
SPLINE
  5
416
100
AcDbEntity
  8
0
100
AcDbSpline
 62
7
  6
CONTINUOUS
 70
0
 71
3
 72
9
 73
5
 74
0
 42
0.0000001
 43
0.0000001
 44
0.0000000001
 40
0.0
 40
0.0
 40
0.0
 40
0.0
 40
0.6128354724
 40
1.0
 40
1.0
 40
1.0
 40
1.0
 10
13.7591340691
 20
89.5465993151
 30
0.0
 10
13.7322898115
 20
89.5308846282
 30
0.0
 10
13.6881425156
 20
89.5058345149
 30
0.0
 10
13.6441203387
 20
89.4805701985
 30
0.0
 10
13.6270652007
 20
89.4708081861
 30
0.0
  0
SPLINE
  5
417
100
AcDbEntity
  8
0
100
AcDbSpline
 62
7
  6
CONTINUOUS
 70
0
 71
3
 72
11
 73
7
 74
0
 42
0.0000001
 43
0.0000001
 44
0.0000000001
 40
0.0
 40
0.0
 40
0.0
 40
0.0
 40
0.2895411595
 40
0.5491183966
 40
0.7822559144
 40
1.0
 40
1.0
 40
1.0
 40
1.0
 10
14.8197986568
 20
56.2076926523
 30
0.0
 10
14.8197986568
 20
56.1823732264
 30
0.0
 10
14.8236646776
 20
56.1341948002
 30
0.0
 10
14.8431412316
 20
56.0679892186
 30
0.0
 10
14.8759945139
 20
56.0142486501
 30
0.0
 10
14.9068787147
 20
55.9883441468
 30
0.0
 10
14.923368805
 20
55.978823807
 30
0.0
  0
SPLINE
  5
418
100
AcDbEntity
  8
0
100
AcDbSpline
 62
7
  6
CONTINUOUS
 70
0
 71
3
 72
10
 73
6
 74
0
 42
0.0000001
 43
0.0000001
 44
0.0000000001
 40
0.0
 40
0.0
 40
0.0
 40
0.0
 40
0.2285763917
 40
0.4751429323
 40
1.0
 40
1.0
 40
1.0
 40
1.0
 10
15.1733505754
 20
92.7461722915
 30
0.0
 10
15.1501216828
 20
92.7327611642
 30
0.0
 10
15.1041632882
 20
92.7007376654
 30
0.0
 10
15.0176544659
 20
92.621133016
 30
0.0
 10
14.9626437612
 20
92.5479192882
 30
0.0
 10
14.930939485
 20
92.495116738
 30
0.0
  0
SPLINE
  5
419
100
AcDbEntity
  8
0
100
AcDbSpline
 62
7
  6
CONTINUOUS
 70
0
 71
3
 72
10
 73
6
 74
0
 42
0.0000001
 43
0.0000001
 44
0.0000000001
 40
0.0
 40
0.0
 40
0.0
 40
0.0
 40
0.5248556592
 40
0.7714224929
 40
1.0
 40
1.0
 40
1.0
 40
1.0
 10
14.9160122054
 20
92.4692617099
 30
0.0
 10
14.8861364519
 20
92.4154036132
 30
0.0
 10
14.8502374943
 20
92.3311559206
 30
0.0
 10
14.8245526008
 20
92.2164346101
 30
0.0
 10
14.8197986454
 20
92.1606215299
 30
0.0
 10
14.8197986568
 20
92.133799006
 30
0.0
  0
SPLINE
  5
41A
100
AcDbEntity
  8
0
100
AcDbSpline
 62
7
  6
CONTINUOUS
 70
0
 71
3
 72
11
 73
7
 74
0
 42
0.0000001
 43
0.0000001
 44
0.0000000001
 40
0.0
 40
0.0
 40
0.0
 40
0.0
 40
0.2895378634
 40
0.5491098265
 40
0.7822517759
 40
1.0
 40
1.0
 40
1.0
 40
1.0
 10
13.7591340691
 20
56.8200537841
 30
0.0
 10
13.7372072158
 20
56.8327129724
 30
0.0
 10
13.697416423
 20
56.8601477471
 30
0.0
 10
13.6498190328
 20
56.9101158877
 30
0.0
 10
13.6197020259
 20
56.9654357024
 30
0.0
 10
13.6127092176
 20
57.0051347415
 30
0.0
 10
13.6127092167
 20
57.0241758611
 30
0.0
  0
SPLINE
  5
41B
100
AcDbEntity
  8
0
100
AcDbSpline
 62
7
  6
CONTINUOUS
 70
0
 71
3
 72
11
 73
7
 74
0
 42
0.0000001
 43
0.0000001
 44
0.0000000001
 40
0.0
 40
0.0
 40
0.0
 40
0.0
 40
0.1977767121
 40
0.4180602572
 40
0.6831478057
 40
1.0
 40
1.0
 40
1.0
 40
1.0
 10
21.3129183657
 20
101.7173397962
 30
0.0
 10
21.3129212211
 20
101.7132503405
 30
0.0
 10
21.3150348955
 20
101.7045012255
 30
0.0
 10
21.3240454747
 20
101.6932311032
 30
0.0
 10
21.3377851235
 20
101.6836915617
 30
0.0
 10
21.348856005
 20
101.6788224457
 30
0.0
 10
21.3550120874
 20
101.676580555
 30
0.0
  0
SPLINE
  5
41C
100
AcDbEntity
  8
0
100
AcDbSpline
 62
7
  6
CONTINUOUS
 70
0
 71
3
 72
11
 73
7
 74
0
 42
0.0000001
 43
0.0000001
 44
0.0000000001
 40
0.0
 40
0.0
 40
0.0
 40
0.0
 40
0.2240524779
 40
0.4599936942
 40
0.7172102789
 40
1.0
 40
1.0
 40
1.0
 40
1.0
 10
18.8124637286
 20
53.7334848219
 30
0.0
 10
18.8264486047
 20
53.725410836
 30
0.0
 10
18.8577970489
 20
53.7130685451
 30
0.0
 10
18.9097962474
 20
53.7079615351
 30
0.0
 10
18.9655829692
 20
53.7160173374
 30
0.0
 10
19.0025102631
 20
53.7290187588
 30
0.0
 10
19.0211633143
 20
53.7372330982
 30
0.0
  0
SPLINE
  5
41D
100
AcDbEntity
  8
0
100
AcDbSpline
 62
7
  6
CONTINUOUS
 70
0
 71
3
 72
9
 73
5
 74
0
 42
0.0000001
 43
0.0000001
 44
0.0000000001
 40
0.0
 40
0.0
 40
0.0
 40
0.0
 40
0.4692060893
 40
1.0
 40
1.0
 40
1.0
 40
1.0
 10
23.7622318047
 20
50.8757995403
 30
0.0
 10
23.7389584661
 20
50.889236099
 30
0.0
 10
23.6963406799
 20
50.930965894
 30
0.0
 10
23.6753697504
 20
50.985767087
 30
0.0
 10
23.6684176612
 20
51.0153625117
 30
0.0
  0
SPLINE
  5
41E
100
AcDbEntity
  8
0
100
AcDbSpline
 62
7
  6
CONTINUOUS
 70
0
 71
3
 72
9
 73
5
 74
0
 42
0.0000001
 43
0.0000001
 44
0.0000000001
 40
0.0
 40
0.0
 40
0.0
 40
0.0
 40
0.2388718228
 40
1.0
 40
1.0
 40
1.0
 40
1.0
 10
23.6684176612
 20
51.0153625117
 30
0.0
 10
23.6667795382
 20
51.0223360914
 30
0.0
 10
23.6608876638
 20
51.0517544178
 30
0.0
 10
23.6586702212
 20
51.0818581615
 30
0.0
 10
23.6586702212
 20
51.1046832208
 30
0.0
  0
SPLINE
  5
41F
100
AcDbEntity
  8
0
100
AcDbSpline
 62
7
  6
CONTINUOUS
 70
0
 71
3
 72
8
 73
4
 74
0
 42
0.0000001
 43
0.0000001
 44
0.0000000001
 40
0.0
 40
0.0
 40
0.0
 40
0.0
 40
1.0
 40
1.0
 40
1.0
 40
1.0
 10
53.1611422828
 20
15.5328283804
 30
0.0
 10
53.1509930892
 20
15.5404601247
 30
0.0
 10
53.1416647303
 20
15.5492920186
 30
0.0
 10
53.1333837061
 20
15.5589187672
 30
0.0
  0
SPLINE
  5
420
100
AcDbEntity
  8
0
100
AcDbSpline
 62
7
  6
CONTINUOUS
 70
0
 71
3
 72
9
 73
5
 74
0
 42
0.0000001
 43
0.0000001
 44
0.0000000001
 40
0.0
 40
0.0
 40
0.0
 40
0.0
 40
0.4593036548
 40
1.0
 40
1.0
 40
1.0
 40
1.0
 10
53.1333837061
 20
15.5589187672
 30
0.0
 10
53.1130543891
 20
15.5825517406
 30
0.0
 10
53.0820382741
 20
15.6454722798
 30
0.0
 10
53.0744347873
 20
15.7138655097
 30
0.0
 10
53.0744347873
 20
15.7505634474
 30
0.0
  0
SPLINE
  5
421
100
AcDbEntity
  8
0
100
AcDbSpline
 62
7
  6
CONTINUOUS
 70
0
 71
3
 72
11
 73
7
 74
0
 42
0.0000001
 43
0.0000001
 44
0.0000000001
 40
0.0
 40
0.0
 40
0.0
 40
0.0
 40
0.2372446848
 40
0.5000016179
 40
0.7627576706
 40
1.0
 40
1.0
 40
1.0
 40
1.0
 10
53.0744347873
 20
88.4192785719
 30
0.0
 10
53.0744347873
 20
88.4772391817
 30
0.0
 10
53.0961800388
 20
88.5994712486
 30
0.0
 10
53.1719488088
 20
88.7712280543
 30
0.0
 10
53.282809048
 20
88.9227242491
 30
0.0
 10
53.3777917688
 20
89.00267197
 30
0.0
 10
53.4279867059
 20
89.0316518574
 30
0.0
  0
SPLINE
  5
422
100
AcDbEntity
  8
0
100
AcDbSpline
 62
7
  6
CONTINUOUS
 70
0
 71
3
 72
11
 73
7
 74
0
 42
0.0000001
 43
0.0000001
 44
0.0000000001
 40
0.0
 40
0.0
 40
0.0
 40
0.0
 40
0.2372446848
 40
0.5000016179
 40
0.7627576706
 40
1.0
 40
1.0
 40
1.0
 40
1.0
 10
23.6586702212
 20
87.0307895745
 30
0.0
 10
23.6586702212
 20
87.0887501843
 30
0.0
 10
23.6804154727
 20
87.2109822513
 30
0.0
 10
23.7561842427
 20
87.3827390569
 30
0.0
 10
23.8670444819
 20
87.5342352518
 30
0.0
 10
23.9620272027
 20
87.6141829726
 30
0.0
 10
24.0122221398
 20
87.64316286
 30
0.0
  0
SPLINE
  5
423
100
AcDbEntity
  8
0
100
AcDbSpline
 62
7
  6
CONTINUOUS
 70
0
 71
3
 72
11
 73
7
 74
0
 42
0.0000001
 43
0.0000001
 44
0.0000000001
 40
0.0
 40
0.0
 40
0.0
 40
0.0
 40
0.2372446848
 40
0.5000016179
 40
0.7627576706
 40
1.0
 40
1.0
 40
1.0
 40
1.0
 10
14.8197986568
 20
92.133799006
 30
0.0
 10
14.8197986568
 20
92.1917596158
 30
0.0
 10
14.8415439083
 20
92.3139916828
 30
0.0
 10
14.9173126784
 20
92.4857484885
 30
0.0
 10
15.0281729175
 20
92.6372446833
 30
0.0
 10
15.1231556384
 20
92.7171924041
 30
0.0
 10
15.1733505754
 20
92.7461722915
 30
0.0
  0
SPLINE
  5
424
100
AcDbEntity
  8
0
100
AcDbSpline
 62
7
  6
CONTINUOUS
 70
0
 71
3
 72
11
 73
7
 74
0
 42
0.0000001
 43
0.0000001
 44
0.0000000001
 40
0.0
 40
0.0
 40
0.0
 40
0.0
 40
0.2372423294
 40
0.4999983821
 40
0.7627553152
 40
1.0
 40
1.0
 40
1.0
 40
1.0
 10
19.0624540637
 20
90.5008481417
 30
0.0
 10
19.0122591267
 20
90.4718682542
 30
0.0
 10
18.9172764059
 20
90.3919205334
 30
0.0
 10
18.8064161667
 20
90.2404243386
 30
0.0
 10
18.7306473966
 20
90.0686675329
 30
0.0
 10
18.7089021451
 20
89.946435466
 30
0.0
 10
18.7089021451
 20
89.8884748562
 30
0.0
  0
SPLINE
  5
425
100
AcDbEntity
  8
0
100
AcDbSpline
 62
7
  6
CONTINUOUS
 70
0
 71
3
 72
9
 73
5
 74
0
 42
0.0000001
 43
0.0000001
 44
0.0000000001
 40
0.0
 40
0.0
 40
0.0
 40
0.0
 40
0.2463950392
 40
1.0
 40
1.0
 40
1.0
 40
1.0
 10
19.0599515436
 20
53.6722490487
 30
0.0
 10
19.0550591447
 20
53.6750736115
 30
0.0
 10
19.0357910585
 20
53.6875439851
 30
0.0
 10
19.0191892258
 20
53.7039972439
 30
0.0
 10
19.0086641258
 20
53.7176998438
 30
0.0
  0
SPLINE
  5
426
100
AcDbEntity
  8
0
100
AcDbSpline
 62
7
  6
CONTINUOUS
 70
0
 71
3
 72
9
 73
5
 74
0
 42
0.0000001
 43
0.0000001
 44
0.0000000001
 40
0.0
 40
0.0
 40
0.0
 40
0.0
 40
0.2236729071
 40
1.0
 40
1.0
 40
1.0
 40
1.0
 10
19.0086641258
 20
53.7176998438
 30
0.0
 10
18.9999085996
 20
53.7290986401
 30
0.0
 10
18.9664543741
 20
53.7845087978
 30
0.0
 10
18.9563899601
 20
53.8512456709
 30
0.0
 10
18.9563899601
 20
53.9011327292
 30
0.0
  0
SPLINE
  5
427
100
AcDbEntity
  8
0
100
AcDbSpline
 62
7
  6
CONTINUOUS
 70
0
 71
3
 72
11
 73
7
 74
0
 42
0.0000001
 43
0.0000001
 44
0.0000000001
 40
0.0
 40
0.0
 40
0.0
 40
0.0
 40
0.2372446848
 40
0.5000016179
 40
0.7627576706
 40
1.0
 40
1.0
 40
1.0
 40
1.0
 10
18.9563899601
 20
89.8272390829
 30
0.0
 10
18.9563899601
 20
89.8851996927
 30
0.0
 10
18.9781352116
 20
90.0074317597
 30
0.0
 10
19.0539039817
 20
90.1791885653
 30
0.0
 10
19.1647642209
 20
90.3306847602
 30
0.0
 10
19.2597469417
 20
90.410632481
 30
0.0
 10
19.3099418787
 20
90.4396123684
 30
0.0
  0
SPLINE
  5
428
100
AcDbEntity
  8
0
100
AcDbSpline
 62
7
  6
CONTINUOUS
 70
0
 71
3
 72
11
 73
7
 74
0
 42
0.0000001
 43
0.0000001
 44
0.0000000001
 40
0.0
 40
0.0
 40
0.0
 40
0.0
 40
0.2372423294
 40
0.4999983821
 40
0.7627553152
 40
1.0
 40
1.0
 40
1.0
 40
1.0
 10
72.0248729712
 20
18.6082974237
 30
0.0
 10
72.0750679082
 20
18.6372773111
 30
0.0
 10
72.1700506291
 20
18.7172250319
 30
0.0
 10
72.2809108682
 20
18.8687212268
 30
0.0
 10
72.3566796383
 20
19.0404780325
 30
0.0
 10
72.3784248898
 20
19.1627100994
 30
0.0
 10
72.3784248898
 20
19.2206707092
 30
0.0
  0
SPLINE
  5
429
100
AcDbEntity
  8
0
100
AcDbSpline
 62
7
  6
CONTINUOUS
 70
0
 71
3
 72
11
 73
7
 74
0
 42
0.0000001
 43
0.0000001
 44
0.0000000001
 40
0.0
 40
0.0
 40
0.0
 40
0.0
 40
0.2864829572
 40
0.5467431313
 40
0.7820142095
 40
1.0
 40
1.0
 40
1.0
 40
1.0
 10
65.3780415548
 20
95.9309780578
 30
0.0
 10
65.398075961
 20
95.9425448586
 30
0.0
 10
65.4380620419
 20
95.9618075052
 30
0.0
 10
65.4993966785
 20
95.9785700823
 30
0.0
 10
65.5575732061
 20
95.9806758438
 30
0.0
 10
65.5937016458
 20
95.971663993
 30
0.0
 10
65.6099001441
 20
95.9647750893
 30
0.0
  0
SPLINE
  5
42A
100
AcDbEntity
  8
0
100
AcDbSpline
 62
7
  6
CONTINUOUS
 70
0
 71
3
 72
9
 73
5
 74
0
 42
0.0000001
 43
0.0000001
 44
0.0000000001
 40
0.0
 40
0.0
 40
0.0
 40
0.0
 40
0.2805758979
 40
1.0
 40
1.0
 40
1.0
 40
1.0
 10
23.5526031736
 20
51.2475678248
 30
0.0
 10
23.5526031736
 20
51.2295681541
 30
0.0
 10
23.5562227262
 20
51.1657766323
 30
0.0
 10
23.5767604098
 20
51.1007428644
 30
0.0
 10
23.6048733149
 20
51.0641401788
 30
0.0
  0
SPLINE
  5
42B
100
AcDbEntity
  8
0
100
AcDbSpline
 62
7
  6
CONTINUOUS
 70
0
 71
3
 72
9
 73
5
 74
0
 42
0.0000001
 43
0.0000001
 44
0.0000000001
 40
0.0
 40
0.0
 40
0.0
 40
0.0
 40
0.2563989971
 40
1.0
 40
1.0
 40
1.0
 40
1.0
 10
23.6048733149
 20
51.0641401788
 30
0.0
 10
23.60845407
 20
51.059478076
 30
0.0
 10
23.6232213693
 20
51.041931101
 30
0.0
 10
23.6414000494
 20
51.0272083559
 30
0.0
 10
23.6561647571
 20
51.0186841443
 30
0.0
  0
SPLINE
  5
42C
100
AcDbEntity
  8
0
100
AcDbSpline
 62
7
  6
CONTINUOUS
 70
0
 71
3
 72
11
 73
7
 74
0
 42
0.0000001
 43
0.0000001
 44
0.0000000001
 40
0.0
 40
0.0
 40
0.0
 40
0.0
 40
0.2411254994
 40
0.5038149139
 40
0.7645650719
 40
1.0
 40
1.0
 40
1.0
 40
1.0
 10
23.8844749645
 20
87.7727472856
 30
0.0
 10
23.8367678068
 20
87.7417645259
 30
0.0
 10
23.7472516006
 20
87.6611008112
 30
0.0
 10
23.6431461692
 20
87.5122655773
 30
0.0
 10
23.5726282997
 20
87.346364103
 30
0.0
 10
23.5526031736
 20
87.2292166994
 30
0.0
 10
23.5526031736
 20
87.1736741785
 30
0.0
  0
ELLIPSE
  5
42D
100
AcDbEntity
  8
0
100
AcDbEllipse
 62
7
  6
CONTINUOUS
 10
66.4567714784
 20
16.4513217581
 30
0.0
 11
0.9184921184
 21
1.1984950322
 31
0.0
 40
0.4692900393
 41
-2.2947840837
 42
-1.4720864623
  0
ELLIPSE
  5
42E
100
AcDbEntity
  8
0
100
AcDbEllipse
 62
7
  6
CONTINUOUS
 10
36.3618436481
 20
78.0809482695
 30
0.0
 11
29.2947854728
 21
-9.2657220828
 31
0.0
 40
0.6978942278
 41
2.856912851
 42
2.8604270373
  0
ELLIPSE
  5
42F
100
AcDbEntity
  8
0
100
AcDbEllipse
 62
7
  6
CONTINUOUS
 10
10.4508506487
 20
92.4128135835
 30
0.0
 11
0.4882464245
 21
-0.1544287014
 31
0.0
 40
0.6978942278
 41
-2.9243126005
 42
-2.138935498
  0
ELLIPSE
  5
430
100
AcDbEntity
  8
0
100
AcDbEllipse
 62
7
  6
CONTINUOUS
 10
11.8589879654
 20
94.4659831414
 30
0.0
 11
-0.9239429407
 21
1.5449374809
 31
0.0
 40
0.5873434459
 41
-0.7944262417
 42
-0.5981515876
  0
ELLIPSE
  5
431
100
AcDbEntity
  8
0
100
AcDbEllipse
 62
7
  6
CONTINUOUS
 10
21.5988964701
 20
100.0892883719
 30
0.0
 11
-0.8768029794
 21
1.5721646471
 31
0.0
 40
0.5671941543
 41
-0.7769621734
 42
-0.5806875193
  0
ELLIPSE
  5
432
100
AcDbEntity
  8
0
100
AcDbEllipse
 62
7
  6
CONTINUOUS
 10
60.1455155525
 20
35.1554257067
 30
0.0
 11
0.1952985698
 21
-0.0617714806
 31
0.0
 40
0.6978942278
 41
-2.138935498
 42
-0.5681391712
  0
ELLIPSE
  5
433
100
AcDbEntity
  8
0
100
AcDbEllipse
 62
7
  6
CONTINUOUS
 10
58.8988687526
 20
85.4648568823
 30
0.0
 11
0.178168153
 21
0.4711622056
 31
0.0
 40
0.658942232
 41
0.6780643341
 42
2.2488606609
  0
ELLIPSE
  5
434
100
AcDbEntity
  8
0
100
AcDbEllipse
 62
7
  6
CONTINUOUS
 10
68.8782482365
 20
40.1454777035
 30
0.0
 11
0.1952985698
 21
-0.0617714806
 31
0.0
 40
0.6978942278
 41
-0.5681391712
 42
0.2172548546
  0
ELLIPSE
  5
435
100
AcDbEntity
  8
0
100
AcDbEllipse
 62
7
  6
CONTINUOUS
 10
70.8489236015
 20
92.3641830827
 30
0.0
 11
0.178168153
 21
0.4711622056
 31
0.0
 40
0.658942232
 41
5.3904533145
 42
6.9612496413
  0
ENDSEC
  0
SECTION
  2
OBJECTS
  0
DICTIONARY
  5
C
100
AcDbDictionary
280
0
281
1
  3
ACAD_GROUP
350
D
  3
ACAD_MLINESTYLE
350
17
  3
ACAD_LAYOUT
350
1A
  3
ACAD_PLOTSETTINGS
350
19
  3
ACAD_PLOTSTYLENAME
350
E
  0
DICTIONARY
  5
D
102
{ACAD_REACTORS
330
C
102
}
100
AcDbDictionary
280
0
281
1
  0
ACDBDICTIONARYWDFLT
  5
E
102
{ACAD_REACTORS
330
C
102
}
100
AcDbDictionary
281
1
  3
Normal
350
F
100
AcDbDictionaryWithDefault
340
F
  0
DICTIONARY
  5
17
102
{ACAD_REACTORS
330
C
102
}
100
AcDbDictionary
280
0
281
1
  3
Standard
350
18
  0
DICTIONARY
  5
19
102
{ACAD_REACTORS
330
C
102
}
100
AcDbDictionary
281
1
  0
DICTIONARY
  5
1A
102
{ACAD_REACTORS
330
C
102
}
100
AcDbDictionary
281
1
  3
Model
350
436
  3
Layout1
350
437
  0
ACDBPLACEHOLDER
  5
F
102
{ACAD_REACTORS
330
E
102
}
  0
MLINESTYLE
  5
18
102
{ACAD_REACTORS
330
17
102
}
100
AcDbMlineStyle
  2
STANDARD
 70
0
  3

 62
256
 51
90.0
 52
90.0
 71
2
 49
0.5
 62
256
  6
BYLAYER
 49
-0.5
 62
256
  6
BYLAYER
  0
LAYOUT
  5
436
102
{ACAD_REACTORS
330
1A
102
}
100
AcDbPlotSettings
  1

  2
none_device
  4

  6

 40
0.0
 41
0.0
 42
0.0
 43
0.0
 44
210.0
 45
297.0
 46
0.0
 47
0.0
 48
0.0
 49
0.0
140
0.0
141
0.0
142
1.0
143
1.0
 70
1024
 72
1
 73
0
 74
0
  7

 75
0
147
1.0
148
0.0
149
0.0
100
AcDbLayout
  1
Model
 70
0
 71
0
 10
0.0
 20
0.0
 11
210.0
 21
297.0
 12
0.0
 22
0.0
 32
0.0
 14
0.0
 24
0.0
 34
0.0
 15
0.0
 25
0.0
 35
0.0
146
0.0
 13
0.0
 23
0.0
 33
0.0
 16
1.0
 26
0.0
 36
0.0
 17
0.0
 27
1.0
 37
0.0
 76
0
330
210
345
0
346
0
  0
LAYOUT
  5
437
102
{ACAD_REACTORS
330
1A
102
}
100
AcDbPlotSettings
  1

  2
none_device
  4

  6

 40
0.0
 41
0.0
 42
0.0
 43
0.0
 44
210.0
 45
297.0
 46
0.0
 47
0.0
 48
0.0
 49
0.0
140
0.0
141
0.0
142
1.0
143
1.0
 70
0
 72
1
 73
0
 74
0
  7

 75
0
147
1.0
148
0.0
149
0.0
100
AcDbLayout
  1
Layout1
 70
0
 71
1
 10
0.0
 20
0.0
 11
210.0
 21
297.0
 12
0.0
 22
0.0
 32
0.0
 14
0.0
 24
0.0
 34
0.0
 15
0.0
 25
0.0
 35
0.0
146
0.0
 13
0.0
 23
0.0
 33
0.0
 16
1.0
 26
0.0
 36
0.0
 17
0.0
 27
1.0
 37
0.0
 76
0
330
211
345
0
346
0
  0
ENDSEC
  0
EOF
