999
DXF file: C:\Users\sesa63760\Dev\_Creo\CAD\MCADID0001917_3D-CAD\drw0001_1.dxf
999
Pro/ENGINEER 2019471 by Parametric Technology Corporation
  0
SECTION
  2
HEADER
  9
$ACADVER
  1
AC1024
  9
$DWGCODEPAGE
  3
ANSI_1252
  9
$EXTMAX
 10
44.4567623934
 20
62.8745639563
 30
0.0
  9
$EXTMIN
 10
0.0
 20
0.0
 30
0.0
  9
$LIMMIN
 10
0.0
 20
0.0
  9
$LIMMAX
 10
44.4567623934
 20
62.8745639563
  9
$VIEWCTR
 10
22.2283811967
 20
31.4372819782
  9
$VIEWSIZE
 40
62.8745639563
  9
$CLAYER
  8
0
  9
$LTSCALE
 40
4.0984900949
  9
$CELTYPE
  6
BYLAYER
  9
$DIMSCALE
 40
1.0
  9
$DIMASZ
 40
0.5292471713
  9
$DIMEXO
 40
1.0
  9
$DIMDLI
 40
2.8316840656
  9
$DIMEXE
 40
1.0
  9
$DIMCEN
 40
0.6706620155
  9
$DIMLFAC
 40
1.0
  9
$DIMBLK
  1
_FILLED
  9
$DIMALT
 70
0
  9
$DIMALTF
 40
0.0393700787
  9
$DIMTXT
 40
0.7409460399
  9
$DIMTOL
 70
1
  9
$DIMLIM
 70
0
  9
$DIMTFAC
 40
1.0
  9
$DIMTP
 40
0.01
  9
$DIMTM
 40
0.01
  9
$DIMGAP
 40
0.625
  9
$DIMDSEP
 70
46
  9
$AUNITS
 70
0
  9
$PDMODE
 70
3
  9
$PDSIZE
 40
0.3125
  9
$HANDSEED
  5
3A1
  9
$TILEMODE
 70
1
  9
$MEASUREMENT
 70
1
  9
$INSUNITS
 70
4
  0
ENDSEC
  0
SECTION
  2
CLASSES
  0
CLASS
  1
ACDBDICTIONARYWDFLT
  2
AcDbDictionaryWithDefault
  3
AutoCAD 2000
 90
0
 91
1
280
0
281
0
  0
CLASS
  1
ACDBPLACEHOLDER
  2
AcDbPlaceHolder
  3
AutoCAD 2000
 90
0
 91
1
280
0
281
0
  0
CLASS
  1
LAYOUT
  2
AcDbLayout
  3
AutoCAD 2000
 90
0
 91
0
280
0
281
0
  0
ENDSEC
  0
SECTION
  2
TABLES
  0
TABLE
  2
VPORT
  5
8
100
AcDbSymbolTable
 70
2
  0
VPORT
  5
1F4
100
AcDbSymbolTableRecord
100
AcDbViewportTableRecord
  2
*ACTIVE
 70
0
 10
0.0
 20
0.0
 11
1.0
 21
1.0
 12
22.2283811967
 22
31.4372819782
 13
0.0
 23
0.0
 14
1.0
 24
1.0
 15
0.0
 25
0.0
 16
0.0
 26
0.0
 36
1.0
 17
0.0
 27
0.0
 37
0.0
 40
62.8745639563
 41
0.7070707071
 42
50.0
 43
0.0
 44
0.0
 50
0.0
 51
0.0
 71
0
 72
100
 73
1
 74
1
 75
0
 76
0
 77
0
 78
0
  0
ENDTAB
  0
TABLE
  2
LTYPE
  5
5
100
AcDbSymbolTable
 70
6
  0
LTYPE
  5
14
100
AcDbSymbolTableRecord
100
AcDbLinetypeTableRecord
  2
BYBLOCK
 70
0
  3

 72
65
 73
0
 40
0.0
  0
LTYPE
  5
15
100
AcDbSymbolTableRecord
100
AcDbLinetypeTableRecord
  2
BYLAYER
 70
0
  3

 72
65
 73
0
 40
0.0
  0
LTYPE
  5
16
100
AcDbSymbolTableRecord
100
AcDbLinetypeTableRecord
  2
CONTINUOUS
 70
64
  3
Solid line
 72
65
 73
0
 40
0.0
  0
LTYPE
  5
1F5
100
AcDbSymbolTableRecord
100
AcDbLinetypeTableRecord
  2
CENTER
 70
64
  3
____ _ ____ _ ____ _ ____ _ ____ _ ____ _ ____
 72
65
 73
4
 40
0.6
 49
0.375
 74
0
 49
-0.075
 74
0
 49
0.075
 74
0
 49
-0.075
 74
0
  0
LTYPE
  5
1F6
100
AcDbSymbolTableRecord
100
AcDbLinetypeTableRecord
  2
HIDDEN
 70
64
  3
- - - - - - - - - - - - - - - - - - - -
 72
65
 73
2
 40
0.2
 49
0.1
 74
0
 49
-0.1
 74
0
  0
LTYPE
  5
1F7
100
AcDbSymbolTableRecord
100
AcDbLinetypeTableRecord
  2
PHANTOM
 70
64
  3
_____ _ _ _____ _ _ _____ _ _ _____
 72
65
 73
6
 40
0.8
 49
0.45
 74
0
 49
-0.05
 74
0
 49
0.1
 74
0
 49
-0.05
 74
0
 49
0.1
 74
0
 49
-0.05
 74
0
  0
LTYPE
  5
1F8
100
AcDbSymbolTableRecord
100
AcDbLinetypeTableRecord
  2
DOT
 70
64
  3
. . . . . . . . . . . . . . . . . . . .
 72
65
 73
2
 40
0.2
 49
0.1
 74
0
 49
-0.1
 74
0
  0
LTYPE
  5
1F9
100
AcDbSymbolTableRecord
100
AcDbLinetypeTableRecord
  2
DASHED
 70
64
  3
- - - - - - - - - - - - - - - - - - - -
 72
65
 73
2
 40
0.2
 49
0.1
 74
0
 49
-0.1
 74
0
  0
ENDTAB
  0
TABLE
  2
LAYER
  5
2
100
AcDbSymbolTable
 70
36
  0
LAYER
  5
10
100
AcDbSymbolTableRecord
100
AcDbLayerTableRecord
  2
0
 70
0
 62
7
  6
CONTINUOUS
370
-3
390
F
  0
LAYER
  5
1FA
100
AcDbSymbolTableRecord
100
AcDbLayerTableRecord
  2
DEFAULT_1
 70
0
 62
7
  6
CENTER
370
-3
390
F
  0
LAYER
  5
1FB
100
AcDbSymbolTableRecord
100
AcDbLayerTableRecord
  2
DEFAULT_2
 70
0
 62
8
  6
HIDDEN
370
-3
390
F
  0
LAYER
  5
1FC
100
AcDbSymbolTableRecord
100
AcDbLayerTableRecord
  2
DEFAULT_3
 70
0
 62
7
  6
PHANTOM
370
-3
390
F
  0
LAYER
  5
1FD
100
AcDbSymbolTableRecord
100
AcDbLayerTableRecord
  2
00_COMPONENTS
 70
0
 62
7
  6
CONTINUOUS
370
-3
390
F
  0
LAYER
  5
1FE
100
AcDbSymbolTableRecord
100
AcDbLayerTableRecord
  2
01_1_DEFAULT_DATUMS
 70
0
 62
7
  6
CONTINUOUS
370
-3
390
F
  0
LAYER
  5
1FF
100
AcDbSymbolTableRecord
100
AcDbLayerTableRecord
  2
01_PLANES
 70
0
 62
7
  6
CONTINUOUS
370
-3
390
F
  0
LAYER
  5
200
100
AcDbSymbolTableRecord
100
AcDbLayerTableRecord
  2
02_COORD_SYS
 70
0
 62
7
  6
CONTINUOUS
370
-3
390
F
  0
LAYER
  5
201
100
AcDbSymbolTableRecord
100
AcDbLayerTableRecord
  2
03_AXES
 70
0
 62
7
  6
CONTINUOUS
370
-3
390
F
  0
LAYER
  5
202
100
AcDbSymbolTableRecord
100
AcDbLayerTableRecord
  2
04_POINTS
 70
0
 62
7
  6
CONTINUOUS
370
-3
390
F
  0
LAYER
  5
203
100
AcDbSymbolTableRecord
100
AcDbLayerTableRecord
  2
05_CURVES
 70
0
 62
7
  6
CONTINUOUS
370
-3
390
F
  0
LAYER
  5
204
100
AcDbSymbolTableRecord
100
AcDbLayerTableRecord
  2
06_SURFS
 70
0
 62
7
  6
CONTINUOUS
370
-3
390
F
  0
LAYER
  5
205
100
AcDbSymbolTableRecord
100
AcDbLayerTableRecord
  2
07_COSMETICS
 70
0
 62
7
  6
CONTINUOUS
370
-3
390
F
  0
LAYER
  5
206
100
AcDbSymbolTableRecord
100
AcDbLayerTableRecord
  2
10_NOTES
 70
0
 62
7
  6
CONTINUOUS
370
-3
390
F
  0
LAYER
  5
207
100
AcDbSymbolTableRecord
100
AcDbLayerTableRecord
  2
11_NOTES_PUB
 70
0
 62
7
  6
CONTINUOUS
370
-3
390
F
  0
LAYER
  5
208
100
AcDbSymbolTableRecord
100
AcDbLayerTableRecord
  2
13_REF_GTOL
 70
0
 62
7
  6
CONTINUOUS
370
-3
390
F
  0
LAYER
  5
209
100
AcDbSymbolTableRecord
100
AcDbLayerTableRecord
  2
16_MISC
 70
0
 62
7
  6
CONTINUOUS
370
-3
390
F
  0
LAYER
  5
20A
100
AcDbSymbolTableRecord
100
AcDbLayerTableRecord
  2
17_NO_PRINT
 70
0
 62
7
  6
CONTINUOUS
370
-3
390
F
  0
LAYER
  5
20B
100
AcDbSymbolTableRecord
100
AcDbLayerTableRecord
  2
18_DATUM_CAMS_JOINTS
 70
0
 62
7
  6
CONTINUOUS
370
-3
390
F
  0
LAYER
  5
20C
100
AcDbSymbolTableRecord
100
AcDbLayerTableRecord
  2
19_DATUM_FUNCTIONAL
 70
0
 62
7
  6
CONTINUOUS
370
-3
390
F
  0
LAYER
  5
20D
100
AcDbSymbolTableRecord
100
AcDbLayerTableRecord
  2
20_DATUM_KINEMATIC_SCHEME
 70
0
 62
7
  6
CONTINUOUS
370
-3
390
F
  0
ENDTAB
  0
TABLE
  2
STYLE
  5
3
100
AcDbSymbolTable
 70
1
  0
STYLE
  5
11
100
AcDbSymbolTableRecord
100
AcDbTextStyleTableRecord
  2
STANDARD
 70
0
 40
0.0
 41
0.8
 50
0.0
 71
0
 42
0.2
  3
txt
  4

  0
STYLE
  5
20E
100
AcDbSymbolTableRecord
100
AcDbTextStyleTableRecord
  2
TEXTSTYLE_1
 70
0
 40
0.0
 41
0.8
 50
0.0
 71
0
 42
0.2
  3
gdt
  4

  0
ENDTAB
  0
TABLE
  2
VIEW
  5
6
100
AcDbSymbolTable
 70
0
  0
ENDTAB
  0
TABLE
  2
UCS
  5
7
100
AcDbSymbolTable
 70
0
  0
ENDTAB
  0
TABLE
  2
APPID
  5
9
100
AcDbSymbolTable
 70
1
  0
APPID
  5
20F
100
AcDbSymbolTableRecord
100
AcDbRegAppTableRecord
  2
ACAD
 70
0
  0
ENDTAB
  0
TABLE
  2
BLOCK_RECORD
  5
1
100
AcDbSymbolTable
 70
0
  0
BLOCK_RECORD
  5
210
100
AcDbSymbolTableRecord
100
AcDbBlockTableRecord
  2
*Model_Space
  0
BLOCK_RECORD
  5
211
100
AcDbSymbolTableRecord
100
AcDbBlockTableRecord
  2
*Paper_Space
  0
BLOCK_RECORD
  5
212
100
AcDbSymbolTableRecord
100
AcDbBlockTableRecord
  2
_FILLED
  0
ENDTAB
  0
TABLE
  2
DIMSTYLE
  5
A
100
AcDbSymbolTable
 70
1
100
AcDbDimStyleTable
 71
0
  0
DIMSTYLE
105
213
100
AcDbSymbolTableRecord
100
AcDbDimStyleTableRecord
  2
STANDARD
 70
0
  3

  4

 40
1.0
 41
0.5292471713
 42
1.0
 43
0.38
 44
1.0
 45
0.0
 46
0.0
 47
0.01
 48
0.01
140
0.7409460399
141
0.09
142
0.0
143
25.4
144
1.0
145
0.0
146
1.0
147
0.625
 71
1
 72
0
 73
0
 74
0
 75
0
 76
0
 77
1
 78
8
 79
2
170
0
171
1
172
0
173
0
174
0
175
0
176
0
177
0
178
0
270
2
179
2
271
2
272
2
273
2
274
2
275
0
280
0
281
0
282
0
283
1
284
8
285
0
286
0
287
3
288
0
340
11
278
46
341
212
342
212
343
212
344
212
  0
ENDTAB
  0
ENDSEC
  0
SECTION
  2
BLOCKS
  0
BLOCK
  5
20
100
AcDbEntity
  8
0
100
AcDbBlockBegin
  2
*Model_Space
 70
0
 10
0.0
 20
0.0
 30
0.0
  3
*Model_Space
  1

  0
ENDBLK
  5
21
100
AcDbEntity
  8
0
100
AcDbBlockEnd
  0
BLOCK
  5
1C
100
AcDbEntity
  8
0
100
AcDbBlockBegin
  2
*Paper_Space
 70
0
 10
0.0
 20
0.0
 30
0.0
  3
*Paper_Space
  1

  0
ENDBLK
  5
1D
100
AcDbEntity
  8
0
100
AcDbBlockEnd
  0
BLOCK
  5
214
100
AcDbEntity
  8
0
100
AcDbBlockBegin
  2
_FILLED
 70
64
 10
0.0
 20
0.0
  3
_FILLED
  1

  0
SOLID
  5
215
100
AcDbEntity
  8
0
  6
BYBLOCK
 62
0
100
AcDbTrace
 10
0.0
 20
0.0
 11
-1.0
 21
0.25
 12
-1.0
 22
-0.25
 13
-1.0
 23
-0.25
  0
ENDBLK
  5
216
100
AcDbEntity
  8
0
  6
BYBLOCK
 62
0
100
AcDbBlockEnd
  0
ENDSEC
  0
SECTION
  2
ENTITIES
  0
LINE
  5
217
100
AcDbEntity
  8
0
100
AcDbLine
 62
7
  6
CONTINUOUS
 10
12.802049784
 20
8.264858047
 11
5.2417508375
 21
12.629699933
  0
LINE
  5
218
100
AcDbEntity
  8
0
100
AcDbLine
 62
7
  6
CONTINUOUS
 10
20.149038063
 20
4.852734802
 11
13.3240149959
 21
8.7930745646
  0
LINE
  5
219
100
AcDbEntity
  8
0
100
AcDbLine
 62
7
  6
CONTINUOUS
 10
10.7790814044
 20
51.153544818
 11
11.1382901537
 21
51.3609328481
  0
LINE
  5
21A
100
AcDbEntity
  8
0
100
AcDbLine
 62
7
  6
CONTINUOUS
 10
13.3833448369
 20
52.6571080367
 11
13.7425535862
 21
52.8644960669
  0
LINE
  5
21B
100
AcDbEntity
  8
0
100
AcDbLine
 62
7
  6
CONTINUOUS
 10
17.7836520158
 20
55.1976114062
 11
18.1428607651
 21
55.4049994364
  0
LINE
  5
21C
100
AcDbEntity
  8
0
100
AcDbLine
 62
7
  6
CONTINUOUS
 10
22.4533657568
 20
57.8936557984
 11
22.8125745061
 21
58.1010438286
  0
LINE
  5
21D
100
AcDbEntity
  8
0
100
AcDbLine
 62
7
  6
CONTINUOUS
 10
5.2417508375
 20
15.3257909144
 11
20.149038063
 21
6.7192593276
  0
LINE
  5
21E
100
AcDbEntity
  8
0
100
AcDbLine
 62
7
  6
CONTINUOUS
 10
5.3764544923
 20
15.351714634
 11
20.1041358477
 21
6.8488761988
  0
LINE
  5
21F
100
AcDbEntity
  8
0
100
AcDbLine
 62
7
  6
CONTINUOUS
 10
20.149038063
 20
6.9266509415
 11
5.2417508375
 21
15.5331825283
  0
LINE
  5
220
100
AcDbEntity
  8
0
100
AcDbLine
 62
7
  6
CONTINUOUS
 10
12.6953645395
 20
49.13064524
 11
13.0545732888
 21
49.3380332702
  0
LINE
  5
221
100
AcDbEntity
  8
0
100
AcDbLine
 62
7
  6
CONTINUOUS
 10
15.299627972
 20
50.6342084588
 11
15.6588367213
 21
50.8415964889
  0
LINE
  5
222
100
AcDbEntity
  8
0
100
AcDbLine
 62
7
  6
CONTINUOUS
 10
19.699935151
 20
53.1747118283
 11
20.0591439003
 21
53.3820998585
  0
LINE
  5
223
100
AcDbEntity
  8
0
100
AcDbLine
 62
7
  6
CONTINUOUS
 10
24.3696488919
 20
55.8707562205
 11
24.7288576412
 21
56.0781442506
  0
LINE
  5
224
100
AcDbEntity
  8
0
100
AcDbLine
 62
7
  6
CONTINUOUS
 10
24.9982320492
 20
55.9743501406
 11
24.7288576412
 21
55.818827682
  0
LINE
  5
225
100
AcDbEntity
  8
0
100
AcDbLine
 62
7
  6
CONTINUOUS
 10
23.6564484805
 20
55.1996756602
 11
23.1432062229
 21
54.9033568734
  0
LINE
  5
226
100
AcDbEntity
  8
0
100
AcDbLine
 62
7
  6
CONTINUOUS
 10
22.1245755146
 20
54.3152536703
 11
21.4959467435
 21
53.9523168465
  0
LINE
  5
227
100
AcDbEntity
  8
0
100
AcDbLine
 62
7
  6
CONTINUOUS
 10
17.4548617736
 20
51.6192092781
 11
15.6588367213
 21
50.5822799203
  0
LINE
  5
228
100
AcDbEntity
  8
0
100
AcDbLine
 62
7
  6
CONTINUOUS
 10
14.5864275605
 20
49.9631278985
 11
14.073185303
 21
49.6668091117
  0
LINE
  5
229
100
AcDbEntity
  8
0
100
AcDbLine
 62
7
  6
CONTINUOUS
 10
8.7440361432
 20
46.5900417756
 11
5.2417508375
 21
44.5680084814
  0
LINE
  5
22A
100
AcDbEntity
  8
0
100
AcDbLine
 62
7
  6
CONTINUOUS
 10
8.9236420134
 20
46.4863486239
 11
10.4502911622
 21
47.3677546597
  0
LINE
  5
22B
100
AcDbEntity
  8
0
100
AcDbLine
 62
7
  6
CONTINUOUS
 10
11.5778949372
 20
48.0187731167
 11
12.0701854318
 21
48.3029954696
  0
LINE
  5
22C
100
AcDbEntity
  8
0
100
AcDbLine
 62
7
  6
CONTINUOUS
 10
18.5824655487
 20
52.0628397049
 11
19.0747560433
 21
52.3470620579
  0
LINE
  5
22D
100
AcDbEntity
  8
0
100
AcDbLine
 62
7
  6
CONTINUOUS
 10
20.0591439003
 20
52.9153952596
 11
21.6755526137
 21
53.8486236948
  0
LINE
  5
22E
100
AcDbEntity
  8
0
100
AcDbLine
 62
7
  6
CONTINUOUS
 10
13.9221841327
 20
49.3389146641
 11
14.281392882
 21
49.5463026943
  0
LINE
  5
22F
100
AcDbEntity
  8
0
100
AcDbLine
 62
7
  6
CONTINUOUS
 10
16.5264475651
 20
50.8424778828
 11
16.8856563144
 21
51.049865913
  0
LINE
  5
230
100
AcDbEntity
  8
0
100
AcDbLine
 62
7
  6
CONTINUOUS
 10
20.9267547441
 20
53.3829812524
 11
21.2859634934
 21
53.5903692826
  0
LINE
  5
231
100
AcDbEntity
  8
0
100
AcDbLine
 62
7
  6
CONTINUOUS
 10
22.1245755146
 20
54.0456671499
 11
21.4086110053
 21
53.6323073151
  0
LINE
  5
232
100
AcDbEntity
  8
0
100
AcDbLine
 62
7
  6
CONTINUOUS
 10
20.8291030987
 20
53.2977302665
 11
20.3824090425
 21
53.0398328723
  0
LINE
  5
233
100
AcDbEntity
  8
0
100
AcDbLine
 62
7
  6
CONTINUOUS
 10
17.4548617736
 20
51.3496227577
 11
17.0083038263
 21
51.0918039456
  0
LINE
  5
234
100
AcDbEntity
  8
0
100
AcDbLine
 62
7
  6
CONTINUOUS
 10
16.4287959198
 20
50.7572268969
 11
15.6588367213
 21
50.3126933999
  0
LINE
  5
235
100
AcDbEntity
  8
0
100
AcDbLine
 62
7
  6
CONTINUOUS
 10
14.691412947
 20
49.7541543574
 11
14.4040403938
 21
49.5882407269
  0
LINE
  5
236
100
AcDbEntity
  8
0
100
AcDbLine
 62
7
  6
CONTINUOUS
 10
12.0871495145
 20
48.2505911387
 11
11.6105774417
 21
47.9754437666
  0
LINE
  5
237
100
AcDbEntity
  8
0
100
AcDbLine
 62
7
  6
CONTINUOUS
 10
10.4502911622
 20
47.3055561695
 11
7.50477538
 21
45.6049719908
  0
LINE
  5
238
100
AcDbEntity
  8
0
100
AcDbLine
 62
7
  6
CONTINUOUS
 10
5.4213598113
 20
43.4273554682
 11
5.2417508375
 21
43.3236587977
  0
LINE
  5
239
100
AcDbEntity
  8
0
100
AcDbLine
 62
7
  6
CONTINUOUS
 10
5.2417508375
 20
12.629699933
 11
5.2417508375
 21
15.3257909144
  0
LINE
  5
23A
100
AcDbEntity
  8
0
100
AcDbLine
 62
7
  6
CONTINUOUS
 10
5.2417508375
 20
15.5331825283
 11
5.2417508375
 21
43.3236587977
  0
LINE
  5
23B
100
AcDbEntity
  8
0
100
AcDbLine
 62
7
  6
CONTINUOUS
 10
5.2417508375
 20
43.5310504117
 11
5.2417508375
 21
44.5680084814
  0
LINE
  5
23C
100
AcDbEntity
  8
0
100
AcDbLine
 62
7
  6
CONTINUOUS
 10
5.3764544923
 20
15.351714634
 11
5.3764544923
 21
15.4554130963
  0
LINE
  5
23D
100
AcDbEntity
  8
0
100
AcDbLine
 62
7
  6
CONTINUOUS
 10
5.4213559599
 20
43.3236592294
 11
5.4213559599
 21
43.4273576917
  0
LINE
  5
23E
100
AcDbEntity
  8
0
100
AcDbLine
 62
7
  6
CONTINUOUS
 10
15.8384672678
 20
47.3160150862
 11
16.1976760171
 21
47.5234031164
  0
LINE
  5
23F
100
AcDbEntity
  8
0
100
AcDbLine
 62
7
  6
CONTINUOUS
 10
18.4427307003
 20
48.8195783049
 11
18.8019394496
 21
49.0269663351
  0
LINE
  5
240
100
AcDbEntity
  8
0
100
AcDbLine
 62
7
  6
CONTINUOUS
 10
22.8430378793
 20
51.3600816745
 11
23.2022466286
 21
51.5674697046
  0
LINE
  5
241
100
AcDbEntity
  8
0
100
AcDbLine
 62
7
  6
CONTINUOUS
 10
12.6953645395
 20
45.4494440924
 11
13.0545732888
 21
45.6568321226
  0
LINE
  5
242
100
AcDbEntity
  8
0
100
AcDbLine
 62
7
  6
CONTINUOUS
 10
19.699935151
 20
49.4935106807
 11
20.0591439003
 21
49.7008987108
  0
LINE
  5
243
100
AcDbEntity
  8
0
100
AcDbLine
 62
7
  6
CONTINUOUS
 10
24.3696488919
 20
52.1895550728
 11
24.7288576412
 21
52.396943103
  0
LINE
  5
244
100
AcDbEntity
  8
0
100
AcDbLine
 62
7
  6
CONTINUOUS
 10
27.6755511432
 20
9.1981432163
 11
28.3939870387
 21
8.7833634422
  0
LINE
  5
245
100
AcDbEntity
  8
0
100
AcDbLine
 62
7
  6
CONTINUOUS
 10
7.50477538
 20
44.5680139211
 11
7.50477538
 21
45.6049719908
  0
LINE
  5
246
100
AcDbEntity
  8
0
100
AcDbLine
 62
7
  6
CONTINUOUS
 10
17.0652868609
 20
47.5242845103
 11
17.4244956103
 21
47.7316725405
  0
LINE
  5
247
100
AcDbEntity
  8
0
100
AcDbLine
 62
7
  6
CONTINUOUS
 10
19.6695502934
 20
49.027847729
 11
20.0287590427
 21
49.2352357592
  0
LINE
  5
248
100
AcDbEntity
  8
0
100
AcDbLine
 62
7
  6
CONTINUOUS
 10
24.0698574724
 20
51.5683510985
 11
24.4290662217
 21
51.7757391287
  0
LINE
  5
249
100
AcDbEntity
  8
0
100
AcDbLine
 62
7
  6
CONTINUOUS
 10
30.6558169601
 20
52.7080158637
 11
30.4762125855
 21
52.6043218486
  0
LINE
  5
24A
100
AcDbEntity
  8
0
100
AcDbLine
 62
7
  6
CONTINUOUS
 10
11.078940123
 20
41.4053682196
 11
10.8993357484
 21
41.3016742045
  0
LINE
  5
24B
100
AcDbEntity
  8
0
100
AcDbLine
 62
7
  6
CONTINUOUS
 10
18.9815699961
 20
45.5013849324
 11
19.3407787454
 21
45.7087729625
  0
LINE
  5
24C
100
AcDbEntity
  8
0
100
AcDbLine
 62
7
  6
CONTINUOUS
 10
21.5858334286
 20
47.0049481511
 11
21.9450421779
 21
47.2123361812
  0
LINE
  5
24D
100
AcDbEntity
  8
0
100
AcDbLine
 62
7
  6
CONTINUOUS
 10
25.9861406075
 20
49.5454515206
 11
26.3453493568
 21
49.7528395508
  0
LINE
  5
24E
100
AcDbEntity
  8
0
100
AcDbLine
 62
7
  6
CONTINUOUS
 10
15.8384672678
 20
43.6348139386
 11
16.1976760171
 21
43.8422019687
  0
LINE
  5
24F
100
AcDbEntity
  8
0
100
AcDbLine
 62
7
  6
CONTINUOUS
 10
22.8430378793
 20
47.6788805268
 11
23.2022466286
 21
47.886268557
  0
LINE
  5
250
100
AcDbEntity
  8
0
100
AcDbLine
 62
7
  6
CONTINUOUS
 10
20.2083895892
 20
45.7096543565
 11
20.5675983385
 21
45.9170423866
  0
LINE
  5
251
100
AcDbEntity
  8
0
100
AcDbLine
 62
7
  6
CONTINUOUS
 10
22.8126530217
 20
47.2132175752
 11
23.171861771
 21
47.4206056053
  0
LINE
  5
252
100
AcDbEntity
  8
0
100
AcDbLine
 62
7
  6
CONTINUOUS
 10
27.2129602007
 20
49.7537209447
 11
27.57216895
 21
49.9611089749
  0
LINE
  5
253
100
AcDbEntity
  8
0
100
AcDbLine
 62
7
  6
CONTINUOUS
 10
31.8826739416
 20
52.4497653369
 11
32.2418826909
 21
52.657153367
  0
LINE
  5
254
100
AcDbEntity
  8
0
100
AcDbLine
 62
7
  6
CONTINUOUS
 10
10.8993357484
 20
40.2647161348
 11
11.078940123
 21
40.3684101498
  0
LINE
  5
255
100
AcDbEntity
  8
0
100
AcDbLine
 62
7
  6
CONTINUOUS
 10
10.4502911622
 20
46.745608488
 11
10.4502911622
 21
50.4268096357
  0
LINE
  5
256
100
AcDbEntity
  8
0
100
AcDbLine
 62
7
  6
CONTINUOUS
 10
10.8993357484
 20
41.3016742045
 11
10.8993357484
 21
40.2647161348
  0
LINE
  5
257
100
AcDbEntity
  8
0
100
AcDbLine
 62
7
  6
CONTINUOUS
 10
11.078940123
 20
41.4053682196
 11
11.078940123
 21
40.3684101498
  0
LINE
  5
258
100
AcDbEntity
  8
0
100
AcDbLine
 62
7
  6
CONTINUOUS
 10
22.1246727244
 20
43.6867547785
 11
22.4838814737
 21
43.8941428087
  0
LINE
  5
259
100
AcDbEntity
  8
0
100
AcDbLine
 62
7
  6
CONTINUOUS
 10
24.7289361568
 20
45.1903179972
 11
25.0881449061
 21
45.3977060274
  0
LINE
  5
25A
100
AcDbEntity
  8
0
100
AcDbLine
 62
7
  6
CONTINUOUS
 10
29.1292433358
 20
47.7308213668
 11
29.4884520851
 21
47.9382093969
  0
LINE
  5
25B
100
AcDbEntity
  8
0
100
AcDbLine
 62
7
  6
CONTINUOUS
 10
33.7989570768
 20
50.4268657589
 11
34.1581658261
 21
50.6342537891
  0
LINE
  5
25C
100
AcDbEntity
  8
0
100
AcDbLine
 62
7
  6
CONTINUOUS
 10
18.9815699961
 20
41.8201837847
 11
19.3407787454
 21
42.0275718149
  0
LINE
  5
25D
100
AcDbEntity
  8
0
100
AcDbLine
 62
7
  6
CONTINUOUS
 10
25.9861406075
 20
45.864250373
 11
26.3453493568
 21
46.0716384032
  0
LINE
  5
25E
100
AcDbEntity
  8
0
100
AcDbLine
 62
7
  6
CONTINUOUS
 10
14.4914531521
 20
39.2278111716
 11
14.6710575268
 21
39.3315051866
  0
LINE
  5
25F
100
AcDbEntity
  8
0
100
AcDbLine
 62
7
  6
CONTINUOUS
 10
34.1581658261
 20
50.5823252506
 11
34.2479343639
 21
50.6341528307
  0
LINE
  5
260
100
AcDbEntity
  8
0
100
AcDbLine
 62
7
  6
CONTINUOUS
 10
27.8720261731
 20
9.3115774506
 11
28.3939870387
 21
8.7833634422
  0
LINE
  5
261
100
AcDbEntity
  8
0
100
AcDbLine
 62
7
  6
CONTINUOUS
 10
12.6953645395
 20
49.13064524
 11
12.6953645395
 21
45.4494440924
  0
LINE
  5
262
100
AcDbEntity
  8
0
100
AcDbLine
 62
7
  6
CONTINUOUS
 10
13.0545732888
 20
45.6568321226
 11
13.0545545947
 21
51.9303728544
  0
LINE
  5
263
100
AcDbEntity
  8
0
100
AcDbLine
 62
7
  6
CONTINUOUS
 10
13.5933938905
 20
44.9309783342
 11
13.5933938905
 21
48.6121794818
  0
LINE
  5
264
100
AcDbEntity
  8
0
100
AcDbLine
 62
7
  6
CONTINUOUS
 10
14.4914531521
 20
38.1908531018
 11
14.4914531521
 21
39.2278111716
  0
LINE
  5
265
100
AcDbEntity
  8
0
100
AcDbLine
 62
7
  6
CONTINUOUS
 10
15.299627972
 20
50.6342084588
 11
15.299627972
 21
49.3087246769
  0
LINE
  5
266
100
AcDbEntity
  8
0
100
AcDbLine
 62
7
  6
CONTINUOUS
 10
15.6588367213
 20
48.9124986732
 11
15.6588367213
 21
50.8415964889
  0
LINE
  5
267
100
AcDbEntity
  8
0
100
AcDbLine
 62
7
  6
CONTINUOUS
 10
15.8384672678
 20
47.3160150862
 11
15.8384672678
 21
43.6348139386
  0
LINE
  5
268
100
AcDbEntity
  8
0
100
AcDbLine
 62
7
  6
CONTINUOUS
 10
16.1976760171
 20
43.8422019687
 11
16.1976573229
 21
50.1157427005
  0
LINE
  5
269
100
AcDbEntity
  8
0
100
AcDbLine
 62
7
  6
CONTINUOUS
 10
22.1246727244
 20
40.0055536309
 11
22.4838814737
 21
40.2129416611
  0
LINE
  5
26A
100
AcDbEntity
  8
0
100
AcDbLine
 62
7
  6
CONTINUOUS
 10
24.7289361568
 20
41.5091168496
 11
25.0881449061
 21
41.7165048798
  0
LINE
  5
26B
100
AcDbEntity
  8
0
100
AcDbLine
 62
7
  6
CONTINUOUS
 10
29.1292433358
 20
44.0496202191
 11
29.4884520851
 21
44.2570082493
  0
LINE
  5
26C
100
AcDbEntity
  8
0
100
AcDbLine
 62
7
  6
CONTINUOUS
 10
33.7989570768
 20
46.7456646113
 11
34.1581658261
 21
46.9530526415
  0
LINE
  5
26D
100
AcDbEntity
  8
0
100
AcDbLine
 62
7
  6
CONTINUOUS
 10
35.9003322982
 20
47.3989392376
 11
33.0266623037
 21
45.7398349963
  0
LINE
  5
26E
100
AcDbEntity
  8
0
100
AcDbLine
 62
7
  6
CONTINUOUS
 10
31.1048954949
 20
44.6303090349
 11
20.1490286411
 21
38.3049741148
  0
LINE
  5
26F
100
AcDbEntity
  8
0
100
AcDbLine
 62
7
  6
CONTINUOUS
 10
20.1490286411
 20
37.268016045
 11
31.1048954949
 21
43.5933509651
  0
LINE
  5
270
100
AcDbEntity
  8
0
100
AcDbLine
 62
7
  6
CONTINUOUS
 10
33.0266623037
 20
44.7028769265
 11
35.9003322982
 21
46.3619811679
  0
LINE
  5
271
100
AcDbEntity
  8
0
100
AcDbLine
 62
7
  6
CONTINUOUS
 10
16.7364966188
 20
43.1163481803
 11
16.7364966188
 21
46.797549328
  0
LINE
  5
272
100
AcDbEntity
  8
0
100
AcDbLine
 62
7
  6
CONTINUOUS
 10
17.4548617736
 20
51.0715225649
 11
17.4548617736
 21
54.4708762239
  0
LINE
  5
273
100
AcDbEntity
  8
0
100
AcDbLine
 62
7
  6
CONTINUOUS
 10
18.4427307003
 20
48.8195783049
 11
18.4427307003
 21
47.4940945231
  0
LINE
  5
274
100
AcDbEntity
  8
0
100
AcDbLine
 62
7
  6
CONTINUOUS
 10
36.2236280989
 20
45.4494784113
 11
32.6315406058
 21
43.3755981097
  0
LINE
  5
275
100
AcDbEntity
  8
0
100
AcDbLine
 62
7
  6
CONTINUOUS
 10
27.0638049916
 20
40.1610836421
 11
23.4717174985
 21
38.0872033404
  0
LINE
  5
276
100
AcDbEntity
  8
0
100
AcDbLine
 62
7
  6
CONTINUOUS
 10
20.149038063
 20
35.9614768946
 11
23.6513233687
 21
37.9835101888
  0
LINE
  5
277
100
AcDbEntity
  8
0
100
AcDbLine
 62
7
  6
CONTINUOUS
 10
27.2434108618
 20
40.0573904904
 11
32.811146476
 21
43.271904958
  0
LINE
  5
278
100
AcDbEntity
  8
0
100
AcDbLine
 62
7
  6
CONTINUOUS
 10
36.4032339691
 20
45.3457852597
 11
39.9055192748
 21
47.3678185538
  0
LINE
  5
279
100
AcDbEntity
  8
0
100
AcDbLine
 62
7
  6
CONTINUOUS
 10
36.2236280989
 20
44.4125203416
 11
32.811146476
 21
42.4423349184
  0
LINE
  5
27A
100
AcDbEntity
  8
0
100
AcDbLine
 62
7
  6
CONTINUOUS
 10
27.0638049916
 20
39.1241255723
 11
23.6513233687
 21
37.1539401492
  0
LINE
  5
27B
100
AcDbEntity
  8
0
100
AcDbLine
 62
7
  6
CONTINUOUS
 10
36.313431034
 20
44.3606737658
 11
32.811146476
 21
42.3386409033
  0
LINE
  5
27C
100
AcDbEntity
  8
0
100
AcDbLine
 62
7
  6
CONTINUOUS
 10
27.1536079267
 20
39.0722789965
 11
23.6513233687
 21
37.0502461341
  0
LINE
  5
27D
100
AcDbEntity
  8
0
100
AcDbLine
 62
7
  6
CONTINUOUS
 10
39.9055192748
 20
46.3308604841
 11
36.4032339691
 21
44.3088271899
  0
LINE
  5
27E
100
AcDbEntity
  8
0
100
AcDbLine
 62
7
  6
CONTINUOUS
 10
32.811146476
 20
42.2349468883
 11
27.2434108618
 21
39.0204324207
  0
LINE
  5
27F
100
AcDbEntity
  8
0
100
AcDbLine
 62
7
  6
CONTINUOUS
 10
23.6513233687
 20
36.946552119
 11
20.149038063
 21
34.9245188249
  0
LINE
  5
280
100
AcDbEntity
  8
0
100
AcDbLine
 62
7
  6
CONTINUOUS
 10
20.1490373152
 20
34.8208207943
 11
39.7259141524
 21
46.1234684384
  0
LINE
  5
281
100
AcDbEntity
  8
0
100
AcDbLine
 62
7
  6
CONTINUOUS
 10
20.149038063
 20
34.7171272109
 11
39.9055192748
 21
46.1234688701
  0
LINE
  5
282
100
AcDbEntity
  8
0
100
AcDbLine
 62
7
  6
CONTINUOUS
 10
18.8019394496
 20
47.0978685193
 11
18.8019394496
 21
49.0269663351
  0
LINE
  5
283
100
AcDbEntity
  8
0
100
AcDbLine
 62
7
  6
CONTINUOUS
 10
18.9815699961
 20
45.5013849324
 11
18.9815699961
 21
41.8201837847
  0
LINE
  5
284
100
AcDbEntity
  8
0
100
AcDbLine
 62
7
  6
CONTINUOUS
 10
19.3407787454
 20
42.0275718149
 11
19.3407600512
 21
48.3011125467
  0
LINE
  5
285
100
AcDbEntity
  8
0
100
AcDbLine
 62
7
  6
CONTINUOUS
 10
19.699935151
 20
53.1747118283
 11
19.699935151
 21
49.4935106807
  0
LINE
  5
286
100
AcDbEntity
  8
0
100
AcDbLine
 62
7
  6
CONTINUOUS
 10
19.879599347
 20
41.3017180265
 11
19.879599347
 21
44.9829191741
  0
LINE
  5
287
100
AcDbEntity
  8
0
100
AcDbLine
 62
7
  6
CONTINUOUS
 10
20.0591439003
 20
49.7008987108
 11
20.0591439003
 21
53.3820998585
  0
LINE
  5
288
100
AcDbEntity
  8
0
100
AcDbLine
 62
7
  6
CONTINUOUS
 10
20.1041358477
 20
6.9525746611
 11
20.1041358477
 21
6.8488761988
  0
LINE
  5
289
100
AcDbEntity
  8
0
100
AcDbLine
 62
7
  6
CONTINUOUS
 10
20.1490286411
 20
38.3049741148
 11
20.1490286411
 21
37.268016045
  0
LINE
  5
28A
100
AcDbEntity
  8
0
100
AcDbLine
 62
7
  6
CONTINUOUS
 10
20.149038063
 20
4.852734802
 11
20.149038063
 21
6.7192593276
  0
LINE
  5
28B
100
AcDbEntity
  8
0
100
AcDbLine
 62
7
  6
CONTINUOUS
 10
20.149038063
 20
6.9266509415
 11
20.149038063
 21
34.7171272109
  0
LINE
  5
28C
100
AcDbEntity
  8
0
100
AcDbLine
 62
7
  6
CONTINUOUS
 10
20.1490373152
 20
34.8208207943
 11
20.149038063
 21
35.9614768946
  0
LINE
  5
28D
100
AcDbEntity
  8
0
100
AcDbLine
 62
7
  6
CONTINUOUS
 10
20.3824090425
 20
52.0028748026
 11
20.3824090425
 21
53.0398328723
  0
LINE
  5
28E
100
AcDbEntity
  8
0
100
AcDbLine
 62
7
  6
CONTINUOUS
 10
20.5979645019
 20
49.2568924111
 11
20.5979645019
 21
52.6562460701
  0
LINE
  5
28F
100
AcDbEntity
  8
0
100
AcDbLine
 62
7
  6
CONTINUOUS
 10
26.7943999252
 20
36.4798896295
 11
22.8431036828
 21
34.1986212977
  0
LINE
  5
290
100
AcDbEntity
  8
0
100
AcDbLine
 62
7
  6
CONTINUOUS
 10
39.9055192748
 20
18.1256009867
 11
39.7259103009
 21
18.2292959302
  0
LINE
  5
291
100
AcDbEntity
  8
0
100
AcDbLine
 62
7
  6
CONTINUOUS
 10
21.4959467435
 20
53.9523168465
 11
21.4959467435
 21
53.7449288163
  0
LINE
  5
292
100
AcDbEntity
  8
0
100
AcDbLine
 62
7
  6
CONTINUOUS
 10
21.5858334286
 20
47.0049481511
 11
21.5858334286
 21
45.6794643692
  0
LINE
  5
293
100
AcDbEntity
  8
0
100
AcDbLine
 62
7
  6
CONTINUOUS
 10
21.9450421779
 20
45.2832383655
 11
21.9450421779
 21
47.2123361812
  0
LINE
  5
294
100
AcDbEntity
  8
0
100
AcDbLine
 62
7
  6
CONTINUOUS
 10
22.1245755146
 20
53.4857194684
 11
22.1245755146
 21
57.1669206161
  0
LINE
  5
295
100
AcDbEntity
  8
0
100
AcDbLine
 62
7
  6
CONTINUOUS
 10
22.1246727244
 20
43.6867547785
 11
22.1246727244
 21
40.0055536309
  0
LINE
  5
296
100
AcDbEntity
  8
0
100
AcDbLine
 62
7
  6
CONTINUOUS
 10
22.4838814737
 20
40.2129416611
 11
22.4838627795
 21
46.4864823928
  0
LINE
  5
297
100
AcDbEntity
  8
0
100
AcDbLine
 62
7
  6
CONTINUOUS
 10
22.8430378793
 20
51.3600816745
 11
22.8430378793
 21
47.6788805268
  0
LINE
  5
298
100
AcDbEntity
  8
0
100
AcDbLine
 62
7
  6
CONTINUOUS
 10
22.8431036828
 20
34.1986212977
 11
22.8431036828
 21
29.0138309489
  0
LINE
  5
299
100
AcDbEntity
  8
0
100
AcDbLine
 62
7
  6
CONTINUOUS
 10
35.4154084129
 20
22.5845610368
 11
35.5950142831
 21
22.4808678851
  0
LINE
  5
29A
100
AcDbEntity
  8
0
100
AcDbLine
 62
7
  6
CONTINUOUS
 10
23.2022466286
 20
47.886268557
 11
23.2022466286
 21
51.5674697046
  0
LINE
  5
29B
100
AcDbEntity
  8
0
100
AcDbLine
 62
7
  6
CONTINUOUS
 10
23.3819168068
 20
25.0733849082
 11
23.3819168068
 21
23.1031645756
  0
LINE
  5
29C
100
AcDbEntity
  8
0
100
AcDbLine
 62
7
  6
CONTINUOUS
 10
23.3819168068
 20
17.399895192
 11
23.3819168068
 21
15.4296748594
  0
LINE
  5
29D
100
AcDbEntity
  8
0
100
AcDbLine
 62
7
  6
CONTINUOUS
 10
23.6513233687
 20
37.9835101888
 11
23.6513233687
 21
36.946552119
  0
LINE
  5
29E
100
AcDbEntity
  8
0
100
AcDbLine
 62
7
  6
CONTINUOUS
 10
23.7410672302
 20
47.4422622573
 11
23.7410672302
 21
50.8416159162
  0
LINE
  5
29F
100
AcDbEntity
  8
0
100
AcDbLine
 62
7
  6
CONTINUOUS
 10
24.3696488919
 20
55.8707562205
 11
24.3696488919
 21
52.1895550728
  0
LINE
  5
2A0
100
AcDbEntity
  8
0
100
AcDbLine
 62
7
  6
CONTINUOUS
 10
24.7288576412
 20
52.396943103
 11
24.7288576412
 21
56.0781442506
  0
LINE
  5
2A1
100
AcDbEntity
  8
0
100
AcDbLine
 62
7
  6
CONTINUOUS
 10
24.7289361568
 20
45.1903179972
 11
24.7289361568
 21
41.5091168496
  0
LINE
  5
2A2
100
AcDbEntity
  8
0
100
AcDbLine
 62
7
  6
CONTINUOUS
 10
26.614794055
 20
31.3987924324
 11
22.8431036828
 21
29.2212189791
  0
LINE
  5
2A3
100
AcDbEntity
  8
0
100
AcDbLine
 62
7
  6
CONTINUOUS
 10
22.8431036828
 20
29.0138309489
 11
26.7943999252
 21
31.2950992807
  0
LINE
  5
2A4
100
AcDbEntity
  8
0
100
AcDbLine
 62
7
  6
CONTINUOUS
 10
5.2417508375
 20
43.3236587977
 11
20.149038063
 21
34.7171272109
  0
LINE
  5
2A5
100
AcDbEntity
  8
0
100
AcDbLine
 62
7
  6
CONTINUOUS
 10
5.4213559599
 20
43.3236592294
 11
20.1490373152
 21
34.8208207943
  0
LINE
  5
2A6
100
AcDbEntity
  8
0
100
AcDbLine
 62
7
  6
CONTINUOUS
 10
20.149038063
 20
34.9245188249
 11
14.4914531521
 21
38.1908531018
  0
LINE
  5
2A7
100
AcDbEntity
  8
0
100
AcDbLine
 62
7
  6
CONTINUOUS
 10
10.8993357484
 20
40.2647161348
 11
5.2417508375
 21
43.5310504117
  0
LINE
  5
2A8
100
AcDbEntity
  8
0
100
AcDbLine
 62
7
  6
CONTINUOUS
 10
14.4914531521
 20
38.2945462535
 11
10.9891379357
 21
40.3165631423
  0
LINE
  5
2A9
100
AcDbEntity
  8
0
100
AcDbLine
 62
7
  6
CONTINUOUS
 10
26.614794055
 20
31.3987924324
 11
26.7943999252
 21
31.2950992807
  0
LINE
  5
2AA
100
AcDbEntity
  8
0
100
AcDbLine
 62
7
  6
CONTINUOUS
 10
14.4914531521
 20
38.3982394051
 11
11.078940123
 21
40.3684101498
  0
LINE
  5
2AB
100
AcDbEntity
  8
0
100
AcDbLine
 62
7
  6
CONTINUOUS
 10
25.0881449061
 20
41.7165048798
 11
25.0881449061
 21
45.3977060274
  0
LINE
  5
2AC
100
AcDbEntity
  8
0
100
AcDbLine
 62
7
  6
CONTINUOUS
 10
25.9861406075
 20
49.5454515206
 11
25.9861406075
 21
45.864250373
  0
LINE
  5
2AD
100
AcDbEntity
  8
0
100
AcDbLine
 62
7
  6
CONTINUOUS
 10
26.3453493568
 20
46.0716384032
 11
26.3453493568
 21
49.7528395508
  0
LINE
  5
2AE
100
AcDbEntity
  8
0
100
AcDbLine
 62
7
  6
CONTINUOUS
 10
26.614794055
 20
36.376194751
 11
26.614794055
 21
31.3987924324
  0
LINE
  5
2AF
100
AcDbEntity
  8
0
100
AcDbLine
 62
7
  6
CONTINUOUS
 10
26.7943999252
 20
31.2950992807
 11
26.7943999252
 21
36.4798896295
  0
LINE
  5
2B0
100
AcDbEntity
  8
0
100
AcDbLine
 62
7
  6
CONTINUOUS
 10
26.8841699585
 20
45.3457846147
 11
26.8841699585
 21
49.0269857624
  0
LINE
  5
2B1
100
AcDbEntity
  8
0
100
AcDbLine
 62
7
  6
CONTINUOUS
 10
27.0638049916
 20
40.1610836421
 11
27.0638049916
 21
39.1241255723
  0
LINE
  5
2B2
100
AcDbEntity
  8
0
100
AcDbLine
 62
7
  6
CONTINUOUS
 10
5.2417508375
 20
44.5680084814
 11
10.8993357484
 21
41.3016742045
  0
LINE
  5
2B3
100
AcDbEntity
  8
0
100
AcDbLine
 62
7
  6
CONTINUOUS
 10
14.4914531521
 20
39.2278111716
 11
20.149038063
 21
35.9614768946
  0
LINE
  5
2B4
100
AcDbEntity
  8
0
100
AcDbLine
 62
7
  6
CONTINUOUS
 10
14.6710575268
 20
39.3315051866
 11
11.078940123
 21
41.4053682196
  0
LINE
  5
2B5
100
AcDbEntity
  8
0
100
AcDbLine
 62
7
  6
CONTINUOUS
 10
7.50477538
 20
44.5680139211
 11
20.1490286411
 21
37.268016045
  0
LINE
  5
2B6
100
AcDbEntity
  8
0
100
AcDbLine
 62
7
  6
CONTINUOUS
 10
27.2434108618
 20
39.0204324207
 11
27.2434108618
 21
40.0573904904
  0
LINE
  5
2B7
100
AcDbEntity
  8
0
100
AcDbLine
 62
7
  6
CONTINUOUS
 10
29.1292433358
 20
47.7308213668
 11
29.1292433358
 21
44.0496202191
  0
LINE
  5
2B8
100
AcDbEntity
  8
0
100
AcDbLine
 62
7
  6
CONTINUOUS
 10
5.3764544923
 20
15.4035616415
 11
5.2417508375
 21
15.3257909144
  0
LINE
  5
2B9
100
AcDbEntity
  8
0
100
AcDbLine
 62
7
  6
CONTINUOUS
 10
35.5950142831
 20
32.1245779338
 11
23.3819168068
 21
25.0733849082
  0
LINE
  5
2BA
100
AcDbEntity
  8
0
100
AcDbLine
 62
7
  6
CONTINUOUS
 10
7.50477538
 20
45.6049719908
 11
20.1490286411
 21
38.3049741148
  0
LINE
  5
2BB
100
AcDbEntity
  8
0
100
AcDbLine
 62
7
  6
CONTINUOUS
 10
35.4154084129
 20
30.2580507529
 11
35.5950142831
 21
30.1543576013
  0
LINE
  5
2BC
100
AcDbEntity
  8
0
100
AcDbLine
 62
7
  6
CONTINUOUS
 10
8.7440361432
 20
46.5900417756
 11
8.9236420134
 21
46.4863486239
  0
LINE
  5
2BD
100
AcDbEntity
  8
0
100
AcDbLine
 62
7
  6
CONTINUOUS
 10
23.4717174985
 20
38.0872033404
 11
23.6513233687
 21
37.9835101888
  0
LINE
  5
2BE
100
AcDbEntity
  8
0
100
AcDbLine
 62
7
  6
CONTINUOUS
 10
29.4884520851
 20
44.2570082493
 11
29.4884520851
 21
47.9382093969
  0
LINE
  5
2BF
100
AcDbEntity
  8
0
100
AcDbLine
 62
7
  6
CONTINUOUS
 10
30.6558169601
 20
52.5006295604
 11
30.6558169601
 21
52.7080158637
  0
LINE
  5
2C0
100
AcDbEntity
  8
0
100
AcDbLine
 62
7
  6
CONTINUOUS
 10
31.1048954949
 20
43.5933509651
 11
31.1048954949
 21
44.6303090349
  0
LINE
  5
2C1
100
AcDbEntity
  8
0
100
AcDbLine
 62
7
  6
CONTINUOUS
 10
35.4154084129
 20
30.2580507529
 11
23.3819168068
 21
23.3105526058
  0
LINE
  5
2C2
100
AcDbEntity
  8
0
100
AcDbLine
 62
7
  6
CONTINUOUS
 10
23.3819168068
 20
23.1031645756
 11
35.5950142831
 21
30.1543576013
  0
LINE
  5
2C3
100
AcDbEntity
  8
0
100
AcDbLine
 62
7
  6
CONTINUOUS
 10
10.4502911622
 20
46.745608488
 11
12.6953645395
 21
45.4494440924
  0
LINE
  5
2C4
100
AcDbEntity
  8
0
100
AcDbLine
 62
7
  6
CONTINUOUS
 10
13.5933938905
 20
44.9309783342
 11
15.8384672678
 21
43.6348139386
  0
LINE
  5
2C5
100
AcDbEntity
  8
0
100
AcDbLine
 62
7
  6
CONTINUOUS
 10
16.7364966188
 20
43.1163481803
 11
18.9815699961
 21
41.8201837847
  0
LINE
  5
2C6
100
AcDbEntity
  8
0
100
AcDbLine
 62
7
  6
CONTINUOUS
 10
19.879599347
 20
41.3017180265
 11
22.1246727244
 21
40.0055536309
  0
LINE
  5
2C7
100
AcDbEntity
  8
0
100
AcDbLine
 62
7
  6
CONTINUOUS
 10
31.5538836994
 20
48.0418290069
 11
31.5538836994
 21
51.7230301545
  0
LINE
  5
2C8
100
AcDbEntity
  8
0
100
AcDbLine
 62
7
  6
CONTINUOUS
 10
32.811146476
 20
43.271904958
 11
32.811146476
 21
42.2349468883
  0
LINE
  5
2C9
100
AcDbEntity
  8
0
100
AcDbLine
 62
7
  6
CONTINUOUS
 10
33.0266623037
 20
45.7398349963
 11
33.0266623037
 21
44.7028769265
  0
LINE
  5
2CA
100
AcDbEntity
  8
0
100
AcDbLine
 62
7
  6
CONTINUOUS
 10
12.802049784
 20
8.264858047
 11
13.3240149959
 21
8.7930745646
  0
LINE
  5
2CB
100
AcDbEntity
  8
0
100
AcDbLine
 62
7
  6
CONTINUOUS
 10
27.0638049916
 20
39.1241255723
 11
27.2434108618
 21
39.0204324207
  0
LINE
  5
2CC
100
AcDbEntity
  8
0
100
AcDbLine
 62
7
  6
CONTINUOUS
 10
27.2434108618
 20
40.0573904904
 11
27.0638049916
 21
40.1610836421
  0
LINE
  5
2CD
100
AcDbEntity
  8
0
100
AcDbLine
 62
7
  6
CONTINUOUS
 10
13.0545545947
 20
48.2491717067
 11
13.5933938905
 21
47.9380797321
  0
LINE
  5
2CE
100
AcDbEntity
  8
0
100
AcDbLine
 62
7
  6
CONTINUOUS
 10
16.1976573229
 20
46.4345415529
 11
16.7364966188
 21
46.1234495782
  0
LINE
  5
2CF
100
AcDbEntity
  8
0
100
AcDbLine
 62
7
  6
CONTINUOUS
 10
19.3407600512
 20
44.619911399
 11
19.879599347
 21
44.3088194244
  0
LINE
  5
2D0
100
AcDbEntity
  8
0
100
AcDbLine
 62
7
  6
CONTINUOUS
 10
22.4838627795
 20
42.8052812452
 11
24.7289361568
 21
41.5091168496
  0
LINE
  5
2D1
100
AcDbEntity
  8
0
100
AcDbLine
 62
7
  6
CONTINUOUS
 10
33.7989570768
 20
50.4268657589
 11
33.7989570768
 21
46.7456646113
  0
LINE
  5
2D2
100
AcDbEntity
  8
0
100
AcDbLine
 62
7
  6
CONTINUOUS
 10
34.1581658261
 20
46.9530526415
 11
34.1581658261
 21
50.6342537891
  0
LINE
  5
2D3
100
AcDbEntity
  8
0
100
AcDbLine
 62
7
  6
CONTINUOUS
 10
35.4154084129
 20
32.0208830553
 11
35.4154084129
 21
30.2580507529
  0
LINE
  5
2D4
100
AcDbEntity
  8
0
100
AcDbLine
 62
7
  6
CONTINUOUS
 10
35.4154084129
 20
24.3473933391
 11
35.4154084129
 21
22.5845610368
  0
LINE
  5
2D5
100
AcDbEntity
  8
0
100
AcDbLine
 62
7
  6
CONTINUOUS
 10
35.5950142831
 20
24.4510882176
 11
23.3819168068
 21
17.399895192
  0
LINE
  5
2D6
100
AcDbEntity
  8
0
100
AcDbLine
 62
7
  6
CONTINUOUS
 10
35.5950142831
 20
22.4808678851
 11
35.5950142831
 21
24.4510882176
  0
LINE
  5
2D7
100
AcDbEntity
  8
0
100
AcDbLine
 62
7
  6
CONTINUOUS
 10
35.5950142831
 20
30.1543576013
 11
35.5950142831
 21
32.1245779338
  0
LINE
  5
2D8
100
AcDbEntity
  8
0
100
AcDbLine
 62
7
  6
CONTINUOUS
 10
35.9003322982
 20
46.3619811679
 11
35.9003322982
 21
47.3989392376
  0
LINE
  5
2D9
100
AcDbEntity
  8
0
100
AcDbLine
 62
7
  6
CONTINUOUS
 10
36.2236280989
 20
45.4494784113
 11
36.2236280989
 21
44.4125203416
  0
LINE
  5
2DA
100
AcDbEntity
  8
0
100
AcDbLine
 62
7
  6
CONTINUOUS
 10
36.4032339691
 20
44.3088271899
 11
36.4032339691
 21
45.3457852597
  0
LINE
  5
2DB
100
AcDbEntity
  8
0
100
AcDbLine
 62
7
  6
CONTINUOUS
 10
35.4154084129
 20
22.5845610368
 11
23.3819168068
 21
15.6370628896
  0
LINE
  5
2DC
100
AcDbEntity
  8
0
100
AcDbLine
 62
7
  6
CONTINUOUS
 10
23.3819168068
 20
15.4296748594
 11
35.5950142831
 21
22.4808678851
  0
LINE
  5
2DD
100
AcDbEntity
  8
0
100
AcDbLine
 62
7
  6
CONTINUOUS
 10
18.4039771816
 20
50.2417154365
 11
19.699935151
 21
49.4935106807
  0
LINE
  5
2DE
100
AcDbEntity
  8
0
100
AcDbLine
 62
7
  6
CONTINUOUS
 10
21.5470799099
 20
48.4270852827
 11
22.8430378793
 21
47.6788805268
  0
LINE
  5
2DF
100
AcDbEntity
  8
0
100
AcDbLine
 62
7
  6
CONTINUOUS
 10
24.6901826381
 20
46.6124551288
 11
25.9861406075
 21
45.864250373
  0
LINE
  5
2E0
100
AcDbEntity
  8
0
100
AcDbLine
 62
7
  6
CONTINUOUS
 10
26.8841699585
 20
45.3457846147
 11
29.1292433358
 21
44.0496202191
  0
LINE
  5
2E1
100
AcDbEntity
  8
0
100
AcDbLine
 62
7
  6
CONTINUOUS
 10
39.6810126848
 20
18.1515238429
 11
39.6810126848
 21
18.2033744342
  0
LINE
  5
2E2
100
AcDbEntity
  8
0
100
AcDbLine
 62
7
  6
CONTINUOUS
 10
39.7259141524
 20
46.1234684384
 11
39.7259141524
 21
46.2271660372
  0
LINE
  5
2E3
100
AcDbEntity
  8
0
100
AcDbLine
 62
7
  6
CONTINUOUS
 10
12.802049784
 20
8.264858047
 11
13.5204856795
 21
8.6796447287
  0
LINE
  5
2E4
100
AcDbEntity
  8
0
100
AcDbLine
 62
7
  6
CONTINUOUS
 10
32.6315406058
 20
43.3755981097
 11
32.811146476
 21
43.271904958
  0
LINE
  5
2E5
100
AcDbEntity
  8
0
100
AcDbLine
 62
7
  6
CONTINUOUS
 10
31.1048954949
 20
44.6303090349
 11
29.4884520851
 21
45.5635419601
  0
LINE
  5
2E6
100
AcDbEntity
  8
0
100
AcDbLine
 62
7
  6
CONTINUOUS
 10
26.8841699585
 20
47.0670909322
 11
26.3453493568
 21
47.378172114
  0
LINE
  5
2E7
100
AcDbEntity
  8
0
100
AcDbLine
 62
7
  6
CONTINUOUS
 10
23.7410672302
 20
48.881721086
 11
23.2022466286
 21
49.1928022678
  0
LINE
  5
2E8
100
AcDbEntity
  8
0
100
AcDbLine
 62
7
  6
CONTINUOUS
 10
20.5979645019
 20
50.6963512398
 11
20.0591439003
 21
51.0074324217
  0
LINE
  5
2E9
100
AcDbEntity
  8
0
100
AcDbLine
 62
7
  6
CONTINUOUS
 10
20.3824090425
 20
52.0028748026
 11
20.5979645019
 21
51.8784266154
  0
LINE
  5
2EA
100
AcDbEntity
  8
0
100
AcDbLine
 62
7
  6
CONTINUOUS
 10
23.2022466286
 20
50.3748776434
 11
23.7410672302
 21
50.0637964616
  0
LINE
  5
2EB
100
AcDbEntity
  8
0
100
AcDbLine
 62
7
  6
CONTINUOUS
 10
26.3453493568
 20
48.5602474896
 11
26.8841699585
 21
48.2491663078
  0
LINE
  5
2EC
100
AcDbEntity
  8
0
100
AcDbLine
 62
7
  6
CONTINUOUS
 10
29.4884520851
 20
46.7456173357
 11
33.0266623037
 21
44.7028769265
  0
LINE
  5
2ED
100
AcDbEntity
  8
0
100
AcDbLine
 62
7
  6
CONTINUOUS
 10
39.9055192748
 20
15.4295100054
 11
39.9055192748
 21
18.1256009867
  0
LINE
  5
2EE
100
AcDbEntity
  8
0
100
AcDbLine
 62
7
  6
CONTINUOUS
 10
39.9055192748
 20
18.3329926007
 11
39.9055192748
 21
46.1234688701
  0
LINE
  5
2EF
100
AcDbEntity
  8
0
100
AcDbLine
 62
7
  6
CONTINUOUS
 10
39.9055192748
 20
46.3308604841
 11
39.9055192748
 21
47.3678185538
  0
LINE
  5
2F0
100
AcDbEntity
  8
0
100
AcDbLine
 62
7
  6
CONTINUOUS
 10
20.3824090425
 20
53.0398328723
 11
20.623376726
 21
52.9007132627
  0
LINE
  5
2F1
100
AcDbEntity
  8
0
100
AcDbLine
 62
7
  6
CONTINUOUS
 10
23.2022466286
 20
51.4118357132
 11
23.7664794542
 21
51.0860831089
  0
LINE
  5
2F2
100
AcDbEntity
  8
0
100
AcDbLine
 62
7
  6
CONTINUOUS
 10
26.3453493568
 20
49.5972055593
 11
26.9095821825
 21
49.271452955
  0
LINE
  5
2F3
100
AcDbEntity
  8
0
100
AcDbLine
 62
7
  6
CONTINUOUS
 10
29.4884520851
 20
47.7825754055
 11
33.0266623037
 21
45.7398349963
  0
LINE
  5
2F4
100
AcDbEntity
  8
0
100
AcDbLine
 62
7
  6
CONTINUOUS
 10
36.2236280989
 20
44.4125203416
 11
36.4032339691
 21
44.3088271899
  0
LINE
  5
2F5
100
AcDbEntity
  8
0
100
AcDbLine
 62
7
  6
CONTINUOUS
 10
22.1245755146
 20
53.4857194684
 11
24.3696488919
 21
52.1895550728
  0
LINE
  5
2F6
100
AcDbEntity
  8
0
100
AcDbLine
 62
7
  6
CONTINUOUS
 10
31.5538836994
 20
48.0418290069
 11
33.7989570768
 21
46.7456646113
  0
LINE
  5
2F7
100
AcDbEntity
  8
0
100
AcDbLine
 62
7
  6
CONTINUOUS
 10
36.4032339691
 20
45.3457852597
 11
36.2236280989
 21
45.4494784113
  0
LINE
  5
2F8
100
AcDbEntity
  8
0
100
AcDbLine
 62
7
  6
CONTINUOUS
 10
21.6755526137
 20
53.8486236948
 11
21.4959467435
 21
53.9523168465
  0
LINE
  5
2F9
100
AcDbEntity
  8
0
100
AcDbLine
 62
7
  6
CONTINUOUS
 10
39.9055192748
 20
18.3329926007
 11
20.149038063
 21
6.9266509415
  0
LINE
  5
2FA
100
AcDbEntity
  8
0
100
AcDbLine
 62
7
  6
CONTINUOUS
 10
20.1041358477
 20
6.8488761988
 11
39.6810126848
 21
18.1515238429
  0
LINE
  5
2FB
100
AcDbEntity
  8
0
100
AcDbLine
 62
7
  6
CONTINUOUS
 10
20.149038063
 20
6.7192593276
 11
39.9055192748
 21
18.1256009867
  0
LINE
  5
2FC
100
AcDbEntity
  8
0
100
AcDbLine
 62
7
  6
CONTINUOUS
 10
35.9003322982
 20
47.3989392376
 11
34.1581658261
 21
48.4047567646
  0
LINE
  5
2FD
100
AcDbEntity
  8
0
100
AcDbLine
 62
7
  6
CONTINUOUS
 10
33.2571362478
 20
48.9249546657
 11
32.7585763334
 21
49.2127918548
  0
LINE
  5
2FE
100
AcDbEntity
  8
0
100
AcDbLine
 62
7
  6
CONTINUOUS
 10
31.5538836994
 20
49.9083057366
 11
24.7288576412
 21
53.8486472261
  0
LINE
  5
2FF
100
AcDbEntity
  8
0
100
AcDbLine
 62
7
  6
CONTINUOUS
 10
23.827828063
 20
54.3688451272
 11
23.3292681486
 21
54.6566823163
  0
LINE
  5
300
100
AcDbEntity
  8
0
100
AcDbLine
 62
7
  6
CONTINUOUS
 10
39.9055192748
 20
46.1234688701
 11
39.7259103009
 21
46.2271638136
  0
LINE
  5
301
100
AcDbEntity
  8
0
100
AcDbLine
 62
7
  6
CONTINUOUS
 10
27.8720261731
 20
9.3115774506
 11
20.149038063
 21
4.852734802
  0
LINE
  5
302
100
AcDbEntity
  8
0
100
AcDbLine
 62
7
  6
CONTINUOUS
 10
39.9055192748
 20
15.4295100054
 11
28.3939870387
 21
8.7833634422
  0
LINE
  5
303
100
AcDbEntity
  8
0
100
AcDbLine
 62
7
  6
CONTINUOUS
 10
30.4762125855
 20
52.6043218486
 11
31.5792933196
 21
51.9674722973
  0
LINE
  5
304
100
AcDbEntity
  8
0
100
AcDbLine
 62
7
  6
CONTINUOUS
 10
39.9055192748
 20
47.3678185538
 11
34.2479343639
 21
50.6341528307
  0
LINE
  5
305
100
AcDbEntity
  8
0
100
AcDbLine
 62
7
  6
CONTINUOUS
 10
30.6558169601
 20
52.7080158637
 11
24.9982320492
 21
55.9743501406
  0
ARC
  5
306
100
AcDbEntity
  8
0
100
AcDbCircle
 62
7
  6
CONTINUOUS
 10
15.3703468472
 20
50.3575054405
 40
1.4728645014
100
AcDbArc
 50
216.4321656702
 51
216.9044454494
  0
ARC
  5
307
100
AcDbEntity
  8
0
100
AcDbCircle
 62
7
  6
CONTINUOUS
 10
18.5134495753
 20
48.5428752865
 40
1.4728645011
100
AcDbArc
 50
216.4321656702
 51
216.9044454495
  0
ARC
  5
308
100
AcDbEntity
  8
0
100
AcDbCircle
 62
7
  6
CONTINUOUS
 10
21.6565523035
 20
46.7282451327
 40
1.4728645011
100
AcDbArc
 50
216.4321656702
 51
216.9044454495
  0
SPLINE
  5
309
100
AcDbEntity
  8
0
100
AcDbSpline
 62
7
  6
CONTINUOUS
 70
0
 71
3
 72
14
 73
10
 74
0
 42
0.0000001
 43
0.0000001
 44
0.0000000001
 40
0.0
 40
0.0
 40
0.0
 40
0.0
 40
0.108046144
 40
0.2181359093
 40
0.3321085861
 40
0.4514831362
 40
0.5774302378
 40
0.7107534897
 40
1.0
 40
1.0
 40
1.0
 40
1.0
 10
18.1428665998
 20
55.4049893304
 30
0.0
 10
18.1688933777
 20
55.4200158089
 30
0.0
 10
18.2241484936
 20
55.4459089709
 30
0.0
 10
18.313571212
 20
55.4706056394
 30
0.0
 10
18.4088801938
 20
55.4812525214
 30
0.0
 10
18.5090746053
 20
55.4777756406
 30
0.0
 10
18.6132214962
 20
55.4603111242
 30
0.0
 10
18.7599375381
 20
55.4175131088
 30
0.0
 10
18.866931554
 20
55.3666059931
 30
0.0
 10
18.9366072116
 20
55.3263796435
 30
0.0
  0
SPLINE
  5
30A
100
AcDbEntity
  8
0
100
AcDbSpline
 62
7
  6
CONTINUOUS
 70
0
 71
3
 72
15
 73
11
 74
0
 42
0.0000001
 43
0.0000001
 44
0.0000000001
 40
0.0
 40
0.0
 40
0.0
 40
0.0
 40
0.1141465952
 40
0.2373352439
 40
0.366975646
 40
0.4999989181
 40
0.6330223406
 40
0.7626631822
 40
0.8858525235
 40
1.0
 40
1.0
 40
1.0
 40
1.0
 10
18.9366072116
 20
55.3263796435
 30
0.0
 10
19.0134482551
 20
55.28201645
 30
0.0
 10
19.1652334521
 20
55.1756055029
 30
0.0
 10
19.3740942773
 20
54.9802250105
 30
0.0
 10
19.5665467663
 20
54.7492372878
 30
0.0
 10
19.7353876282
 20
54.4913711277
 30
0.0
 10
19.8742873007
 20
54.2162179275
 30
0.0
 10
19.9781041158
 20
53.9340549385
 30
0.0
 10
20.0428802932
 20
53.6554848094
 30
0.0
 10
20.0591439003
 20
53.470828436
 30
0.0
 10
20.0591439003
 20
53.3820998585
 30
0.0
  0
SPLINE
  5
30B
100
AcDbEntity
  8
0
100
AcDbSpline
 62
7
  6
CONTINUOUS
 70
0
 71
3
 72
14
 73
10
 74
0
 42
0.0000001
 43
0.0000001
 44
0.0000000001
 40
0.0
 40
0.0
 40
0.0
 40
0.0
 40
0.1080456362
 40
0.2181349707
 40
0.332107362
 40
0.4514818058
 40
0.577428993
 40
0.7107525123
 40
1.0
 40
1.0
 40
1.0
 40
1.0
 10
17.7836578505
 20
55.1976013002
 30
0.0
 10
17.7576304977
 20
55.1825744899
 30
0.0
 10
17.7075775522
 20
55.1476681067
 30
0.0
 10
17.6414767313
 20
55.0825725598
 30
0.0
 10
17.5846006421
 20
55.0053539104
 30
0.0
 10
17.5375137749
 20
54.9168419968
 30
0.0
 10
17.5005647526
 20
54.8179128945
 30
0.0
 10
17.4642710791
 20
54.6694494227
 30
0.0
 10
17.4548617736
 20
54.5513327154
 30
0.0
 10
17.4548617736
 20
54.4708762239
 30
0.0
  0
SPLINE
  5
30C
100
AcDbEntity
  8
0
100
AcDbSpline
 62
7
  6
CONTINUOUS
 70
0
 71
3
 72
9
 73
5
 74
0
 42
0.0000001
 43
0.0000001
 44
0.0000000001
 40
0.0
 40
0.0
 40
0.0
 40
0.0
 40
0.5221455342
 40
1.0
 40
1.0
 40
1.0
 40
1.0
 10
18.9366072116
 20
51.6970263993
 30
0.0
 10
18.9690294471
 20
51.6783078364
 30
0.0
 10
19.0336344263
 20
51.6465666114
 30
0.0
 10
19.1027257047
 20
51.6257227497
 30
0.0
 10
19.1363835436
 20
51.6193164071
 30
0.0
  0
SPLINE
  5
30D
100
AcDbEntity
  8
0
100
AcDbSpline
 62
7
  6
CONTINUOUS
 70
0
 71
3
 72
16
 73
12
 74
0
 42
0.0000001
 43
0.0000001
 44
0.0000000001
 40
0.0
 40
0.0
 40
0.0
 40
0.0
 40
0.0980465385
 40
0.1525473284
 40
0.2105764837
 40
0.3359400815
 40
0.470672367
 40
0.609825734
 40
0.7478618235
 40
0.8794674892
 40
1.0
 40
1.0
 40
1.0
 40
1.0
 10
21.4992432624
 20
51.2219924793
 30
0.0
 10
21.4781337701
 20
51.1755058638
 30
0.0
 10
21.4578512765
 20
51.0972375327
 30
0.0
 10
21.449690523
 20
50.9878258672
 30
0.0
 10
21.4538303694
 20
50.8637693965
 30
0.0
 10
21.4837637451
 20
50.699898645
 30
0.0
 10
21.5530485666
 20
50.5031128866
 30
0.0
 10
21.6527356772
 20
50.3123879022
 30
0.0
 10
21.777044237
 20
50.1386747956
 30
0.0
 10
21.9188032301
 20
49.9920983595
 30
0.0
 10
22.0253544316
 20
49.9137777029
 30
0.0
 10
22.0797099399
 20
49.8823962455
 30
0.0
  0
SPLINE
  5
30E
100
AcDbEntity
  8
0
100
AcDbSpline
 62
7
  6
CONTINUOUS
 70
0
 71
3
 72
12
 73
8
 74
0
 42
0.0000001
 43
0.0000001
 44
0.0000000001
 40
0.0
 40
0.0
 40
0.0
 40
0.0
 40
0.1081687912
 40
0.2183555695
 40
0.4513113955
 40
0.7105889062
 40
1.0
 40
1.0
 40
1.0
 40
1.0
 10
21.2760124466
 20
51.1707604278
 30
0.0
 10
21.2905915205
 20
51.1791698906
 30
0.0
 10
21.3215402235
 20
51.1936517826
 30
0.0
 10
21.3894752143
 20
51.2125015159
 30
0.0
 10
21.4846905333
 20
51.2150288173
 30
0.0
 10
21.6038739827
 20
51.1861537443
 30
0.0
 10
21.6815029156
 20
51.1492646682
 30
0.0
 10
21.7205011906
 20
51.126749513
 30
0.0
  0
SPLINE
  5
30F
100
AcDbEntity
  8
0
100
AcDbSpline
 62
7
  6
CONTINUOUS
 70
0
 71
3
 72
14
 73
10
 74
0
 42
0.0000001
 43
0.0000001
 44
0.0000000001
 40
0.0
 40
0.0
 40
0.0
 40
0.0
 40
0.108046144
 40
0.2181359093
 40
0.3321085861
 40
0.4514831362
 40
0.5774302378
 40
0.7107534897
 40
1.0
 40
1.0
 40
1.0
 40
1.0
 10
21.2859693281
 20
53.5903591766
 30
0.0
 10
21.311996106
 20
53.605385655
 30
0.0
 10
21.3672512219
 20
53.631278817
 30
0.0
 10
21.4566739403
 20
53.6559754855
 30
0.0
 10
21.5519829221
 20
53.6666223676
 30
0.0
 10
21.6521773336
 20
53.6631454867
 30
0.0
 10
21.7563242245
 20
53.6456809703
 30
0.0
 10
21.9030402664
 20
53.6028829549
 30
0.0
 10
22.0100342823
 20
53.5519758393
 30
0.0
 10
22.0797099399
 20
53.5117494896
 30
0.0
  0
SPLINE
  5
310
100
AcDbEntity
  8
0
100
AcDbSpline
 62
7
  6
CONTINUOUS
 70
0
 71
3
 72
14
 73
10
 74
0
 42
0.0000001
 43
0.0000001
 44
0.0000000001
 40
0.0
 40
0.0
 40
0.0
 40
0.0
 40
0.1080456362
 40
0.2181349707
 40
0.332107362
 40
0.4514818058
 40
0.577428993
 40
0.7107525123
 40
1.0
 40
1.0
 40
1.0
 40
1.0
 10
20.9267605788
 20
53.3829711464
 30
0.0
 10
20.900733226
 20
53.367944336
 30
0.0
 10
20.8506802805
 20
53.3330379528
 30
0.0
 10
20.7845794596
 20
53.2679424059
 30
0.0
 10
20.7277033703
 20
53.1907237566
 30
0.0
 10
20.6806165032
 20
53.1022118429
 30
0.0
 10
20.6436674809
 20
53.0032827406
 30
0.0
 10
20.6073738074
 20
52.8548192688
 30
0.0
 10
20.5979645019
 20
52.7367025616
 30
0.0
 10
20.5979645019
 20
52.6562460701
 30
0.0
  0
SPLINE
  5
311
100
AcDbEntity
  8
0
100
AcDbSpline
 62
7
  6
CONTINUOUS
 70
0
 71
3
 72
16
 73
12
 74
0
 42
0.0000001
 43
0.0000001
 44
0.0000000001
 40
0.0
 40
0.0
 40
0.0
 40
0.0
 40
0.0980465385
 40
0.1525473284
 40
0.2105764837
 40
0.3359400815
 40
0.470672367
 40
0.609825734
 40
0.7478618235
 40
0.8794674892
 40
1.0
 40
1.0
 40
1.0
 40
1.0
 10
24.6423459907
 20
49.4073623254
 30
0.0
 10
24.6212364984
 20
49.36087571
 30
0.0
 10
24.6009540048
 20
49.2826073788
 30
0.0
 10
24.5927932513
 20
49.1731957133
 30
0.0
 10
24.5969330976
 20
49.0491392426
 30
0.0
 10
24.6268664734
 20
48.8852684912
 30
0.0
 10
24.6961512949
 20
48.6884827327
 30
0.0
 10
24.7958384055
 20
48.4977577484
 30
0.0
 10
24.9201469653
 20
48.3240446418
 30
0.0
 10
25.0619059584
 20
48.1774682057
 30
0.0
 10
25.1684571599
 20
48.099147549
 30
0.0
 10
25.2228126682
 20
48.0677660916
 30
0.0
  0
SPLINE
  5
312
100
AcDbEntity
  8
0
100
AcDbSpline
 62
7
  6
CONTINUOUS
 70
0
 71
3
 72
12
 73
8
 74
0
 42
0.0000001
 43
0.0000001
 44
0.0000000001
 40
0.0
 40
0.0
 40
0.0
 40
0.0
 40
0.1081687912
 40
0.2183555695
 40
0.4513113955
 40
0.7105889062
 40
1.0
 40
1.0
 40
1.0
 40
1.0
 10
24.4191151748
 20
49.3561302739
 30
0.0
 10
24.4336942487
 20
49.3645397367
 30
0.0
 10
24.4646429518
 20
49.3790216287
 30
0.0
 10
24.5325779426
 20
49.397871362
 30
0.0
 10
24.6277932615
 20
49.4003986635
 30
0.0
 10
24.746976711
 20
49.3715235905
 30
0.0
 10
24.8246056438
 20
49.3346345143
 30
0.0
 10
24.8636039189
 20
49.3121193591
 30
0.0
  0
SPLINE
  5
313
100
AcDbEntity
  8
0
100
AcDbSpline
 62
7
  6
CONTINUOUS
 70
0
 71
3
 72
14
 73
10
 74
0
 42
0.0000001
 43
0.0000001
 44
0.0000000001
 40
0.0
 40
0.0
 40
0.0
 40
0.0
 40
0.108046144
 40
0.2181359093
 40
0.3321085861
 40
0.4514831362
 40
0.5774302378
 40
0.7107534897
 40
1.0
 40
1.0
 40
1.0
 40
1.0
 10
24.4290720564
 20
51.7757290227
 30
0.0
 10
24.4550988342
 20
51.7907555012
 30
0.0
 10
24.5103539502
 20
51.8166486632
 30
0.0
 10
24.5997766686
 20
51.8413453317
 30
0.0
 10
24.6950856504
 20
51.8519922137
 30
0.0
 10
24.7952800619
 20
51.8485153329
 30
0.0
 10
24.8994269528
 20
51.8310508165
 30
0.0
 10
25.0461429947
 20
51.7882528011
 30
0.0
 10
25.1531370106
 20
51.7373456854
 30
0.0
 10
25.2228126682
 20
51.6971193358
 30
0.0
  0
SPLINE
  5
314
100
AcDbEntity
  8
0
100
AcDbSpline
 62
7
  6
CONTINUOUS
 70
0
 71
3
 72
14
 73
10
 74
0
 42
0.0000001
 43
0.0000001
 44
0.0000000001
 40
0.0
 40
0.0
 40
0.0
 40
0.0
 40
0.1080456362
 40
0.2181349707
 40
0.332107362
 40
0.4514818058
 40
0.577428993
 40
0.7107525123
 40
1.0
 40
1.0
 40
1.0
 40
1.0
 10
24.0698633071
 20
51.5683409926
 30
0.0
 10
24.0438359543
 20
51.5533141822
 30
0.0
 10
23.9937830088
 20
51.518407799
 30
0.0
 10
23.9276821879
 20
51.4533122521
 30
0.0
 10
23.8708060986
 20
51.3760936027
 30
0.0
 10
23.8237192314
 20
51.2875816891
 30
0.0
 10
23.7867702091
 20
51.1886525868
 30
0.0
 10
23.7504765357
 20
51.040189115
 30
0.0
 10
23.7410672302
 20
50.9220724077
 30
0.0
 10
23.7410672302
 20
50.8416159162
 30
0.0
  0
SPLINE
  5
315
100
AcDbEntity
  8
0
100
AcDbSpline
 62
7
  6
CONTINUOUS
 70
0
 71
3
 72
16
 73
12
 74
0
 42
0.0000001
 43
0.0000001
 44
0.0000000001
 40
0.0
 40
0.0
 40
0.0
 40
0.0
 40
0.0980465385
 40
0.1525473284
 40
0.2105764837
 40
0.3359400815
 40
0.470672367
 40
0.609825734
 40
0.7478618235
 40
0.8794674892
 40
1.0
 40
1.0
 40
1.0
 40
1.0
 10
27.785448719
 20
47.5927321716
 30
0.0
 10
27.7643392266
 20
47.5462455561
 30
0.0
 10
27.744056733
 20
47.467977225
 30
0.0
 10
27.7358959795
 20
47.3585655595
 30
0.0
 10
27.7400358259
 20
47.2345090888
 30
0.0
 10
27.7699692017
 20
47.0706383373
 30
0.0
 10
27.8392540232
 20
46.8738525789
 30
0.0
 10
27.9389411338
 20
46.6831275945
 30
0.0
 10
28.0632496936
 20
46.5094144879
 30
0.0
 10
28.2050086867
 20
46.3628380518
 30
0.0
 10
28.3115598882
 20
46.2845173952
 30
0.0
 10
28.3659153965
 20
46.2531359378
 30
0.0
  0
SPLINE
  5
316
100
AcDbEntity
  8
0
100
AcDbSpline
 62
7
  6
CONTINUOUS
 70
0
 71
3
 72
12
 73
8
 74
0
 42
0.0000001
 43
0.0000001
 44
0.0000000001
 40
0.0
 40
0.0
 40
0.0
 40
0.0
 40
0.1081687912
 40
0.2183555695
 40
0.4513113955
 40
0.7105889062
 40
1.0
 40
1.0
 40
1.0
 40
1.0
 10
27.5622179031
 20
47.5415001201
 30
0.0
 10
27.576796977
 20
47.5499095829
 30
0.0
 10
27.6077456801
 20
47.5643914749
 30
0.0
 10
27.6756806709
 20
47.5832412082
 30
0.0
 10
27.7708959898
 20
47.5857685097
 30
0.0
 10
27.8900794393
 20
47.5568934367
 30
0.0
 10
27.9677083721
 20
47.5200043605
 30
0.0
 10
28.0067066471
 20
47.4974892053
 30
0.0
  0
SPLINE
  5
317
100
AcDbEntity
  8
0
100
AcDbSpline
 62
7
  6
CONTINUOUS
 70
0
 71
3
 72
14
 73
10
 74
0
 42
0.0000001
 43
0.0000001
 44
0.0000000001
 40
0.0
 40
0.0
 40
0.0
 40
0.0
 40
0.108046144
 40
0.2181359093
 40
0.3321085861
 40
0.4514831362
 40
0.5774302378
 40
0.7107534897
 40
1.0
 40
1.0
 40
1.0
 40
1.0
 10
27.5721747846
 20
49.9610988689
 30
0.0
 10
27.5982015625
 20
49.9761253473
 30
0.0
 10
27.6534566785
 20
50.0020185093
 30
0.0
 10
27.7428793969
 20
50.0267151778
 30
0.0
 10
27.8381883787
 20
50.0373620599
 30
0.0
 10
27.9383827902
 20
50.033885179
 30
0.0
 10
28.042529681
 20
50.0164206627
 30
0.0
 10
28.1892457229
 20
49.9736226472
 30
0.0
 10
28.2962397388
 20
49.9227155316
 30
0.0
 10
28.3659153965
 20
49.8824891819
 30
0.0
  0
SPLINE
  5
318
100
AcDbEntity
  8
0
100
AcDbSpline
 62
7
  6
CONTINUOUS
 70
0
 71
3
 72
14
 73
10
 74
0
 42
0.0000001
 43
0.0000001
 44
0.0000000001
 40
0.0
 40
0.0
 40
0.0
 40
0.0
 40
0.1080456362
 40
0.2181349707
 40
0.332107362
 40
0.4514818058
 40
0.577428993
 40
0.7107525123
 40
1.0
 40
1.0
 40
1.0
 40
1.0
 10
27.2129660353
 20
49.7537108387
 30
0.0
 10
27.1869386825
 20
49.7386840283
 30
0.0
 10
27.1368857371
 20
49.7037776452
 30
0.0
 10
27.0707849161
 20
49.6386820982
 30
0.0
 10
27.0139088269
 20
49.5614634489
 30
0.0
 10
26.9668219597
 20
49.4729515353
 30
0.0
 10
26.9298729374
 20
49.374022433
 30
0.0
 10
26.893579264
 20
49.2255589612
 30
0.0
 10
26.8841699585
 20
49.1074422539
 30
0.0
 10
26.8841699585
 20
49.0269857624
 30
0.0
  0
SPLINE
  5
319
100
AcDbEntity
  8
0
100
AcDbSpline
 62
7
  6
CONTINUOUS
 70
0
 71
3
 72
13
 73
9
 74
0
 42
0.0000001
 43
0.0000001
 44
0.0000000001
 40
0.0
 40
0.0
 40
0.0
 40
0.0
 40
0.203393016
 40
0.3205938969
 40
0.4468406994
 40
0.5803519657
 40
0.7188652121
 40
1.0
 40
1.0
 40
1.0
 40
1.0
 10
13.9558333551
 20
50.4961192636
 30
0.0
 10
13.9255739048
 20
50.4294829176
 30
0.0
 10
13.9039444073
 20
50.3124904449
 30
0.0
 10
13.9097265173
 20
50.1518149439
 30
0.0
 10
13.9323081998
 20
50.0176074415
 30
0.0
 10
13.9722543302
 20
49.8796972404
 30
0.0
 10
14.0475007878
 20
49.695167315
 30
0.0
 10
14.125263013
 20
49.5642018779
 30
0.0
 10
14.1853382077
 20
49.4828144301
 30
0.0
  0
SPLINE
  5
31A
100
AcDbEntity
  8
0
100
AcDbSpline
 62
7
  6
CONTINUOUS
 70
0
 71
3
 72
12
 73
8
 74
0
 42
0.0000001
 43
0.0000001
 44
0.0000000001
 40
0.0
 40
0.0
 40
0.0
 40
0.0
 40
0.1081687912
 40
0.2183555695
 40
0.4513113955
 40
0.7105889062
 40
1.0
 40
1.0
 40
1.0
 40
1.0
 10
13.7326025393
 20
50.4448872121
 30
0.0
 10
13.7471816132
 20
50.4532966749
 30
0.0
 10
13.7781303163
 20
50.4677785669
 30
0.0
 10
13.8460653071
 20
50.4866283002
 30
0.0
 10
13.941280626
 20
50.4891556016
 30
0.0
 10
14.0604640755
 20
50.4602805286
 30
0.0
 10
14.1380930083
 20
50.4233914525
 30
0.0
 10
14.1770912833
 20
50.4008762973
 30
0.0
  0
SPLINE
  5
31B
100
AcDbEntity
  8
0
100
AcDbSpline
 62
7
  6
CONTINUOUS
 70
0
 71
3
 72
14
 73
10
 74
0
 42
0.0000001
 43
0.0000001
 44
0.0000000001
 40
0.0
 40
0.0
 40
0.0
 40
0.0
 40
0.108046144
 40
0.2181359093
 40
0.3321085861
 40
0.4514831362
 40
0.5774302378
 40
0.7107534897
 40
1.0
 40
1.0
 40
1.0
 40
1.0
 10
13.7425594208
 20
52.8644859609
 30
0.0
 10
13.7685861987
 20
52.8795124393
 30
0.0
 10
13.8238413146
 20
52.9054056013
 30
0.0
 10
13.913264033
 20
52.9301022698
 30
0.0
 10
14.0085730148
 20
52.9407491519
 30
0.0
 10
14.1087674263
 20
52.937272271
 30
0.0
 10
14.2129143172
 20
52.9198077546
 30
0.0
 10
14.3596303591
 20
52.8770097392
 30
0.0
 10
14.466624375
 20
52.8261026236
 30
0.0
 10
14.5363000326
 20
52.7858762739
 30
0.0
  0
SPLINE
  5
31C
100
AcDbEntity
  8
0
100
AcDbSpline
 62
7
  6
CONTINUOUS
 70
0
 71
3
 72
14
 73
10
 74
0
 42
0.0000001
 43
0.0000001
 44
0.0000000001
 40
0.0
 40
0.0
 40
0.0
 40
0.0
 40
0.1080456362
 40
0.2181349707
 40
0.332107362
 40
0.4514818058
 40
0.577428993
 40
0.7107525123
 40
1.0
 40
1.0
 40
1.0
 40
1.0
 10
13.3833506715
 20
52.6570979307
 30
0.0
 10
13.3573233187
 20
52.6420711203
 30
0.0
 10
13.3072703732
 20
52.6071647371
 30
0.0
 10
13.2411695523
 20
52.5420691902
 30
0.0
 10
13.1842934631
 20
52.4648505409
 30
0.0
 10
13.1372065959
 20
52.3763386272
 30
0.0
 10
13.1002575736
 20
52.2774095249
 30
0.0
 10
13.0639639001
 20
52.1289460531
 30
0.0
 10
13.0545545947
 20
52.0108293459
 30
0.0
 10
13.0545545947
 20
51.9303728544
 30
0.0
  0
SPLINE
  5
31D
100
AcDbEntity
  8
0
100
AcDbSpline
 62
7
  6
CONTINUOUS
 70
0
 71
3
 72
13
 73
9
 74
0
 42
0.0000001
 43
0.0000001
 44
0.0000000001
 40
0.0
 40
0.0
 40
0.0
 40
0.0
 40
0.203393016
 40
0.3205938969
 40
0.4468406994
 40
0.5803519657
 40
0.7188652121
 40
1.0
 40
1.0
 40
1.0
 40
1.0
 10
17.0989360834
 20
48.6814891097
 30
0.0
 10
17.0686766331
 20
48.6148527638
 30
0.0
 10
17.0470471356
 20
48.497860291
 30
0.0
 10
17.0528292456
 20
48.3371847901
 30
0.0
 10
17.0754109281
 20
48.2029772877
 30
0.0
 10
17.1153570585
 20
48.0650670866
 30
0.0
 10
17.1906035161
 20
47.8805371611
 30
0.0
 10
17.2683657413
 20
47.7495717241
 30
0.0
 10
17.328440936
 20
47.6681842762
 30
0.0
  0
SPLINE
  5
31E
100
AcDbEntity
  8
0
100
AcDbSpline
 62
7
  6
CONTINUOUS
 70
0
 71
3
 72
12
 73
8
 74
0
 42
0.0000001
 43
0.0000001
 44
0.0000000001
 40
0.0
 40
0.0
 40
0.0
 40
0.0
 40
0.1081687912
 40
0.2183555695
 40
0.4513113955
 40
0.7105889062
 40
1.0
 40
1.0
 40
1.0
 40
1.0
 10
16.8757052676
 20
48.6302570582
 30
0.0
 10
16.8902843415
 20
48.638666521
 30
0.0
 10
16.9212330445
 20
48.653148413
 30
0.0
 10
16.9891680353
 20
48.6719981463
 30
0.0
 10
17.0843833543
 20
48.6745254478
 30
0.0
 10
17.2035668038
 20
48.6456503748
 30
0.0
 10
17.2811957366
 20
48.6087612986
 30
0.0
 10
17.3201940116
 20
48.5862461434
 30
0.0
  0
SPLINE
  5
31F
100
AcDbEntity
  8
0
100
AcDbSpline
 62
7
  6
CONTINUOUS
 70
0
 71
3
 72
14
 73
10
 74
0
 42
0.0000001
 43
0.0000001
 44
0.0000000001
 40
0.0
 40
0.0
 40
0.0
 40
0.0
 40
0.108046144
 40
0.2181359093
 40
0.3321085861
 40
0.4514831362
 40
0.5774302378
 40
0.7107534897
 40
1.0
 40
1.0
 40
1.0
 40
1.0
 10
16.8856621491
 20
51.049855807
 30
0.0
 10
16.911688927
 20
51.0648822855
 30
0.0
 10
16.9669440429
 20
51.0907754475
 30
0.0
 10
17.0563667613
 20
51.115472116
 30
0.0
 10
17.1516757431
 20
51.126118998
 30
0.0
 10
17.2518701546
 20
51.1226421172
 30
0.0
 10
17.3560170455
 20
51.1051776008
 30
0.0
 10
17.5027330874
 20
51.0623795854
 30
0.0
 10
17.6097271033
 20
51.0114724697
 30
0.0
 10
17.6794027609
 20
50.9712461201
 30
0.0
  0
SPLINE
  5
320
100
AcDbEntity
  8
0
100
AcDbSpline
 62
7
  6
CONTINUOUS
 70
0
 71
3
 72
14
 73
10
 74
0
 42
0.0000001
 43
0.0000001
 44
0.0000000001
 40
0.0
 40
0.0
 40
0.0
 40
0.0
 40
0.1080456362
 40
0.2181349707
 40
0.332107362
 40
0.4514818058
 40
0.577428993
 40
0.7107525123
 40
1.0
 40
1.0
 40
1.0
 40
1.0
 10
16.5264533998
 20
50.8424677769
 30
0.0
 10
16.500426047
 20
50.8274409665
 30
0.0
 10
16.4503731015
 20
50.7925345833
 30
0.0
 10
16.3842722806
 20
50.7274390364
 30
0.0
 10
16.3273961914
 20
50.650220387
 30
0.0
 10
16.2803093242
 20
50.5617084734
 30
0.0
 10
16.2433603019
 20
50.4627793711
 30
0.0
 10
16.2070666284
 20
50.3143158993
 30
0.0
 10
16.1976573229
 20
50.196199192
 30
0.0
 10
16.1976573229
 20
50.1157427005
 30
0.0
  0
SPLINE
  5
321
100
AcDbEntity
  8
0
100
AcDbSpline
 62
7
  6
CONTINUOUS
 70
0
 71
3
 72
13
 73
9
 74
0
 42
0.0000001
 43
0.0000001
 44
0.0000000001
 40
0.0
 40
0.0
 40
0.0
 40
0.0
 40
0.203393016
 40
0.3205938969
 40
0.4468406994
 40
0.5803519657
 40
0.7188652121
 40
1.0
 40
1.0
 40
1.0
 40
1.0
 10
20.2420388117
 20
46.8668589559
 30
0.0
 10
20.2117793613
 20
46.8002226099
 30
0.0
 10
20.1901498639
 20
46.6832301372
 30
0.0
 10
20.1959319739
 20
46.5225546363
 30
0.0
 10
20.2185136563
 20
46.3883471338
 30
0.0
 10
20.2584597867
 20
46.2504369327
 30
0.0
 10
20.3337062444
 20
46.0659070073
 30
0.0
 10
20.4114684696
 20
45.9349415702
 30
0.0
 10
20.4715436643
 20
45.8535541224
 30
0.0
  0
SPLINE
  5
322
100
AcDbEntity
  8
0
100
AcDbSpline
 62
7
  6
CONTINUOUS
 70
0
 71
3
 72
12
 73
8
 74
0
 42
0.0000001
 43
0.0000001
 44
0.0000000001
 40
0.0
 40
0.0
 40
0.0
 40
0.0
 40
0.1081687912
 40
0.2183555695
 40
0.4513113955
 40
0.7105889062
 40
1.0
 40
1.0
 40
1.0
 40
1.0
 10
20.0188079958
 20
46.8156269044
 30
0.0
 10
20.0333870698
 20
46.8240363672
 30
0.0
 10
20.0643357728
 20
46.8385182592
 30
0.0
 10
20.1322707636
 20
46.8573679925
 30
0.0
 10
20.2274860826
 20
46.859895294
 30
0.0
 10
20.346669532
 20
46.831020221
 30
0.0
 10
20.4242984649
 20
46.7941311448
 30
0.0
 10
20.4632967399
 20
46.7716159896
 30
0.0
  0
SPLINE
  5
323
100
AcDbEntity
  8
0
100
AcDbSpline
 62
7
  6
CONTINUOUS
 70
0
 71
3
 72
14
 73
10
 74
0
 42
0.0000001
 43
0.0000001
 44
0.0000000001
 40
0.0
 40
0.0
 40
0.0
 40
0.0
 40
0.108046144
 40
0.2181359093
 40
0.3321085861
 40
0.4514831362
 40
0.5774302378
 40
0.7107534897
 40
1.0
 40
1.0
 40
1.0
 40
1.0
 10
20.0287648774
 20
49.2352256532
 30
0.0
 10
20.0547916553
 20
49.2502521316
 30
0.0
 10
20.1100467712
 20
49.2761452936
 30
0.0
 10
20.1994694896
 20
49.3008419621
 30
0.0
 10
20.2947784714
 20
49.3114888442
 30
0.0
 10
20.3949728829
 20
49.3080119633
 30
0.0
 10
20.4991197738
 20
49.290547447
 30
0.0
 10
20.6458358157
 20
49.2477494315
 30
0.0
 10
20.7528298316
 20
49.1968423159
 30
0.0
 10
20.8225054892
 20
49.1566159662
 30
0.0
  0
SPLINE
  5
324
100
AcDbEntity
  8
0
100
AcDbSpline
 62
7
  6
CONTINUOUS
 70
0
 71
3
 72
14
 73
10
 74
0
 42
0.0000001
 43
0.0000001
 44
0.0000000001
 40
0.0
 40
0.0
 40
0.0
 40
0.0
 40
0.1080456362
 40
0.2181349707
 40
0.332107362
 40
0.4514818058
 40
0.577428993
 40
0.7107525123
 40
1.0
 40
1.0
 40
1.0
 40
1.0
 10
19.6695561281
 20
49.027837623
 30
0.0
 10
19.6435287753
 20
49.0128108126
 30
0.0
 10
19.5934758298
 20
48.9779044295
 30
0.0
 10
19.5273750089
 20
48.9128088825
 30
0.0
 10
19.4704989196
 20
48.8355902332
 30
0.0
 10
19.4234120525
 20
48.7470783196
 30
0.0
 10
19.3864630302
 20
48.6481492173
 30
0.0
 10
19.3501693567
 20
48.4996857455
 30
0.0
 10
19.3407600512
 20
48.3815690382
 30
0.0
 10
19.3407600512
 20
48.3011125467
 30
0.0
  0
SPLINE
  5
325
100
AcDbEntity
  8
0
100
AcDbSpline
 62
7
  6
CONTINUOUS
 70
0
 71
3
 72
16
 73
12
 74
0
 42
0.0000001
 43
0.0000001
 44
0.0000000001
 40
0.0
 40
0.0
 40
0.0
 40
0.0
 40
0.0980465385
 40
0.1525473284
 40
0.2105764837
 40
0.3359400815
 40
0.470672367
 40
0.609825734
 40
0.7478618235
 40
0.8794674892
 40
1.0
 40
1.0
 40
1.0
 40
1.0
 10
23.38514154
 20
45.0522288021
 30
0.0
 10
23.3640320477
 20
45.0057421866
 30
0.0
 10
23.3437495541
 20
44.9274738554
 30
0.0
 10
23.3355888005
 20
44.81806219
 30
0.0
 10
23.3397286469
 20
44.6940057192
 30
0.0
 10
23.3696620227
 20
44.5301349678
 30
0.0
 10
23.4389468442
 20
44.3333492094
 30
0.0
 10
23.5386339548
 20
44.142624225
 30
0.0
 10
23.6629425146
 20
43.9689111184
 30
0.0
 10
23.8047015077
 20
43.8223346823
 30
0.0
 10
23.9112527092
 20
43.7440140256
 30
0.0
 10
23.9656082175
 20
43.7126325682
 30
0.0
  0
SPLINE
  5
326
100
AcDbEntity
  8
0
100
AcDbSpline
 62
7
  6
CONTINUOUS
 70
0
 71
3
 72
12
 73
8
 74
0
 42
0.0000001
 43
0.0000001
 44
0.0000000001
 40
0.0
 40
0.0
 40
0.0
 40
0.0
 40
0.1081687912
 40
0.2183555695
 40
0.4513113955
 40
0.7105889062
 40
1.0
 40
1.0
 40
1.0
 40
1.0
 10
23.1619107241
 20
45.0009967505
 30
0.0
 10
23.176489798
 20
45.0094062133
 30
0.0
 10
23.2074385011
 20
45.0238881053
 30
0.0
 10
23.2753734919
 20
45.0427378387
 30
0.0
 10
23.3705888108
 20
45.0452651401
 30
0.0
 10
23.4897722603
 20
45.0163900671
 30
0.0
 10
23.5674011931
 20
44.979500991
 30
0.0
 10
23.6063994682
 20
44.9569858357
 30
0.0
  0
SPLINE
  5
327
100
AcDbEntity
  8
0
100
AcDbSpline
 62
7
  6
CONTINUOUS
 70
0
 71
3
 72
14
 73
10
 74
0
 42
0.0000001
 43
0.0000001
 44
0.0000000001
 40
0.0
 40
0.0
 40
0.0
 40
0.0
 40
0.108046144
 40
0.2181359093
 40
0.3321085861
 40
0.4514831362
 40
0.5774302378
 40
0.7107534897
 40
1.0
 40
1.0
 40
1.0
 40
1.0
 10
23.1718676057
 20
47.4205954993
 30
0.0
 10
23.1978943835
 20
47.4356219778
 30
0.0
 10
23.2531494995
 20
47.4615151398
 30
0.0
 10
23.3425722179
 20
47.4862118083
 30
0.0
 10
23.4378811997
 20
47.4968586904
 30
0.0
 10
23.5380756112
 20
47.4933818095
 30
0.0
 10
23.6422225021
 20
47.4759172931
 30
0.0
 10
23.788938544
 20
47.4331192777
 30
0.0
 10
23.8959325599
 20
47.382212162
 30
0.0
 10
23.9656082175
 20
47.3419858124
 30
0.0
  0
SPLINE
  5
328
100
AcDbEntity
  8
0
100
AcDbSpline
 62
7
  6
CONTINUOUS
 70
0
 71
3
 72
14
 73
10
 74
0
 42
0.0000001
 43
0.0000001
 44
0.0000000001
 40
0.0
 40
0.0
 40
0.0
 40
0.0
 40
0.1080456362
 40
0.2181349707
 40
0.332107362
 40
0.4514818058
 40
0.577428993
 40
0.7107525123
 40
1.0
 40
1.0
 40
1.0
 40
1.0
 10
22.8126588564
 20
47.2132074692
 30
0.0
 10
22.7866315035
 20
47.1981806588
 30
0.0
 10
22.7365785581
 20
47.1632742756
 30
0.0
 10
22.6704777372
 20
47.0981787287
 30
0.0
 10
22.6136016479
 20
47.0209600794
 30
0.0
 10
22.5665147807
 20
46.9324481657
 30
0.0
 10
22.5295657584
 20
46.8335190634
 30
0.0
 10
22.493272085
 20
46.6850555916
 30
0.0
 10
22.4838627795
 20
46.5669388844
 30
0.0
 10
22.4838627795
 20
46.4864823928
 30
0.0
  0
SPLINE
  5
329
100
AcDbEntity
  8
0
100
AcDbSpline
 62
7
  6
CONTINUOUS
 70
0
 71
3
 72
16
 73
12
 74
0
 42
0.0000001
 43
0.0000001
 44
0.0000000001
 40
0.0
 40
0.0
 40
0.0
 40
0.0
 40
0.0980465385
 40
0.1525473284
 40
0.2105764837
 40
0.3359400815
 40
0.470672367
 40
0.609825734
 40
0.7478618235
 40
0.8794674892
 40
1.0
 40
1.0
 40
1.0
 40
1.0
 10
11.3515699227
 20
48.9925560449
 30
0.0
 10
11.3304604304
 20
48.9460694294
 30
0.0
 10
11.3101779368
 20
48.8678010983
 30
0.0
 10
11.3020171833
 20
48.7583894328
 30
0.0
 10
11.3061570296
 20
48.6343329621
 30
0.0
 10
11.3360904054
 20
48.4704622106
 30
0.0
 10
11.4053752269
 20
48.2736764522
 30
0.0
 10
11.5050623375
 20
48.0829514678
 30
0.0
 10
11.6293708973
 20
47.9092383612
 30
0.0
 10
11.7711298904
 20
47.7626619251
 30
0.0
 10
11.8776810919
 20
47.6843412685
 30
0.0
 10
11.9320366002
 20
47.6529598111
 30
0.0
  0
SPLINE
  5
32A
100
AcDbEntity
  8
0
100
AcDbSpline
 62
7
  6
CONTINUOUS
 70
0
 71
3
 72
12
 73
8
 74
0
 42
0.0000001
 43
0.0000001
 44
0.0000000001
 40
0.0
 40
0.0
 40
0.0
 40
0.0
 40
0.1081687912
 40
0.2183555695
 40
0.4513113955
 40
0.7105889062
 40
1.0
 40
1.0
 40
1.0
 40
1.0
 10
11.1283391068
 20
48.9413239933
 30
0.0
 10
11.1429181807
 20
48.9497334562
 30
0.0
 10
11.1738668838
 20
48.9642153482
 30
0.0
 10
11.2418018746
 20
48.9830650815
 30
0.0
 10
11.3370171935
 20
48.9855923829
 30
0.0
 10
11.456200643
 20
48.9567173099
 30
0.0
 10
11.5338295758
 20
48.9198282338
 30
0.0
 10
11.5728278509
 20
48.8973130786
 30
0.0
  0
SPLINE
  5
32B
100
AcDbEntity
  8
0
100
AcDbSpline
 62
7
  6
CONTINUOUS
 70
0
 71
3
 72
14
 73
10
 74
0
 42
0.0000001
 43
0.0000001
 44
0.0000000001
 40
0.0
 40
0.0
 40
0.0
 40
0.0
 40
0.108046144
 40
0.2181359093
 40
0.3321085861
 40
0.4514831362
 40
0.5774302378
 40
0.7107534897
 40
1.0
 40
1.0
 40
1.0
 40
1.0
 10
11.1382959884
 20
51.3609227422
 30
0.0
 10
11.1643227662
 20
51.3759492206
 30
0.0
 10
11.2195778822
 20
51.4018423826
 30
0.0
 10
11.3090006006
 20
51.4265390511
 30
0.0
 10
11.4043095824
 20
51.4371859332
 30
0.0
 10
11.5045039939
 20
51.4337090523
 30
0.0
 10
11.6086508848
 20
51.4162445359
 30
0.0
 10
11.7553669267
 20
51.3734465205
 30
0.0
 10
11.8623609426
 20
51.3225394048
 30
0.0
 10
11.9320366002
 20
51.2823130552
 30
0.0
  0
SPLINE
  5
32C
100
AcDbEntity
  8
0
100
AcDbSpline
 62
7
  6
CONTINUOUS
 70
0
 71
3
 72
14
 73
10
 74
0
 42
0.0000001
 43
0.0000001
 44
0.0000000001
 40
0.0
 40
0.0
 40
0.0
 40
0.0
 40
0.1080456362
 40
0.2181349707
 40
0.332107362
 40
0.4514818058
 40
0.577428993
 40
0.7107525123
 40
1.0
 40
1.0
 40
1.0
 40
1.0
 10
10.7790872391
 20
51.153534712
 30
0.0
 10
10.7530598863
 20
51.1385079016
 30
0.0
 10
10.7030069408
 20
51.1036015184
 30
0.0
 10
10.6369061199
 20
51.0385059715
 30
0.0
 10
10.5800300306
 20
50.9612873222
 30
0.0
 10
10.5329431634
 20
50.8727754085
 30
0.0
 10
10.4959941411
 20
50.7738463062
 30
0.0
 10
10.4597004677
 20
50.6253828344
 30
0.0
 10
10.4502911622
 20
50.5072661272
 30
0.0
 10
10.4502911622
 20
50.4268096357
 30
0.0
  0
SPLINE
  5
32D
100
AcDbEntity
  8
0
100
AcDbSpline
 62
7
  6
CONTINUOUS
 70
0
 71
3
 72
16
 73
12
 74
0
 42
0.0000001
 43
0.0000001
 44
0.0000000001
 40
0.0
 40
0.0
 40
0.0
 40
0.0
 40
0.0980465385
 40
0.1525473284
 40
0.2105764837
 40
0.3359400815
 40
0.470672367
 40
0.609825734
 40
0.7478618235
 40
0.8794674892
 40
1.0
 40
1.0
 40
1.0
 40
1.0
 10
14.494672651
 20
47.177925891
 30
0.0
 10
14.4735631586
 20
47.1314392756
 30
0.0
 10
14.4532806651
 20
47.0531709444
 30
0.0
 10
14.4451199115
 20
46.9437592789
 30
0.0
 10
14.4492597579
 20
46.8197028082
 30
0.0
 10
14.4791931337
 20
46.6558320567
 30
0.0
 10
14.5484779552
 20
46.4590462983
 30
0.0
 10
14.6481650658
 20
46.268321314
 30
0.0
 10
14.7724736256
 20
46.0946082074
 30
0.0
 10
14.9142326187
 20
45.9480317712
 30
0.0
 10
15.0207838202
 20
45.8697111146
 30
0.0
 10
15.0751393285
 20
45.8383296572
 30
0.0
  0
SPLINE
  5
32E
100
AcDbEntity
  8
0
100
AcDbSpline
 62
7
  6
CONTINUOUS
 70
0
 71
3
 72
12
 73
8
 74
0
 42
0.0000001
 43
0.0000001
 44
0.0000000001
 40
0.0
 40
0.0
 40
0.0
 40
0.0
 40
0.1081687912
 40
0.2183555695
 40
0.4513113955
 40
0.7105889062
 40
1.0
 40
1.0
 40
1.0
 40
1.0
 10
14.2714418351
 20
47.1266938395
 30
0.0
 10
14.286020909
 20
47.1351033023
 30
0.0
 10
14.3169696121
 20
47.1495851943
 30
0.0
 10
14.3849046029
 20
47.1684349276
 30
0.0
 10
14.4801199218
 20
47.1709622291
 30
0.0
 10
14.5993033713
 20
47.1420871561
 30
0.0
 10
14.6769323041
 20
47.1051980799
 30
0.0
 10
14.7159305791
 20
47.0826829247
 30
0.0
  0
SPLINE
  5
32F
100
AcDbEntity
  8
0
100
AcDbSpline
 62
7
  6
CONTINUOUS
 70
0
 71
3
 72
14
 73
10
 74
0
 42
0.0000001
 43
0.0000001
 44
0.0000000001
 40
0.0
 40
0.0
 40
0.0
 40
0.0
 40
0.108046144
 40
0.2181359093
 40
0.3321085861
 40
0.4514831362
 40
0.5774302378
 40
0.7107534897
 40
1.0
 40
1.0
 40
1.0
 40
1.0
 10
14.2813987166
 20
49.5462925883
 30
0.0
 10
14.3074254945
 20
49.5613190668
 30
0.0
 10
14.3626806105
 20
49.5872122288
 30
0.0
 10
14.4521033289
 20
49.6119088973
 30
0.0
 10
14.5474123107
 20
49.6225557793
 30
0.0
 10
14.6476067222
 20
49.6190788985
 30
0.0
 10
14.751753613
 20
49.6016143821
 30
0.0
 10
14.8984696549
 20
49.5588163667
 30
0.0
 10
15.0054636708
 20
49.507909251
 30
0.0
 10
15.0751393285
 20
49.4676829014
 30
0.0
  0
SPLINE
  5
330
100
AcDbEntity
  8
0
100
AcDbSpline
 62
7
  6
CONTINUOUS
 70
0
 71
3
 72
14
 73
10
 74
0
 42
0.0000001
 43
0.0000001
 44
0.0000000001
 40
0.0
 40
0.0
 40
0.0
 40
0.0
 40
0.1080456362
 40
0.2181349707
 40
0.332107362
 40
0.4514818058
 40
0.577428993
 40
0.7107525123
 40
1.0
 40
1.0
 40
1.0
 40
1.0
 10
13.9221899673
 20
49.3389045582
 30
0.0
 10
13.8961626145
 20
49.3238777478
 30
0.0
 10
13.8461096691
 20
49.2889713646
 30
0.0
 10
13.7800088482
 20
49.2238758177
 30
0.0
 10
13.7231327589
 20
49.1466571683
 30
0.0
 10
13.6760458917
 20
49.0581452547
 30
0.0
 10
13.6390968694
 20
48.9592161524
 30
0.0
 10
13.602803196
 20
48.8107526806
 30
0.0
 10
13.5933938905
 20
48.6926359733
 30
0.0
 10
13.5933938905
 20
48.6121794818
 30
0.0
  0
SPLINE
  5
331
100
AcDbEntity
  8
0
100
AcDbSpline
 62
7
  6
CONTINUOUS
 70
0
 71
3
 72
16
 73
12
 74
0
 42
0.0000001
 43
0.0000001
 44
0.0000000001
 40
0.0
 40
0.0
 40
0.0
 40
0.0
 40
0.0980465385
 40
0.1525473284
 40
0.2105764837
 40
0.3359400815
 40
0.470672367
 40
0.609825734
 40
0.7478618235
 40
0.8794674892
 40
1.0
 40
1.0
 40
1.0
 40
1.0
 10
17.6377753792
 20
45.3632957372
 30
0.0
 10
17.6166658869
 20
45.3168091217
 30
0.0
 10
17.5963833933
 20
45.2385407906
 30
0.0
 10
17.5882226398
 20
45.1291291251
 30
0.0
 10
17.5923624862
 20
45.0050726544
 30
0.0
 10
17.622295862
 20
44.8412019029
 30
0.0
 10
17.6915806835
 20
44.6444161445
 30
0.0
 10
17.7912677941
 20
44.4536911601
 30
0.0
 10
17.9155763538
 20
44.2799780535
 30
0.0
 10
18.057335347
 20
44.1334016174
 30
0.0
 10
18.1638865485
 20
44.0550809608
 30
0.0
 10
18.2182420567
 20
44.0236995034
 30
0.0
  0
SPLINE
  5
332
100
AcDbEntity
  8
0
100
AcDbSpline
 62
7
  6
CONTINUOUS
 70
0
 71
3
 72
12
 73
8
 74
0
 42
0.0000001
 43
0.0000001
 44
0.0000000001
 40
0.0
 40
0.0
 40
0.0
 40
0.0
 40
0.1081687912
 40
0.2183555695
 40
0.4513113955
 40
0.7105889062
 40
1.0
 40
1.0
 40
1.0
 40
1.0
 10
17.4145445634
 20
45.3120636857
 30
0.0
 10
17.4291236373
 20
45.3204731485
 30
0.0
 10
17.4600723404
 20
45.3349550405
 30
0.0
 10
17.5280073312
 20
45.3538047738
 30
0.0
 10
17.6232226501
 20
45.3563320753
 30
0.0
 10
17.7424060996
 20
45.3274570022
 30
0.0
 10
17.8200350324
 20
45.2905679261
 30
0.0
 10
17.8590333074
 20
45.2680527709
 30
0.0
  0
SPLINE
  5
333
100
AcDbEntity
  8
0
100
AcDbSpline
 62
7
  6
CONTINUOUS
 70
0
 71
3
 72
14
 73
10
 74
0
 42
0.0000001
 43
0.0000001
 44
0.0000000001
 40
0.0
 40
0.0
 40
0.0
 40
0.0
 40
0.108046144
 40
0.2181359093
 40
0.3321085861
 40
0.4514831362
 40
0.5774302378
 40
0.7107534897
 40
1.0
 40
1.0
 40
1.0
 40
1.0
 10
17.4245014449
 20
47.7316624345
 30
0.0
 10
17.4505282228
 20
47.7466889129
 30
0.0
 10
17.5057833387
 20
47.7725820749
 30
0.0
 10
17.5952060571
 20
47.7972787434
 30
0.0
 10
17.6905150389
 20
47.8079256255
 30
0.0
 10
17.7907094504
 20
47.8044487446
 30
0.0
 10
17.8948563413
 20
47.7869842282
 30
0.0
 10
18.0415723832
 20
47.7441862128
 30
0.0
 10
18.1485663991
 20
47.6932790972
 30
0.0
 10
18.2182420567
 20
47.6530527475
 30
0.0
  0
SPLINE
  5
334
100
AcDbEntity
  8
0
100
AcDbSpline
 62
7
  6
CONTINUOUS
 70
0
 71
3
 72
14
 73
10
 74
0
 42
0.0000001
 43
0.0000001
 44
0.0000000001
 40
0.0
 40
0.0
 40
0.0
 40
0.0
 40
0.1080456362
 40
0.2181349707
 40
0.332107362
 40
0.4514818058
 40
0.577428993
 40
0.7107525123
 40
1.0
 40
1.0
 40
1.0
 40
1.0
 10
17.0652926956
 20
47.5242744043
 30
0.0
 10
17.0392653428
 20
47.5092475939
 30
0.0
 10
16.9892123973
 20
47.4743412107
 30
0.0
 10
16.9231115764
 20
47.4092456638
 30
0.0
 10
16.8662354872
 20
47.3320270145
 30
0.0
 10
16.81914862
 20
47.2435151008
 30
0.0
 10
16.7821995977
 20
47.1445859985
 30
0.0
 10
16.7459059242
 20
46.9961225267
 30
0.0
 10
16.7364966188
 20
46.8780058195
 30
0.0
 10
16.7364966188
 20
46.797549328
 30
0.0
  0
SPLINE
  5
335
100
AcDbEntity
  8
0
100
AcDbSpline
 62
7
  6
CONTINUOUS
 70
0
 71
3
 72
16
 73
12
 74
0
 42
0.0000001
 43
0.0000001
 44
0.0000000001
 40
0.0
 40
0.0
 40
0.0
 40
0.0
 40
0.0980465385
 40
0.1525473284
 40
0.2105764837
 40
0.3359400815
 40
0.470672367
 40
0.609825734
 40
0.7478618235
 40
0.8794674892
 40
1.0
 40
1.0
 40
1.0
 40
1.0
 10
20.7808781075
 20
43.5486655833
 30
0.0
 10
20.7597686152
 20
43.5021789679
 30
0.0
 10
20.7394861216
 20
43.4239106367
 30
0.0
 10
20.7313253681
 20
43.3144989713
 30
0.0
 10
20.7354652145
 20
43.1904425005
 30
0.0
 10
20.7653985903
 20
43.0265717491
 30
0.0
 10
20.8346834118
 20
42.8297859906
 30
0.0
 10
20.9343705224
 20
42.6390610063
 30
0.0
 10
21.0586790821
 20
42.4653478997
 30
0.0
 10
21.2004380752
 20
42.3187714636
 30
0.0
 10
21.3069892767
 20
42.2404508069
 30
0.0
 10
21.361344785
 20
42.2090693495
 30
0.0
  0
SPLINE
  5
336
100
AcDbEntity
  8
0
100
AcDbSpline
 62
7
  6
CONTINUOUS
 70
0
 71
3
 72
12
 73
8
 74
0
 42
0.0000001
 43
0.0000001
 44
0.0000000001
 40
0.0
 40
0.0
 40
0.0
 40
0.0
 40
0.1081687912
 40
0.2183555695
 40
0.4513113955
 40
0.7105889062
 40
1.0
 40
1.0
 40
1.0
 40
1.0
 10
20.5576472917
 20
43.4974335318
 30
0.0
 10
20.5722263656
 20
43.5058429946
 30
0.0
 10
20.6031750686
 20
43.5203248866
 30
0.0
 10
20.6711100594
 20
43.5391746199
 30
0.0
 10
20.7663253784
 20
43.5417019214
 30
0.0
 10
20.8855088279
 20
43.5128268484
 30
0.0
 10
20.9631377607
 20
43.4759377723
 30
0.0
 10
21.0021360357
 20
43.453422617
 30
0.0
  0
SPLINE
  5
337
100
AcDbEntity
  8
0
100
AcDbSpline
 62
7
  6
CONTINUOUS
 70
0
 71
3
 72
14
 73
10
 74
0
 42
0.0000001
 43
0.0000001
 44
0.0000000001
 40
0.0
 40
0.0
 40
0.0
 40
0.0
 40
0.108046144
 40
0.2181359093
 40
0.3321085861
 40
0.4514831362
 40
0.5774302378
 40
0.7107534897
 40
1.0
 40
1.0
 40
1.0
 40
1.0
 10
20.5676041732
 20
45.9170322806
 30
0.0
 10
20.5936309511
 20
45.9320587591
 30
0.0
 10
20.648886067
 20
45.9579519211
 30
0.0
 10
20.7383087854
 20
45.9826485896
 30
0.0
 10
20.8336177672
 20
45.9932954716
 30
0.0
 10
20.9338121787
 20
45.9898185908
 30
0.0
 10
21.0379590696
 20
45.9723540744
 30
0.0
 10
21.1846751115
 20
45.929556059
 30
0.0
 10
21.2916691274
 20
45.8786489433
 30
0.0
 10
21.361344785
 20
45.8384225937
 30
0.0
  0
SPLINE
  5
338
100
AcDbEntity
  8
0
100
AcDbSpline
 62
7
  6
CONTINUOUS
 70
0
 71
3
 72
14
 73
10
 74
0
 42
0.0000001
 43
0.0000001
 44
0.0000000001
 40
0.0
 40
0.0
 40
0.0
 40
0.0
 40
0.1080456362
 40
0.2181349707
 40
0.332107362
 40
0.4514818058
 40
0.577428993
 40
0.7107525123
 40
1.0
 40
1.0
 40
1.0
 40
1.0
 10
20.2083954239
 20
45.7096442505
 30
0.0
 10
20.1823680711
 20
45.6946174401
 30
0.0
 10
20.1323151256
 20
45.6597110569
 30
0.0
 10
20.0662143047
 20
45.59461551
 30
0.0
 10
20.0093382155
 20
45.5173968606
 30
0.0
 10
19.9622513483
 20
45.428884947
 30
0.0
 10
19.925302326
 20
45.3299558447
 30
0.0
 10
19.8890086525
 20
45.1814923729
 30
0.0
 10
19.879599347
 20
45.0633756656
 30
0.0
 10
19.879599347
 20
44.9829191741
 30
0.0
  0
SPLINE
  5
339
100
AcDbEntity
  8
0
100
AcDbSpline
 62
7
  6
CONTINUOUS
 70
0
 71
3
 72
13
 73
9
 74
0
 42
0.0000001
 43
0.0000001
 44
0.0000000001
 40
0.0
 40
0.0
 40
0.0
 40
0.0
 40
0.203326511
 40
0.3207347128
 40
0.4472550882
 40
0.5810025869
 40
0.7196014837
 40
1.0
 40
1.0
 40
1.0
 40
1.0
 10
23.0258542751
 20
55.7326670253
 30
0.0
 10
22.994989977
 20
55.6646987039
 30
0.0
 10
22.973431451
 20
55.545067611
 30
0.0
 10
22.9804319251
 20
55.3810276268
 30
0.0
 10
23.0046047191
 20
55.2440082625
 30
0.0
 10
23.0467070767
 20
55.10345672
 30
0.0
 10
23.1253499709
 20
54.9161117235
 30
0.0
 10
23.2062130723
 20
54.7836195566
 30
0.0
 10
23.2685848676
 20
54.70172255
 30
0.0
  0
SPLINE
  5
33A
100
AcDbEntity
  8
0
100
AcDbSpline
 62
7
  6
CONTINUOUS
 70
0
 71
3
 72
10
 73
6
 74
0
 42
0.0000001
 43
0.0000001
 44
0.0000000001
 40
0.0
 40
0.0
 40
0.0
 40
0.0
 40
0.523153644
 40
0.7689172772
 40
1.0
 40
1.0
 40
1.0
 40
1.0
 10
23.2685848676
 20
54.70172255
 30
0.0
 10
23.3171887067
 20
54.6379034964
 30
0.0
 10
23.3964969614
 20
54.5494975176
 30
0.0
 10
23.5145944857
 20
54.4514049437
 30
0.0
 10
23.5756340895
 20
54.4107874593
 30
0.0
 10
23.6063209526
 20
54.3930707915
 30
0.0
  0
SPLINE
  5
33B
100
AcDbEntity
  8
0
100
AcDbSpline
 62
7
  6
CONTINUOUS
 70
0
 71
3
 72
12
 73
8
 74
0
 42
0.0000001
 43
0.0000001
 44
0.0000000001
 40
0.0
 40
0.0
 40
0.0
 40
0.0
 40
0.1081687912
 40
0.2183555695
 40
0.4513113955
 40
0.7105889062
 40
1.0
 40
1.0
 40
1.0
 40
1.0
 10
22.8026234592
 20
55.6814349738
 30
0.0
 10
22.8172025331
 20
55.6898444366
 30
0.0
 10
22.8481512362
 20
55.7043263286
 30
0.0
 10
22.916086227
 20
55.7231760619
 30
0.0
 10
23.0113015459
 20
55.7257033634
 30
0.0
 10
23.1304849954
 20
55.6968282904
 30
0.0
 10
23.2081139282
 20
55.6599392142
 30
0.0
 10
23.2471122033
 20
55.637424059
 30
0.0
  0
SPLINE
  5
33C
100
AcDbEntity
  8
0
100
AcDbSpline
 62
7
  6
CONTINUOUS
 70
0
 71
3
 72
14
 73
10
 74
0
 42
0.0000001
 43
0.0000001
 44
0.0000000001
 40
0.0
 40
0.0
 40
0.0
 40
0.0
 40
0.108046144
 40
0.2181359093
 40
0.3321085861
 40
0.4514831362
 40
0.5774302378
 40
0.7107534897
 40
1.0
 40
1.0
 40
1.0
 40
1.0
 10
22.8125803408
 20
58.1010337226
 30
0.0
 10
22.8386071186
 20
58.116060201
 30
0.0
 10
22.8938622346
 20
58.141953363
 30
0.0
 10
22.983284953
 20
58.1666500315
 30
0.0
 10
23.0785939348
 20
58.1772969136
 30
0.0
 10
23.1787883463
 20
58.1738200327
 30
0.0
 10
23.2829352372
 20
58.1563555163
 30
0.0
 10
23.4296512791
 20
58.1135575009
 30
0.0
 10
23.536645295
 20
58.0626503853
 30
0.0
 10
23.6063209526
 20
58.0224240356
 30
0.0
  0
SPLINE
  5
33D
100
AcDbEntity
  8
0
100
AcDbSpline
 62
7
  6
CONTINUOUS
 70
0
 71
3
 72
14
 73
10
 74
0
 42
0.0000001
 43
0.0000001
 44
0.0000000001
 40
0.0
 40
0.0
 40
0.0
 40
0.0
 40
0.1080456362
 40
0.2181349707
 40
0.332107362
 40
0.4514818058
 40
0.577428993
 40
0.7107525123
 40
1.0
 40
1.0
 40
1.0
 40
1.0
 10
22.4533715915
 20
57.8936456924
 30
0.0
 10
22.4273442387
 20
57.878618882
 30
0.0
 10
22.3772912932
 20
57.8437124989
 30
0.0
 10
22.3111904723
 20
57.7786169519
 30
0.0
 10
22.254314383
 20
57.7013983026
 30
0.0
 10
22.2072275158
 20
57.6128863889
 30
0.0
 10
22.1702784935
 20
57.5139572867
 30
0.0
 10
22.1339848201
 20
57.3654938149
 30
0.0
 10
22.1245755146
 20
57.2473771076
 30
0.0
 10
22.1245755146
 20
57.1669206161
 30
0.0
  0
SPLINE
  5
33E
100
AcDbEntity
  8
0
100
AcDbSpline
 62
7
  6
CONTINUOUS
 70
0
 71
3
 72
16
 73
12
 74
0
 42
0.0000001
 43
0.0000001
 44
0.0000000001
 40
0.0
 40
0.0
 40
0.0
 40
0.0
 40
0.0980465385
 40
0.1525473284
 40
0.2105764837
 40
0.3359400815
 40
0.470672367
 40
0.609825734
 40
0.7478618235
 40
0.8794674892
 40
1.0
 40
1.0
 40
1.0
 40
1.0
 10
32.4551624599
 20
50.2887765638
 30
0.0
 10
32.4340529676
 20
50.2422899483
 30
0.0
 10
32.413770474
 20
50.1640216172
 30
0.0
 10
32.4056097205
 20
50.0546099517
 30
0.0
 10
32.4097495669
 20
49.9305534809
 30
0.0
 10
32.4396829427
 20
49.7666827295
 30
0.0
 10
32.5089677642
 20
49.5698969711
 30
0.0
 10
32.6086548748
 20
49.3791719867
 30
0.0
 10
32.7329634345
 20
49.2054588801
 30
0.0
 10
32.8747224276
 20
49.058882444
 30
0.0
 10
32.9812736291
 20
48.9805617873
 30
0.0
 10
33.0356291374
 20
48.94918033
 30
0.0
  0
SPLINE
  5
33F
100
AcDbEntity
  8
0
100
AcDbSpline
 62
7
  6
CONTINUOUS
 70
0
 71
3
 72
12
 73
8
 74
0
 42
0.0000001
 43
0.0000001
 44
0.0000000001
 40
0.0
 40
0.0
 40
0.0
 40
0.0
 40
0.1081687912
 40
0.2183555695
 40
0.4513113955
 40
0.7105889062
 40
1.0
 40
1.0
 40
1.0
 40
1.0
 10
32.2319316441
 20
50.2375445122
 30
0.0
 10
32.246510718
 20
50.2459539751
 30
0.0
 10
32.277459421
 20
50.260435867
 30
0.0
 10
32.3453944118
 20
50.2792856004
 30
0.0
 10
32.4406097308
 20
50.2818129018
 30
0.0
 10
32.5597931803
 20
50.2529378288
 30
0.0
 10
32.6374221131
 20
50.2160487527
 30
0.0
 10
32.6764203881
 20
50.1935335974
 30
0.0
  0
SPLINE
  5
340
100
AcDbEntity
  8
0
100
AcDbSpline
 62
7
  6
CONTINUOUS
 70
0
 71
3
 72
14
 73
10
 74
0
 42
0.0000001
 43
0.0000001
 44
0.0000000001
 40
0.0
 40
0.0
 40
0.0
 40
0.0
 40
0.108046144
 40
0.2181359093
 40
0.3321085861
 40
0.4514831362
 40
0.5774302378
 40
0.7107534897
 40
1.0
 40
1.0
 40
1.0
 40
1.0
 10
32.2418885256
 20
52.6571432611
 30
0.0
 10
32.2679153035
 20
52.6721697395
 30
0.0
 10
32.3231704194
 20
52.6980629015
 30
0.0
 10
32.4125931378
 20
52.72275957
 30
0.0
 10
32.5079021196
 20
52.7334064521
 30
0.0
 10
32.6080965311
 20
52.7299295712
 30
0.0
 10
32.712243422
 20
52.7124650548
 30
0.0
 10
32.8589594639
 20
52.6696670394
 30
0.0
 10
32.9659534798
 20
52.6187599237
 30
0.0
 10
33.0356291374
 20
52.5785335741
 30
0.0
  0
SPLINE
  5
341
100
AcDbEntity
  8
0
100
AcDbSpline
 62
7
  6
CONTINUOUS
 70
0
 71
3
 72
14
 73
10
 74
0
 42
0.0000001
 43
0.0000001
 44
0.0000000001
 40
0.0
 40
0.0
 40
0.0
 40
0.0
 40
0.1080456362
 40
0.2181349707
 40
0.332107362
 40
0.4514818058
 40
0.577428993
 40
0.7107525123
 40
1.0
 40
1.0
 40
1.0
 40
1.0
 10
31.8826797763
 20
52.4497552309
 30
0.0
 10
31.8566524235
 20
52.4347284205
 30
0.0
 10
31.806599478
 20
52.3998220373
 30
0.0
 10
31.7404986571
 20
52.3347264904
 30
0.0
 10
31.6836225679
 20
52.2575078411
 30
0.0
 10
31.6365357007
 20
52.1689959274
 30
0.0
 10
31.5995866784
 20
52.0700668251
 30
0.0
 10
31.5632930049
 20
51.9216033533
 30
0.0
 10
31.5538836994
 20
51.8034866461
 30
0.0
 10
31.5538836994
 20
51.7230301545
 30
0.0
  0
SPLINE
  5
342
100
AcDbEntity
  8
0
100
AcDbSpline
 62
7
  6
CONTINUOUS
 70
0
 71
3
 72
13
 73
9
 74
0
 42
0.0000001
 43
0.0000001
 44
0.0000000001
 40
0.0
 40
0.0
 40
0.0
 40
0.0
 40
0.2033804354
 40
0.320613415
 40
0.4469031841
 40
0.5804519018
 40
0.7189792722
 40
1.0
 40
1.0
 40
1.0
 40
1.0
 10
18.3561405341
 20
53.0366226331
 30
0.0
 10
18.3257847944
 20
52.969774242
 30
0.0
 10
18.3041653005
 20
52.8523623013
 30
0.0
 10
18.3101390311
 20
52.6911507819
 30
0.0
 10
18.3329718292
 20
52.5564947997
 30
0.0
 10
18.3732587963
 20
52.4181619564
 30
0.0
 10
18.449043958
 20
52.2331777728
 30
0.0
 10
18.5272987773
 20
52.1019634012
 30
0.0
 10
18.5877387523
 20
52.0204888512
 30
0.0
  0
SPLINE
  5
343
100
AcDbEntity
  8
0
100
AcDbSpline
 62
7
  6
CONTINUOUS
 70
0
 71
3
 72
10
 73
6
 74
0
 42
0.0000001
 43
0.0000001
 44
0.0000000001
 40
0.0
 40
0.0
 40
0.0
 40
0.0
 40
0.5234851517
 40
0.7692793149
 40
1.0
 40
1.0
 40
1.0
 40
1.0
 10
18.5877387523
 20
52.0204888512
 30
0.0
 10
18.6374847318
 20
51.9534300662
 30
0.0
 10
18.7191241233
 20
51.8605615151
 30
0.0
 10
18.8413778586
 20
51.7578052606
 30
0.0
 10
18.9047373841
 20
51.7154260365
 30
0.0
 10
18.9366072116
 20
51.6970263993
 30
0.0
  0
SPLINE
  5
344
100
AcDbEntity
  8
0
100
AcDbSpline
 62
7
  6
CONTINUOUS
 70
0
 71
3
 72
12
 73
8
 74
0
 42
0.0000001
 43
0.0000001
 44
0.0000000001
 40
0.0
 40
0.0
 40
0.0
 40
0.0
 40
0.1081687912
 40
0.2183555695
 40
0.4513113955
 40
0.7105889062
 40
1.0
 40
1.0
 40
1.0
 40
1.0
 10
18.1329097183
 20
52.9853905816
 30
0.0
 10
18.1474887922
 20
52.9938000444
 30
0.0
 10
18.1784374952
 20
53.0082819364
 30
0.0
 10
18.2463724861
 20
53.0271316697
 30
0.0
 10
18.341587805
 20
53.0296589712
 30
0.0
 10
18.4607712545
 20
53.0007838982
 30
0.0
 10
18.5384001873
 20
52.963894822
 30
0.0
 10
18.5773984623
 20
52.9413796668
 30
0.0
  0
SPLINE
  5
345
100
AcDbEntity
  8
0
100
AcDbSpline
 62
7
  6
CONTINUOUS
 70
0
 71
3
 72
20
 73
16
 74
0
 42
0.0000001
 43
0.0000001
 44
0.0000000001
 40
0.0
 40
0.0
 40
0.0
 40
0.0
 40
0.0623641411
 40
0.128804205
 40
0.2703039228
 40
0.4173616336
 40
0.5616108901
 40
0.6302487174
 40
0.6953759123
 40
0.7563588722
 40
0.8128293967
 40
0.8647615268
 40
0.9125646103
 40
0.9571664467
 40
1.0
 40
1.0
 40
1.0
 40
1.0
 10
18.5773984623
 20
52.9413796668
 30
0.0
 10
18.6093100956
 20
52.9229558936
 30
0.0
 10
18.6727474311
 20
52.8805196018
 30
0.0
 10
18.7951625068
 20
52.777573715
 30
0.0
 10
18.9345008484
 20
52.6190021791
 30
0.0
 10
19.0689811679
 20
52.4002468977
 30
0.0
 10
19.1491753418
 20
52.2019326821
 30
0.0
 10
19.1887553077
 20
52.0422715427
 30
0.0
 10
19.2049280853
 20
51.9281129252
 30
0.0
 10
19.2076678542
 20
51.8199980405
 30
0.0
 10
19.1969073322
 20
51.7201488943
 30
0.0
 10
19.1727079549
 20
51.6306243219
 30
0.0
 10
19.1353553434
 20
51.5533007143
 30
0.0
 10
19.0853558096
 20
51.4900789526
 30
0.0
 10
19.0438100016
 20
51.4582729031
 30
0.0
 10
19.0218872063
 20
51.4456274544
 30
0.0
  0
SPLINE
  5
346
100
AcDbEntity
  8
0
100
AcDbSpline
 62
7
  6
CONTINUOUS
 70
0
 71
3
 72
20
 73
16
 74
0
 42
0.0000001
 43
0.0000001
 44
0.0000000001
 40
0.0
 40
0.0
 40
0.0
 40
0.0
 40
0.0623641411
 40
0.128804205
 40
0.2703039228
 40
0.4173616336
 40
0.5616108901
 40
0.6302487174
 40
0.6953759123
 40
0.7563588722
 40
0.8128293967
 40
0.8647615268
 40
0.9125646103
 40
0.9571664467
 40
1.0
 40
1.0
 40
1.0
 40
1.0
 10
21.7205011906
 20
51.126749513
 30
0.0
 10
21.7524128239
 20
51.1083257397
 30
0.0
 10
21.8158501594
 20
51.065889448
 30
0.0
 10
21.938265235
 20
50.9629435612
 30
0.0
 10
22.0776035767
 20
50.8043720253
 30
0.0
 10
22.2120838962
 20
50.5856167438
 30
0.0
 10
22.2922780701
 20
50.3873025283
 30
0.0
 10
22.331858036
 20
50.2276413888
 30
0.0
 10
22.3480308136
 20
50.1134827713
 30
0.0
 10
22.3507705825
 20
50.0053678866
 30
0.0
 10
22.3400100604
 20
49.9055187404
 30
0.0
 10
22.3158106832
 20
49.8159941681
 30
0.0
 10
22.2784580716
 20
49.7386705604
 30
0.0
 10
22.2284585379
 20
49.6754487988
 30
0.0
 10
22.1869127299
 20
49.6436427493
 30
0.0
 10
22.1649899346
 20
49.6309973005
 30
0.0
  0
SPLINE
  5
347
100
AcDbEntity
  8
0
100
AcDbSpline
 62
7
  6
CONTINUOUS
 70
0
 71
3
 72
9
 73
5
 74
0
 42
0.0000001
 43
0.0000001
 44
0.0000000001
 40
0.0
 40
0.0
 40
0.0
 40
0.0
 40
0.5221455342
 40
1.0
 40
1.0
 40
1.0
 40
1.0
 10
22.0797099399
 20
49.8823962455
 30
0.0
 10
22.1121321754
 20
49.8636776826
 30
0.0
 10
22.1767371546
 20
49.8319364575
 30
0.0
 10
22.245828433
 20
49.8110925959
 30
0.0
 10
22.2794862718
 20
49.8046862533
 30
0.0
  0
SPLINE
  5
348
100
AcDbEntity
  8
0
100
AcDbSpline
 62
7
  6
CONTINUOUS
 70
0
 71
3
 72
15
 73
11
 74
0
 42
0.0000001
 43
0.0000001
 44
0.0000000001
 40
0.0
 40
0.0
 40
0.0
 40
0.0
 40
0.1141465952
 40
0.2373352439
 40
0.366975646
 40
0.4999989181
 40
0.6330223406
 40
0.7626631822
 40
0.8858525235
 40
1.0
 40
1.0
 40
1.0
 40
1.0
 10
22.0797099399
 20
53.5117494896
 30
0.0
 10
22.1565509834
 20
53.4673862961
 30
0.0
 10
22.3083361804
 20
53.360975349
 30
0.0
 10
22.5171970056
 20
53.1655948566
 30
0.0
 10
22.7096494946
 20
52.934607134
 30
0.0
 10
22.8784903565
 20
52.6767409738
 30
0.0
 10
23.017390029
 20
52.4015877736
 30
0.0
 10
23.1212068441
 20
52.1194247846
 30
0.0
 10
23.1859830215
 20
51.8408546556
 30
0.0
 10
23.2022466286
 20
51.6561982821
 30
0.0
 10
23.2022466286
 20
51.5674697046
 30
0.0
  0
SPLINE
  5
349
100
AcDbEntity
  8
0
100
AcDbSpline
 62
7
  6
CONTINUOUS
 70
0
 71
3
 72
20
 73
16
 74
0
 42
0.0000001
 43
0.0000001
 44
0.0000000001
 40
0.0
 40
0.0
 40
0.0
 40
0.0
 40
0.0623641411
 40
0.128804205
 40
0.2703039228
 40
0.4173616336
 40
0.5616108901
 40
0.6302487174
 40
0.6953759123
 40
0.7563588722
 40
0.8128293967
 40
0.8647615268
 40
0.9125646103
 40
0.9571664467
 40
1.0
 40
1.0
 40
1.0
 40
1.0
 10
24.8636039189
 20
49.3121193591
 30
0.0
 10
24.8955155521
 20
49.2936955859
 30
0.0
 10
24.9589528876
 20
49.2512592942
 30
0.0
 10
25.0813679633
 20
49.1483134073
 30
0.0
 10
25.220706305
 20
48.9897418715
 30
0.0
 10
25.3551866245
 20
48.77098659
 30
0.0
 10
25.4353807983
 20
48.5726723744
 30
0.0
 10
25.4749607643
 20
48.413011235
 30
0.0
 10
25.4911335419
 20
48.2988526175
 30
0.0
 10
25.4938733108
 20
48.1907377328
 30
0.0
 10
25.4831127887
 20
48.0908885866
 30
0.0
 10
25.4589134114
 20
48.0013640142
 30
0.0
 10
25.4215607999
 20
47.9240404066
 30
0.0
 10
25.3715612662
 20
47.860818645
 30
0.0
 10
25.3300154582
 20
47.8290125954
 30
0.0
 10
25.3080926629
 20
47.8163671467
 30
0.0
  0
SPLINE
  5
34A
100
AcDbEntity
  8
0
100
AcDbSpline
 62
7
  6
CONTINUOUS
 70
0
 71
3
 72
9
 73
5
 74
0
 42
0.0000001
 43
0.0000001
 44
0.0000000001
 40
0.0
 40
0.0
 40
0.0
 40
0.0
 40
0.5221455342
 40
1.0
 40
1.0
 40
1.0
 40
1.0
 10
25.2228126682
 20
48.0677660916
 30
0.0
 10
25.2552349037
 20
48.0490475287
 30
0.0
 10
25.3198398829
 20
48.0173063037
 30
0.0
 10
25.3889311613
 20
47.9964624421
 30
0.0
 10
25.4225890001
 20
47.9900560994
 30
0.0
  0
SPLINE
  5
34B
100
AcDbEntity
  8
0
100
AcDbSpline
 62
7
  6
CONTINUOUS
 70
0
 71
3
 72
15
 73
11
 74
0
 42
0.0000001
 43
0.0000001
 44
0.0000000001
 40
0.0
 40
0.0
 40
0.0
 40
0.0
 40
0.1141465952
 40
0.2373352439
 40
0.366975646
 40
0.4999989181
 40
0.6330223406
 40
0.7626631822
 40
0.8858525235
 40
1.0
 40
1.0
 40
1.0
 40
1.0
 10
25.2228126682
 20
51.6971193358
 30
0.0
 10
25.2996537116
 20
51.6527561423
 30
0.0
 10
25.4514389087
 20
51.5463451952
 30
0.0
 10
25.6602997339
 20
51.3509647028
 30
0.0
 10
25.8527522229
 20
51.1199769801
 30
0.0
 10
26.0215930848
 20
50.86211082
 30
0.0
 10
26.1604927573
 20
50.5869576198
 30
0.0
 10
26.2643095723
 20
50.3047946308
 30
0.0
 10
26.3290857497
 20
50.0262245018
 30
0.0
 10
26.3453493568
 20
49.8415681283
 30
0.0
 10
26.3453493568
 20
49.7528395508
 30
0.0
  0
SPLINE
  5
34C
100
AcDbEntity
  8
0
100
AcDbSpline
 62
7
  6
CONTINUOUS
 70
0
 71
3
 72
20
 73
16
 74
0
 42
0.0000001
 43
0.0000001
 44
0.0000000001
 40
0.0
 40
0.0
 40
0.0
 40
0.0
 40
0.0623641411
 40
0.128804205
 40
0.2703039228
 40
0.4173616336
 40
0.5616108901
 40
0.6302487174
 40
0.6953759123
 40
0.7563588722
 40
0.8128293967
 40
0.8647615268
 40
0.9125646103
 40
0.9571664467
 40
1.0
 40
1.0
 40
1.0
 40
1.0
 10
28.0067066471
 20
47.4974892053
 30
0.0
 10
28.0386182804
 20
47.479065432
 30
0.0
 10
28.1020556159
 20
47.4366291403
 30
0.0
 10
28.2244706916
 20
47.3336832535
 30
0.0
 10
28.3638090333
 20
47.1751117176
 30
0.0
 10
28.4982893528
 20
46.9563564362
 30
0.0
 10
28.5784835266
 20
46.7580422206
 30
0.0
 10
28.6180634925
 20
46.5983810811
 30
0.0
 10
28.6342362701
 20
46.4842224636
 30
0.0
 10
28.6369760391
 20
46.3761075789
 30
0.0
 10
28.626215517
 20
46.2762584327
 30
0.0
 10
28.6020161397
 20
46.1867338604
 30
0.0
 10
28.5646635282
 20
46.1094102527
 30
0.0
 10
28.5146639945
 20
46.0461884911
 30
0.0
 10
28.4731181865
 20
46.0143824416
 30
0.0
 10
28.4511953912
 20
46.0017369928
 30
0.0
  0
SPLINE
  5
34D
100
AcDbEntity
  8
0
100
AcDbSpline
 62
7
  6
CONTINUOUS
 70
0
 71
3
 72
9
 73
5
 74
0
 42
0.0000001
 43
0.0000001
 44
0.0000000001
 40
0.0
 40
0.0
 40
0.0
 40
0.0
 40
0.5221455342
 40
1.0
 40
1.0
 40
1.0
 40
1.0
 10
28.3659153965
 20
46.2531359378
 30
0.0
 10
28.398337632
 20
46.2344173749
 30
0.0
 10
28.4629426112
 20
46.2026761498
 30
0.0
 10
28.5320338896
 20
46.1818322882
 30
0.0
 10
28.5656917284
 20
46.1754259456
 30
0.0
  0
SPLINE
  5
34E
100
AcDbEntity
  8
0
100
AcDbSpline
 62
7
  6
CONTINUOUS
 70
0
 71
3
 72
15
 73
11
 74
0
 42
0.0000001
 43
0.0000001
 44
0.0000000001
 40
0.0
 40
0.0
 40
0.0
 40
0.0
 40
0.1141465952
 40
0.2373352439
 40
0.366975646
 40
0.4999989181
 40
0.6330223406
 40
0.7626631822
 40
0.8858525235
 40
1.0
 40
1.0
 40
1.0
 40
1.0
 10
28.3659153965
 20
49.8824891819
 30
0.0
 10
28.4427564399
 20
49.8381259884
 30
0.0
 10
28.5945416369
 20
49.7317150413
 30
0.0
 10
28.8034024622
 20
49.5363345489
 30
0.0
 10
28.9958549512
 20
49.3053468263
 30
0.0
 10
29.164695813
 20
49.0474806662
 30
0.0
 10
29.3035954856
 20
48.7723274659
 30
0.0
 10
29.4074123006
 20
48.490164477
 30
0.0
 10
29.472188478
 20
48.2115943479
 30
0.0
 10
29.4884520851
 20
48.0269379744
 30
0.0
 10
29.4884520851
 20
47.9382093969
 30
0.0
  0
SPLINE
  5
34F
100
AcDbEntity
  8
0
100
AcDbSpline
 62
7
  6
CONTINUOUS
 70
0
 71
3
 72
12
 73
8
 74
0
 42
0.0000001
 43
0.0000001
 44
0.0000000001
 40
0.0
 40
0.0
 40
0.0
 40
0.0
 40
0.1112499258
 40
0.2299975809
 40
0.483010929
 40
0.7450771707
 40
1.0
 40
1.0
 40
1.0
 40
1.0
 10
14.1770912833
 20
50.4008762973
 30
0.0
 10
14.2103817641
 20
50.3816564641
 30
0.0
 10
14.2765176686
 20
50.3371495423
 30
0.0
 10
14.4037233296
 20
50.2287016762
 30
0.0
 10
14.5473385218
 20
50.0613742494
 30
0.0
 10
14.6833398084
 20
49.8313657954
 30
0.0
 10
14.7465935943
 20
49.6629598917
 30
0.0
 10
14.7689709222
 20
49.5777659438
 30
0.0
  0
SPLINE
  5
350
100
AcDbEntity
  8
0
100
AcDbSpline
 62
7
  6
CONTINUOUS
 70
0
 71
3
 72
15
 73
11
 74
0
 42
0.0000001
 43
0.0000001
 44
0.0000000001
 40
0.0
 40
0.0
 40
0.0
 40
0.0
 40
0.1141465952
 40
0.2373352439
 40
0.366975646
 40
0.4999989181
 40
0.6330223406
 40
0.7626631822
 40
0.8858525235
 40
1.0
 40
1.0
 40
1.0
 40
1.0
 10
14.5363000326
 20
52.7858762739
 30
0.0
 10
14.6131410761
 20
52.7415130804
 30
0.0
 10
14.7649262731
 20
52.6351021333
 30
0.0
 10
14.9737870984
 20
52.4397216409
 30
0.0
 10
15.1662395873
 20
52.2087339183
 30
0.0
 10
15.3350804492
 20
51.9508677581
 30
0.0
 10
15.4739801217
 20
51.6757145579
 30
0.0
 10
15.5777969368
 20
51.3935515689
 30
0.0
 10
15.6425731142
 20
51.1149814399
 30
0.0
 10
15.6588367213
 20
50.9303250664
 30
0.0
 10
15.6588367213
 20
50.8415964889
 30
0.0
  0
SPLINE
  5
351
100
AcDbEntity
  8
0
100
AcDbSpline
 62
7
  6
CONTINUOUS
 70
0
 71
3
 72
12
 73
8
 74
0
 42
0.0000001
 43
0.0000001
 44
0.0000000001
 40
0.0
 40
0.0
 40
0.0
 40
0.0
 40
0.1112499258
 40
0.2299975809
 40
0.483010929
 40
0.7450771707
 40
1.0
 40
1.0
 40
1.0
 40
1.0
 10
17.3201940116
 20
48.5862461434
 30
0.0
 10
17.3534844923
 20
48.5670263102
 30
0.0
 10
17.4196203969
 20
48.5225193884
 30
0.0
 10
17.5468260579
 20
48.4140715223
 30
0.0
 10
17.6904412501
 20
48.2467440956
 30
0.0
 10
17.8264425367
 20
48.0167356416
 30
0.0
 10
17.8896963226
 20
47.8483297378
 30
0.0
 10
17.9120736504
 20
47.7631357899
 30
0.0
  0
SPLINE
  5
352
100
AcDbEntity
  8
0
100
AcDbSpline
 62
7
  6
CONTINUOUS
 70
0
 71
3
 72
15
 73
11
 74
0
 42
0.0000001
 43
0.0000001
 44
0.0000000001
 40
0.0
 40
0.0
 40
0.0
 40
0.0
 40
0.1141465952
 40
0.2373352439
 40
0.366975646
 40
0.4999989181
 40
0.6330223406
 40
0.7626631822
 40
0.8858525235
 40
1.0
 40
1.0
 40
1.0
 40
1.0
 10
17.6794027609
 20
50.9712461201
 30
0.0
 10
17.7562438044
 20
50.9268829266
 30
0.0
 10
17.9080290014
 20
50.8204719795
 30
0.0
 10
18.1168898266
 20
50.6250914871
 30
0.0
 10
18.3093423156
 20
50.3941037644
 30
0.0
 10
18.4781831775
 20
50.1362376043
 30
0.0
 10
18.61708285
 20
49.8610844041
 30
0.0
 10
18.7208996651
 20
49.5789214151
 30
0.0
 10
18.7856758425
 20
49.3003512861
 30
0.0
 10
18.8019394496
 20
49.1156949126
 30
0.0
 10
18.8019394496
 20
49.0269663351
 30
0.0
  0
SPLINE
  5
353
100
AcDbEntity
  8
0
100
AcDbSpline
 62
7
  6
CONTINUOUS
 70
0
 71
3
 72
12
 73
8
 74
0
 42
0.0000001
 43
0.0000001
 44
0.0000000001
 40
0.0
 40
0.0
 40
0.0
 40
0.0
 40
0.1112499258
 40
0.2299975809
 40
0.483010929
 40
0.7450771707
 40
1.0
 40
1.0
 40
1.0
 40
1.0
 10
20.4632967399
 20
46.7716159896
 30
0.0
 10
20.4965872206
 20
46.7523961564
 30
0.0
 10
20.5627231251
 20
46.7078892346
 30
0.0
 10
20.6899287861
 20
46.5994413685
 30
0.0
 10
20.8335439784
 20
46.4321139418
 30
0.0
 10
20.969545265
 20
46.2021054877
 30
0.0
 10
21.0327990509
 20
46.033699584
 30
0.0
 10
21.0551763787
 20
45.9485056361
 30
0.0
  0
SPLINE
  5
354
100
AcDbEntity
  8
0
100
AcDbSpline
 62
7
  6
CONTINUOUS
 70
0
 71
3
 72
15
 73
11
 74
0
 42
0.0000001
 43
0.0000001
 44
0.0000000001
 40
0.0
 40
0.0
 40
0.0
 40
0.0
 40
0.1141465952
 40
0.2373352439
 40
0.366975646
 40
0.4999989181
 40
0.6330223406
 40
0.7626631822
 40
0.8858525235
 40
1.0
 40
1.0
 40
1.0
 40
1.0
 10
33.0356291374
 20
52.5785335741
 30
0.0
 10
33.1124701809
 20
52.5341703806
 30
0.0
 10
33.2642553779
 20
52.4277594335
 30
0.0
 10
33.4731162031
 20
52.2323789411
 30
0.0
 10
33.6655686921
 20
52.0013912185
 30
0.0
 10
33.834409554
 20
51.7435250583
 30
0.0
 10
33.9733092265
 20
51.4683718581
 30
0.0
 10
34.0771260416
 20
51.1862088691
 30
0.0
 10
34.141902219
 20
50.9076387401
 30
0.0
 10
34.1581658261
 20
50.7229823666
 30
0.0
 10
34.1581658261
 20
50.6342537891
 30
0.0
  0
SPLINE
  5
355
100
AcDbEntity
  8
0
100
AcDbSpline
 62
7
  6
CONTINUOUS
 70
0
 71
3
 72
9
 73
5
 74
0
 42
0.0000001
 43
0.0000001
 44
0.0000000001
 40
0.0
 40
0.0
 40
0.0
 40
0.0
 40
0.5221455342
 40
1.0
 40
1.0
 40
1.0
 40
1.0
 10
33.0356291374
 20
48.94918033
 30
0.0
 10
33.0680513729
 20
48.930461767
 30
0.0
 10
33.1326563521
 20
48.898720542
 30
0.0
 10
33.2017476305
 20
48.8778766804
 30
0.0
 10
33.2354054693
 20
48.8714703378
 30
0.0
  0
SPLINE
  5
356
100
AcDbEntity
  8
0
100
AcDbSpline
 62
7
  6
CONTINUOUS
 70
0
 71
3
 72
20
 73
16
 74
0
 42
0.0000001
 43
0.0000001
 44
0.0000000001
 40
0.0
 40
0.0
 40
0.0
 40
0.0
 40
0.0623641411
 40
0.128804205
 40
0.2703039228
 40
0.4173616336
 40
0.5616108901
 40
0.6302487174
 40
0.6953759123
 40
0.7563588722
 40
0.8128293967
 40
0.8647615268
 40
0.9125646103
 40
0.9571664467
 40
1.0
 40
1.0
 40
1.0
 40
1.0
 10
32.6764203881
 20
50.1935335974
 30
0.0
 10
32.7083320214
 20
50.1751098242
 30
0.0
 10
32.7717693569
 20
50.1326735325
 30
0.0
 10
32.8941844326
 20
50.0297276456
 30
0.0
 10
33.0335227742
 20
49.8711561098
 30
0.0
 10
33.1680030937
 20
49.6524008283
 30
0.0
 10
33.2481972676
 20
49.4540866127
 30
0.0
 10
33.2877772335
 20
49.2944254733
 30
0.0
 10
33.3039500111
 20
49.1802668558
 30
0.0
 10
33.30668978
 20
49.0721519711
 30
0.0
 10
33.295929258
 20
48.9723028249
 30
0.0
 10
33.2717298807
 20
48.8827782526
 30
0.0
 10
33.2343772692
 20
48.8054546449
 30
0.0
 10
33.1843777354
 20
48.7422328833
 30
0.0
 10
33.1428319274
 20
48.7104268338
 30
0.0
 10
33.1209091321
 20
48.697781385
 30
0.0
  0
SPLINE
  5
357
100
AcDbEntity
  8
0
100
AcDbSpline
 62
7
  6
CONTINUOUS
 70
0
 71
3
 72
15
 73
11
 74
0
 42
0.0000001
 43
0.0000001
 44
0.0000000001
 40
0.0
 40
0.0
 40
0.0
 40
0.0
 40
0.1141465952
 40
0.2373352439
 40
0.366975646
 40
0.4999989181
 40
0.6330223406
 40
0.7626631822
 40
0.8858525235
 40
1.0
 40
1.0
 40
1.0
 40
1.0
 10
20.8225054892
 20
49.1566159662
 30
0.0
 10
20.8993465327
 20
49.1122527727
 30
0.0
 10
21.0511317297
 20
49.0058418256
 30
0.0
 10
21.2599925549
 20
48.8104613332
 30
0.0
 10
21.4524450439
 20
48.5794736106
 30
0.0
 10
21.6212859058
 20
48.3216074505
 30
0.0
 10
21.7601855783
 20
48.0464542502
 30
0.0
 10
21.8640023934
 20
47.7642912613
 30
0.0
 10
21.9287785708
 20
47.4857211322
 30
0.0
 10
21.9450421779
 20
47.3010647587
 30
0.0
 10
21.9450421779
 20
47.2123361812
 30
0.0
  0
SPLINE
  5
358
100
AcDbEntity
  8
0
100
AcDbSpline
 62
7
  6
CONTINUOUS
 70
0
 71
3
 72
15
 73
11
 74
0
 42
0.0000001
 43
0.0000001
 44
0.0000000001
 40
0.0
 40
0.0
 40
0.0
 40
0.0
 40
0.1141465952
 40
0.2373352439
 40
0.366975646
 40
0.4999989181
 40
0.6330223406
 40
0.7626631822
 40
0.8858525235
 40
1.0
 40
1.0
 40
1.0
 40
1.0
 10
23.6063209526
 20
58.0224240356
 30
0.0
 10
23.683161996
 20
57.9780608421
 30
0.0
 10
23.8349471931
 20
57.871649895
 30
0.0
 10
24.0438080183
 20
57.6762694026
 30
0.0
 10
24.2362605073
 20
57.44528168
 30
0.0
 10
24.4051013692
 20
57.1874155198
 30
0.0
 10
24.5440010417
 20
56.9122623196
 30
0.0
 10
24.6478178567
 20
56.6300993307
 30
0.0
 10
24.7125940342
 20
56.3515292016
 30
0.0
 10
24.7288576412
 20
56.1668728281
 30
0.0
 10
24.7288576412
 20
56.0781442506
 30
0.0
  0
SPLINE
  5
359
100
AcDbEntity
  8
0
100
AcDbSpline
 62
7
  6
CONTINUOUS
 70
0
 71
3
 72
9
 73
5
 74
0
 42
0.0000001
 43
0.0000001
 44
0.0000000001
 40
0.0
 40
0.0
 40
0.0
 40
0.0
 40
0.5221455342
 40
1.0
 40
1.0
 40
1.0
 40
1.0
 10
23.6063209526
 20
54.3930707915
 30
0.0
 10
23.6387431881
 20
54.3743522286
 30
0.0
 10
23.7033481673
 20
54.3426110035
 30
0.0
 10
23.7724394457
 20
54.3217671419
 30
0.0
 10
23.8060972845
 20
54.3153607993
 30
0.0
  0
SPLINE
  5
35A
100
AcDbEntity
  8
0
100
AcDbSpline
 62
7
  6
CONTINUOUS
 70
0
 71
3
 72
20
 73
16
 74
0
 42
0.0000001
 43
0.0000001
 44
0.0000000001
 40
0.0
 40
0.0
 40
0.0
 40
0.0
 40
0.0623641411
 40
0.128804205
 40
0.2703039228
 40
0.4173616336
 40
0.5616108901
 40
0.6302487174
 40
0.6953759123
 40
0.7563588722
 40
0.8128293967
 40
0.8647615268
 40
0.9125646103
 40
0.9571664467
 40
1.0
 40
1.0
 40
1.0
 40
1.0
 10
23.2471122033
 20
55.637424059
 30
0.0
 10
23.2790238365
 20
55.6190002857
 30
0.0
 10
23.342461172
 20
55.576563994
 30
0.0
 10
23.4648762477
 20
55.4736181072
 30
0.0
 10
23.6042145894
 20
55.3150465713
 30
0.0
 10
23.7386949089
 20
55.0962912898
 30
0.0
 10
23.8188890827
 20
54.8979770743
 30
0.0
 10
23.8584690487
 20
54.7383159348
 30
0.0
 10
23.8746418263
 20
54.6241573173
 30
0.0
 10
23.8773815952
 20
54.5160424326
 30
0.0
 10
23.8666210731
 20
54.4161932864
 30
0.0
 10
23.8424216958
 20
54.3266687141
 30
0.0
 10
23.8050690843
 20
54.2493451064
 30
0.0
 10
23.7550695506
 20
54.1861233448
 30
0.0
 10
23.7135237426
 20
54.1543172953
 30
0.0
 10
23.6916009473
 20
54.1416718465
 30
0.0
  0
SPLINE
  5
35B
100
AcDbEntity
  8
0
100
AcDbSpline
 62
7
  6
CONTINUOUS
 70
0
 71
3
 72
20
 73
16
 74
0
 42
0.0000001
 43
0.0000001
 44
0.0000000001
 40
0.0
 40
0.0
 40
0.0
 40
0.0
 40
0.0623641411
 40
0.128804205
 40
0.2703039228
 40
0.4173616336
 40
0.5616108901
 40
0.6302487174
 40
0.6953759123
 40
0.7563588722
 40
0.8128293967
 40
0.8647615268
 40
0.9125646103
 40
0.9571664467
 40
1.0
 40
1.0
 40
1.0
 40
1.0
 10
23.6063994682
 20
44.9569858357
 30
0.0
 10
23.6383111014
 20
44.9385620625
 30
0.0
 10
23.7017484369
 20
44.8961257708
 30
0.0
 10
23.8241635126
 20
44.7931798839
 30
0.0
 10
23.9635018543
 20
44.6346083481
 30
0.0
 10
24.0979821738
 20
44.4158530666
 30
0.0
 10
24.1781763476
 20
44.217538851
 30
0.0
 10
24.2177563136
 20
44.0578777116
 30
0.0
 10
24.2339290912
 20
43.9437190941
 30
0.0
 10
24.2366688601
 20
43.8356042094
 30
0.0
 10
24.225908338
 20
43.7357550632
 30
0.0
 10
24.2017089607
 20
43.6462304909
 30
0.0
 10
24.1643563492
 20
43.5689068832
 30
0.0
 10
24.1143568155
 20
43.5056851216
 30
0.0
 10
24.0728110075
 20
43.473879072
 30
0.0
 10
24.0508882122
 20
43.4612336233
 30
0.0
  0
SPLINE
  5
35C
100
AcDbEntity
  8
0
100
AcDbSpline
 62
7
  6
CONTINUOUS
 70
0
 71
3
 72
15
 73
11
 74
0
 42
0.0000001
 43
0.0000001
 44
0.0000000001
 40
0.0
 40
0.0
 40
0.0
 40
0.0
 40
0.1141465952
 40
0.2373352439
 40
0.366975646
 40
0.4999989181
 40
0.6330223406
 40
0.7626631822
 40
0.8858525235
 40
1.0
 40
1.0
 40
1.0
 40
1.0
 10
21.361344785
 20
45.8384225937
 30
0.0
 10
21.4381858285
 20
45.7940594002
 30
0.0
 10
21.5899710255
 20
45.6876484531
 30
0.0
 10
21.7988318507
 20
45.4922679607
 30
0.0
 10
21.9912843397
 20
45.261280238
 30
0.0
 10
22.1601252016
 20
45.0034140779
 30
0.0
 10
22.2990248741
 20
44.7282608777
 30
0.0
 10
22.4028416892
 20
44.4460978887
 30
0.0
 10
22.4676178666
 20
44.1675277597
 30
0.0
 10
22.4838814737
 20
43.9828713862
 30
0.0
 10
22.4838814737
 20
43.8941428087
 30
0.0
  0
SPLINE
  5
35D
100
AcDbEntity
  8
0
100
AcDbSpline
 62
7
  6
CONTINUOUS
 70
0
 71
3
 72
9
 73
5
 74
0
 42
0.0000001
 43
0.0000001
 44
0.0000000001
 40
0.0
 40
0.0
 40
0.0
 40
0.0
 40
0.5221455342
 40
1.0
 40
1.0
 40
1.0
 40
1.0
 10
21.361344785
 20
42.2090693495
 30
0.0
 10
21.3937670205
 20
42.1903507866
 30
0.0
 10
21.4583719997
 20
42.1586095616
 30
0.0
 10
21.5274632781
 20
42.1377657
 30
0.0
 10
21.5611211169
 20
42.1313593573
 30
0.0
  0
SPLINE
  5
35E
100
AcDbEntity
  8
0
100
AcDbSpline
 62
7
  6
CONTINUOUS
 70
0
 71
3
 72
20
 73
16
 74
0
 42
0.0000001
 43
0.0000001
 44
0.0000000001
 40
0.0
 40
0.0
 40
0.0
 40
0.0
 40
0.0623641411
 40
0.128804205
 40
0.2703039228
 40
0.4173616336
 40
0.5616108901
 40
0.6302487174
 40
0.6953759123
 40
0.7563588722
 40
0.8128293967
 40
0.8647615268
 40
0.9125646103
 40
0.9571664467
 40
1.0
 40
1.0
 40
1.0
 40
1.0
 10
21.0021360357
 20
43.453422617
 30
0.0
 10
21.034047669
 20
43.4349988438
 30
0.0
 10
21.0974850045
 20
43.3925625521
 30
0.0
 10
21.2199000802
 20
43.2896166652
 30
0.0
 10
21.3592384218
 20
43.1310451294
 30
0.0
 10
21.4937187413
 20
42.9122898479
 30
0.0
 10
21.5739129152
 20
42.7139756323
 30
0.0
 10
21.6134928811
 20
42.5543144929
 30
0.0
 10
21.6296656587
 20
42.4401558754
 30
0.0
 10
21.6324054276
 20
42.3320409907
 30
0.0
 10
21.6216449056
 20
42.2321918445
 30
0.0
 10
21.5974455283
 20
42.1426672721
 30
0.0
 10
21.5600929168
 20
42.0653436645
 30
0.0
 10
21.510093383
 20
42.0021219029
 30
0.0
 10
21.468547575
 20
41.9703158533
 30
0.0
 10
21.4466247797
 20
41.9576704046
 30
0.0
  0
SPLINE
  5
35F
100
AcDbEntity
  8
0
100
AcDbSpline
 62
7
  6
CONTINUOUS
 70
0
 71
3
 72
9
 73
5
 74
0
 42
0.0000001
 43
0.0000001
 44
0.0000000001
 40
0.0
 40
0.0
 40
0.0
 40
0.0
 40
0.5221455342
 40
1.0
 40
1.0
 40
1.0
 40
1.0
 10
23.9656082175
 20
43.7126325682
 30
0.0
 10
23.998030453
 20
43.6939140053
 30
0.0
 10
24.0626354322
 20
43.6621727803
 30
0.0
 10
24.1317267106
 20
43.6413289187
 30
0.0
 10
24.1653845494
 20
43.634922576
 30
0.0
  0
SPLINE
  5
360
100
AcDbEntity
  8
0
100
AcDbSpline
 62
7
  6
CONTINUOUS
 70
0
 71
3
 72
15
 73
11
 74
0
 42
0.0000001
 43
0.0000001
 44
0.0000000001
 40
0.0
 40
0.0
 40
0.0
 40
0.0
 40
0.1141465952
 40
0.2373352439
 40
0.366975646
 40
0.4999989181
 40
0.6330223406
 40
0.7626631822
 40
0.8858525235
 40
1.0
 40
1.0
 40
1.0
 40
1.0
 10
23.9656082175
 20
47.3419858124
 30
0.0
 10
24.0424492609
 20
47.2976226189
 30
0.0
 10
24.194234458
 20
47.1912116718
 30
0.0
 10
24.4030952832
 20
46.9958311794
 30
0.0
 10
24.5955477722
 20
46.7648434568
 30
0.0
 10
24.7643886341
 20
46.5069772966
 30
0.0
 10
24.9032883066
 20
46.2318240964
 30
0.0
 10
25.0071051216
 20
45.9496611074
 30
0.0
 10
25.071881299
 20
45.6710909784
 30
0.0
 10
25.0881449061
 20
45.4864346049
 30
0.0
 10
25.0881449061
 20
45.3977060274
 30
0.0
  0
SPLINE
  5
361
100
AcDbEntity
  8
0
100
AcDbSpline
 62
7
  6
CONTINUOUS
 70
0
 71
3
 72
15
 73
11
 74
0
 42
0.0000001
 43
0.0000001
 44
0.0000000001
 40
0.0
 40
0.0
 40
0.0
 40
0.0
 40
0.1141465952
 40
0.2373352439
 40
0.366975646
 40
0.4999989181
 40
0.6330223406
 40
0.7626631822
 40
0.8858525235
 40
1.0
 40
1.0
 40
1.0
 40
1.0
 10
18.2182420567
 20
47.6530527475
 30
0.0
 10
18.2950831002
 20
47.608689554
 30
0.0
 10
18.4468682972
 20
47.5022786069
 30
0.0
 10
18.6557291225
 20
47.3068981145
 30
0.0
 10
18.8481816114
 20
47.0759103919
 30
0.0
 10
19.0170224733
 20
46.8180442317
 30
0.0
 10
19.1559221458
 20
46.5428910315
 30
0.0
 10
19.2597389609
 20
46.2607280426
 30
0.0
 10
19.3245151383
 20
45.9821579135
 30
0.0
 10
19.3407787454
 20
45.79750154
 30
0.0
 10
19.3407787454
 20
45.7087729625
 30
0.0
  0
SPLINE
  5
362
100
AcDbEntity
  8
0
100
AcDbSpline
 62
7
  6
CONTINUOUS
 70
0
 71
3
 72
9
 73
5
 74
0
 42
0.0000001
 43
0.0000001
 44
0.0000000001
 40
0.0
 40
0.0
 40
0.0
 40
0.0
 40
0.5221455342
 40
1.0
 40
1.0
 40
1.0
 40
1.0
 10
18.2182420567
 20
44.0236995034
 30
0.0
 10
18.2506642922
 20
44.0049809405
 30
0.0
 10
18.3152692714
 20
43.9732397154
 30
0.0
 10
18.3843605499
 20
43.9523958538
 30
0.0
 10
18.4180183887
 20
43.9459895112
 30
0.0
  0
SPLINE
  5
363
100
AcDbEntity
  8
0
100
AcDbSpline
 62
7
  6
CONTINUOUS
 70
0
 71
3
 72
20
 73
16
 74
0
 42
0.0000001
 43
0.0000001
 44
0.0000000001
 40
0.0
 40
0.0
 40
0.0
 40
0.0
 40
0.0623641411
 40
0.128804205
 40
0.2703039228
 40
0.4173616336
 40
0.5616108901
 40
0.6302487174
 40
0.6953759123
 40
0.7563588722
 40
0.8128293967
 40
0.8647615268
 40
0.9125646103
 40
0.9571664467
 40
1.0
 40
1.0
 40
1.0
 40
1.0
 10
17.8590333074
 20
45.2680527709
 30
0.0
 10
17.8909449407
 20
45.2496289976
 30
0.0
 10
17.9543822762
 20
45.2071927059
 30
0.0
 10
18.0767973519
 20
45.1042468191
 30
0.0
 10
18.2161356935
 20
44.9456752832
 30
0.0
 10
18.350616013
 20
44.7269200017
 30
0.0
 10
18.4308101869
 20
44.5286057862
 30
0.0
 10
18.4703901528
 20
44.3689446467
 30
0.0
 10
18.4865629304
 20
44.2547860292
 30
0.0
 10
18.4893026993
 20
44.1466711445
 30
0.0
 10
18.4785421773
 20
44.0468219983
 30
0.0
 10
18.4543428
 20
43.957297426
 30
0.0
 10
18.4169901885
 20
43.8799738183
 30
0.0
 10
18.3669906547
 20
43.8167520567
 30
0.0
 10
18.3254448468
 20
43.7849460072
 30
0.0
 10
18.3035220515
 20
43.7723005584
 30
0.0
  0
SPLINE
  5
364
100
AcDbEntity
  8
0
100
AcDbSpline
 62
7
  6
CONTINUOUS
 70
0
 71
3
 72
20
 73
16
 74
0
 42
0.0000001
 43
0.0000001
 44
0.0000000001
 40
0.0
 40
0.0
 40
0.0
 40
0.0
 40
0.0623641411
 40
0.128804205
 40
0.2703039228
 40
0.4173616336
 40
0.5616108901
 40
0.6302487174
 40
0.6953759123
 40
0.7563588722
 40
0.8128293967
 40
0.8647615268
 40
0.9125646103
 40
0.9571664467
 40
1.0
 40
1.0
 40
1.0
 40
1.0
 10
11.5728278509
 20
48.8973130786
 30
0.0
 10
11.6047394841
 20
48.8788893053
 30
0.0
 10
11.6681768196
 20
48.8364530136
 30
0.0
 10
11.7905918953
 20
48.7335071267
 30
0.0
 10
11.929930237
 20
48.5749355909
 30
0.0
 10
12.0644105565
 20
48.3561803094
 30
0.0
 10
12.1446047303
 20
48.1578660938
 30
0.0
 10
12.1841846963
 20
47.9982049544
 30
0.0
 10
12.2003574739
 20
47.8840463369
 30
0.0
 10
12.2030972428
 20
47.7759314522
 30
0.0
 10
12.1923367207
 20
47.676082306
 30
0.0
 10
12.1681373434
 20
47.5865577337
 30
0.0
 10
12.1307847319
 20
47.509234126
 30
0.0
 10
12.0807851982
 20
47.4460123644
 30
0.0
 10
12.0392393902
 20
47.4142063149
 30
0.0
 10
12.0173165949
 20
47.4015608661
 30
0.0
  0
SPLINE
  5
365
100
AcDbEntity
  8
0
100
AcDbSpline
 62
7
  6
CONTINUOUS
 70
0
 71
3
 72
15
 73
11
 74
0
 42
0.0000001
 43
0.0000001
 44
0.0000000001
 40
0.0
 40
0.0
 40
0.0
 40
0.0
 40
0.1141465952
 40
0.2373352439
 40
0.366975646
 40
0.4999989181
 40
0.6330223406
 40
0.7626631822
 40
0.8858525235
 40
1.0
 40
1.0
 40
1.0
 40
1.0
 10
15.0751393285
 20
49.4676829014
 30
0.0
 10
15.1519803719
 20
49.4233197079
 30
0.0
 10
15.3037655689
 20
49.3169087608
 30
0.0
 10
15.5126263942
 20
49.1215282684
 30
0.0
 10
15.7050788832
 20
48.8905405457
 30
0.0
 10
15.873919745
 20
48.6326743856
 30
0.0
 10
16.0128194176
 20
48.3575211854
 30
0.0
 10
16.1166362326
 20
48.0753581964
 30
0.0
 10
16.18141241
 20
47.7967880673
 30
0.0
 10
16.1976760171
 20
47.6121316939
 30
0.0
 10
16.1976760171
 20
47.5234031164
 30
0.0
  0
SPLINE
  5
366
100
AcDbEntity
  8
0
100
AcDbSpline
 62
7
  6
CONTINUOUS
 70
0
 71
3
 72
9
 73
5
 74
0
 42
0.0000001
 43
0.0000001
 44
0.0000000001
 40
0.0
 40
0.0
 40
0.0
 40
0.0
 40
0.5221455342
 40
1.0
 40
1.0
 40
1.0
 40
1.0
 10
15.0751393285
 20
45.8383296572
 30
0.0
 10
15.107561564
 20
45.8196110943
 30
0.0
 10
15.1721665432
 20
45.7878698693
 30
0.0
 10
15.2412578216
 20
45.7670260076
 30
0.0
 10
15.2749156604
 20
45.760619665
 30
0.0
  0
SPLINE
  5
367
100
AcDbEntity
  8
0
100
AcDbSpline
 62
7
  6
CONTINUOUS
 70
0
 71
3
 72
20
 73
16
 74
0
 42
0.0000001
 43
0.0000001
 44
0.0000000001
 40
0.0
 40
0.0
 40
0.0
 40
0.0
 40
0.0623641411
 40
0.128804205
 40
0.2703039228
 40
0.4173616336
 40
0.5616108901
 40
0.6302487174
 40
0.6953759123
 40
0.7563588722
 40
0.8128293967
 40
0.8647615268
 40
0.9125646103
 40
0.9571664467
 40
1.0
 40
1.0
 40
1.0
 40
1.0
 10
14.7159305791
 20
47.0826829247
 30
0.0
 10
14.7478422124
 20
47.0642591515
 30
0.0
 10
14.8112795479
 20
47.0218228597
 30
0.0
 10
14.9336946236
 20
46.9188769729
 30
0.0
 10
15.0730329653
 20
46.7603054371
 30
0.0
 10
15.2075132848
 20
46.5415501556
 30
0.0
 10
15.2877074586
 20
46.34323594
 30
0.0
 10
15.3272874246
 20
46.1835748006
 30
0.0
 10
15.3434602021
 20
46.0694161831
 30
0.0
 10
15.3461999711
 20
45.9613012984
 30
0.0
 10
15.335439449
 20
45.8614521522
 30
0.0
 10
15.3112400717
 20
45.7719275798
 30
0.0
 10
15.2738874602
 20
45.6946039722
 30
0.0
 10
15.2238879265
 20
45.6313822106
 30
0.0
 10
15.1823421185
 20
45.599576161
 30
0.0
 10
15.1604193232
 20
45.5869307123
 30
0.0
  0
SPLINE
  5
368
100
AcDbEntity
  8
0
100
AcDbSpline
 62
7
  6
CONTINUOUS
 70
0
 71
3
 72
15
 73
11
 74
0
 42
0.0000001
 43
0.0000001
 44
0.0000000001
 40
0.0
 40
0.0
 40
0.0
 40
0.0
 40
0.1141465952
 40
0.2373352439
 40
0.366975646
 40
0.4999989181
 40
0.6330223406
 40
0.7626631822
 40
0.8858525235
 40
1.0
 40
1.0
 40
1.0
 40
1.0
 10
11.9320366002
 20
51.2823130552
 30
0.0
 10
12.0088776436
 20
51.2379498617
 30
0.0
 10
12.1606628407
 20
51.1315389146
 30
0.0
 10
12.3695236659
 20
50.9361584222
 30
0.0
 10
12.5619761549
 20
50.7051706996
 30
0.0
 10
12.7308170168
 20
50.4473045394
 30
0.0
 10
12.8697166893
 20
50.1721513392
 30
0.0
 10
12.9735335043
 20
49.8899883502
 30
0.0
 10
13.0383096818
 20
49.6114182212
 30
0.0
 10
13.0545732888
 20
49.4267618477
 30
0.0
 10
13.0545732888
 20
49.3380332702
 30
0.0
  0
SPLINE
  5
369
100
AcDbEntity
  8
0
100
AcDbSpline
 62
7
  6
CONTINUOUS
 70
0
 71
3
 72
9
 73
5
 74
0
 42
0.0000001
 43
0.0000001
 44
0.0000000001
 40
0.0
 40
0.0
 40
0.0
 40
0.0
 40
0.5221455342
 40
1.0
 40
1.0
 40
1.0
 40
1.0
 10
11.9320366002
 20
47.6529598111
 30
0.0
 10
11.9644588357
 20
47.6342412481
 30
0.0
 10
12.0290638149
 20
47.6025000231
 30
0.0
 10
12.0981550933
 20
47.5816561615
 30
0.0
 10
12.1318129321
 20
47.5752498189
 30
0.0
  0
SPLINE
  5
36A
100
AcDbEntity
  8
0
100
AcDbSpline
 62
7
  6
CONTINUOUS
 70
0
 71
3
 72
20
 73
16
 74
0
 42
0.0000001
 43
0.0000001
 44
0.0000000001
 40
0.0
 40
0.0
 40
0.0
 40
0.0
 40
0.0623641411
 40
0.128804205
 40
0.2703039228
 40
0.4173616336
 40
0.5616108901
 40
0.6302487174
 40
0.6953759123
 40
0.7563588722
 40
0.8128293967
 40
0.8647615268
 40
0.9125646103
 40
0.9571664467
 40
1.0
 40
1.0
 40
1.0
 40
1.0
 10
21.7205011906
 20
49.6750082153
 30
0.0
 10
21.6885895573
 20
49.6934319886
 30
0.0
 10
21.6251522218
 20
49.7358682803
 30
0.0
 10
21.5027371461
 20
49.8388141671
 30
0.0
 10
21.3633988045
 20
49.997385703
 30
0.0
 10
21.228918485
 20
50.2161409844
 30
0.0
 10
21.1487243111
 20
50.4144552
 30
0.0
 10
21.1091443452
 20
50.5741163395
 30
0.0
 10
21.0929715676
 20
50.688274957
 30
0.0
 10
21.0902317987
 20
50.7963898417
 30
0.0
 10
21.1009923207
 20
50.8962389878
 30
0.0
 10
21.125191698
 20
50.9857635602
 30
0.0
 10
21.1625443095
 20
51.0630871679
 30
0.0
 10
21.2125438433
 20
51.1263089295
 30
0.0
 10
21.2540896513
 20
51.158114979
 30
0.0
 10
21.2760124466
 20
51.1707604278
 30
0.0
  0
SPLINE
  5
36B
100
AcDbEntity
  8
0
100
AcDbSpline
 62
7
  6
CONTINUOUS
 70
0
 71
3
 72
15
 73
11
 74
0
 42
0.0000001
 43
0.0000001
 44
0.0000000001
 40
0.0
 40
0.0
 40
0.0
 40
0.0
 40
0.1141474765
 40
0.2373368178
 40
0.3669776594
 40
0.5000010819
 40
0.633024354
 40
0.7626647561
 40
0.8858534048
 40
1.0
 40
1.0
 40
1.0
 40
1.0
 10
22.8430378793
 20
51.3600816745
 30
0.0
 10
22.8430378793
 20
51.448810252
 30
0.0
 10
22.8267742722
 20
51.6334666254
 30
0.0
 10
22.7619980948
 20
51.9120367545
 30
0.0
 10
22.6581812797
 20
52.1941997435
 30
0.0
 10
22.5192816072
 20
52.4693529437
 30
0.0
 10
22.3504407453
 20
52.7272191038
 30
0.0
 10
22.1579882563
 20
52.9582068265
 30
0.0
 10
21.9491274311
 20
53.1535873189
 30
0.0
 10
21.7973422341
 20
53.2599982659
 30
0.0
 10
21.7205011906
 20
53.3043614595
 30
0.0
  0
SPLINE
  5
36C
100
AcDbEntity
  8
0
100
AcDbSpline
 62
7
  6
CONTINUOUS
 70
0
 71
3
 72
14
 73
10
 74
0
 42
0.0000001
 43
0.0000001
 44
0.0000000001
 40
0.0
 40
0.0
 40
0.0
 40
0.0
 40
0.2892465103
 40
0.4225697622
 40
0.5485168638
 40
0.6678914139
 40
0.7818640907
 40
0.891953856
 40
1.0
 40
1.0
 40
1.0
 40
1.0
 10
21.7205011906
 20
53.3043614595
 30
0.0
 10
21.650825533
 20
53.3445878091
 30
0.0
 10
21.5438315171
 20
53.3954949247
 30
0.0
 10
21.3971154752
 20
53.4382929402
 30
0.0
 10
21.2929685843
 20
53.4557574566
 30
0.0
 10
21.1927741728
 20
53.4592343374
 30
0.0
 10
21.097465191
 20
53.4485874554
 30
0.0
 10
21.0080424726
 20
53.4238907869
 30
0.0
 10
20.9527873567
 20
53.3979976248
 30
0.0
 10
20.9267605788
 20
53.3829711464
 30
0.0
  0
SPLINE
  5
36D
100
AcDbEntity
  8
0
100
AcDbSpline
 62
7
  6
CONTINUOUS
 70
0
 71
3
 72
12
 73
8
 74
0
 42
0.0000001
 43
0.0000001
 44
0.0000000001
 40
0.0
 40
0.0
 40
0.0
 40
0.0
 40
0.1081687912
 40
0.2183555695
 40
0.4513113955
 40
0.7105889062
 40
1.0
 40
1.0
 40
1.0
 40
1.0
 10
15.1604193232
 20
45.5869307123
 30
0.0
 10
15.1458402493
 20
45.5785212495
 30
0.0
 10
15.1148915462
 20
45.5640393575
 30
0.0
 10
15.0469565554
 20
45.5451896241
 30
0.0
 10
14.9517412365
 20
45.5426623227
 30
0.0
 10
14.832557787
 20
45.5715373957
 30
0.0
 10
14.7549288542
 20
45.6084264718
 30
0.0
 10
14.7159305791
 20
45.6309416271
 30
0.0
  0
SPLINE
  5
36E
100
AcDbEntity
  8
0
100
AcDbSpline
 62
7
  6
CONTINUOUS
 70
0
 71
3
 72
20
 73
16
 74
0
 42
0.0000001
 43
0.0000001
 44
0.0000000001
 40
0.0
 40
0.0
 40
0.0
 40
0.0
 40
0.0623641411
 40
0.128804205
 40
0.2703039228
 40
0.4173616336
 40
0.5616108901
 40
0.6302487174
 40
0.6953759123
 40
0.7563588722
 40
0.8128293967
 40
0.8647615268
 40
0.9125646103
 40
0.9571664467
 40
1.0
 40
1.0
 40
1.0
 40
1.0
 10
24.8636039189
 20
47.8603780615
 30
0.0
 10
24.8316922856
 20
47.8788018347
 30
0.0
 10
24.7682549501
 20
47.9212381264
 30
0.0
 10
24.6458398744
 20
48.0241840133
 30
0.0
 10
24.5065015327
 20
48.1827555491
 30
0.0
 10
24.3720212133
 20
48.4015108306
 30
0.0
 10
24.2918270394
 20
48.5998250462
 30
0.0
 10
24.2522470735
 20
48.7594861856
 30
0.0
 10
24.2360742959
 20
48.8736448031
 30
0.0
 10
24.2333345269
 20
48.9817596878
 30
0.0
 10
24.244095049
 20
49.081608834
 30
0.0
 10
24.2682944263
 20
49.1711334064
 30
0.0
 10
24.3056470378
 20
49.248457014
 30
0.0
 10
24.3556465716
 20
49.3116787756
 30
0.0
 10
24.3971923795
 20
49.3434848252
 30
0.0
 10
24.4191151748
 20
49.3561302739
 30
0.0
  0
SPLINE
  5
36F
100
AcDbEntity
  8
0
100
AcDbSpline
 62
7
  6
CONTINUOUS
 70
0
 71
3
 72
15
 73
11
 74
0
 42
0.0000001
 43
0.0000001
 44
0.0000000001
 40
0.0
 40
0.0
 40
0.0
 40
0.0
 40
0.1141474765
 40
0.2373368178
 40
0.3669776594
 40
0.5000010819
 40
0.633024354
 40
0.7626647561
 40
0.8858534048
 40
1.0
 40
1.0
 40
1.0
 40
1.0
 10
25.9861406075
 20
49.5454515206
 30
0.0
 10
25.9861406075
 20
49.6341800981
 30
0.0
 10
25.9698770004
 20
49.8188364716
 30
0.0
 10
25.905100823
 20
50.0974066006
 30
0.0
 10
25.801284008
 20
50.3795695896
 30
0.0
 10
25.6623843355
 20
50.6547227898
 30
0.0
 10
25.4935434736
 20
50.91258895
 30
0.0
 10
25.3010909846
 20
51.1435766726
 30
0.0
 10
25.0922301594
 20
51.338957165
 30
0.0
 10
24.9404449623
 20
51.4453681121
 30
0.0
 10
24.8636039189
 20
51.4897313056
 30
0.0
  0
SPLINE
  5
370
100
AcDbEntity
  8
0
100
AcDbSpline
 62
7
  6
CONTINUOUS
 70
0
 71
3
 72
12
 73
8
 74
0
 42
0.0000001
 43
0.0000001
 44
0.0000000001
 40
0.0
 40
0.0
 40
0.0
 40
0.0
 40
0.1081687912
 40
0.2183555695
 40
0.4513113955
 40
0.7105889062
 40
1.0
 40
1.0
 40
1.0
 40
1.0
 10
22.1649899346
 20
49.6309973005
 30
0.0
 10
22.1504108607
 20
49.6225878377
 30
0.0
 10
22.1194621577
 20
49.6081059457
 30
0.0
 10
22.0515271668
 20
49.5892562124
 30
0.0
 10
21.9563118479
 20
49.5867289109
 30
0.0
 10
21.8371283984
 20
49.6156039839
 30
0.0
 10
21.7594994656
 20
49.6524930601
 30
0.0
 10
21.7205011906
 20
49.6750082153
 30
0.0
  0
SPLINE
  5
371
100
AcDbEntity
  8
0
100
AcDbSpline
 62
7
  6
CONTINUOUS
 70
0
 71
3
 72
14
 73
10
 74
0
 42
0.0000001
 43
0.0000001
 44
0.0000000001
 40
0.0
 40
0.0
 40
0.0
 40
0.0
 40
0.2892465103
 40
0.4225697622
 40
0.5485168638
 40
0.6678914139
 40
0.7818640907
 40
0.891953856
 40
1.0
 40
1.0
 40
1.0
 40
1.0
 10
24.8636039189
 20
51.4897313056
 30
0.0
 10
24.7939282613
 20
51.5299576552
 30
0.0
 10
24.6869342454
 20
51.5808647709
 30
0.0
 10
24.5402182034
 20
51.6236627863
 30
0.0
 10
24.4360713126
 20
51.6411273027
 30
0.0
 10
24.3358769011
 20
51.6446041836
 30
0.0
 10
24.2405679193
 20
51.6339573015
 30
0.0
 10
24.1511452009
 20
51.609260633
 30
0.0
 10
24.0958900849
 20
51.583367471
 30
0.0
 10
24.0698633071
 20
51.5683409926
 30
0.0
  0
SPLINE
  5
372
100
AcDbEntity
  8
0
100
AcDbSpline
 62
7
  6
CONTINUOUS
 70
0
 71
3
 72
12
 73
8
 74
0
 42
0.0000001
 43
0.0000001
 44
0.0000000001
 40
0.0
 40
0.0
 40
0.0
 40
0.0
 40
0.1081687912
 40
0.2183555695
 40
0.4513113955
 40
0.7105889062
 40
1.0
 40
1.0
 40
1.0
 40
1.0
 10
18.3035220515
 20
43.7723005584
 30
0.0
 10
18.2889429776
 20
43.7638910956
 30
0.0
 10
18.2579942745
 20
43.7494092036
 30
0.0
 10
18.1900592837
 20
43.7305594703
 30
0.0
 10
18.0948439648
 20
43.7280321688
 30
0.0
 10
17.9756605153
 20
43.7569072418
 30
0.0
 10
17.8980315825
 20
43.793796318
 30
0.0
 10
17.8590333074
 20
43.8163114732
 30
0.0
  0
SPLINE
  5
373
100
AcDbEntity
  8
0
100
AcDbSpline
 62
7
  6
CONTINUOUS
 70
0
 71
3
 72
20
 73
16
 74
0
 42
0.0000001
 43
0.0000001
 44
0.0000000001
 40
0.0
 40
0.0
 40
0.0
 40
0.0
 40
0.0623641411
 40
0.128804205
 40
0.2703039228
 40
0.4173616336
 40
0.5616108901
 40
0.6302487174
 40
0.6953759123
 40
0.7563588722
 40
0.8128293967
 40
0.8647615268
 40
0.9125646103
 40
0.9571664467
 40
1.0
 40
1.0
 40
1.0
 40
1.0
 10
28.0067066471
 20
46.0457479076
 30
0.0
 10
27.9747950139
 20
46.0641716809
 30
0.0
 10
27.9113576784
 20
46.1066079726
 30
0.0
 10
27.7889426027
 20
46.2095538594
 30
0.0
 10
27.649604261
 20
46.3681253953
 30
0.0
 10
27.5151239415
 20
46.5868806768
 30
0.0
 10
27.4349297677
 20
46.7851948923
 30
0.0
 10
27.3953498017
 20
46.9448560318
 30
0.0
 10
27.3791770241
 20
47.0590146493
 30
0.0
 10
27.3764372552
 20
47.167129534
 30
0.0
 10
27.3871977773
 20
47.2669786802
 30
0.0
 10
27.4113971546
 20
47.3565032525
 30
0.0
 10
27.4487497661
 20
47.4338268602
 30
0.0
 10
27.4987492998
 20
47.4970486218
 30
0.0
 10
27.5402951078
 20
47.5288546713
 30
0.0
 10
27.5622179031
 20
47.5415001201
 30
0.0
  0
SPLINE
  5
374
100
AcDbEntity
  8
0
100
AcDbSpline
 62
7
  6
CONTINUOUS
 70
0
 71
3
 72
15
 73
11
 74
0
 42
0.0000001
 43
0.0000001
 44
0.0000000001
 40
0.0
 40
0.0
 40
0.0
 40
0.0
 40
0.1141474765
 40
0.2373368178
 40
0.3669776594
 40
0.5000010819
 40
0.633024354
 40
0.7626647561
 40
0.8858534048
 40
1.0
 40
1.0
 40
1.0
 40
1.0
 10
29.1292433358
 20
47.7308213668
 30
0.0
 10
29.1292433358
 20
47.8195499443
 30
0.0
 10
29.1129797287
 20
48.0042063177
 30
0.0
 10
29.0482035513
 20
48.2827764468
 30
0.0
 10
28.9443867362
 20
48.5649394358
 30
0.0
 10
28.8054870637
 20
48.840092636
 30
0.0
 10
28.6366462018
 20
49.0979587961
 30
0.0
 10
28.4441937129
 20
49.3289465188
 30
0.0
 10
28.2353328876
 20
49.5243270112
 30
0.0
 10
28.0835476906
 20
49.6307379583
 30
0.0
 10
28.0067066471
 20
49.6751011518
 30
0.0
  0
SPLINE
  5
375
100
AcDbEntity
  8
0
100
AcDbSpline
 62
7
  6
CONTINUOUS
 70
0
 71
3
 72
14
 73
10
 74
0
 42
0.0000001
 43
0.0000001
 44
0.0000000001
 40
0.0
 40
0.0
 40
0.0
 40
0.0
 40
0.2892465103
 40
0.4225697622
 40
0.5485168638
 40
0.6678914139
 40
0.7818640907
 40
0.891953856
 40
1.0
 40
1.0
 40
1.0
 40
1.0
 10
28.0067066471
 20
49.6751011518
 30
0.0
 10
27.9370309895
 20
49.7153275014
 30
0.0
 10
27.8300369736
 20
49.7662346171
 30
0.0
 10
27.6833209317
 20
49.8090326325
 30
0.0
 10
27.5791740409
 20
49.8264971489
 30
0.0
 10
27.4789796294
 20
49.8299740297
 30
0.0
 10
27.3836706476
 20
49.8193271477
 30
0.0
 10
27.2942479292
 20
49.7946304792
 30
0.0
 10
27.2389928132
 20
49.7687373172
 30
0.0
 10
27.2129660353
 20
49.7537108387
 30
0.0
  0
SPLINE
  5
376
100
AcDbEntity
  8
0
100
AcDbSpline
 62
7
  6
CONTINUOUS
 70
0
 71
3
 72
18
 73
14
 74
0
 42
0.0000001
 43
0.0000001
 44
0.0000000001
 40
0.0
 40
0.0
 40
0.0
 40
0.0
 40
0.1508271471
 40
0.3013157447
 40
0.4466054013
 40
0.5823894479
 40
0.7054547084
 40
0.7617834967
 40
0.8146356086
 40
0.8642727675
 40
0.9111876521
 40
0.9561210988
 40
1.0
 40
1.0
 40
1.0
 40
1.0
 10
13.8334600964
 20
49.2655810688
 30
0.0
 10
13.7941148683
 20
49.3179661487
 30
0.0
 10
13.722346752
 20
49.4279302444
 30
0.0
 10
13.6374715481
 20
49.6029248125
 30
0.0
 10
13.5782561022
 20
49.7814277054
 30
0.0
 10
13.5475290597
 20
49.9549295894
 30
0.0
 10
13.5469387898
 20
50.0928054883
 30
0.0
 10
13.5632468179
 20
50.1925740504
 30
0.0
 10
13.5827123416
 20
50.2589646306
 30
0.0
 10
13.6095714682
 20
50.3183071673
 30
0.0
 10
13.6436475492
 20
50.3698027277
 30
0.0
 10
13.6844740374
 20
50.4127700833
 30
0.0
 10
13.7160924572
 20
50.4353639102
 30
0.0
 10
13.7326025393
 20
50.4448872121
 30
0.0
  0
SPLINE
  5
377
100
AcDbEntity
  8
0
100
AcDbSpline
 62
7
  6
CONTINUOUS
 70
0
 71
3
 72
15
 73
11
 74
0
 42
0.0000001
 43
0.0000001
 44
0.0000000001
 40
0.0
 40
0.0
 40
0.0
 40
0.0
 40
0.1141474765
 40
0.2373368178
 40
0.3669776594
 40
0.5000010819
 40
0.633024354
 40
0.7626647561
 40
0.8858534048
 40
1.0
 40
1.0
 40
1.0
 40
1.0
 10
15.299627972
 20
50.6342084588
 30
0.0
 10
15.299627972
 20
50.7229370363
 30
0.0
 10
15.2833643649
 20
50.9075934097
 30
0.0
 10
15.2185881875
 20
51.1861635388
 30
0.0
 10
15.1147713724
 20
51.4683265278
 30
0.0
 10
14.9758716999
 20
51.743479728
 30
0.0
 10
14.807030838
 20
52.0013458881
 30
0.0
 10
14.6145783491
 20
52.2323336108
 30
0.0
 10
14.4057175238
 20
52.4277141032
 30
0.0
 10
14.2539323268
 20
52.5341250502
 30
0.0
 10
14.1770912833
 20
52.5784882438
 30
0.0
  0
SPLINE
  5
378
100
AcDbEntity
  8
0
100
AcDbSpline
 62
7
  6
CONTINUOUS
 70
0
 71
3
 72
14
 73
10
 74
0
 42
0.0000001
 43
0.0000001
 44
0.0000000001
 40
0.0
 40
0.0
 40
0.0
 40
0.0
 40
0.2892465103
 40
0.4225697622
 40
0.5485168638
 40
0.6678914139
 40
0.7818640907
 40
0.891953856
 40
1.0
 40
1.0
 40
1.0
 40
1.0
 10
14.1770912833
 20
52.5784882438
 30
0.0
 10
14.1074156257
 20
52.6187145934
 30
0.0
 10
14.0004216098
 20
52.669621709
 30
0.0
 10
13.8537055679
 20
52.7124197245
 30
0.0
 10
13.749558677
 20
52.7298842409
 30
0.0
 10
13.6493642655
 20
52.7333611217
 30
0.0
 10
13.5540552837
 20
52.7227142397
 30
0.0
 10
13.4646325653
 20
52.6980175712
 30
0.0
 10
13.4093774494
 20
52.6721244091
 30
0.0
 10
13.3833506715
 20
52.6570979307
 30
0.0
  0
SPLINE
  5
379
100
AcDbEntity
  8
0
100
AcDbSpline
 62
7
  6
CONTINUOUS
 70
0
 71
3
 72
18
 73
14
 74
0
 42
0.0000001
 43
0.0000001
 44
0.0000000001
 40
0.0
 40
0.0
 40
0.0
 40
0.0
 40
0.1508271471
 40
0.3013157447
 40
0.4466054013
 40
0.5823894479
 40
0.7054547084
 40
0.7617834967
 40
0.8146356086
 40
0.8642727675
 40
0.9111876521
 40
0.9561210988
 40
1.0
 40
1.0
 40
1.0
 40
1.0
 10
16.9765628246
 20
47.4509509149
 30
0.0
 10
16.9372175966
 20
47.5033359948
 30
0.0
 10
16.8654494803
 20
47.6133000906
 30
0.0
 10
16.7805742764
 20
47.7882946586
 30
0.0
 10
16.7213588304
 20
47.9667975516
 30
0.0
 10
16.6906317879
 20
48.1402994355
 30
0.0
 10
16.6900415181
 20
48.2781753344
 30
0.0
 10
16.7063495462
 20
48.3779438966
 30
0.0
 10
16.7258150699
 20
48.4443344768
 30
0.0
 10
16.7526741965
 20
48.5036770134
 30
0.0
 10
16.7867502775
 20
48.5551725738
 30
0.0
 10
16.8275767657
 20
48.5981399295
 30
0.0
 10
16.8591951855
 20
48.6207337564
 30
0.0
 10
16.8757052676
 20
48.6302570582
 30
0.0
  0
SPLINE
  5
37A
100
AcDbEntity
  8
0
100
AcDbSpline
 62
7
  6
CONTINUOUS
 70
0
 71
3
 72
15
 73
11
 74
0
 42
0.0000001
 43
0.0000001
 44
0.0000000001
 40
0.0
 40
0.0
 40
0.0
 40
0.0
 40
0.1141474765
 40
0.2373368178
 40
0.3669776594
 40
0.5000010819
 40
0.633024354
 40
0.7626647561
 40
0.8858534048
 40
1.0
 40
1.0
 40
1.0
 40
1.0
 10
18.4427307003
 20
48.8195783049
 30
0.0
 10
18.4427307003
 20
48.9083068824
 30
0.0
 10
18.4264670932
 20
49.0929632559
 30
0.0
 10
18.3616909158
 20
49.3715333849
 30
0.0
 10
18.2578741007
 20
49.6536963739
 30
0.0
 10
18.1189744282
 20
49.9288495741
 30
0.0
 10
17.9501335663
 20
50.1867157343
 30
0.0
 10
17.7576810773
 20
50.4177034569
 30
0.0
 10
17.5488202521
 20
50.6130839493
 30
0.0
 10
17.3970350551
 20
50.7194948964
 30
0.0
 10
17.3201940116
 20
50.7638580899
 30
0.0
  0
SPLINE
  5
37B
100
AcDbEntity
  8
0
100
AcDbSpline
 62
7
  6
CONTINUOUS
 70
0
 71
3
 72
14
 73
10
 74
0
 42
0.0000001
 43
0.0000001
 44
0.0000000001
 40
0.0
 40
0.0
 40
0.0
 40
0.0
 40
0.2892465103
 40
0.4225697622
 40
0.5485168638
 40
0.6678914139
 40
0.7818640907
 40
0.891953856
 40
1.0
 40
1.0
 40
1.0
 40
1.0
 10
17.3201940116
 20
50.7638580899
 30
0.0
 10
17.250518354
 20
50.8040844395
 30
0.0
 10
17.1435243381
 20
50.8549915552
 30
0.0
 10
16.9968082962
 20
50.8977895706
 30
0.0
 10
16.8926614053
 20
50.915254087
 30
0.0
 10
16.7924669938
 20
50.9187309679
 30
0.0
 10
16.697158012
 20
50.9080840858
 30
0.0
 10
16.6077352936
 20
50.8833874173
 30
0.0
 10
16.5524801777
 20
50.8574942553
 30
0.0
 10
16.5264533998
 20
50.8424677769
 30
0.0
  0
SPLINE
  5
37C
100
AcDbEntity
  8
0
100
AcDbSpline
 62
7
  6
CONTINUOUS
 70
0
 71
3
 72
12
 73
8
 74
0
 42
0.0000001
 43
0.0000001
 44
0.0000000001
 40
0.0
 40
0.0
 40
0.0
 40
0.0
 40
0.1081687912
 40
0.2183555695
 40
0.4513113955
 40
0.7105889062
 40
1.0
 40
1.0
 40
1.0
 40
1.0
 10
28.4511953912
 20
46.0017369928
 30
0.0
 10
28.4366163173
 20
45.99332753
 30
0.0
 10
28.4056676142
 20
45.978845638
 30
0.0
 10
28.3377326234
 20
45.9599959047
 30
0.0
 10
28.2425173045
 20
45.9574686032
 30
0.0
 10
28.123333855
 20
45.9863436762
 30
0.0
 10
28.0457049222
 20
46.0232327524
 30
0.0
 10
28.0067066471
 20
46.0457479076
 30
0.0
  0
SPLINE
  5
37D
100
AcDbEntity
  8
0
100
AcDbSpline
 62
7
  6
CONTINUOUS
 70
0
 71
3
 72
12
 73
8
 74
0
 42
0.0000001
 43
0.0000001
 44
0.0000000001
 40
0.0
 40
0.0
 40
0.0
 40
0.0
 40
0.1081687912
 40
0.2183555695
 40
0.4513113955
 40
0.7105889062
 40
1.0
 40
1.0
 40
1.0
 40
1.0
 10
21.4466247797
 20
41.9576704046
 30
0.0
 10
21.4320457058
 20
41.9492609418
 30
0.0
 10
21.4010970028
 20
41.9347790498
 30
0.0
 10
21.333162012
 20
41.9159293165
 30
0.0
 10
21.237946693
 20
41.913402015
 30
0.0
 10
21.1187632436
 20
41.942277088
 30
0.0
 10
21.0411343107
 20
41.9791661642
 30
0.0
 10
21.0021360357
 20
42.0016813194
 30
0.0
  0
SPLINE
  5
37E
100
AcDbEntity
  8
0
100
AcDbSpline
 62
7
  6
CONTINUOUS
 70
0
 71
3
 72
18
 73
14
 74
0
 42
0.0000001
 43
0.0000001
 44
0.0000000001
 40
0.0
 40
0.0
 40
0.0
 40
0.0
 40
0.1508271471
 40
0.3013157447
 40
0.4466054013
 40
0.5823894479
 40
0.7054547084
 40
0.7617834967
 40
0.8146356086
 40
0.8642727675
 40
0.9111876521
 40
0.9561210988
 40
1.0
 40
1.0
 40
1.0
 40
1.0
 10
20.1196655529
 20
45.6363207611
 30
0.0
 10
20.0803203248
 20
45.688705841
 30
0.0
 10
20.0085522086
 20
45.7986699367
 30
0.0
 10
19.9236770047
 20
45.9736645048
 30
0.0
 10
19.8644615587
 20
46.1521673977
 30
0.0
 10
19.8337345162
 20
46.3256692817
 30
0.0
 10
19.8331442464
 20
46.4635451806
 30
0.0
 10
19.8494522744
 20
46.5633137427
 30
0.0
 10
19.8689177982
 20
46.6297043229
 30
0.0
 10
19.8957769247
 20
46.6890468596
 30
0.0
 10
19.9298530057
 20
46.74054242
 30
0.0
 10
19.970679494
 20
46.7835097756
 30
0.0
 10
20.0022979138
 20
46.8061036025
 30
0.0
 10
20.0188079958
 20
46.8156269044
 30
0.0
  0
SPLINE
  5
37F
100
AcDbEntity
  8
0
100
AcDbSpline
 62
7
  6
CONTINUOUS
 70
0
 71
3
 72
12
 73
8
 74
0
 42
0.0000001
 43
0.0000001
 44
0.0000000001
 40
0.0
 40
0.0
 40
0.0
 40
0.0
 40
0.1081687912
 40
0.2183555695
 40
0.4513113955
 40
0.7105889062
 40
1.0
 40
1.0
 40
1.0
 40
1.0
 10
23.6916009473
 20
54.1416718465
 30
0.0
 10
23.6770218734
 20
54.1332623837
 30
0.0
 10
23.6460731703
 20
54.1187804917
 30
0.0
 10
23.5781381795
 20
54.0999307584
 30
0.0
 10
23.4829228606
 20
54.0974034569
 30
0.0
 10
23.3637394111
 20
54.1262785299
 30
0.0
 10
23.2861104783
 20
54.1631676061
 30
0.0
 10
23.2471122033
 20
54.1856827613
 30
0.0
  0
SPLINE
  5
380
100
AcDbEntity
  8
0
100
AcDbSpline
 62
7
  6
CONTINUOUS
 70
0
 71
3
 72
15
 73
11
 74
0
 42
0.0000001
 43
0.0000001
 44
0.0000000001
 40
0.0
 40
0.0
 40
0.0
 40
0.0
 40
0.1141474765
 40
0.2373368178
 40
0.3669776594
 40
0.5000010819
 40
0.633024354
 40
0.7626647561
 40
0.8858534048
 40
1.0
 40
1.0
 40
1.0
 40
1.0
 10
21.5858334286
 20
47.0049481511
 30
0.0
 10
21.5858334286
 20
47.0936767286
 30
0.0
 10
21.5695698215
 20
47.278333102
 30
0.0
 10
21.504793644
 20
47.5569032311
 30
0.0
 10
21.400976829
 20
47.8390662201
 30
0.0
 10
21.2620771565
 20
48.1142194203
 30
0.0
 10
21.0932362946
 20
48.3720855804
 30
0.0
 10
20.9007838056
 20
48.6030733031
 30
0.0
 10
20.6919229804
 20
48.7984537955
 30
0.0
 10
20.5401377834
 20
48.9048647426
 30
0.0
 10
20.4632967399
 20
48.9492279361
 30
0.0
  0
SPLINE
  5
381
100
AcDbEntity
  8
0
100
AcDbSpline
 62
7
  6
CONTINUOUS
 70
0
 71
3
 72
14
 73
10
 74
0
 42
0.0000001
 43
0.0000001
 44
0.0000000001
 40
0.0
 40
0.0
 40
0.0
 40
0.0
 40
0.2892465103
 40
0.4225697622
 40
0.5485168638
 40
0.6678914139
 40
0.7818640907
 40
0.891953856
 40
1.0
 40
1.0
 40
1.0
 40
1.0
 10
20.4632967399
 20
48.9492279361
 30
0.0
 10
20.3936210823
 20
48.9894542857
 30
0.0
 10
20.2866270664
 20
49.0403614014
 30
0.0
 10
20.1399110245
 20
49.0831594168
 30
0.0
 10
20.0357641336
 20
49.1006239332
 30
0.0
 10
19.9355697221
 20
49.104100814
 30
0.0
 10
19.8402607403
 20
49.093453932
 30
0.0
 10
19.7508380219
 20
49.0687572635
 30
0.0
 10
19.695582906
 20
49.0428641015
 30
0.0
 10
19.6695561281
 20
49.027837623
 30
0.0
  0
SPLINE
  5
382
100
AcDbEntity
  8
0
100
AcDbSpline
 62
7
  6
CONTINUOUS
 70
0
 71
3
 72
14
 73
10
 74
0
 42
0.0000001
 43
0.0000001
 44
0.0000000001
 40
0.0
 40
0.0
 40
0.0
 40
0.0
 40
0.2892465103
 40
0.4225697622
 40
0.5485168638
 40
0.6678914139
 40
0.7818640907
 40
0.891953856
 40
1.0
 40
1.0
 40
1.0
 40
1.0
 10
32.6764203881
 20
52.3711455439
 30
0.0
 10
32.6067447305
 20
52.4113718936
 30
0.0
 10
32.4997507146
 20
52.4622790092
 30
0.0
 10
32.3530346727
 20
52.5050770247
 30
0.0
 10
32.2488877818
 20
52.522541541
 30
0.0
 10
32.1486933703
 20
52.5260184219
 30
0.0
 10
32.0533843885
 20
52.5153715398
 30
0.0
 10
31.9639616701
 20
52.4906748713
 30
0.0
 10
31.9087065542
 20
52.4647817093
 30
0.0
 10
31.8826797763
 20
52.4497552309
 30
0.0
  0
SPLINE
  5
383
100
AcDbEntity
  8
0
100
AcDbSpline
 62
7
  6
CONTINUOUS
 70
0
 71
3
 72
15
 73
11
 74
0
 42
0.0000001
 43
0.0000001
 44
0.0000000001
 40
0.0
 40
0.0
 40
0.0
 40
0.0
 40
0.1141474765
 40
0.2373368178
 40
0.3669776594
 40
0.5000010819
 40
0.633024354
 40
0.7626647561
 40
0.8858534048
 40
1.0
 40
1.0
 40
1.0
 40
1.0
 10
33.7989570768
 20
50.4268657589
 30
0.0
 10
33.7989570768
 20
50.5155943364
 30
0.0
 10
33.7826934697
 20
50.7002507099
 30
0.0
 10
33.7179172923
 20
50.978820839
 30
0.0
 10
33.6141004772
 20
51.2609838279
 30
0.0
 10
33.4752008047
 20
51.5361370282
 30
0.0
 10
33.3063599428
 20
51.7940031883
 30
0.0
 10
33.1139074538
 20
52.0249909109
 30
0.0
 10
32.9050466286
 20
52.2203714033
 30
0.0
 10
32.7532614316
 20
52.3267823504
 30
0.0
 10
32.6764203881
 20
52.3711455439
 30
0.0
  0
SPLINE
  5
384
100
AcDbEntity
  8
0
100
AcDbSpline
 62
7
  6
CONTINUOUS
 70
0
 71
3
 72
12
 73
8
 74
0
 42
0.0000001
 43
0.0000001
 44
0.0000000001
 40
0.0
 40
0.0
 40
0.0
 40
0.0
 40
0.1081687912
 40
0.2183555695
 40
0.4513113955
 40
0.7105889062
 40
1.0
 40
1.0
 40
1.0
 40
1.0
 10
24.0508882122
 20
43.4612336233
 30
0.0
 10
24.0363091383
 20
43.4528241605
 30
0.0
 10
24.0053604352
 20
43.4383422685
 30
0.0
 10
23.9374254444
 20
43.4194925352
 30
0.0
 10
23.8422101255
 20
43.4169652337
 30
0.0
 10
23.723026676
 20
43.4458403067
 30
0.0
 10
23.6453977432
 20
43.4827293829
 30
0.0
 10
23.6063994682
 20
43.5052445381
 30
0.0
  0
SPLINE
  5
385
100
AcDbEntity
  8
0
100
AcDbSpline
 62
7
  6
CONTINUOUS
 70
0
 71
3
 72
20
 73
16
 74
0
 42
0.0000001
 43
0.0000001
 44
0.0000000001
 40
0.0
 40
0.0
 40
0.0
 40
0.0
 40
0.0623641411
 40
0.128804205
 40
0.2703039228
 40
0.4173616336
 40
0.5616108901
 40
0.6302487174
 40
0.6953759123
 40
0.7563588722
 40
0.8128293967
 40
0.8647615268
 40
0.9125646103
 40
0.9571664467
 40
1.0
 40
1.0
 40
1.0
 40
1.0
 10
32.6764203881
 20
48.7417922998
 30
0.0
 10
32.6445087548
 20
48.7602160731
 30
0.0
 10
32.5810714193
 20
48.8026523648
 30
0.0
 10
32.4586563437
 20
48.9055982516
 30
0.0
 10
32.319318002
 20
49.0641697875
 30
0.0
 10
32.1848376825
 20
49.2829250689
 30
0.0
 10
32.1046435086
 20
49.4812392845
 30
0.0
 10
32.0650635427
 20
49.6409004239
 30
0.0
 10
32.0488907651
 20
49.7550590414
 30
0.0
 10
32.0461509962
 20
49.8631739261
 30
0.0
 10
32.0569115182
 20
49.9630230723
 30
0.0
 10
32.0811108955
 20
50.0525476447
 30
0.0
 10
32.118463507
 20
50.1298712523
 30
0.0
 10
32.1684630408
 20
50.193093014
 30
0.0
 10
32.2100088488
 20
50.2248990635
 30
0.0
 10
32.2319316441
 20
50.2375445122
 30
0.0
  0
SPLINE
  5
386
100
AcDbEntity
  8
0
100
AcDbSpline
 62
7
  6
CONTINUOUS
 70
0
 71
3
 72
12
 73
8
 74
0
 42
0.0000001
 43
0.0000001
 44
0.0000000001
 40
0.0
 40
0.0
 40
0.0
 40
0.0
 40
0.1081687912
 40
0.2183555695
 40
0.4513113955
 40
0.7105889062
 40
1.0
 40
1.0
 40
1.0
 40
1.0
 10
33.1209091321
 20
48.697781385
 30
0.0
 10
33.1063300582
 20
48.6893719222
 30
0.0
 10
33.0753813552
 20
48.6748900302
 30
0.0
 10
33.0074463644
 20
48.6560402969
 30
0.0
 10
32.9122310454
 20
48.6535129954
 30
0.0
 10
32.793047596
 20
48.6823880684
 30
0.0
 10
32.7154186631
 20
48.7192771446
 30
0.0
 10
32.6764203881
 20
48.7417922998
 30
0.0
  0
SPLINE
  5
387
100
AcDbEntity
  8
0
100
AcDbSpline
 62
7
  6
CONTINUOUS
 70
0
 71
3
 72
14
 73
10
 74
0
 42
0.0000001
 43
0.0000001
 44
0.0000000001
 40
0.0
 40
0.0
 40
0.0
 40
0.0
 40
0.2892465103
 40
0.4225697622
 40
0.5485168638
 40
0.6678914139
 40
0.7818640907
 40
0.891953856
 40
1.0
 40
1.0
 40
1.0
 40
1.0
 10
23.2471122033
 20
57.8150360055
 30
0.0
 10
23.1774365457
 20
57.8552623551
 30
0.0
 10
23.0704425298
 20
57.9061694708
 30
0.0
 10
22.9237264879
 20
57.9489674862
 30
0.0
 10
22.819579597
 20
57.9664320026
 30
0.0
 10
22.7193851855
 20
57.9699088834
 30
0.0
 10
22.6240762037
 20
57.9592620014
 30
0.0
 10
22.5346534853
 20
57.9345653329
 30
0.0
 10
22.4793983693
 20
57.9086721709
 30
0.0
 10
22.4533715915
 20
57.8936456924
 30
0.0
  0
SPLINE
  5
388
100
AcDbEntity
  8
0
100
AcDbSpline
 62
7
  6
CONTINUOUS
 70
0
 71
3
 72
15
 73
11
 74
0
 42
0.0000001
 43
0.0000001
 44
0.0000000001
 40
0.0
 40
0.0
 40
0.0
 40
0.0
 40
0.1141474765
 40
0.2373368178
 40
0.3669776594
 40
0.5000010819
 40
0.633024354
 40
0.7626647561
 40
0.8858534048
 40
1.0
 40
1.0
 40
1.0
 40
1.0
 10
24.3696488919
 20
55.8707562205
 30
0.0
 10
24.3696488919
 20
55.959484798
 30
0.0
 10
24.3533852848
 20
56.1441411714
 30
0.0
 10
24.2886091074
 20
56.4227113005
 30
0.0
 10
24.1847922924
 20
56.7048742895
 30
0.0
 10
24.0458926199
 20
56.9800274897
 30
0.0
 10
23.877051758
 20
57.2378936498
 30
0.0
 10
23.684599269
 20
57.4688813725
 30
0.0
 10
23.4757384438
 20
57.6642618649
 30
0.0
 10
23.3239532467
 20
57.770672812
 30
0.0
 10
23.2471122033
 20
57.8150360055
 30
0.0
  0
SPLINE
  5
389
100
AcDbEntity
  8
0
100
AcDbSpline
 62
7
  6
CONTINUOUS
 70
0
 71
3
 72
20
 73
16
 74
0
 42
0.0000001
 43
0.0000001
 44
0.0000000001
 40
0.0
 40
0.0
 40
0.0
 40
0.0
 40
0.0623641411
 40
0.128804205
 40
0.2703039228
 40
0.4173616336
 40
0.5616108901
 40
0.6302487174
 40
0.6953759123
 40
0.7563588722
 40
0.8128293967
 40
0.8647615268
 40
0.9125646103
 40
0.9571664467
 40
1.0
 40
1.0
 40
1.0
 40
1.0
 10
23.2471122033
 20
54.1856827613
 30
0.0
 10
23.21520057
 20
54.2041065346
 30
0.0
 10
23.1517632345
 20
54.2465428263
 30
0.0
 10
23.0293481588
 20
54.3494887131
 30
0.0
 10
22.8900098172
 20
54.508060249
 30
0.0
 10
22.7555294977
 20
54.7268155305
 30
0.0
 10
22.6753353238
 20
54.925129746
 30
0.0
 10
22.6357553579
 20
55.0847908855
 30
0.0
 10
22.6195825803
 20
55.198949503
 30
0.0
 10
22.6168428114
 20
55.3070643877
 30
0.0
 10
22.6276033334
 20
55.4069135339
 30
0.0
 10
22.6518027107
 20
55.4964381062
 30
0.0
 10
22.6891553222
 20
55.5737617139
 30
0.0
 10
22.739154856
 20
55.6369834755
 30
0.0
 10
22.7807006639
 20
55.668789525
 30
0.0
 10
22.8026234592
 20
55.6814349738
 30
0.0
  0
SPLINE
  5
38A
100
AcDbEntity
  8
0
100
AcDbSpline
 62
7
  6
CONTINUOUS
 70
0
 71
3
 72
20
 73
16
 74
0
 42
0.0000001
 43
0.0000001
 44
0.0000000001
 40
0.0
 40
0.0
 40
0.0
 40
0.0
 40
0.0623641411
 40
0.128804205
 40
0.2703039228
 40
0.4173616336
 40
0.5616108901
 40
0.6302487174
 40
0.6953759123
 40
0.7563588722
 40
0.8128293967
 40
0.8647615268
 40
0.9125646103
 40
0.9571664467
 40
1.0
 40
1.0
 40
1.0
 40
1.0
 10
23.6063994682
 20
43.5052445381
 30
0.0
 10
23.5744878349
 20
43.5236683113
 30
0.0
 10
23.5110504994
 20
43.566104603
 30
0.0
 10
23.3886354237
 20
43.6690504899
 30
0.0
 10
23.249297082
 20
43.8276220257
 30
0.0
 10
23.1148167626
 20
44.0463773072
 30
0.0
 10
23.0346225887
 20
44.2446915228
 30
0.0
 10
22.9950426228
 20
44.4043526622
 30
0.0
 10
22.9788698452
 20
44.5185112797
 30
0.0
 10
22.9761300762
 20
44.6266261644
 30
0.0
 10
22.9868905983
 20
44.7264753106
 30
0.0
 10
23.0110899756
 20
44.815999883
 30
0.0
 10
23.0484425871
 20
44.8933234906
 30
0.0
 10
23.0984421209
 20
44.9565452522
 30
0.0
 10
23.1399879288
 20
44.9883513018
 30
0.0
 10
23.1619107241
 20
45.0009967505
 30
0.0
  0
SPLINE
  5
38B
100
AcDbEntity
  8
0
100
AcDbSpline
 62
7
  6
CONTINUOUS
 70
0
 71
3
 72
15
 73
11
 74
0
 42
0.0000001
 43
0.0000001
 44
0.0000000001
 40
0.0
 40
0.0
 40
0.0
 40
0.0
 40
0.1141474765
 40
0.2373368178
 40
0.3669776594
 40
0.5000010819
 40
0.633024354
 40
0.7626647561
 40
0.8858534048
 40
1.0
 40
1.0
 40
1.0
 40
1.0
 10
24.7289361568
 20
45.1903179972
 30
0.0
 10
24.7289361568
 20
45.2790465747
 30
0.0
 10
24.7126725497
 20
45.4637029482
 30
0.0
 10
24.6478963723
 20
45.7422730772
 30
0.0
 10
24.5440795573
 20
46.0244360662
 30
0.0
 10
24.4051798847
 20
46.2995892664
 30
0.0
 10
24.2363390229
 20
46.5574554266
 30
0.0
 10
24.0438865339
 20
46.7884431492
 30
0.0
 10
23.8350257087
 20
46.9838236416
 30
0.0
 10
23.6832405116
 20
47.0902345887
 30
0.0
 10
23.6063994682
 20
47.1345977822
 30
0.0
  0
SPLINE
  5
38C
100
AcDbEntity
  8
0
100
AcDbSpline
 62
7
  6
CONTINUOUS
 70
0
 71
3
 72
14
 73
10
 74
0
 42
0.0000001
 43
0.0000001
 44
0.0000000001
 40
0.0
 40
0.0
 40
0.0
 40
0.0
 40
0.2892465103
 40
0.4225697622
 40
0.5485168638
 40
0.6678914139
 40
0.7818640907
 40
0.891953856
 40
1.0
 40
1.0
 40
1.0
 40
1.0
 10
23.6063994682
 20
47.1345977822
 30
0.0
 10
23.5367238106
 20
47.1748241319
 30
0.0
 10
23.4297297947
 20
47.2257312475
 30
0.0
 10
23.2830137527
 20
47.2685292629
 30
0.0
 10
23.1788668619
 20
47.2859937793
 30
0.0
 10
23.0786724504
 20
47.2894706602
 30
0.0
 10
22.9833634686
 20
47.2788237781
 30
0.0
 10
22.8939407502
 20
47.2541271096
 30
0.0
 10
22.8386856342
 20
47.2282339476
 30
0.0
 10
22.8126588564
 20
47.2132074692
 30
0.0
  0
SPLINE
  5
38D
100
AcDbEntity
  8
0
100
AcDbSpline
 62
7
  6
CONTINUOUS
 70
0
 71
3
 72
12
 73
8
 74
0
 42
0.0000001
 43
0.0000001
 44
0.0000000001
 40
0.0
 40
0.0
 40
0.0
 40
0.0
 40
0.1081687912
 40
0.2183555695
 40
0.4513113955
 40
0.7105889062
 40
1.0
 40
1.0
 40
1.0
 40
1.0
 10
19.0218872063
 20
51.4456274544
 30
0.0
 10
19.0073081324
 20
51.4372179915
 30
0.0
 10
18.9763594294
 20
51.4227360996
 30
0.0
 10
18.9084244386
 20
51.4038863662
 30
0.0
 10
18.8132091196
 20
51.4013590648
 30
0.0
 10
18.6940256702
 20
51.4302341378
 30
0.0
 10
18.6163967373
 20
51.4671232139
 30
0.0
 10
18.5773984623
 20
51.4896383692
 30
0.0
  0
SPLINE
  5
38E
100
AcDbEntity
  8
0
100
AcDbSpline
 62
7
  6
CONTINUOUS
 70
0
 71
3
 72
14
 73
10
 74
0
 42
0.0000001
 43
0.0000001
 44
0.0000000001
 40
0.0
 40
0.0
 40
0.0
 40
0.0
 40
0.2892465103
 40
0.4225697622
 40
0.5485168638
 40
0.6678914139
 40
0.7818640907
 40
0.891953856
 40
1.0
 40
1.0
 40
1.0
 40
1.0
 10
21.0021360357
 20
45.6310345635
 30
0.0
 10
20.9324603781
 20
45.6712609132
 30
0.0
 10
20.8254663622
 20
45.7221680288
 30
0.0
 10
20.6787503203
 20
45.7649660442
 30
0.0
 10
20.5746034294
 20
45.7824305606
 30
0.0
 10
20.4744090179
 20
45.7859074415
 30
0.0
 10
20.3791000361
 20
45.7752605594
 30
0.0
 10
20.2896773177
 20
45.7505638909
 30
0.0
 10
20.2344222018
 20
45.7246707289
 30
0.0
 10
20.2083954239
 20
45.7096442505
 30
0.0
  0
SPLINE
  5
38F
100
AcDbEntity
  8
0
100
AcDbSpline
 62
7
  6
CONTINUOUS
 70
0
 71
3
 72
15
 73
11
 74
0
 42
0.0000001
 43
0.0000001
 44
0.0000000001
 40
0.0
 40
0.0
 40
0.0
 40
0.0
 40
0.1141474765
 40
0.2373368178
 40
0.3669776594
 40
0.5000010819
 40
0.633024354
 40
0.7626647561
 40
0.8858534048
 40
1.0
 40
1.0
 40
1.0
 40
1.0
 10
22.1246727244
 20
43.6867547785
 30
0.0
 10
22.1246727244
 20
43.775483356
 30
0.0
 10
22.1084091173
 20
43.9601397295
 30
0.0
 10
22.0436329399
 20
44.2387098585
 30
0.0
 10
21.9398161248
 20
44.5208728475
 30
0.0
 10
21.8009164523
 20
44.7960260477
 30
0.0
 10
21.6320755904
 20
45.0538922079
 30
0.0
 10
21.4396231014
 20
45.2848799305
 30
0.0
 10
21.2307622762
 20
45.4802604229
 30
0.0
 10
21.0789770792
 20
45.58667137
 30
0.0
 10
21.0021360357
 20
45.6310345635
 30
0.0
  0
SPLINE
  5
390
100
AcDbEntity
  8
0
100
AcDbSpline
 62
7
  6
CONTINUOUS
 70
0
 71
3
 72
20
 73
16
 74
0
 42
0.0000001
 43
0.0000001
 44
0.0000000001
 40
0.0
 40
0.0
 40
0.0
 40
0.0
 40
0.0623641411
 40
0.128804205
 40
0.2703039228
 40
0.4173616336
 40
0.5616108901
 40
0.6302487174
 40
0.6953759123
 40
0.7563588722
 40
0.8128293967
 40
0.8647615268
 40
0.9125646103
 40
0.9571664467
 40
1.0
 40
1.0
 40
1.0
 40
1.0
 10
18.5773984623
 20
51.4896383692
 30
0.0
 10
18.545486829
 20
51.5080621424
 30
0.0
 10
18.4820494935
 20
51.5504984341
 30
0.0
 10
18.3596344179
 20
51.653444321
 30
0.0
 10
18.2202960762
 20
51.8120158568
 30
0.0
 10
18.0858157567
 20
52.0307711383
 30
0.0
 10
18.0056215828
 20
52.2290853539
 30
0.0
 10
17.9660416169
 20
52.3887464933
 30
0.0
 10
17.9498688393
 20
52.5029051108
 30
0.0
 10
17.9471290704
 20
52.6110199955
 30
0.0
 10
17.9578895925
 20
52.7108691417
 30
0.0
 10
17.9820889697
 20
52.800393714
 30
0.0
 10
18.0194415813
 20
52.8777173217
 30
0.0
 10
18.069441115
 20
52.9409390833
 30
0.0
 10
18.110986923
 20
52.9727451329
 30
0.0
 10
18.1329097183
 20
52.9853905816
 30
0.0
  0
SPLINE
  5
391
100
AcDbEntity
  8
0
100
AcDbSpline
 62
7
  6
CONTINUOUS
 70
0
 71
3
 72
20
 73
16
 74
0
 42
0.0000001
 43
0.0000001
 44
0.0000000001
 40
0.0
 40
0.0
 40
0.0
 40
0.0
 40
0.0623641411
 40
0.128804205
 40
0.2703039228
 40
0.4173616336
 40
0.5616108901
 40
0.6302487174
 40
0.6953759123
 40
0.7563588722
 40
0.8128293967
 40
0.8647615268
 40
0.9125646103
 40
0.9571664467
 40
1.0
 40
1.0
 40
1.0
 40
1.0
 10
21.0021360357
 20
42.0016813194
 30
0.0
 10
20.9702244024
 20
42.0201050926
 30
0.0
 10
20.9067870669
 20
42.0625413843
 30
0.0
 10
20.7843719913
 20
42.1654872712
 30
0.0
 10
20.6450336496
 20
42.324058807
 30
0.0
 10
20.5105533301
 20
42.5428140885
 30
0.0
 10
20.4303591562
 20
42.7411283041
 30
0.0
 10
20.3907791903
 20
42.9007894435
 30
0.0
 10
20.3746064127
 20
43.014948061
 30
0.0
 10
20.3718666438
 20
43.1230629457
 30
0.0
 10
20.3826271658
 20
43.2229120919
 30
0.0
 10
20.4068265431
 20
43.3124366643
 30
0.0
 10
20.4441791546
 20
43.3897602719
 30
0.0
 10
20.4941786884
 20
43.4529820335
 30
0.0
 10
20.5357244964
 20
43.4847880831
 30
0.0
 10
20.5576472917
 20
43.4974335318
 30
0.0
  0
SPLINE
  5
392
100
AcDbEntity
  8
0
100
AcDbSpline
 62
7
  6
CONTINUOUS
 70
0
 71
3
 72
12
 73
8
 74
0
 42
0.0000001
 43
0.0000001
 44
0.0000000001
 40
0.0
 40
0.0
 40
0.0
 40
0.0
 40
0.1081687912
 40
0.2183555695
 40
0.4513113955
 40
0.7105889062
 40
1.0
 40
1.0
 40
1.0
 40
1.0
 10
25.3080926629
 20
47.8163671467
 30
0.0
 10
25.293513589
 20
47.8079576839
 30
0.0
 10
25.2625648859
 20
47.7934757919
 30
0.0
 10
25.1946298951
 20
47.7746260586
 30
0.0
 10
25.0994145762
 20
47.7720987571
 30
0.0
 10
24.9802311267
 20
47.8009738301
 30
0.0
 10
24.9026021939
 20
47.8378629062
 30
0.0
 10
24.8636039189
 20
47.8603780615
 30
0.0
  0
SPLINE
  5
393
100
AcDbEntity
  8
0
100
AcDbSpline
 62
7
  6
CONTINUOUS
 70
0
 71
3
 72
15
 73
11
 74
0
 42
0.0000001
 43
0.0000001
 44
0.0000000001
 40
0.0
 40
0.0
 40
0.0
 40
0.0
 40
0.1141474765
 40
0.2373368178
 40
0.3669776594
 40
0.5000010819
 40
0.633024354
 40
0.7626647561
 40
0.8858534048
 40
1.0
 40
1.0
 40
1.0
 40
1.0
 10
19.699935151
 20
53.1747118283
 30
0.0
 10
19.699935151
 20
53.2634404058
 30
0.0
 10
19.6836715439
 20
53.4480967793
 30
0.0
 10
19.6188953665
 20
53.7266669083
 30
0.0
 10
19.5150785514
 20
54.0088298973
 30
0.0
 10
19.3761788789
 20
54.2839830975
 30
0.0
 10
19.207338017
 20
54.5418492577
 30
0.0
 10
19.014885528
 20
54.7728369803
 30
0.0
 10
18.8060247028
 20
54.9682174727
 30
0.0
 10
18.6542395058
 20
55.0746284198
 30
0.0
 10
18.5773984623
 20
55.1189916133
 30
0.0
  0
SPLINE
  5
394
100
AcDbEntity
  8
0
100
AcDbSpline
 62
7
  6
CONTINUOUS
 70
0
 71
3
 72
12
 73
8
 74
0
 42
0.0000001
 43
0.0000001
 44
0.0000000001
 40
0.0
 40
0.0
 40
0.0
 40
0.0
 40
0.1081687912
 40
0.2183555695
 40
0.4513113955
 40
0.7105889062
 40
1.0
 40
1.0
 40
1.0
 40
1.0
 10
12.0173165949
 20
47.4015608661
 30
0.0
 10
12.002737521
 20
47.3931514033
 30
0.0
 10
11.9717888179
 20
47.3786695113
 30
0.0
 10
11.9038538271
 20
47.359819778
 30
0.0
 10
11.8086385082
 20
47.3572924765
 30
0.0
 10
11.6894550587
 20
47.3861675495
 30
0.0
 10
11.6118261259
 20
47.4230566257
 30
0.0
 10
11.5728278509
 20
47.4455717809
 30
0.0
  0
SPLINE
  5
395
100
AcDbEntity
  8
0
100
AcDbSpline
 62
7
  6
CONTINUOUS
 70
0
 71
3
 72
14
 73
10
 74
0
 42
0.0000001
 43
0.0000001
 44
0.0000000001
 40
0.0
 40
0.0
 40
0.0
 40
0.0
 40
0.2892465103
 40
0.4225697622
 40
0.5485168638
 40
0.6678914139
 40
0.7818640907
 40
0.891953856
 40
1.0
 40
1.0
 40
1.0
 40
1.0
 10
18.5773984623
 20
55.1189916133
 30
0.0
 10
18.5077228047
 20
55.1592179629
 30
0.0
 10
18.4007287888
 20
55.2101250786
 30
0.0
 10
18.2540127469
 20
55.252923094
 30
0.0
 10
18.149865856
 20
55.2703876104
 30
0.0
 10
18.0496714445
 20
55.2738644913
 30
0.0
 10
17.9543624627
 20
55.2632176092
 30
0.0
 10
17.8649397443
 20
55.2385209407
 30
0.0
 10
17.8096846284
 20
55.2126277787
 30
0.0
 10
17.7836578505
 20
55.1976013002
 30
0.0
  0
SPLINE
  5
396
100
AcDbEntity
  8
0
100
AcDbSpline
 62
7
  6
CONTINUOUS
 70
0
 71
3
 72
14
 73
10
 74
0
 42
0.0000001
 43
0.0000001
 44
0.0000000001
 40
0.0
 40
0.0
 40
0.0
 40
0.0
 40
0.2892465103
 40
0.4225697622
 40
0.5485168638
 40
0.6678914139
 40
0.7818640907
 40
0.891953856
 40
1.0
 40
1.0
 40
1.0
 40
1.0
 10
17.8590333074
 20
47.4456647174
 30
0.0
 10
17.7893576498
 20
47.485891067
 30
0.0
 10
17.6823636339
 20
47.5367981826
 30
0.0
 10
17.535647592
 20
47.5795961981
 30
0.0
 10
17.4315007011
 20
47.5970607145
 30
0.0
 10
17.3313062896
 20
47.6005375953
 30
0.0
 10
17.2359973078
 20
47.5898907133
 30
0.0
 10
17.1465745894
 20
47.5651940448
 30
0.0
 10
17.0913194735
 20
47.5393008827
 30
0.0
 10
17.0652926956
 20
47.5242744043
 30
0.0
  0
SPLINE
  5
397
100
AcDbEntity
  8
0
100
AcDbSpline
 62
7
  6
CONTINUOUS
 70
0
 71
3
 72
15
 73
11
 74
0
 42
0.0000001
 43
0.0000001
 44
0.0000000001
 40
0.0
 40
0.0
 40
0.0
 40
0.0
 40
0.1141474765
 40
0.2373368178
 40
0.3669776594
 40
0.5000010819
 40
0.633024354
 40
0.7626647561
 40
0.8858534048
 40
1.0
 40
1.0
 40
1.0
 40
1.0
 10
18.9815699961
 20
45.5013849324
 30
0.0
 10
18.9815699961
 20
45.5901135099
 30
0.0
 10
18.965306389
 20
45.7747698833
 30
0.0
 10
18.9005302116
 20
46.0533400124
 30
0.0
 10
18.7967133965
 20
46.3355030014
 30
0.0
 10
18.657813724
 20
46.6106562016
 30
0.0
 10
18.4889728621
 20
46.8685223617
 30
0.0
 10
18.2965203732
 20
47.0995100844
 30
0.0
 10
18.0876595479
 20
47.2948905768
 30
0.0
 10
17.9358743509
 20
47.4013015239
 30
0.0
 10
17.8590333074
 20
47.4456647174
 30
0.0
  0
SPLINE
  5
398
100
AcDbEntity
  8
0
100
AcDbSpline
 62
7
  6
CONTINUOUS
 70
0
 71
3
 72
20
 73
16
 74
0
 42
0.0000001
 43
0.0000001
 44
0.0000000001
 40
0.0
 40
0.0
 40
0.0
 40
0.0
 40
0.0623641411
 40
0.128804205
 40
0.2703039228
 40
0.4173616336
 40
0.5616108901
 40
0.6302487174
 40
0.6953759123
 40
0.7563588722
 40
0.8128293967
 40
0.8647615268
 40
0.9125646103
 40
0.9571664467
 40
1.0
 40
1.0
 40
1.0
 40
1.0
 10
17.8590333074
 20
43.8163114732
 30
0.0
 10
17.8271216742
 20
43.8347352465
 30
0.0
 10
17.7636843387
 20
43.8771715382
 30
0.0
 10
17.641269263
 20
43.980117425
 30
0.0
 10
17.5019309213
 20
44.1386889609
 30
0.0
 10
17.3674506018
 20
44.3574442423
 30
0.0
 10
17.287256428
 20
44.5557584579
 30
0.0
 10
17.247676462
 20
44.7154195974
 30
0.0
 10
17.2315036844
 20
44.8295782149
 30
0.0
 10
17.2287639155
 20
44.9376930996
 30
0.0
 10
17.2395244376
 20
45.0375422458
 30
0.0
 10
17.2637238149
 20
45.1270668181
 30
0.0
 10
17.3010764264
 20
45.2043904258
 30
0.0
 10
17.3510759601
 20
45.2676121874
 30
0.0
 10
17.3926217681
 20
45.2994182369
 30
0.0
 10
17.4145445634
 20
45.3120636857
 30
0.0
  0
SPLINE
  5
399
100
AcDbEntity
  8
0
100
AcDbSpline
 62
7
  6
CONTINUOUS
 70
0
 71
3
 72
20
 73
16
 74
0
 42
0.0000001
 43
0.0000001
 44
0.0000000001
 40
0.0
 40
0.0
 40
0.0
 40
0.0
 40
0.0623641411
 40
0.128804205
 40
0.2703039228
 40
0.4173616336
 40
0.5616108901
 40
0.6302487174
 40
0.6953759123
 40
0.7563588722
 40
0.8128293967
 40
0.8647615268
 40
0.9125646103
 40
0.9571664467
 40
1.0
 40
1.0
 40
1.0
 40
1.0
 10
11.5728278509
 20
47.4455717809
 30
0.0
 10
11.5409162176
 20
47.4639955542
 30
0.0
 10
11.4774788821
 20
47.5064318459
 30
0.0
 10
11.3550638064
 20
47.6093777327
 30
0.0
 10
11.2157254648
 20
47.7679492686
 30
0.0
 10
11.0812451453
 20
47.98670455
 30
0.0
 10
11.0010509714
 20
48.1850187656
 30
0.0
 10
10.9614710055
 20
48.3446799051
 30
0.0
 10
10.9452982279
 20
48.4588385226
 30
0.0
 10
10.942558459
 20
48.5669534073
 30
0.0
 10
10.953318981
 20
48.6668025534
 30
0.0
 10
10.9775183583
 20
48.7563271258
 30
0.0
 10
11.0148709698
 20
48.8336507335
 30
0.0
 10
11.0648705036
 20
48.8968724951
 30
0.0
 10
11.1064163115
 20
48.9286785446
 30
0.0
 10
11.1283391068
 20
48.9413239933
 30
0.0
  0
SPLINE
  5
39A
100
AcDbEntity
  8
0
100
AcDbSpline
 62
7
  6
CONTINUOUS
 70
0
 71
3
 72
15
 73
11
 74
0
 42
0.0000001
 43
0.0000001
 44
0.0000000001
 40
0.0
 40
0.0
 40
0.0
 40
0.0
 40
0.1141474765
 40
0.2373368178
 40
0.3669776594
 40
0.5000010819
 40
0.633024354
 40
0.7626647561
 40
0.8858534048
 40
1.0
 40
1.0
 40
1.0
 40
1.0
 10
12.6953645395
 20
49.13064524
 30
0.0
 10
12.6953645395
 20
49.2193738175
 30
0.0
 10
12.6791009324
 20
49.404030191
 30
0.0
 10
12.614324755
 20
49.6826003201
 30
0.0
 10
12.51050794
 20
49.964763309
 30
0.0
 10
12.3716082675
 20
50.2399165093
 30
0.0
 10
12.2027674056
 20
50.4977826694
 30
0.0
 10
12.0103149166
 20
50.728770392
 30
0.0
 10
11.8014540914
 20
50.9241508844
 30
0.0
 10
11.6496688943
 20
51.0305618315
 30
0.0
 10
11.5728278509
 20
51.074925025
 30
0.0
  0
SPLINE
  5
39B
100
AcDbEntity
  8
0
100
AcDbSpline
 62
7
  6
CONTINUOUS
 70
0
 71
3
 72
14
 73
10
 74
0
 42
0.0000001
 43
0.0000001
 44
0.0000000001
 40
0.0
 40
0.0
 40
0.0
 40
0.0
 40
0.2892465103
 40
0.4225697622
 40
0.5485168638
 40
0.6678914139
 40
0.7818640907
 40
0.891953856
 40
1.0
 40
1.0
 40
1.0
 40
1.0
 10
11.5728278509
 20
51.074925025
 30
0.0
 10
11.5031521933
 20
51.1151513747
 30
0.0
 10
11.3961581774
 20
51.1660584903
 30
0.0
 10
11.2494421355
 20
51.2088565058
 30
0.0
 10
11.1452952446
 20
51.2263210221
 30
0.0
 10
11.0451008331
 20
51.229797903
 30
0.0
 10
10.9497918513
 20
51.2191510209
 30
0.0
 10
10.8603691329
 20
51.1944543524
 30
0.0
 10
10.8051140169
 20
51.1685611904
 30
0.0
 10
10.7790872391
 20
51.153534712
 30
0.0
  0
SPLINE
  5
39C
100
AcDbEntity
  8
0
100
AcDbSpline
 62
7
  6
CONTINUOUS
 70
0
 71
3
 72
14
 73
10
 74
0
 42
0.0000001
 43
0.0000001
 44
0.0000000001
 40
0.0
 40
0.0
 40
0.0
 40
0.0
 40
0.2892465103
 40
0.4225697622
 40
0.5485168638
 40
0.6678914139
 40
0.7818640907
 40
0.891953856
 40
1.0
 40
1.0
 40
1.0
 40
1.0
 10
14.7159305791
 20
49.2602948712
 30
0.0
 10
14.6462549215
 20
49.3005212208
 30
0.0
 10
14.5392609056
 20
49.3514283365
 30
0.0
 10
14.3925448637
 20
49.3942263519
 30
0.0
 10
14.2883979729
 20
49.4116908683
 30
0.0
 10
14.1882035614
 20
49.4151677492
 30
0.0
 10
14.0928945796
 20
49.4045208671
 30
0.0
 10
14.0034718612
 20
49.3798241986
 30
0.0
 10
13.9482167452
 20
49.3539310366
 30
0.0
 10
13.9221899673
 20
49.3389045582
 30
0.0
  0
SPLINE
  5
39D
100
AcDbEntity
  8
0
100
AcDbSpline
 62
7
  6
CONTINUOUS
 70
0
 71
3
 72
15
 73
11
 74
0
 42
0.0000001
 43
0.0000001
 44
0.0000000001
 40
0.0
 40
0.0
 40
0.0
 40
0.0
 40
0.1141474765
 40
0.2373368178
 40
0.3669776594
 40
0.5000010819
 40
0.633024354
 40
0.7626647561
 40
0.8858534048
 40
1.0
 40
1.0
 40
1.0
 40
1.0
 10
15.8384672678
 20
47.3160150862
 30
0.0
 10
15.8384672678
 20
47.4047436637
 30
0.0
 10
15.8222036607
 20
47.5894000372
 30
0.0
 10
15.7574274833
 20
47.8679701662
 30
0.0
 10
15.6536106682
 20
48.1501331552
 30
0.0
 10
15.5147109957
 20
48.4252863554
 30
0.0
 10
15.3458701338
 20
48.6831525156
 30
0.0
 10
15.1534176449
 20
48.9141402382
 30
0.0
 10
14.9445568196
 20
49.1095207306
 30
0.0
 10
14.7927716226
 20
49.2159316777
 30
0.0
 10
14.7159305791
 20
49.2602948712
 30
0.0
  0
SPLINE
  5
39E
100
AcDbEntity
  8
0
100
AcDbSpline
 62
7
  6
CONTINUOUS
 70
0
 71
3
 72
20
 73
16
 74
0
 42
0.0000001
 43
0.0000001
 44
0.0000000001
 40
0.0
 40
0.0
 40
0.0
 40
0.0
 40
0.0623641411
 40
0.128804205
 40
0.2703039228
 40
0.4173616336
 40
0.5616108901
 40
0.6302487174
 40
0.6953759123
 40
0.7563588722
 40
0.8128293967
 40
0.8647615268
 40
0.9125646103
 40
0.9571664467
 40
1.0
 40
1.0
 40
1.0
 40
1.0
 10
14.7159305791
 20
45.6309416271
 30
0.0
 10
14.6840189459
 20
45.6493654003
 30
0.0
 10
14.6205816104
 20
45.691801692
 30
0.0
 10
14.4981665347
 20
45.7947475789
 30
0.0
 10
14.358828193
 20
45.9533191147
 30
0.0
 10
14.2243478735
 20
46.1720743962
 30
0.0
 10
14.1441536997
 20
46.3703886118
 30
0.0
 10
14.1045737337
 20
46.5300497512
 30
0.0
 10
14.0884009562
 20
46.6442083687
 30
0.0
 10
14.0856611872
 20
46.7523232534
 30
0.0
 10
14.0964217093
 20
46.8521723996
 30
0.0
 10
14.1206210866
 20
46.9416969719
 30
0.0
 10
14.1579736981
 20
47.0190205796
 30
0.0
 10
14.2079732318
 20
47.0822423412
 30
0.0
 10
14.2495190398
 20
47.1140483908
 30
0.0
 10
14.2714418351
 20
47.1266938395
 30
0.0
  0
ENDSEC
  0
SECTION
  2
OBJECTS
  0
DICTIONARY
  5
C
100
AcDbDictionary
280
0
281
1
  3
ACAD_GROUP
350
D
  3
ACAD_MLINESTYLE
350
17
  3
ACAD_LAYOUT
350
1A
  3
ACAD_PLOTSETTINGS
350
19
  3
ACAD_PLOTSTYLENAME
350
E
  0
DICTIONARY
  5
D
102
{ACAD_REACTORS
330
C
102
}
100
AcDbDictionary
280
0
281
1
  0
ACDBDICTIONARYWDFLT
  5
E
102
{ACAD_REACTORS
330
C
102
}
100
AcDbDictionary
281
1
  3
Normal
350
F
100
AcDbDictionaryWithDefault
340
F
  0
DICTIONARY
  5
17
102
{ACAD_REACTORS
330
C
102
}
100
AcDbDictionary
280
0
281
1
  3
Standard
350
18
  0
DICTIONARY
  5
19
102
{ACAD_REACTORS
330
C
102
}
100
AcDbDictionary
281
1
  0
DICTIONARY
  5
1A
102
{ACAD_REACTORS
330
C
102
}
100
AcDbDictionary
281
1
  3
Model
350
39F
  3
Layout1
350
3A0
  0
ACDBPLACEHOLDER
  5
F
102
{ACAD_REACTORS
330
E
102
}
  0
MLINESTYLE
  5
18
102
{ACAD_REACTORS
330
17
102
}
100
AcDbMlineStyle
  2
STANDARD
 70
0
  3

 62
256
 51
90.0
 52
90.0
 71
2
 49
0.5
 62
256
  6
BYLAYER
 49
-0.5
 62
256
  6
BYLAYER
  0
LAYOUT
  5
39F
102
{ACAD_REACTORS
330
1A
102
}
100
AcDbPlotSettings
  1

  2
none_device
  4

  6

 40
0.0
 41
0.0
 42
0.0
 43
0.0
 44
210.0
 45
297.0
 46
0.0
 47
0.0
 48
0.0
 49
0.0
140
0.0
141
0.0
142
1.0
143
1.0
 70
1024
 72
1
 73
0
 74
0
  7

 75
0
147
1.0
148
0.0
149
0.0
100
AcDbLayout
  1
Model
 70
0
 71
0
 10
0.0
 20
0.0
 11
210.0
 21
297.0
 12
0.0
 22
0.0
 32
0.0
 14
0.0
 24
0.0
 34
0.0
 15
0.0
 25
0.0
 35
0.0
146
0.0
 13
0.0
 23
0.0
 33
0.0
 16
1.0
 26
0.0
 36
0.0
 17
0.0
 27
1.0
 37
0.0
 76
0
330
210
345
0
346
0
  0
LAYOUT
  5
3A0
102
{ACAD_REACTORS
330
1A
102
}
100
AcDbPlotSettings
  1

  2
none_device
  4

  6

 40
0.0
 41
0.0
 42
0.0
 43
0.0
 44
210.0
 45
297.0
 46
0.0
 47
0.0
 48
0.0
 49
0.0
140
0.0
141
0.0
142
1.0
143
1.0
 70
0
 72
1
 73
0
 74
0
  7

 75
0
147
1.0
148
0.0
149
0.0
100
AcDbLayout
  1
Layout1
 70
0
 71
1
 10
0.0
 20
0.0
 11
210.0
 21
297.0
 12
0.0
 22
0.0
 32
0.0
 14
0.0
 24
0.0
 34
0.0
 15
0.0
 25
0.0
 35
0.0
146
0.0
 13
0.0
 23
0.0
 33
0.0
 16
1.0
 26
0.0
 36
0.0
 17
0.0
 27
1.0
 37
0.0
 76
0
330
211
345
0
346
0
  0
ENDSEC
  0
EOF
