999
DXF file: C:\Users\sesa63760\Dev\_Creo\CAD\MCADPP0003709_3D-CAD\drw0001_5.dxf
999
Pro/ENGINEER 2019471 by Parametric Technology Corporation
  0
SECTION
  2
HEADER
  9
$ACADVER
  1
AC1024
  9
$DWGCODEPAGE
  3
ANSI_1252
  9
$EXTMAX
 10
127.4286860418
 20
180.2205702591
 30
0.0
  9
$EXTMIN
 10
0.0
 20
0.0
 30
0.0
  9
$LIMMIN
 10
0.0
 20
0.0
  9
$LIMMAX
 10
127.4286860418
 20
180.2205702591
  9
$VIEWCTR
 10
63.7143430209
 20
90.1102851295
  9
$VIEWSIZE
 40
180.2205702591
  9
$CLAYER
  8
0
  9
$LTSCALE
 40
11.7477112465
  9
$CELTYPE
  6
BYLAYER
  9
$DIMSCALE
 40
1.0
  9
$DIMASZ
 40
1.5170081672
  9
$DIMEXO
 40
1.0
  9
$DIMDLI
 40
8.1166004976
  9
$DIMEXE
 40
1.0
  9
$DIMCEN
 40
1.9223527494
  9
$DIMLFAC
 40
1.0
  9
$DIMBLK
  1
_FILLED
  9
$DIMALT
 70
0
  9
$DIMALTF
 40
0.0393700787
  9
$DIMTXT
 40
2.123811434
  9
$DIMTOL
 70
1
  9
$DIMLIM
 70
0
  9
$DIMTFAC
 40
1.0
  9
$DIMTP
 40
0.01
  9
$DIMTM
 40
0.01
  9
$DIMGAP
 40
0.625
  9
$DIMDSEP
 70
46
  9
$AUNITS
 70
0
  9
$PDMODE
 70
3
  9
$PDSIZE
 40
0.3125
  9
$HANDSEED
  5
27F
  9
$TILEMODE
 70
1
  9
$MEASUREMENT
 70
1
  9
$INSUNITS
 70
4
  0
ENDSEC
  0
SECTION
  2
CLASSES
  0
CLASS
  1
ACDBDICTIONARYWDFLT
  2
AcDbDictionaryWithDefault
  3
AutoCAD 2000
 90
0
 91
1
280
0
281
0
  0
CLASS
  1
ACDBPLACEHOLDER
  2
AcDbPlaceHolder
  3
AutoCAD 2000
 90
0
 91
1
280
0
281
0
  0
CLASS
  1
LAYOUT
  2
AcDbLayout
  3
AutoCAD 2000
 90
0
 91
0
280
0
281
0
  0
ENDSEC
  0
SECTION
  2
TABLES
  0
TABLE
  2
VPORT
  5
8
100
AcDbSymbolTable
 70
2
  0
VPORT
  5
1F4
100
AcDbSymbolTableRecord
100
AcDbViewportTableRecord
  2
*ACTIVE
 70
0
 10
0.0
 20
0.0
 11
1.0
 21
1.0
 12
63.7143430209
 22
90.1102851295
 13
0.0
 23
0.0
 14
1.0
 24
1.0
 15
0.0
 25
0.0
 16
0.0
 26
0.0
 36
1.0
 17
0.0
 27
0.0
 37
0.0
 40
180.2205702591
 41
0.7070707071
 42
50.0
 43
0.0
 44
0.0
 50
0.0
 51
0.0
 71
0
 72
100
 73
1
 74
1
 75
0
 76
0
 77
0
 78
0
  0
ENDTAB
  0
TABLE
  2
LTYPE
  5
5
100
AcDbSymbolTable
 70
6
  0
LTYPE
  5
14
100
AcDbSymbolTableRecord
100
AcDbLinetypeTableRecord
  2
BYBLOCK
 70
0
  3

 72
65
 73
0
 40
0.0
  0
LTYPE
  5
15
100
AcDbSymbolTableRecord
100
AcDbLinetypeTableRecord
  2
BYLAYER
 70
0
  3

 72
65
 73
0
 40
0.0
  0
LTYPE
  5
16
100
AcDbSymbolTableRecord
100
AcDbLinetypeTableRecord
  2
CONTINUOUS
 70
64
  3
Solid line
 72
65
 73
0
 40
0.0
  0
LTYPE
  5
1F5
100
AcDbSymbolTableRecord
100
AcDbLinetypeTableRecord
  2
CENTER
 70
64
  3
____ _ ____ _ ____ _ ____ _ ____ _ ____ _ ____
 72
65
 73
4
 40
0.6
 49
0.375
 74
0
 49
-0.075
 74
0
 49
0.075
 74
0
 49
-0.075
 74
0
  0
LTYPE
  5
1F6
100
AcDbSymbolTableRecord
100
AcDbLinetypeTableRecord
  2
HIDDEN
 70
64
  3
- - - - - - - - - - - - - - - - - - - -
 72
65
 73
2
 40
0.2
 49
0.1
 74
0
 49
-0.1
 74
0
  0
LTYPE
  5
1F7
100
AcDbSymbolTableRecord
100
AcDbLinetypeTableRecord
  2
PHANTOM
 70
64
  3
_____ _ _ _____ _ _ _____ _ _ _____
 72
65
 73
6
 40
0.8
 49
0.45
 74
0
 49
-0.05
 74
0
 49
0.1
 74
0
 49
-0.05
 74
0
 49
0.1
 74
0
 49
-0.05
 74
0
  0
LTYPE
  5
1F8
100
AcDbSymbolTableRecord
100
AcDbLinetypeTableRecord
  2
DOT
 70
64
  3
. . . . . . . . . . . . . . . . . . . .
 72
65
 73
2
 40
0.2
 49
0.1
 74
0
 49
-0.1
 74
0
  0
LTYPE
  5
1F9
100
AcDbSymbolTableRecord
100
AcDbLinetypeTableRecord
  2
DASHED
 70
64
  3
- - - - - - - - - - - - - - - - - - - -
 72
65
 73
2
 40
0.2
 49
0.1
 74
0
 49
-0.1
 74
0
  0
ENDTAB
  0
TABLE
  2
LAYER
  5
2
100
AcDbSymbolTable
 70
36
  0
LAYER
  5
10
100
AcDbSymbolTableRecord
100
AcDbLayerTableRecord
  2
0
 70
0
 62
7
  6
CONTINUOUS
370
-3
390
F
  0
LAYER
  5
1FA
100
AcDbSymbolTableRecord
100
AcDbLayerTableRecord
  2
DEFAULT_1
 70
0
 62
7
  6
CENTER
370
-3
390
F
  0
LAYER
  5
1FB
100
AcDbSymbolTableRecord
100
AcDbLayerTableRecord
  2
DEFAULT_2
 70
0
 62
8
  6
HIDDEN
370
-3
390
F
  0
LAYER
  5
1FC
100
AcDbSymbolTableRecord
100
AcDbLayerTableRecord
  2
DEFAULT_3
 70
0
 62
7
  6
PHANTOM
370
-3
390
F
  0
LAYER
  5
1FD
100
AcDbSymbolTableRecord
100
AcDbLayerTableRecord
  2
00_COMPONENTS
 70
0
 62
7
  6
CONTINUOUS
370
-3
390
F
  0
LAYER
  5
1FE
100
AcDbSymbolTableRecord
100
AcDbLayerTableRecord
  2
01_1_DEFAULT_DATUMS
 70
0
 62
7
  6
CONTINUOUS
370
-3
390
F
  0
LAYER
  5
1FF
100
AcDbSymbolTableRecord
100
AcDbLayerTableRecord
  2
01_PLANES
 70
0
 62
7
  6
CONTINUOUS
370
-3
390
F
  0
LAYER
  5
200
100
AcDbSymbolTableRecord
100
AcDbLayerTableRecord
  2
02_COORD_SYS
 70
0
 62
7
  6
CONTINUOUS
370
-3
390
F
  0
LAYER
  5
201
100
AcDbSymbolTableRecord
100
AcDbLayerTableRecord
  2
03_AXES
 70
0
 62
7
  6
CONTINUOUS
370
-3
390
F
  0
LAYER
  5
202
100
AcDbSymbolTableRecord
100
AcDbLayerTableRecord
  2
04_POINTS
 70
0
 62
7
  6
CONTINUOUS
370
-3
390
F
  0
LAYER
  5
203
100
AcDbSymbolTableRecord
100
AcDbLayerTableRecord
  2
05_CURVES
 70
0
 62
7
  6
CONTINUOUS
370
-3
390
F
  0
LAYER
  5
204
100
AcDbSymbolTableRecord
100
AcDbLayerTableRecord
  2
06_SURFS
 70
0
 62
7
  6
CONTINUOUS
370
-3
390
F
  0
LAYER
  5
205
100
AcDbSymbolTableRecord
100
AcDbLayerTableRecord
  2
07_COSMETICS
 70
0
 62
7
  6
CONTINUOUS
370
-3
390
F
  0
LAYER
  5
206
100
AcDbSymbolTableRecord
100
AcDbLayerTableRecord
  2
10_NOTES
 70
0
 62
7
  6
CONTINUOUS
370
-3
390
F
  0
LAYER
  5
207
100
AcDbSymbolTableRecord
100
AcDbLayerTableRecord
  2
11_NOTES_PUB
 70
0
 62
7
  6
CONTINUOUS
370
-3
390
F
  0
LAYER
  5
208
100
AcDbSymbolTableRecord
100
AcDbLayerTableRecord
  2
13_REF_GTOL
 70
0
 62
7
  6
CONTINUOUS
370
-3
390
F
  0
LAYER
  5
209
100
AcDbSymbolTableRecord
100
AcDbLayerTableRecord
  2
16_MISC
 70
0
 62
7
  6
CONTINUOUS
370
-3
390
F
  0
LAYER
  5
20A
100
AcDbSymbolTableRecord
100
AcDbLayerTableRecord
  2
17_NO_PRINT
 70
0
 62
7
  6
CONTINUOUS
370
-3
390
F
  0
LAYER
  5
20B
100
AcDbSymbolTableRecord
100
AcDbLayerTableRecord
  2
18_DATUM_CAMS_JOINTS
 70
0
 62
7
  6
CONTINUOUS
370
-3
390
F
  0
LAYER
  5
20C
100
AcDbSymbolTableRecord
100
AcDbLayerTableRecord
  2
19_DATUM_FUNCTIONAL
 70
0
 62
7
  6
CONTINUOUS
370
-3
390
F
  0
LAYER
  5
20D
100
AcDbSymbolTableRecord
100
AcDbLayerTableRecord
  2
20_DATUM_KINEMATIC_SCHEME
 70
0
 62
7
  6
CONTINUOUS
370
-3
390
F
  0
ENDTAB
  0
TABLE
  2
STYLE
  5
3
100
AcDbSymbolTable
 70
1
  0
STYLE
  5
11
100
AcDbSymbolTableRecord
100
AcDbTextStyleTableRecord
  2
STANDARD
 70
0
 40
0.0
 41
0.8
 50
0.0
 71
0
 42
0.2
  3
txt
  4

  0
STYLE
  5
20E
100
AcDbSymbolTableRecord
100
AcDbTextStyleTableRecord
  2
TEXTSTYLE_1
 70
0
 40
0.0
 41
0.8
 50
0.0
 71
0
 42
0.2
  3
gdt
  4

  0
ENDTAB
  0
TABLE
  2
VIEW
  5
6
100
AcDbSymbolTable
 70
0
  0
ENDTAB
  0
TABLE
  2
UCS
  5
7
100
AcDbSymbolTable
 70
0
  0
ENDTAB
  0
TABLE
  2
APPID
  5
9
100
AcDbSymbolTable
 70
1
  0
APPID
  5
20F
100
AcDbSymbolTableRecord
100
AcDbRegAppTableRecord
  2
ACAD
 70
0
  0
ENDTAB
  0
TABLE
  2
BLOCK_RECORD
  5
1
100
AcDbSymbolTable
 70
0
  0
BLOCK_RECORD
  5
210
100
AcDbSymbolTableRecord
100
AcDbBlockTableRecord
  2
*Model_Space
  0
BLOCK_RECORD
  5
211
100
AcDbSymbolTableRecord
100
AcDbBlockTableRecord
  2
*Paper_Space
  0
BLOCK_RECORD
  5
212
100
AcDbSymbolTableRecord
100
AcDbBlockTableRecord
  2
_FILLED
  0
ENDTAB
  0
TABLE
  2
DIMSTYLE
  5
A
100
AcDbSymbolTable
 70
1
100
AcDbDimStyleTable
 71
0
  0
DIMSTYLE
105
213
100
AcDbSymbolTableRecord
100
AcDbDimStyleTableRecord
  2
STANDARD
 70
0
  3

  4

 40
1.0
 41
1.5170081672
 42
1.0
 43
0.38
 44
1.0
 45
0.0
 46
0.0
 47
0.01
 48
0.01
140
2.123811434
141
0.09
142
0.0
143
25.4
144
1.0
145
0.0
146
1.0
147
0.625
 71
1
 72
0
 73
0
 74
0
 75
0
 76
0
 77
1
 78
8
 79
2
170
0
171
1
172
0
173
0
174
0
175
0
176
0
177
0
178
0
270
2
179
2
271
2
272
2
273
2
274
2
275
0
280
0
281
0
282
0
283
1
284
8
285
0
286
0
287
3
288
0
340
11
278
46
341
212
342
212
343
212
344
212
  0
ENDTAB
  0
ENDSEC
  0
SECTION
  2
BLOCKS
  0
BLOCK
  5
20
100
AcDbEntity
  8
0
100
AcDbBlockBegin
  2
*Model_Space
 70
0
 10
0.0
 20
0.0
 30
0.0
  3
*Model_Space
  1

  0
ENDBLK
  5
21
100
AcDbEntity
  8
0
100
AcDbBlockEnd
  0
BLOCK
  5
1C
100
AcDbEntity
  8
0
100
AcDbBlockBegin
  2
*Paper_Space
 70
0
 10
0.0
 20
0.0
 30
0.0
  3
*Paper_Space
  1

  0
ENDBLK
  5
1D
100
AcDbEntity
  8
0
100
AcDbBlockEnd
  0
BLOCK
  5
214
100
AcDbEntity
  8
0
100
AcDbBlockBegin
  2
_FILLED
 70
64
 10
0.0
 20
0.0
  3
_FILLED
  1

  0
SOLID
  5
215
100
AcDbEntity
  8
0
  6
BYBLOCK
 62
0
100
AcDbTrace
 10
0.0
 20
0.0
 11
-1.0
 21
0.25
 12
-1.0
 22
-0.25
 13
-1.0
 23
-0.25
  0
ENDBLK
  5
216
100
AcDbEntity
  8
0
  6
BYBLOCK
 62
0
100
AcDbBlockEnd
  0
ENDSEC
  0
SECTION
  2
ENTITIES
  0
LINE
  5
217
100
AcDbEntity
  8
0
100
AcDbLine
 62
7
  6
CONTINUOUS
 10
14.8540537768
 20
125.995232433
 11
15.3540488648
 21
128.8308454855
  0
LINE
  5
218
100
AcDbEntity
  8
0
100
AcDbLine
 62
7
  6
CONTINUOUS
 10
14.8540537768
 20
51.8308971849
 11
14.8540537768
 21
71.3801469591
  0
LINE
  5
219
100
AcDbEntity
  8
0
100
AcDbLine
 62
7
  6
CONTINUOUS
 10
14.8540537768
 20
107.3308733428
 11
14.8540537768
 21
125.995232433
  0
LINE
  5
21A
100
AcDbEntity
  8
0
100
AcDbLine
 62
7
  6
CONTINUOUS
 10
19.0540537768
 20
73.4308733428
 11
19.0540537768
 21
72.8308733428
  0
LINE
  5
21B
100
AcDbEntity
  8
0
100
AcDbLine
 62
7
  6
CONTINUOUS
 10
19.2540537768
 20
110.0308733428
 11
19.2540537768
 21
106.1308733428
  0
LINE
  5
21C
100
AcDbEntity
  8
0
100
AcDbLine
 62
7
  6
CONTINUOUS
 10
20.3540537768
 20
72.8308733428
 11
20.3540537768
 21
106.1308733428
  0
LINE
  5
21D
100
AcDbEntity
  8
0
100
AcDbLine
 62
7
  6
CONTINUOUS
 10
21.8540537768
 20
51.8308971849
 11
21.8540537768
 21
60.0308733428
  0
LINE
  5
21E
100
AcDbEntity
  8
0
100
AcDbLine
 62
7
  6
CONTINUOUS
 10
21.8540537768
 20
120.6308733428
 11
21.8540537768
 21
128.8308495001
  0
LINE
  5
21F
100
AcDbEntity
  8
0
100
AcDbLine
 62
7
  6
CONTINUOUS
 10
21.0540537768
 20
110.0308733428
 11
20.3540537768
 21
106.1308733428
  0
LINE
  5
220
100
AcDbEntity
  8
0
100
AcDbLine
 62
7
  6
CONTINUOUS
 10
19.0540537768
 20
73.4308733428
 11
18.6540537768
 21
73.8308733428
  0
LINE
  5
221
100
AcDbEntity
  8
0
100
AcDbLine
 62
7
  6
CONTINUOUS
 10
94.0040537768
 20
47.9308733428
 11
67.2912703651
 21
47.9308733428
  0
LINE
  5
222
100
AcDbEntity
  8
0
100
AcDbLine
 62
7
  6
CONTINUOUS
 10
60.1040537768
 20
48.8125082464
 11
62.9500659233
 21
48.3106795176
  0
LINE
  5
223
100
AcDbEntity
  8
0
100
AcDbLine
 62
7
  6
CONTINUOUS
 10
14.8540537768
 20
51.8308733424
 11
21.8540537768
 21
51.8308733424
  0
LINE
  5
224
100
AcDbEntity
  8
0
100
AcDbLine
 62
7
  6
CONTINUOUS
 10
14.8540537768
 20
52.5606252341
 11
21.8540537768
 21
52.5606252341
  0
LINE
  5
225
100
AcDbEntity
  8
0
100
AcDbLine
 62
7
  6
CONTINUOUS
 10
21.8540537768
 20
54.4146748557
 11
14.8540537768
 21
54.4146748557
  0
LINE
  5
226
100
AcDbEntity
  8
0
100
AcDbLine
 62
7
  6
CONTINUOUS
 10
60.0540537768
 20
54.4308733428
 11
52.8540537768
 21
54.4308733428
  0
LINE
  5
227
100
AcDbEntity
  8
0
100
AcDbLine
 62
7
  6
CONTINUOUS
 10
95.8839775084
 20
64.530922564
 11
92.2985805034
 21
63.5565390329
  0
LINE
  5
228
100
AcDbEntity
  8
0
100
AcDbLine
 62
7
  6
CONTINUOUS
 10
52.8540537768
 20
57.3308733428
 11
21.8540537768
 21
57.3308733428
  0
LINE
  5
229
100
AcDbEntity
  8
0
100
AcDbLine
 62
7
  6
CONTINUOUS
 10
21.8540537768
 20
60.0308733428
 11
52.8540537768
 21
60.0308733428
  0
LINE
  5
22A
100
AcDbEntity
  8
0
100
AcDbLine
 62
7
  6
CONTINUOUS
 10
92.2040537772
 20
64.5046753455
 11
95.8840537775
 21
65.0308733429
  0
LINE
  5
22B
100
AcDbEntity
  8
0
100
AcDbLine
 62
7
  6
CONTINUOUS
 10
60.1040537768
 20
60.1308733428
 11
65.4040537768
 21
60.1308733428
  0
LINE
  5
22C
100
AcDbEntity
  8
0
100
AcDbLine
 62
7
  6
CONTINUOUS
 10
65.4040537768
 20
60.5308733428
 11
60.0540537768
 21
60.5308733428
  0
LINE
  5
22D
100
AcDbEntity
  8
0
100
AcDbLine
 62
7
  6
CONTINUOUS
 10
92.2040537768
 20
64.5308733428
 11
92.0040537768
 21
64.5308733428
  0
LINE
  5
22E
100
AcDbEntity
  8
0
100
AcDbLine
 62
7
  6
CONTINUOUS
 10
95.8839885721
 20
64.5308733428
 11
108.4540489311
 21
64.5308733428
  0
LINE
  5
22F
100
AcDbEntity
  8
0
100
AcDbLine
 62
7
  6
CONTINUOUS
 10
106.6540537768
 20
65.0308733429
 11
95.8840537775
 21
65.0308733429
  0
LINE
  5
230
100
AcDbEntity
  8
0
100
AcDbLine
 62
7
  6
CONTINUOUS
 10
14.8540537768
 20
107.3308733428
 11
16.0540537768
 21
106.1308733428
  0
LINE
  5
231
100
AcDbEntity
  8
0
100
AcDbLine
 62
7
  6
CONTINUOUS
 10
19.0540537768
 20
72.8308733428
 11
20.3540537768
 21
72.8308733428
  0
LINE
  5
232
100
AcDbEntity
  8
0
100
AcDbLine
 62
7
  6
CONTINUOUS
 10
52.8540537768
 20
126.2308733428
 11
52.8540537768
 21
120.6308733428
  0
LINE
  5
233
100
AcDbEntity
  8
0
100
AcDbLine
 62
7
  6
CONTINUOUS
 10
52.8540537768
 20
60.0308733428
 11
52.8540537768
 21
54.4308733428
  0
LINE
  5
234
100
AcDbEntity
  8
0
100
AcDbLine
 62
7
  6
CONTINUOUS
 10
18.3540537768
 20
73.8308733428
 11
14.8540537768
 21
71.3801469591
  0
LINE
  5
235
100
AcDbEntity
  8
0
100
AcDbLine
 62
7
  6
CONTINUOUS
 10
18.3540537768
 20
73.8308733428
 11
18.6540537768
 21
73.8308733428
  0
LINE
  5
236
100
AcDbEntity
  8
0
100
AcDbLine
 62
7
  6
CONTINUOUS
 10
106.6540537768
 20
75.6308733429
 11
116.1040466641
 21
75.6308733428
  0
LINE
  5
237
100
AcDbEntity
  8
0
100
AcDbLine
 62
7
  6
CONTINUOUS
 10
60.0540537768
 20
126.2308733428
 11
60.0540537768
 21
120.1308733428
  0
LINE
  5
238
100
AcDbEntity
  8
0
100
AcDbLine
 62
7
  6
CONTINUOUS
 10
60.0540537768
 20
60.5308733428
 11
60.0540537768
 21
54.4308733428
  0
LINE
  5
239
100
AcDbEntity
  8
0
100
AcDbLine
 62
7
  6
CONTINUOUS
 10
60.1040537768
 20
48.8125082464
 11
60.1040537768
 21
60.1308733428
  0
LINE
  5
23A
100
AcDbEntity
  8
0
100
AcDbLine
 62
7
  6
CONTINUOUS
 10
60.1040537768
 20
120.5308733428
 11
60.1040537768
 21
131.8492384393
  0
LINE
  5
23B
100
AcDbEntity
  8
0
100
AcDbLine
 62
7
  6
CONTINUOUS
 10
65.4040537768
 20
60.1308733428
 11
65.4040537768
 21
60.5308733428
  0
LINE
  5
23C
100
AcDbEntity
  8
0
100
AcDbLine
 62
7
  6
CONTINUOUS
 10
65.4040537768
 20
120.1308733428
 11
65.4040537768
 21
120.5308733428
  0
LINE
  5
23D
100
AcDbEntity
  8
0
100
AcDbLine
 62
7
  6
CONTINUOUS
 10
19.2540537768
 20
106.1308733428
 11
16.0540537768
 21
106.1308733428
  0
LINE
  5
23E
100
AcDbEntity
  8
0
100
AcDbLine
 62
7
  6
CONTINUOUS
 10
116.1040537135
 20
104.9370975249
 11
106.6540537768
 21
105.1845544821
  0
LINE
  5
23F
100
AcDbEntity
  8
0
100
AcDbLine
 62
7
  6
CONTINUOUS
 10
21.0540537768
 20
110.0308733428
 11
19.2540537768
 21
110.0308733428
  0
LINE
  5
240
100
AcDbEntity
  8
0
100
AcDbLine
 62
7
  6
CONTINUOUS
 10
92.0040537768
 20
132.7308733428
 11
92.0040537768
 21
116.1308733428
  0
LINE
  5
241
100
AcDbEntity
  8
0
100
AcDbLine
 62
7
  6
CONTINUOUS
 10
92.0040537768
 20
64.5308733428
 11
92.0040537768
 21
47.9308733428
  0
LINE
  5
242
100
AcDbEntity
  8
0
100
AcDbLine
 62
7
  6
CONTINUOUS
 10
92.2040537768
 20
63.7834577975
 11
92.2040537768
 21
64.5308733428
  0
LINE
  5
243
100
AcDbEntity
  8
0
100
AcDbLine
 62
7
  6
CONTINUOUS
 10
92.2040537768
 20
116.1308733428
 11
92.2040537768
 21
116.8782738604
  0
LINE
  5
244
100
AcDbEntity
  8
0
100
AcDbLine
 62
7
  6
CONTINUOUS
 10
95.8840536268
 20
115.6308733643
 11
106.6540537768
 21
115.6308733428
  0
LINE
  5
245
100
AcDbEntity
  8
0
100
AcDbLine
 62
7
  6
CONTINUOUS
 10
92.2040537768
 20
116.1308733428
 11
92.0040537768
 21
116.1308733428
  0
LINE
  5
246
100
AcDbEntity
  8
0
100
AcDbLine
 62
7
  6
CONTINUOUS
 10
95.8839250713
 20
116.1308733428
 11
108.4540489272
 21
116.1308733428
  0
LINE
  5
247
100
AcDbEntity
  8
0
100
AcDbLine
 62
7
  6
CONTINUOUS
 10
95.8840536268
 20
115.6308733536
 11
95.8839250425
 21
116.1307830999
  0
LINE
  5
248
100
AcDbEntity
  8
0
100
AcDbLine
 62
7
  6
CONTINUOUS
 10
94.0040537768
 20
64.0200245579
 11
94.0040537768
 21
47.9308733428
  0
LINE
  5
249
100
AcDbEntity
  8
0
100
AcDbLine
 62
7
  6
CONTINUOUS
 10
94.0040537768
 20
116.6416988117
 11
94.0040537768
 21
132.7308733428
  0
LINE
  5
24A
100
AcDbEntity
  8
0
100
AcDbLine
 62
7
  6
CONTINUOUS
 10
95.8839885722
 20
64.5308733429
 11
95.8840537775
 21
65.0308733429
  0
LINE
  5
24B
100
AcDbEntity
  8
0
100
AcDbLine
 62
7
  6
CONTINUOUS
 10
60.0540537768
 20
120.1308733428
 11
65.4040537768
 21
120.1308733428
  0
LINE
  5
24C
100
AcDbEntity
  8
0
100
AcDbLine
 62
7
  6
CONTINUOUS
 10
65.4040537768
 20
120.5308733428
 11
60.1040537768
 21
120.5308733428
  0
LINE
  5
24D
100
AcDbEntity
  8
0
100
AcDbLine
 62
7
  6
CONTINUOUS
 10
21.8540537768
 20
120.6308733428
 11
52.8540537768
 21
120.6308733428
  0
LINE
  5
24E
100
AcDbEntity
  8
0
100
AcDbLine
 62
7
  6
CONTINUOUS
 10
95.8840536268
 20
115.6308733643
 11
92.2040537768
 21
116.1570713494
  0
LINE
  5
24F
100
AcDbEntity
  8
0
100
AcDbLine
 62
7
  6
CONTINUOUS
 10
52.8540537768
 20
123.3308733428
 11
21.8540537768
 21
123.3308733428
  0
LINE
  5
250
100
AcDbEntity
  8
0
100
AcDbLine
 62
7
  6
CONTINUOUS
 10
14.8540537768
 20
124.1308733429
 11
21.8540537768
 21
124.1308733429
  0
LINE
  5
251
100
AcDbEntity
  8
0
100
AcDbLine
 62
7
  6
CONTINUOUS
 10
92.2985752842
 20
117.1051857551
 11
95.8839218537
 21
116.1308159305
  0
LINE
  5
252
100
AcDbEntity
  8
0
100
AcDbLine
 62
7
  6
CONTINUOUS
 10
52.8540537768
 20
126.2308733428
 11
60.0540537768
 21
126.2308733428
  0
LINE
  5
253
100
AcDbEntity
  8
0
100
AcDbLine
 62
7
  6
CONTINUOUS
 10
15.0895633058
 20
127.330873343
 11
21.8540537768
 21
127.330873343
  0
LINE
  5
254
100
AcDbEntity
  8
0
100
AcDbLine
 62
7
  6
CONTINUOUS
 10
15.1475873281
 20
127.6599439254
 11
21.8540537768
 21
127.6599439254
  0
LINE
  5
255
100
AcDbEntity
  8
0
100
AcDbLine
 62
7
  6
CONTINUOUS
 10
15.3163900092
 20
128.6172115711
 11
21.8540537768
 21
128.6172115711
  0
LINE
  5
256
100
AcDbEntity
  8
0
100
AcDbLine
 62
7
  6
CONTINUOUS
 10
15.3540537768
 20
128.8308733426
 11
21.8540537768
 21
128.8308733426
  0
LINE
  5
257
100
AcDbEntity
  8
0
100
AcDbLine
 62
7
  6
CONTINUOUS
 10
106.6540537768
 20
115.6308733428
 11
106.6540537768
 21
105.1845544821
  0
LINE
  5
258
100
AcDbEntity
  8
0
100
AcDbLine
 62
7
  6
CONTINUOUS
 10
106.6540537768
 20
75.6308733429
 11
106.6540537768
 21
65.0308733429
  0
LINE
  5
259
100
AcDbEntity
  8
0
100
AcDbLine
 62
7
  6
CONTINUOUS
 10
108.4540537768
 20
116.1308733428
 11
108.4540537768
 21
105.1374199622
  0
LINE
  5
25A
100
AcDbEntity
  8
0
100
AcDbLine
 62
7
  6
CONTINUOUS
 10
108.4540537768
 20
64.5308733428
 11
108.4540537768
 21
75.6308733428
  0
LINE
  5
25B
100
AcDbEntity
  8
0
100
AcDbLine
 62
7
  6
CONTINUOUS
 10
62.9500659233
 20
132.3510671681
 11
60.1040537768
 21
131.8492384393
  0
LINE
  5
25C
100
AcDbEntity
  8
0
100
AcDbLine
 62
7
  6
CONTINUOUS
 10
67.291270365
 20
132.7308733428
 11
94.0040537768
 21
132.7308733428
  0
LINE
  5
25D
100
AcDbEntity
  8
0
100
AcDbLine
 62
7
  6
CONTINUOUS
 10
114.1151809693
 20
104.9891779906
 11
114.1151809693
 21
75.6308733428
  0
LINE
  5
25E
100
AcDbEntity
  8
0
100
AcDbLine
 62
7
  6
CONTINUOUS
 10
116.1040537768
 20
75.6308733428
 11
116.1040537768
 21
104.9370975232
  0
ARC
  5
25F
100
AcDbEntity
  8
0
100
AcDbCircle
 62
7
  6
CONTINUOUS
 10
67.291270365
 20
72.9308733428
 40
25.0
100
AcDbArc
 50
259.9999999999
 51
270.0000000013
  0
ARC
  5
260
100
AcDbEntity
  8
0
100
AcDbCircle
 62
7
  6
CONTINUOUS
 10
67.291270365
 20
107.7308733428
 40
25.0
100
AcDbArc
 50
90.0
 51
100.0
  0
SPLINE
  5
261
100
AcDbEntity
  8
0
100
AcDbSpline
 62
7
  6
CONTINUOUS
 70
0
 71
3
 72
20
 73
16
 74
0
 42
0.0000001
 43
0.0000001
 44
0.0000000001
 40
0.0
 40
0.0
 40
0.0
 40
0.0
 40
0.1943294921
 40
0.3813323407
 40
0.5535601962
 40
0.7046121828
 40
0.7703314317
 40
0.828676542
 40
0.879086478
 40
0.9210814367
 40
0.9543082496
 40
0.978457992
 40
0.9934374754
 40
0.9976134858
 40
1.0
 40
1.0
 40
1.0
 40
1.0
 10
93.7213805557
 20
124.7308733428
 30
0.0
 10
93.7213805557
 20
124.9390452812
 30
0.0
 10
93.7240461828
 20
125.3475456813
 30
0.0
 10
93.7357146974
 20
125.9404398424
 30
0.0
 10
93.7541044821
 20
126.4867796872
 30
0.0
 10
93.7745221864
 20
126.9030099963
 30
0.0
 10
93.793398756
 20
127.1971256512
 30
0.0
 10
93.807508822
 20
127.3834940238
 30
0.0
 10
93.8219746477
 20
127.5443568781
 30
0.0
 10
93.8364996958
 20
127.6781131918
 30
0.0
 10
93.8508590405
 20
127.783737929
 30
0.0
 10
93.8644327419
 20
127.8597832817
 30
0.0
 10
93.8765513106
 20
127.9052192047
 30
0.0
 10
93.886280838
 20
127.9257632467
 30
0.0
 10
93.8924558637
 20
127.9308715213
 30
0.0
 10
93.8950123737
 20
127.9308714856
 30
0.0
  0
SPLINE
  5
262
100
AcDbEntity
  8
0
100
AcDbSpline
 62
7
  6
CONTINUOUS
 70
0
 71
3
 72
17
 73
13
 74
0
 42
0.0000001
 43
0.0000001
 44
0.0000000001
 40
0.0
 40
0.0
 40
0.0
 40
0.0
 40
0.375229425
 40
0.5447062665
 40
0.6935168927
 40
0.758437785
 40
0.8162855887
 40
0.8665834009
 40
0.9089621785
 40
0.943229487
 40
0.9693692363
 40
1.0
 40
1.0
 40
1.0
 40
1.0
 10
92.5759376119
 20
124.7308733428
 30
0.0
 10
92.5759376119
 20
125.1408715391
 30
0.0
 10
92.5925502281
 20
125.7363376527
 30
0.0
 10
92.6515252364
 20
126.4919272529
 30
0.0
 10
92.7000564025
 20
126.907973527
 30
0.0
 10
92.7460777356
 20
127.2011883231
 30
0.0
 10
92.7811153224
 20
127.386992183
 30
0.0
 10
92.817967321
 20
127.5475308916
 30
0.0
 10
92.8555244211
 20
127.6805610448
 30
0.0
 10
92.8949839677
 20
127.7875238996
 30
0.0
 10
92.9367825431
 20
127.8730446597
 30
0.0
 10
92.9858002807
 20
127.9308718322
 30
0.0
 10
93.0192692921
 20
127.9308714649
 30
0.0
  0
SPLINE
  5
263
100
AcDbEntity
  8
0
100
AcDbSpline
 62
7
  6
CONTINUOUS
 70
0
 71
3
 72
17
 73
13
 74
0
 42
0.0000001
 43
0.0000001
 44
0.0000000001
 40
0.0
 40
0.0
 40
0.0
 40
0.0
 40
0.0306327749
 40
0.0567738645
 40
0.0910435865
 40
0.1334247556
 40
0.1837240903
 40
0.2415741365
 40
0.306495979
 40
0.4553069408
 40
0.6247813103
 40
1.0
 40
1.0
 40
1.0
 40
1.0
 10
93.0192692908
 20
121.5308752275
 30
0.0
 10
92.9857980891
 20
121.5308762762
 30
0.0
 10
92.9367797629
 20
121.5887080825
 30
0.0
 10
92.8949784213
 20
121.6742342821
 30
0.0
 10
92.8555188141
 20
121.781204396
 30
0.0
 10
92.817961004
 20
121.914241416
 30
0.0
 10
92.7811081267
 20
122.0747868197
 30
0.0
 10
92.7460718633
 20
122.2605961273
 30
0.0
 10
92.7000505022
 20
122.5538147429
 30
0.0
 10
92.651521961
 20
122.9698599449
 30
0.0
 10
92.5925489044
 20
123.7254353898
 30
0.0
 10
92.5759376119
 20
124.3208869633
 30
0.0
 10
92.5759376119
 20
124.7308733428
 30
0.0
  0
SPLINE
  5
264
100
AcDbEntity
  8
0
100
AcDbSpline
 62
7
  6
CONTINUOUS
 70
0
 71
3
 72
20
 73
16
 74
0
 42
0.0000001
 43
0.0000001
 44
0.0000000001
 40
0.0
 40
0.0
 40
0.0
 40
0.0
 40
0.0023864793
 40
0.0065625414
 40
0.021542232
 40
0.0456920056
 40
0.0789191947
 40
0.1209143339
 40
0.1713236678
 40
0.22966805
 40
0.2953865202
 40
0.4464371531
 40
0.6186655108
 40
0.8056698211
 40
1.0
 40
1.0
 40
1.0
 40
1.0
 10
93.8950123735
 20
121.530875204
 30
0.0
 10
93.8924559009
 20
121.5308750086
 30
0.0
 10
93.8862807397
 20
121.5359833775
 30
0.0
 10
93.8765514212
 20
121.5565276562
 30
0.0
 10
93.8644326582
 20
121.6019639169
 30
0.0
 10
93.8508588549
 20
121.6780098913
 30
0.0
 10
93.8364995525
 20
121.783635285
 30
0.0
 10
93.8219745066
 20
121.9173915448
 30
0.0
 10
93.8075087201
 20
122.0782531694
 30
0.0
 10
93.7933988932
 20
122.2646192959
 30
0.0
 10
93.7745225403
 20
122.5587318962
 30
0.0
 10
93.7541046721
 20
122.9749604525
 30
0.0
 10
93.7357149037
 20
123.5213009583
 30
0.0
 10
93.724046212
 20
124.1141979609
 30
0.0
 10
93.7213805557
 20
124.5227006668
 30
0.0
 10
93.7213805557
 20
124.7308733428
 30
0.0
  0
SPLINE
  5
265
100
AcDbEntity
  8
0
100
AcDbSpline
 62
7
  6
CONTINUOUS
 70
0
 71
3
 72
20
 73
16
 74
0
 42
0.0000001
 43
0.0000001
 44
0.0000000001
 40
0.0
 40
0.0
 40
0.0
 40
0.0
 40
0.0023864793
 40
0.0065625414
 40
0.021542232
 40
0.0456920056
 40
0.0789191947
 40
0.1209143339
 40
0.1713236678
 40
0.22966805
 40
0.2953865202
 40
0.4464371531
 40
0.6186655108
 40
0.8056698211
 40
1.0
 40
1.0
 40
1.0
 40
1.0
 10
93.8950123735
 20
52.730875204
 30
0.0
 10
93.8924559009
 20
52.7308750086
 30
0.0
 10
93.8862807397
 20
52.7359833775
 30
0.0
 10
93.8765514212
 20
52.7565276562
 30
0.0
 10
93.8644326582
 20
52.8019639169
 30
0.0
 10
93.8508588549
 20
52.8780098913
 30
0.0
 10
93.8364995525
 20
52.983635285
 30
0.0
 10
93.8219745066
 20
53.1173915448
 30
0.0
 10
93.8075087201
 20
53.2782531694
 30
0.0
 10
93.7933988932
 20
53.4646192959
 30
0.0
 10
93.7745225403
 20
53.7587318962
 30
0.0
 10
93.7541046721
 20
54.1749604525
 30
0.0
 10
93.7357149037
 20
54.7213009583
 30
0.0
 10
93.724046212
 20
55.3141979609
 30
0.0
 10
93.7213805557
 20
55.7227006668
 30
0.0
 10
93.7213805557
 20
55.9308733428
 30
0.0
  0
SPLINE
  5
266
100
AcDbEntity
  8
0
100
AcDbSpline
 62
7
  6
CONTINUOUS
 70
0
 71
3
 72
17
 73
13
 74
0
 42
0.0000001
 43
0.0000001
 44
0.0000000001
 40
0.0
 40
0.0
 40
0.0
 40
0.0
 40
0.0306327749
 40
0.0567738645
 40
0.0910435865
 40
0.1334247556
 40
0.1837240903
 40
0.2415741365
 40
0.306495979
 40
0.4553069408
 40
0.6247813103
 40
1.0
 40
1.0
 40
1.0
 40
1.0
 10
93.0192692908
 20
52.7308752275
 30
0.0
 10
92.9857980891
 20
52.7308762762
 30
0.0
 10
92.9367797629
 20
52.7887080825
 30
0.0
 10
92.8949784213
 20
52.8742342821
 30
0.0
 10
92.8555188141
 20
52.981204396
 30
0.0
 10
92.817961004
 20
53.114241416
 30
0.0
 10
92.7811081267
 20
53.2747868197
 30
0.0
 10
92.7460718633
 20
53.4605961273
 30
0.0
 10
92.7000505021
 20
53.7538147429
 30
0.0
 10
92.651521961
 20
54.1698599449
 30
0.0
 10
92.5925489044
 20
54.9254353898
 30
0.0
 10
92.5759376119
 20
55.5208869633
 30
0.0
 10
92.5759376119
 20
55.9308733428
 30
0.0
  0
SPLINE
  5
267
100
AcDbEntity
  8
0
100
AcDbSpline
 62
7
  6
CONTINUOUS
 70
0
 71
3
 72
17
 73
13
 74
0
 42
0.0000001
 43
0.0000001
 44
0.0000000001
 40
0.0
 40
0.0
 40
0.0
 40
0.0
 40
0.375229425
 40
0.5447062665
 40
0.6935168927
 40
0.758437785
 40
0.8162855887
 40
0.8665834009
 40
0.9089621785
 40
0.943229487
 40
0.9693692363
 40
1.0
 40
1.0
 40
1.0
 40
1.0
 10
92.5759376119
 20
55.9308733428
 30
0.0
 10
92.5759376119
 20
56.3408715391
 30
0.0
 10
92.5925502281
 20
56.9363376527
 30
0.0
 10
92.6515252364
 20
57.6919272529
 30
0.0
 10
92.7000564025
 20
58.107973527
 30
0.0
 10
92.7460777356
 20
58.4011883231
 30
0.0
 10
92.7811153224
 20
58.586992183
 30
0.0
 10
92.817967321
 20
58.7475308916
 30
0.0
 10
92.8555244211
 20
58.8805610448
 30
0.0
 10
92.8949839677
 20
58.9875238996
 30
0.0
 10
92.9367825431
 20
59.0730446597
 30
0.0
 10
92.9858002807
 20
59.1308718322
 30
0.0
 10
93.0192692921
 20
59.1308714649
 30
0.0
  0
SPLINE
  5
268
100
AcDbEntity
  8
0
100
AcDbSpline
 62
7
  6
CONTINUOUS
 70
0
 71
3
 72
20
 73
16
 74
0
 42
0.0000001
 43
0.0000001
 44
0.0000000001
 40
0.0
 40
0.0
 40
0.0
 40
0.0
 40
0.1943294921
 40
0.3813323407
 40
0.5535601962
 40
0.7046121828
 40
0.7703314317
 40
0.828676542
 40
0.879086478
 40
0.9210814367
 40
0.9543082496
 40
0.978457992
 40
0.9934374754
 40
0.9976134858
 40
1.0
 40
1.0
 40
1.0
 40
1.0
 10
93.7213805557
 20
55.9308733428
 30
0.0
 10
93.7213805557
 20
56.1390452812
 30
0.0
 10
93.7240461828
 20
56.5475456813
 30
0.0
 10
93.7357146974
 20
57.1404398424
 30
0.0
 10
93.7541044821
 20
57.6867796872
 30
0.0
 10
93.7745221864
 20
58.1030099963
 30
0.0
 10
93.793398756
 20
58.3971256512
 30
0.0
 10
93.807508822
 20
58.5834940238
 30
0.0
 10
93.8219746477
 20
58.7443568781
 30
0.0
 10
93.8364996958
 20
58.8781131918
 30
0.0
 10
93.8508590405
 20
58.983737929
 30
0.0
 10
93.8644327419
 20
59.0597832817
 30
0.0
 10
93.8765513106
 20
59.1052192047
 30
0.0
 10
93.886280838
 20
59.1257632467
 30
0.0
 10
93.8924558637
 20
59.1308715213
 30
0.0
 10
93.8950123737
 20
59.1308714856
 30
0.0
  0
SPLINE
  5
269
100
AcDbEntity
  8
0
100
AcDbSpline
 62
7
  6
CONTINUOUS
 70
0
 71
3
 72
21
 73
17
 74
0
 42
0.0000001
 43
0.0000001
 44
0.0000000001
 40
0.0
 40
0.0
 40
0.0
 40
0.0
 40
0.0022297718
 40
0.0063161593
 40
0.0211988091
 40
0.0452960921
 40
0.0784973785
 40
0.1204848375
 40
0.1708999874
 40
0.2292630971
 40
0.2950093272
 40
0.3675425185
 40
0.4461396164
 40
0.618463829
 40
0.8055661903
 40
1.0
 40
1.0
 40
1.0
 40
1.0
 10
108.3538952886
 20
74.280873329
 30
0.0
 10
108.3514709986
 20
74.2808737964
 30
0.0
 10
108.3456761385
 20
74.2754393069
 30
0.0
 10
108.336864662
 20
74.2547314776
 30
0.0
 10
108.325560224
 20
74.2085034543
 30
0.0
 10
108.3130874919
 20
74.1313772592
 30
0.0
 10
108.29977874
 20
74.0240738724
 30
0.0
 10
108.2863532407
 20
73.8882271894
 30
0.0
 10
108.2729638783
 20
73.7248295242
 30
0.0
 10
108.2599100518
 20
73.5355326831
 30
0.0
 10
108.2474197244
 20
73.3220952932
 30
0.0
 10
108.2357501307
 20
73.0865860076
 30
0.0
 10
108.2211029243
 20
72.7352163181
 30
0.0
 10
108.2065236003
 20
72.2591877406
 30
0.0
 10
108.1957129584
 20
71.6570937232
 30
0.0
 10
108.1932479642
 20
71.242268942
 30
0.0
 10
108.1932479642
 20
71.0308733428
 30
0.0
  0
SPLINE
  5
26A
100
AcDbEntity
  8
0
100
AcDbSpline
 62
7
  6
CONTINUOUS
 70
0
 71
3
 72
14
 73
10
 74
0
 42
0.0000001
 43
0.0000001
 44
0.0000000001
 40
0.0
 40
0.0
 40
0.0
 40
0.0
 40
0.3955838433
 40
0.5581127876
 40
0.6948138345
 40
0.8049909508
 40
0.8890447206
 40
0.9504097978
 40
1.0
 40
1.0
 40
1.0
 40
1.0
 10
92.2040537768
 20
63.7834577975
 30
0.0
 10
92.2098868021
 20
63.7499516288
 30
0.0
 10
92.2192804315
 20
63.7028327663
 30
0.0
 10
92.2352420256
 20
63.6452333433
 30
0.0
 10
92.2468694164
 20
63.6119878641
 30
0.0
 10
92.2588189008
 20
63.586056306
 30
0.0
 10
92.2710601971
 20
63.5677418892
 30
0.0
 10
92.2841817211
 20
63.5564315527
 30
0.0
 10
92.2944911671
 20
63.555421377
 30
0.0
 10
92.2986048968
 20
63.5565414593
 30
0.0
  0
SPLINE
  5
26B
100
AcDbEntity
  8
0
100
AcDbSpline
 62
7
  6
CONTINUOUS
 70
0
 71
3
 72
21
 73
17
 74
0
 42
0.0000001
 43
0.0000001
 44
0.0000000001
 40
0.0
 40
0.0
 40
0.0
 40
0.0
 40
0.0022297718
 40
0.0063161593
 40
0.0211988091
 40
0.0452960921
 40
0.0784973785
 40
0.1204848375
 40
0.1708999874
 40
0.2292630971
 40
0.2950093272
 40
0.3675425185
 40
0.4461396164
 40
0.618463829
 40
0.8055661903
 40
1.0
 40
1.0
 40
1.0
 40
1.0
 10
108.3538952886
 20
112.880873329
 30
0.0
 10
108.3514709986
 20
112.8808737964
 30
0.0
 10
108.3456761385
 20
112.8754393069
 30
0.0
 10
108.336864662
 20
112.8547314776
 30
0.0
 10
108.325560224
 20
112.8085034543
 30
0.0
 10
108.3130874919
 20
112.7313772592
 30
0.0
 10
108.29977874
 20
112.6240738724
 30
0.0
 10
108.2863532407
 20
112.4882271894
 30
0.0
 10
108.2729638783
 20
112.3248295242
 30
0.0
 10
108.2599100518
 20
112.1355326831
 30
0.0
 10
108.2474197244
 20
111.9220952932
 30
0.0
 10
108.2357501307
 20
111.6865860076
 30
0.0
 10
108.2211029243
 20
111.3352163181
 30
0.0
 10
108.2065236003
 20
110.8591877406
 30
0.0
 10
108.1957129584
 20
110.2570937232
 30
0.0
 10
108.1932479642
 20
109.842268942
 30
0.0
 10
108.1932479642
 20
109.6308733428
 30
0.0
  0
SPLINE
  5
26C
100
AcDbEntity
  8
0
100
AcDbSpline
 62
7
  6
CONTINUOUS
 70
0
 71
3
 72
14
 73
10
 74
0
 42
0.0000001
 43
0.0000001
 44
0.0000000001
 40
0.0
 40
0.0
 40
0.0
 40
0.0
 40
0.0495861052
 40
0.1109366976
 40
0.1949938723
 40
0.3051993887
 40
0.441929212
 40
0.6044610923
 40
1.0
 40
1.0
 40
1.0
 40
1.0
 10
92.2986025268
 20
117.1051924568
 30
0.0
 10
92.2944895731
 20
117.1063145903
 30
0.0
 10
92.2841805167
 20
117.1053121883
 30
0.0
 10
92.2710556563
 20
117.0940044934
 30
0.0
 10
92.2588160307
 20
117.0756861954
 30
0.0
 10
92.2468688694
 20
117.0497467779
 30
0.0
 10
92.2352430796
 20
117.0164941253
 30
0.0
 10
92.2192818055
 20
116.9588937889
 30
0.0
 10
92.2098868208
 20
116.9117772622
 30
0.0
 10
92.2040537768
 20
116.8782738604
 30
0.0
  0
SPLINE
  5
26D
100
AcDbEntity
  8
0
100
AcDbSpline
 62
7
  6
CONTINUOUS
 70
0
 71
3
 72
21
 73
17
 74
0
 42
0.0000001
 43
0.0000001
 44
0.0000000001
 40
0.0
 40
0.0
 40
0.0
 40
0.0
 40
0.1944354963
 40
0.3815471774
 40
0.5538765573
 40
0.6324738057
 40
0.705008304
 40
0.770754209
 40
0.8291143507
 40
0.8795284268
 40
0.9215116485
 40
0.9547086971
 40
0.9788049206
 40
0.9936846577
 40
0.9977701552
 40
1.0
 40
1.0
 40
1.0
 40
1.0
 10
108.1932479642
 20
109.6308733428
 30
0.0
 10
108.1932479642
 20
109.4194759312
 30
0.0
 10
108.195713394
 20
109.0046392254
 30
0.0
 10
108.2065245352
 20
108.4025276962
 30
0.0
 10
108.2211039166
 20
107.9264832374
 30
0.0
 10
108.2357529266
 20
107.5751064479
 30
0.0
 10
108.2474229926
 20
107.3395959795
 30
0.0
 10
108.2599131271
 20
107.1261607617
 30
0.0
 10
108.2729679716
 20
106.93686876
 30
0.0
 10
108.2863567603
 20
106.7734801271
 30
0.0
 10
108.2997816845
 20
106.6376437457
 30
0.0
 10
108.3130903238
 20
106.5303510168
 30
0.0
 10
108.3255621337
 20
106.4532332472
 30
0.0
 10
108.3368645107
 20
106.407011164
 30
0.0
 10
108.3456777307
 20
106.3863069151
 30
0.0
 10
108.3514709588
 20
106.3808743161
 30
0.0
 10
108.3538953278
 20
106.3808734024
 30
0.0
  0
SPLINE
  5
26E
100
AcDbEntity
  8
0
100
AcDbSpline
 62
7
  6
CONTINUOUS
 70
0
 71
3
 72
21
 73
17
 74
0
 42
0.0000001
 43
0.0000001
 44
0.0000000001
 40
0.0
 40
0.0
 40
0.0
 40
0.0
 40
0.1944354963
 40
0.3815471774
 40
0.5538765573
 40
0.6324738057
 40
0.705008304
 40
0.770754209
 40
0.8291143507
 40
0.8795284268
 40
0.9215116485
 40
0.9547086971
 40
0.9788049206
 40
0.9936846577
 40
0.9977701552
 40
1.0
 40
1.0
 40
1.0
 40
1.0
 10
108.1932479642
 20
71.0308733428
 30
0.0
 10
108.1932479642
 20
70.8194759312
 30
0.0
 10
108.195713394
 20
70.4046392254
 30
0.0
 10
108.2065245352
 20
69.8025276962
 30
0.0
 10
108.2211039166
 20
69.3264832374
 30
0.0
 10
108.2357529266
 20
68.9751064479
 30
0.0
 10
108.2474229926
 20
68.7395959795
 30
0.0
 10
108.2599131271
 20
68.5261607617
 30
0.0
 10
108.2729679716
 20
68.33686876
 30
0.0
 10
108.2863567603
 20
68.1734801271
 30
0.0
 10
108.2997816845
 20
68.0376437457
 30
0.0
 10
108.3130903238
 20
67.9303510168
 30
0.0
 10
108.3255621337
 20
67.8532332472
 30
0.0
 10
108.3368645107
 20
67.807011164
 30
0.0
 10
108.3456777307
 20
67.7863069151
 30
0.0
 10
108.3514709588
 20
67.7808743161
 30
0.0
 10
108.3538953278
 20
67.7808734024
 30
0.0
  0
SPLINE
  5
26F
100
AcDbEntity
  8
0
100
AcDbSpline
 62
7
  6
CONTINUOUS
 70
0
 71
3
 72
20
 73
16
 74
0
 42
0.0000001
 43
0.0000001
 44
0.0000000001
 40
0.0
 40
0.0
 40
0.0
 40
0.0
 40
0.1945485022
 40
0.3817660773
 40
0.5541803156
 40
0.7053506604
 40
0.7710879721
 40
0.8294171661
 40
0.8797742408
 40
0.9216779058
 40
0.9547779867
 40
0.9787710103
 40
0.9935737295
 40
0.9976640416
 40
1.0
 40
1.0
 40
1.0
 40
1.0
 10
93.9874341303
 20
55.9308733428
 30
0.0
 10
93.9874341303
 20
55.722793451
 30
0.0
 10
93.9868033388
 20
55.3144741976
 30
0.0
 10
93.9838304002
 20
54.7217548783
 30
0.0
 10
93.9784592971
 20
54.1754489669
 30
0.0
 10
93.9713880193
 20
53.7591020108
 30
0.0
 10
93.9635555382
 20
53.4648213326
 30
0.0
 10
93.957037868
 20
53.2783822203
 30
0.0
 10
93.949564627
 20
53.1174715994
 30
0.0
 10
93.941167352
 20
52.9836900917
 30
0.0
 10
93.9318460582
 20
52.8780862416
 30
0.0
 10
93.9220509959
 20
52.8020532354
 30
0.0
 10
93.9121577492
 20
52.7566627278
 30
0.0
 10
93.903526281
 20
52.7359812243
 30
0.0
 10
93.8975108044
 20
52.7308753948
 30
0.0
 10
93.8950123735
 20
52.730875204
 30
0.0
  0
SPLINE
  5
270
100
AcDbEntity
  8
0
100
AcDbSpline
 62
7
  6
CONTINUOUS
 70
0
 71
3
 72
17
 73
13
 74
0
 42
0.0000001
 43
0.0000001
 44
0.0000000001
 40
0.0
 40
0.0
 40
0.0
 40
0.0
 40
0.3763876561
 40
0.5463416454
 40
0.6954363884
 40
0.7603825855
 40
0.818161469
 40
0.8682863967
 40
0.9103923435
 40
0.9442996995
 40
0.9700218765
 40
1.0
 40
1.0
 40
1.0
 40
1.0
 10
93.3796772105
 20
124.7308733428
 30
0.0
 10
93.3796772105
 20
124.3213936872
 30
0.0
 10
93.3690567298
 20
123.7268710099
 30
0.0
 10
93.328578346
 20
122.971312452
 30
0.0
 10
93.2937246444
 20
122.554912712
 30
0.0
 10
93.258932468
 20
122.2611941026
 30
0.0
 10
93.2316289989
 20
122.0751707447
 30
0.0
 10
93.2018750848
 20
121.914463586
 30
0.0
 10
93.1705912406
 20
121.7813470751
 30
0.0
 10
93.1362011646
 20
121.6743390266
 30
0.0
 10
93.0991808505
 20
121.5888585187
 30
0.0
 10
93.0518830907
 20
121.5308742058
 30
0.0
 10
93.0192692908
 20
121.5308752275
 30
0.0
  0
SPLINE
  5
271
100
AcDbEntity
  8
0
100
AcDbSpline
 62
7
  6
CONTINUOUS
 70
0
 71
3
 72
21
 73
17
 74
0
 42
0.0000001
 43
0.0000001
 44
0.0000000001
 40
0.0
 40
0.0
 40
0.0
 40
0.0
 40
0.0021841116
 40
0.0061970308
 40
0.0209302894
 40
0.0448944673
 40
0.077986342
 40
0.1198945726
 40
0.1702644276
 40
0.2286128945
 40
0.2943742373
 40
0.3669476384
 40
0.4456034689
 40
0.6180855283
 40
0.8053761302
 40
1.0
 40
1.0
 40
1.0
 40
1.0
 10
108.3538953278
 20
106.3808734024
 30
0.0
 10
108.3562668568
 20
106.3808725086
 30
0.0
 10
108.3619102684
 20
106.38631409
 30
0.0
 10
108.3696818013
 20
106.4071292928
 30
0.0
 10
108.3789370297
 20
106.4533152039
 30
0.0
 10
108.3878915302
 20
106.530419586
 30
0.0
 10
108.3965230426
 20
106.6376954602
 30
0.0
 10
108.4042513676
 20
106.7735533217
 30
0.0
 10
108.4111424445
 20
106.9369840947
 30
0.0
 10
108.4171408183
 20
107.126336448
 30
0.0
 10
108.4222963306
 20
107.3398383476
 30
0.0
 10
108.4266330945
 20
107.5754091679
 30
0.0
 10
108.4315618744
 20
107.9268644768
 30
0.0
 10
108.4357674279
 20
108.4028984001
 30
0.0
 10
108.4384984255
 20
109.0048622221
 30
0.0
 10
108.4390737691
 20
109.4195489023
 30
0.0
 10
108.4390737691
 20
109.6308733428
 30
0.0
  0
SPLINE
  5
272
100
AcDbEntity
  8
0
100
AcDbSpline
 62
7
  6
CONTINUOUS
 70
0
 71
3
 72
17
 73
13
 74
0
 42
0.0000001
 43
0.0000001
 44
0.0000000001
 40
0.0
 40
0.0
 40
0.0
 40
0.0
 40
0.0299763107
 40
0.055697609
 40
0.0896030542
 40
0.1317072108
 40
0.1818318771
 40
0.2396099336
 40
0.3045562869
 40
0.4536522443
 40
0.6236079872
 40
1.0
 40
1.0
 40
1.0
 40
1.0
 10
93.0192692921
 20
59.1308714649
 30
0.0
 10
93.051881127
 20
59.1308711069
 30
0.0
 10
93.0991792624
 20
59.0728948794
 30
0.0
 10
93.1361962711
 20
58.9874167046
 30
0.0
 10
93.1705874575
 20
58.880414933
 30
0.0
 10
93.2018716798
 20
58.7473025919
 30
0.0
 10
93.2316244289
 20
58.586598458
 30
0.0
 10
93.2589295663
 20
58.4005763147
 30
0.0
 10
93.2937222215
 20
58.1068570899
 30
0.0
 10
93.3285771549
 20
57.6904539547
 30
0.0
 10
93.3690564703
 20
56.9348872857
 30
0.0
 10
93.3796772105
 20
56.3403578288
 30
0.0
 10
93.3796772105
 20
55.9308733428
 30
0.0
  0
SPLINE
  5
273
100
AcDbEntity
  8
0
100
AcDbSpline
 62
7
  6
CONTINUOUS
 70
0
 71
3
 72
20
 73
16
 74
0
 42
0.0000001
 43
0.0000001
 44
0.0000000001
 40
0.0
 40
0.0
 40
0.0
 40
0.0
 40
0.002335972
 40
0.0064264364
 40
0.0212296466
 40
0.0452229343
 40
0.0783239003
 40
0.1202282139
 40
0.1705848542
 40
0.2289136137
 40
0.294650152
 40
0.4458187454
 40
0.6182326262
 40
0.8054508812
 40
1.0
 40
1.0
 40
1.0
 40
1.0
 10
93.8950123737
 20
127.9308714856
 30
0.0
 10
93.8975108191
 20
127.9308714507
 30
0.0
 10
93.9035265266
 20
127.9257653132
 30
0.0
 10
93.9121576715
 20
127.9050830747
 30
0.0
 10
93.9220511187
 20
127.8596915545
 30
0.0
 10
93.9318466407
 20
127.7836568706
 30
0.0
 10
93.9411676598
 20
127.6780510437
 30
0.0
 10
93.9495648356
 20
127.5442683642
 30
0.0
 10
93.9570383124
 20
127.3833579876
 30
0.0
 10
93.9635557011
 20
127.1969206233
 30
0.0
 10
93.9713879792
 20
126.9026431076
 30
0.0
 10
93.9784592856
 20
126.4862992365
 30
0.0
 10
93.983830372
 20
125.9399948545
 30
0.0
 10
93.9868033393
 20
125.3472745326
 30
0.0
 10
93.9874341303
 20
124.9389538936
 30
0.0
 10
93.9874341303
 20
124.7308733428
 30
0.0
  0
SPLINE
  5
274
100
AcDbEntity
  8
0
100
AcDbSpline
 62
7
  6
CONTINUOUS
 70
0
 71
3
 72
21
 73
17
 74
0
 42
0.0000001
 43
0.0000001
 44
0.0000000001
 40
0.0
 40
0.0
 40
0.0
 40
0.0
 40
0.1946209992
 40
0.3819092352
 40
0.5543895109
 40
0.6330444179
 40
0.7056170308
 40
0.7713781198
 40
0.8297270381
 40
0.8800979013
 40
0.922007943
 40
0.9551021855
 40
0.9790683068
 40
0.9938021536
 40
0.99781544
 40
1.0
 40
1.0
 40
1.0
 40
1.0
 10
108.4390737691
 20
109.6308733428
 30
0.0
 10
108.4390737691
 20
109.8421945948
 30
0.0
 10
108.4384984379
 20
110.2568754484
 30
0.0
 10
108.4357675283
 20
110.8588314439
 30
0.0
 10
108.4315621065
 20
111.334859698
 30
0.0
 10
108.4266335141
 20
111.6863110946
 30
0.0
 10
108.4222969121
 20
111.921879703
 30
0.0
 10
108.4171416503
 20
112.1353808952
 30
0.0
 10
108.4111435468
 20
112.3247344997
 30
0.0
 10
108.4042525434
 20
112.4881687848
 30
0.0
 10
108.3965240721
 20
112.6240322037
 30
0.0
 10
108.3878927898
 20
112.731314799
 30
0.0
 10
108.3789378266
 20
112.8084243013
 30
0.0
 10
108.3696830253
 20
112.8546136996
 30
0.0
 10
108.3619093508
 20
112.8754297751
 30
0.0
 10
108.3562673037
 20
112.8808728717
 30
0.0
 10
108.3538952886
 20
112.880873329
 30
0.0
  0
SPLINE
  5
275
100
AcDbEntity
  8
0
100
AcDbSpline
 62
7
  6
CONTINUOUS
 70
0
 71
3
 72
20
 73
16
 74
0
 42
0.0000001
 43
0.0000001
 44
0.0000000001
 40
0.0
 40
0.0
 40
0.0
 40
0.0
 40
0.002335972
 40
0.0064264364
 40
0.0212296466
 40
0.0452229343
 40
0.0783239003
 40
0.1202282139
 40
0.1705848542
 40
0.2289136137
 40
0.294650152
 40
0.4458187454
 40
0.6182326262
 40
0.8054508812
 40
1.0
 40
1.0
 40
1.0
 40
1.0
 10
93.8950123737
 20
59.1308714856
 30
0.0
 10
93.8975108191
 20
59.1308714507
 30
0.0
 10
93.9035265266
 20
59.1257653132
 30
0.0
 10
93.9121576715
 20
59.1050830747
 30
0.0
 10
93.9220511187
 20
59.0596915545
 30
0.0
 10
93.9318466407
 20
58.9836568706
 30
0.0
 10
93.9411676598
 20
58.8780510437
 30
0.0
 10
93.9495648356
 20
58.7442683642
 30
0.0
 10
93.9570383124
 20
58.5833579876
 30
0.0
 10
93.9635557011
 20
58.3969206233
 30
0.0
 10
93.9713879792
 20
58.1026431076
 30
0.0
 10
93.9784592856
 20
57.6862992365
 30
0.0
 10
93.983830372
 20
57.1399948545
 30
0.0
 10
93.9868033393
 20
56.5472745326
 30
0.0
 10
93.9874341303
 20
56.1389538936
 30
0.0
 10
93.9874341303
 20
55.9308733428
 30
0.0
  0
SPLINE
  5
276
100
AcDbEntity
  8
0
100
AcDbSpline
 62
7
  6
CONTINUOUS
 70
0
 71
3
 72
21
 73
17
 74
0
 42
0.0000001
 43
0.0000001
 44
0.0000000001
 40
0.0
 40
0.0
 40
0.0
 40
0.0
 40
0.0021841116
 40
0.0061970308
 40
0.0209302894
 40
0.0448944673
 40
0.077986342
 40
0.1198945726
 40
0.1702644276
 40
0.2286128945
 40
0.2943742373
 40
0.3669476384
 40
0.4456034689
 40
0.6180855283
 40
0.8053761302
 40
1.0
 40
1.0
 40
1.0
 40
1.0
 10
108.3538953278
 20
67.7808734024
 30
0.0
 10
108.3562668568
 20
67.7808725086
 30
0.0
 10
108.3619102684
 20
67.78631409
 30
0.0
 10
108.3696818013
 20
67.8071292928
 30
0.0
 10
108.3789370297
 20
67.8533152039
 30
0.0
 10
108.3878915302
 20
67.930419586
 30
0.0
 10
108.3965230426
 20
68.0376954602
 30
0.0
 10
108.4042513676
 20
68.1735533217
 30
0.0
 10
108.4111424445
 20
68.3369840947
 30
0.0
 10
108.4171408183
 20
68.526336448
 30
0.0
 10
108.4222963306
 20
68.7398383476
 30
0.0
 10
108.4266330945
 20
68.9754091679
 30
0.0
 10
108.4315618744
 20
69.3268644768
 30
0.0
 10
108.4357674279
 20
69.8028984001
 30
0.0
 10
108.4384984255
 20
70.4048622221
 30
0.0
 10
108.4390737691
 20
70.8195489023
 30
0.0
 10
108.4390737691
 20
71.0308733428
 30
0.0
  0
SPLINE
  5
277
100
AcDbEntity
  8
0
100
AcDbSpline
 62
7
  6
CONTINUOUS
 70
0
 71
3
 72
12
 73
8
 74
0
 42
0.0000001
 43
0.0000001
 44
0.0000000001
 40
0.0
 40
0.0
 40
0.0
 40
0.0
 40
0.3694633514
 40
0.684044941
 40
0.9001088251
 40
0.9635651429
 40
1.0
 40
1.0
 40
1.0
 40
1.0
 10
106.6540537772
 20
115.6308733536
 30
0.0
 10
106.6540537774
 20
115.6942963081
 30
0.0
 10
106.6575696596
 20
115.8119609623
 30
0.0
 10
106.6724582406
 20
115.9651853239
 30
0.0
 10
106.6925118599
 20
116.0668992515
 30
0.0
 10
106.7127803829
 20
116.1161385219
 30
0.0
 10
106.7262946314
 20
116.1300368713
 30
0.0
 10
106.7325044492
 20
116.1307830999
 30
0.0
  0
SPLINE
  5
278
100
AcDbEntity
  8
0
100
AcDbSpline
 62
7
  6
CONTINUOUS
 70
0
 71
3
 72
20
 73
16
 74
0
 42
0.0000001
 43
0.0000001
 44
0.0000000001
 40
0.0
 40
0.0
 40
0.0
 40
0.0
 40
0.1945485022
 40
0.3817660773
 40
0.5541803156
 40
0.7053506604
 40
0.7710879721
 40
0.8294171661
 40
0.8797742408
 40
0.9216779058
 40
0.9547779867
 40
0.9787710103
 40
0.9935737295
 40
0.9976640416
 40
1.0
 40
1.0
 40
1.0
 40
1.0
 10
93.9874341303
 20
124.7308733428
 30
0.0
 10
93.9874341303
 20
124.522793451
 30
0.0
 10
93.9868033388
 20
124.1144741976
 30
0.0
 10
93.9838304002
 20
123.5217548783
 30
0.0
 10
93.9784592971
 20
122.9754489669
 30
0.0
 10
93.9713880193
 20
122.5591020108
 30
0.0
 10
93.9635555382
 20
122.2648213326
 30
0.0
 10
93.957037868
 20
122.0783822203
 30
0.0
 10
93.949564627
 20
121.9174715994
 30
0.0
 10
93.941167352
 20
121.7836900917
 30
0.0
 10
93.9318460582
 20
121.6780862416
 30
0.0
 10
93.9220509959
 20
121.6020532354
 30
0.0
 10
93.9121577492
 20
121.5566627278
 30
0.0
 10
93.903526281
 20
121.5359812243
 30
0.0
 10
93.8975108044
 20
121.5308753948
 30
0.0
 10
93.8950123735
 20
121.530875204
 30
0.0
  0
SPLINE
  5
279
100
AcDbEntity
  8
0
100
AcDbSpline
 62
7
  6
CONTINUOUS
 70
0
 71
3
 72
17
 73
13
 74
0
 42
0.0000001
 43
0.0000001
 44
0.0000000001
 40
0.0
 40
0.0
 40
0.0
 40
0.0
 40
0.0299763107
 40
0.055697609
 40
0.0896030542
 40
0.1317072108
 40
0.1818318771
 40
0.2396099336
 40
0.3045562869
 40
0.4536522443
 40
0.6236079872
 40
1.0
 40
1.0
 40
1.0
 40
1.0
 10
93.0192692921
 20
127.9308714649
 30
0.0
 10
93.051881127
 20
127.9308711069
 30
0.0
 10
93.0991792624
 20
127.8728948794
 30
0.0
 10
93.1361962711
 20
127.7874167046
 30
0.0
 10
93.1705874575
 20
127.680414933
 30
0.0
 10
93.2018716798
 20
127.5473025919
 30
0.0
 10
93.2316244289
 20
127.386598458
 30
0.0
 10
93.2589295663
 20
127.2005763147
 30
0.0
 10
93.2937222215
 20
126.9068570899
 30
0.0
 10
93.3285771549
 20
126.4904539547
 30
0.0
 10
93.3690564703
 20
125.7348872857
 30
0.0
 10
93.3796772105
 20
125.1403578288
 30
0.0
 10
93.3796772105
 20
124.7308733428
 30
0.0
  0
SPLINE
  5
27A
100
AcDbEntity
  8
0
100
AcDbSpline
 62
7
  6
CONTINUOUS
 70
0
 71
3
 72
12
 73
8
 74
0
 42
0.0000001
 43
0.0000001
 44
0.0000000001
 40
0.0
 40
0.0
 40
0.0
 40
0.0
 40
0.0349458618
 40
0.0965684951
 40
0.3111017026
 40
0.6272151166
 40
1.0
 40
1.0
 40
1.0
 40
1.0
 10
106.7340078273
 20
64.5308733429
 30
0.0
 10
106.7279930111
 20
64.5308731301
 30
0.0
 10
106.7136659144
 20
64.5435969702
 30
0.0
 10
106.6934359679
 20
64.5921886413
 30
0.0
 10
106.6726839474
 20
64.693660795
 30
0.0
 10
106.6576945877
 20
64.8479140334
 30
0.0
 10
106.6540537768
 20
64.9667103083
 30
0.0
 10
106.6540537768
 20
65.0308733429
 30
0.0
  0
SPLINE
  5
27B
100
AcDbEntity
  8
0
100
AcDbSpline
 62
7
  6
CONTINUOUS
 70
0
 71
3
 72
21
 73
17
 74
0
 42
0.0000001
 43
0.0000001
 44
0.0000000001
 40
0.0
 40
0.0
 40
0.0
 40
0.0
 40
0.1946209992
 40
0.3819092352
 40
0.5543895109
 40
0.6330444179
 40
0.7056170308
 40
0.7713781198
 40
0.8297270381
 40
0.8800979013
 40
0.922007943
 40
0.9551021855
 40
0.9790683068
 40
0.9938021536
 40
0.99781544
 40
1.0
 40
1.0
 40
1.0
 40
1.0
 10
108.4390737691
 20
71.0308733428
 30
0.0
 10
108.4390737691
 20
71.2421945948
 30
0.0
 10
108.4384984379
 20
71.6568754484
 30
0.0
 10
108.4357675283
 20
72.2588314439
 30
0.0
 10
108.4315621065
 20
72.734859698
 30
0.0
 10
108.4266335141
 20
73.0863110946
 30
0.0
 10
108.422296912
 20
73.321879703
 30
0.0
 10
108.4171416502
 20
73.5353808952
 30
0.0
 10
108.4111435468
 20
73.7247344997
 30
0.0
 10
108.4042525434
 20
73.8881687848
 30
0.0
 10
108.3965240721
 20
74.0240322037
 30
0.0
 10
108.3878927898
 20
74.131314799
 30
0.0
 10
108.3789378266
 20
74.2084243013
 30
0.0
 10
108.3696830253
 20
74.2546136996
 30
0.0
 10
108.3619093508
 20
74.2754297751
 30
0.0
 10
108.3562673037
 20
74.2808728717
 30
0.0
 10
108.3538952886
 20
74.280873329
 30
0.0
  0
SPLINE
  5
27C
100
AcDbEntity
  8
0
100
AcDbSpline
 62
7
  6
CONTINUOUS
 70
0
 71
3
 72
17
 73
13
 74
0
 42
0.0000001
 43
0.0000001
 44
0.0000000001
 40
0.0
 40
0.0
 40
0.0
 40
0.0
 40
0.3763876561
 40
0.5463416454
 40
0.6954363884
 40
0.7603825855
 40
0.818161469
 40
0.8682863967
 40
0.9103923435
 40
0.9442996995
 40
0.9700218765
 40
1.0
 40
1.0
 40
1.0
 40
1.0
 10
93.3796772105
 20
55.9308733428
 30
0.0
 10
93.3796772105
 20
55.5213936872
 30
0.0
 10
93.3690567298
 20
54.9268710099
 30
0.0
 10
93.328578346
 20
54.171312452
 30
0.0
 10
93.2937246444
 20
53.754912712
 30
0.0
 10
93.258932468
 20
53.4611941026
 30
0.0
 10
93.2316289989
 20
53.2751707447
 30
0.0
 10
93.2018750848
 20
53.114463586
 30
0.0
 10
93.1705912406
 20
52.9813470751
 30
0.0
 10
93.1362011646
 20
52.8743390266
 30
0.0
 10
93.0991808505
 20
52.7888585187
 30
0.0
 10
93.0518830906
 20
52.7308742058
 30
0.0
 10
93.0192692908
 20
52.7308752275
 30
0.0
  0
ENDSEC
  0
SECTION
  2
OBJECTS
  0
DICTIONARY
  5
C
100
AcDbDictionary
280
0
281
1
  3
ACAD_GROUP
350
D
  3
ACAD_MLINESTYLE
350
17
  3
ACAD_LAYOUT
350
1A
  3
ACAD_PLOTSETTINGS
350
19
  3
ACAD_PLOTSTYLENAME
350
E
  0
DICTIONARY
  5
D
102
{ACAD_REACTORS
330
C
102
}
100
AcDbDictionary
280
0
281
1
  0
ACDBDICTIONARYWDFLT
  5
E
102
{ACAD_REACTORS
330
C
102
}
100
AcDbDictionary
281
1
  3
Normal
350
F
100
AcDbDictionaryWithDefault
340
F
  0
DICTIONARY
  5
17
102
{ACAD_REACTORS
330
C
102
}
100
AcDbDictionary
280
0
281
1
  3
Standard
350
18
  0
DICTIONARY
  5
19
102
{ACAD_REACTORS
330
C
102
}
100
AcDbDictionary
281
1
  0
DICTIONARY
  5
1A
102
{ACAD_REACTORS
330
C
102
}
100
AcDbDictionary
281
1
  3
Model
350
27D
  3
Layout1
350
27E
  0
ACDBPLACEHOLDER
  5
F
102
{ACAD_REACTORS
330
E
102
}
  0
MLINESTYLE
  5
18
102
{ACAD_REACTORS
330
17
102
}
100
AcDbMlineStyle
  2
STANDARD
 70
0
  3

 62
256
 51
90.0
 52
90.0
 71
2
 49
0.5
 62
256
  6
BYLAYER
 49
-0.5
 62
256
  6
BYLAYER
  0
LAYOUT
  5
27D
102
{ACAD_REACTORS
330
1A
102
}
100
AcDbPlotSettings
  1

  2
none_device
  4

  6

 40
0.0
 41
0.0
 42
0.0
 43
0.0
 44
210.0
 45
297.0
 46
0.0
 47
0.0
 48
0.0
 49
0.0
140
0.0
141
0.0
142
1.0
143
1.0
 70
1024
 72
1
 73
0
 74
0
  7

 75
0
147
1.0
148
0.0
149
0.0
100
AcDbLayout
  1
Model
 70
0
 71
0
 10
0.0
 20
0.0
 11
210.0
 21
297.0
 12
0.0
 22
0.0
 32
0.0
 14
0.0
 24
0.0
 34
0.0
 15
0.0
 25
0.0
 35
0.0
146
0.0
 13
0.0
 23
0.0
 33
0.0
 16
1.0
 26
0.0
 36
0.0
 17
0.0
 27
1.0
 37
0.0
 76
0
330
210
345
0
346
0
  0
LAYOUT
  5
27E
102
{ACAD_REACTORS
330
1A
102
}
100
AcDbPlotSettings
  1

  2
none_device
  4

  6

 40
0.0
 41
0.0
 42
0.0
 43
0.0
 44
210.0
 45
297.0
 46
0.0
 47
0.0
 48
0.0
 49
0.0
140
0.0
141
0.0
142
1.0
143
1.0
 70
0
 72
1
 73
0
 74
0
  7

 75
0
147
1.0
148
0.0
149
0.0
100
AcDbLayout
  1
Layout1
 70
0
 71
1
 10
0.0
 20
0.0
 11
210.0
 21
297.0
 12
0.0
 22
0.0
 32
0.0
 14
0.0
 24
0.0
 34
0.0
 15
0.0
 25
0.0
 35
0.0
146
0.0
 13
0.0
 23
0.0
 33
0.0
 16
1.0
 26
0.0
 36
0.0
 17
0.0
 27
1.0
 37
0.0
 76
0
330
211
345
0
346
0
  0
ENDSEC
  0
EOF
