999
DXF file: C:\Users\sesa63760\Dev\_Creo\CAD\MCADID0005528_3D-CAD\drw0001_6.dxf
999
Pro/ENGINEER 2019471 by Parametric Technology Corporation
  0
SECTION
  2
HEADER
  9
$ACADVER
  1
AC1024
  9
$DWGCODEPAGE
  3
ANSI_1252
  9
$EXTMAX
 10
58.6309360465
 20
82.9208952658
 30
0.0
  9
$EXTMIN
 10
0.0
 20
0.0
 30
0.0
  9
$LIMMIN
 10
0.0
 20
0.0
  9
$LIMMAX
 10
58.6309360465
 20
82.9208952658
  9
$VIEWCTR
 10
29.3154680232
 20
41.4604476329
  9
$VIEWSIZE
 40
82.9208952658
  9
$CLAYER
  8
0
  9
$LTSCALE
 40
5.4052139136
  9
$CELTYPE
  6
BYLAYER
  9
$DIMSCALE
 40
1.0
  9
$DIMASZ
 40
0.6979873339
  9
$DIMEXO
 40
1.0
  9
$DIMDLI
 40
3.7345114312
  9
$DIMEXE
 40
1.0
  9
$DIMCEN
 40
0.8844895495
  9
$DIMLFAC
 40
1.0
  9
$DIMBLK
  1
_FILLED
  9
$DIMALT
 70
0
  9
$DIMALTF
 40
0.0393700787
  9
$DIMTXT
 40
0.9771822674
  9
$DIMTOL
 70
1
  9
$DIMLIM
 70
0
  9
$DIMTFAC
 40
1.0
  9
$DIMTP
 40
0.01
  9
$DIMTM
 40
0.01
  9
$DIMGAP
 40
0.625
  9
$DIMDSEP
 70
46
  9
$AUNITS
 70
0
  9
$PDMODE
 70
3
  9
$PDSIZE
 40
0.3125
  9
$HANDSEED
  5
2C2
  9
$TILEMODE
 70
1
  9
$MEASUREMENT
 70
1
  9
$INSUNITS
 70
4
  0
ENDSEC
  0
SECTION
  2
CLASSES
  0
CLASS
  1
ACDBDICTIONARYWDFLT
  2
AcDbDictionaryWithDefault
  3
AutoCAD 2000
 90
0
 91
1
280
0
281
0
  0
CLASS
  1
ACDBPLACEHOLDER
  2
AcDbPlaceHolder
  3
AutoCAD 2000
 90
0
 91
1
280
0
281
0
  0
CLASS
  1
LAYOUT
  2
AcDbLayout
  3
AutoCAD 2000
 90
0
 91
0
280
0
281
0
  0
ENDSEC
  0
SECTION
  2
TABLES
  0
TABLE
  2
VPORT
  5
8
100
AcDbSymbolTable
 70
2
  0
VPORT
  5
1F4
100
AcDbSymbolTableRecord
100
AcDbViewportTableRecord
  2
*ACTIVE
 70
0
 10
0.0
 20
0.0
 11
1.0
 21
1.0
 12
29.3154680232
 22
41.4604476329
 13
0.0
 23
0.0
 14
1.0
 24
1.0
 15
0.0
 25
0.0
 16
0.0
 26
0.0
 36
1.0
 17
0.0
 27
0.0
 37
0.0
 40
82.9208952658
 41
0.7070707071
 42
50.0
 43
0.0
 44
0.0
 50
0.0
 51
0.0
 71
0
 72
100
 73
1
 74
1
 75
0
 76
0
 77
0
 78
0
  0
ENDTAB
  0
TABLE
  2
LTYPE
  5
5
100
AcDbSymbolTable
 70
6
  0
LTYPE
  5
14
100
AcDbSymbolTableRecord
100
AcDbLinetypeTableRecord
  2
BYBLOCK
 70
0
  3

 72
65
 73
0
 40
0.0
  0
LTYPE
  5
15
100
AcDbSymbolTableRecord
100
AcDbLinetypeTableRecord
  2
BYLAYER
 70
0
  3

 72
65
 73
0
 40
0.0
  0
LTYPE
  5
16
100
AcDbSymbolTableRecord
100
AcDbLinetypeTableRecord
  2
CONTINUOUS
 70
64
  3
Solid line
 72
65
 73
0
 40
0.0
  0
LTYPE
  5
1F5
100
AcDbSymbolTableRecord
100
AcDbLinetypeTableRecord
  2
CENTER
 70
64
  3
____ _ ____ _ ____ _ ____ _ ____ _ ____ _ ____
 72
65
 73
4
 40
0.6
 49
0.375
 74
0
 49
-0.075
 74
0
 49
0.075
 74
0
 49
-0.075
 74
0
  0
LTYPE
  5
1F6
100
AcDbSymbolTableRecord
100
AcDbLinetypeTableRecord
  2
HIDDEN
 70
64
  3
- - - - - - - - - - - - - - - - - - - -
 72
65
 73
2
 40
0.2
 49
0.1
 74
0
 49
-0.1
 74
0
  0
LTYPE
  5
1F7
100
AcDbSymbolTableRecord
100
AcDbLinetypeTableRecord
  2
PHANTOM
 70
64
  3
_____ _ _ _____ _ _ _____ _ _ _____
 72
65
 73
6
 40
0.8
 49
0.45
 74
0
 49
-0.05
 74
0
 49
0.1
 74
0
 49
-0.05
 74
0
 49
0.1
 74
0
 49
-0.05
 74
0
  0
LTYPE
  5
1F8
100
AcDbSymbolTableRecord
100
AcDbLinetypeTableRecord
  2
DOT
 70
64
  3
. . . . . . . . . . . . . . . . . . . .
 72
65
 73
2
 40
0.2
 49
0.1
 74
0
 49
-0.1
 74
0
  0
LTYPE
  5
1F9
100
AcDbSymbolTableRecord
100
AcDbLinetypeTableRecord
  2
DASHED
 70
64
  3
- - - - - - - - - - - - - - - - - - - -
 72
65
 73
2
 40
0.2
 49
0.1
 74
0
 49
-0.1
 74
0
  0
ENDTAB
  0
TABLE
  2
LAYER
  5
2
100
AcDbSymbolTable
 70
36
  0
LAYER
  5
10
100
AcDbSymbolTableRecord
100
AcDbLayerTableRecord
  2
0
 70
0
 62
7
  6
CONTINUOUS
370
-3
390
F
  0
LAYER
  5
1FA
100
AcDbSymbolTableRecord
100
AcDbLayerTableRecord
  2
DEFAULT_1
 70
0
 62
7
  6
CENTER
370
-3
390
F
  0
LAYER
  5
1FB
100
AcDbSymbolTableRecord
100
AcDbLayerTableRecord
  2
DEFAULT_2
 70
0
 62
7
  6
HIDDEN
370
-3
390
F
  0
LAYER
  5
1FC
100
AcDbSymbolTableRecord
100
AcDbLayerTableRecord
  2
DEFAULT_3
 70
0
 62
7
  6
PHANTOM
370
-3
390
F
  0
LAYER
  5
1FD
100
AcDbSymbolTableRecord
100
AcDbLayerTableRecord
  2
00_COMPONENTS
 70
0
 62
7
  6
CONTINUOUS
370
-3
390
F
  0
LAYER
  5
1FE
100
AcDbSymbolTableRecord
100
AcDbLayerTableRecord
  2
01_1_DEFAULT_DATUMS
 70
0
 62
7
  6
CONTINUOUS
370
-3
390
F
  0
LAYER
  5
1FF
100
AcDbSymbolTableRecord
100
AcDbLayerTableRecord
  2
01_PLANES
 70
0
 62
7
  6
CONTINUOUS
370
-3
390
F
  0
LAYER
  5
200
100
AcDbSymbolTableRecord
100
AcDbLayerTableRecord
  2
02_COORD_SYS
 70
0
 62
7
  6
CONTINUOUS
370
-3
390
F
  0
LAYER
  5
201
100
AcDbSymbolTableRecord
100
AcDbLayerTableRecord
  2
03_AXES
 70
0
 62
7
  6
CONTINUOUS
370
-3
390
F
  0
LAYER
  5
202
100
AcDbSymbolTableRecord
100
AcDbLayerTableRecord
  2
04_POINTS
 70
0
 62
7
  6
CONTINUOUS
370
-3
390
F
  0
LAYER
  5
203
100
AcDbSymbolTableRecord
100
AcDbLayerTableRecord
  2
05_CURVES
 70
0
 62
7
  6
CONTINUOUS
370
-3
390
F
  0
LAYER
  5
204
100
AcDbSymbolTableRecord
100
AcDbLayerTableRecord
  2
06_SURFS
 70
0
 62
7
  6
CONTINUOUS
370
-3
390
F
  0
LAYER
  5
205
100
AcDbSymbolTableRecord
100
AcDbLayerTableRecord
  2
07_COSMETICS
 70
0
 62
7
  6
CONTINUOUS
370
-3
390
F
  0
LAYER
  5
206
100
AcDbSymbolTableRecord
100
AcDbLayerTableRecord
  2
10_NOTES
 70
0
 62
7
  6
CONTINUOUS
370
-3
390
F
  0
LAYER
  5
207
100
AcDbSymbolTableRecord
100
AcDbLayerTableRecord
  2
11_NOTES_PUB
 70
0
 62
7
  6
CONTINUOUS
370
-3
390
F
  0
LAYER
  5
208
100
AcDbSymbolTableRecord
100
AcDbLayerTableRecord
  2
13_REF_GTOL
 70
0
 62
7
  6
CONTINUOUS
370
-3
390
F
  0
LAYER
  5
209
100
AcDbSymbolTableRecord
100
AcDbLayerTableRecord
  2
16_MISC
 70
0
 62
7
  6
CONTINUOUS
370
-3
390
F
  0
LAYER
  5
20A
100
AcDbSymbolTableRecord
100
AcDbLayerTableRecord
  2
17_NO_PRINT
 70
0
 62
7
  6
CONTINUOUS
370
-3
390
F
  0
LAYER
  5
20B
100
AcDbSymbolTableRecord
100
AcDbLayerTableRecord
  2
18_DATUM_CAMS_JOINTS
 70
0
 62
7
  6
CONTINUOUS
370
-3
390
F
  0
LAYER
  5
20C
100
AcDbSymbolTableRecord
100
AcDbLayerTableRecord
  2
19_DATUM_FUNCTIONAL
 70
0
 62
7
  6
CONTINUOUS
370
-3
390
F
  0
LAYER
  5
20D
100
AcDbSymbolTableRecord
100
AcDbLayerTableRecord
  2
20_DATUM_KINEMATIC_SCHEME
 70
0
 62
7
  6
CONTINUOUS
370
-3
390
F
  0
ENDTAB
  0
TABLE
  2
STYLE
  5
3
100
AcDbSymbolTable
 70
1
  0
STYLE
  5
11
100
AcDbSymbolTableRecord
100
AcDbTextStyleTableRecord
  2
STANDARD
 70
0
 40
0.0
 41
1.0
 50
0.0
 71
0
 42
0.2
  3
ARIAL.TTF
  4

  0
STYLE
  5
20E
100
AcDbSymbolTableRecord
100
AcDbTextStyleTableRecord
  2
TEXTSTYLE_1
 70
0
 40
0.0
 41
0.8
 50
0.0
 71
0
 42
0.2
  3
gdt
  4

  0
ENDTAB
  0
TABLE
  2
VIEW
  5
6
100
AcDbSymbolTable
 70
0
  0
ENDTAB
  0
TABLE
  2
UCS
  5
7
100
AcDbSymbolTable
 70
0
  0
ENDTAB
  0
TABLE
  2
APPID
  5
9
100
AcDbSymbolTable
 70
1
  0
APPID
  5
20F
100
AcDbSymbolTableRecord
100
AcDbRegAppTableRecord
  2
ACAD
 70
0
  0
ENDTAB
  0
TABLE
  2
BLOCK_RECORD
  5
1
100
AcDbSymbolTable
 70
0
  0
BLOCK_RECORD
  5
210
100
AcDbSymbolTableRecord
100
AcDbBlockTableRecord
  2
*Model_Space
  0
BLOCK_RECORD
  5
211
100
AcDbSymbolTableRecord
100
AcDbBlockTableRecord
  2
*Paper_Space
  0
BLOCK_RECORD
  5
212
100
AcDbSymbolTableRecord
100
AcDbBlockTableRecord
  2
_FILLED
  0
ENDTAB
  0
TABLE
  2
DIMSTYLE
  5
A
100
AcDbSymbolTable
 70
1
100
AcDbDimStyleTable
 71
0
  0
DIMSTYLE
105
213
100
AcDbSymbolTableRecord
100
AcDbDimStyleTableRecord
  2
STANDARD
 70
0
  3

  4

 40
1.0
 41
0.6979873339
 42
1.0
 43
0.38
 44
1.0
 45
0.0
 46
0.0
 47
0.01
 48
0.01
140
0.9771822674
141
0.09
142
0.0
143
25.4
144
1.0
145
0.0
146
1.0
147
0.625
 71
1
 72
0
 73
0
 74
0
 75
0
 76
0
 77
1
 78
8
 79
2
170
0
171
1
172
0
173
0
174
0
175
0
176
0
177
0
178
0
270
2
179
2
271
2
272
2
273
2
274
2
275
0
280
0
281
0
282
0
283
1
284
8
285
0
286
0
287
3
288
0
340
11
278
46
341
212
342
212
343
212
344
212
  0
ENDTAB
  0
ENDSEC
  0
SECTION
  2
BLOCKS
  0
BLOCK
  5
20
100
AcDbEntity
  8
0
100
AcDbBlockBegin
  2
*Model_Space
 70
0
 10
0.0
 20
0.0
 30
0.0
  3
*Model_Space
  1

  0
ENDBLK
  5
21
100
AcDbEntity
  8
0
100
AcDbBlockEnd
  0
BLOCK
  5
1C
100
AcDbEntity
  8
0
100
AcDbBlockBegin
  2
*Paper_Space
 70
0
 10
0.0
 20
0.0
 30
0.0
  3
*Paper_Space
  1

  0
ENDBLK
  5
1D
100
AcDbEntity
  8
0
100
AcDbBlockEnd
  0
BLOCK
  5
214
100
AcDbEntity
  8
0
100
AcDbBlockBegin
  2
_FILLED
 70
64
 10
0.0
 20
0.0
  3
_FILLED
  1

  0
SOLID
  5
215
100
AcDbEntity
  8
0
  6
BYBLOCK
 62
0
100
AcDbTrace
 10
0.0
 20
0.0
 11
-1.0
 21
0.25
 12
-1.0
 22
-0.25
 13
-1.0
 23
-0.25
  0
ENDBLK
  5
216
100
AcDbEntity
  8
0
  6
BYBLOCK
 62
0
100
AcDbBlockEnd
  0
ENDSEC
  0
SECTION
  2
ENTITIES
  0
LINE
  5
217
100
AcDbEntity
  8
0
100
AcDbLine
 62
7
  6
BYLAYER
 10
6.854567745
 20
36.7570385633
 11
6.6489457048
 21
40.1585648297
  0
LINE
  5
218
100
AcDbEntity
  8
0
100
AcDbLine
 62
7
  6
BYLAYER
 10
6.6489459194
 20
40.1585648297
 11
6.6490039329
 21
40.157440418
  0
LINE
  5
219
100
AcDbEntity
  8
0
100
AcDbLine
 62
7
  6
BYLAYER
 10
6.6493225595
 20
40.2064756048
 11
6.6463177113
 21
42.3089757703
  0
LINE
  5
21A
100
AcDbEntity
  8
0
100
AcDbLine
 62
7
  6
BYLAYER
 10
6.6490037449
 20
40.1574419145
 11
6.6494104709
 21
40.2505808205
  0
LINE
  5
21B
100
AcDbEntity
  8
0
100
AcDbLine
 62
7
  6
BYLAYER
 10
6.6605607916
 20
43.1454395515
 11
6.660868568
 21
43.1575039275
  0
LINE
  5
21C
100
AcDbEntity
  8
0
100
AcDbLine
 62
7
  6
BYLAYER
 10
6.6633491535
 20
43.2282144533
 11
6.6599077837
 21
43.1260544559
  0
LINE
  5
21D
100
AcDbEntity
  8
0
100
AcDbLine
 62
7
  6
BYLAYER
 10
6.660868568
 20
43.1575039275
 11
6.6614417825
 21
43.1715925163
  0
LINE
  5
21E
100
AcDbEntity
  8
0
100
AcDbLine
 62
7
  6
BYLAYER
 10
8.4445856815
 20
35.4113137691
 11
8.4445856815
 21
29.5652486599
  0
LINE
  5
21F
100
AcDbEntity
  8
0
100
AcDbLine
 62
7
  6
BYLAYER
 10
8.5627551265
 20
35.0111078586
 11
8.5627551265
 21
29.4020806107
  0
LINE
  5
220
100
AcDbEntity
  8
0
100
AcDbLine
 62
7
  6
BYLAYER
 10
8.9590288296
 20
29.3427628149
 11
8.9590288296
 21
34.6596891244
  0
LINE
  5
221
100
AcDbEntity
  8
0
100
AcDbLine
 62
7
  6
BYLAYER
 10
32.9154017774
 20
27.2104476291
 11
23.0293261591
 21
27.2104476291
  0
LINE
  5
222
100
AcDbEntity
  8
0
100
AcDbLine
 62
7
  6
BYLAYER
 10
34.1654019823
 20
27.8854478758
 11
32.9154017774
 21
27.8854478758
  0
LINE
  5
223
100
AcDbEntity
  8
0
100
AcDbLine
 62
7
  6
BYLAYER
 10
22.6154020449
 20
28.9864476329
 11
22.3854016905
 21
28.9864476329
  0
LINE
  5
224
100
AcDbEntity
  8
0
100
AcDbLine
 62
7
  6
BYLAYER
 10
11.4124298341
 20
29.338668475
 11
21.8814777024
 21
29.338668475
  0
LINE
  5
225
100
AcDbEntity
  8
0
100
AcDbLine
 62
7
  6
BYLAYER
 10
22.3851270769
 20
30.2069724645
 11
21.881477707
 21
30.2069724645
  0
LINE
  5
226
100
AcDbEntity
  8
0
100
AcDbLine
 62
7
  6
BYLAYER
 10
34.1654019823
 20
30.5854476329
 11
36.8644019823
 21
30.5854476329
  0
LINE
  5
227
100
AcDbEntity
  8
0
100
AcDbLine
 62
7
  6
BYLAYER
 10
22.3854016905
 20
53.9354473959
 11
21.8850864335
 21
50.5750507067
  0
LINE
  5
228
100
AcDbEntity
  8
0
100
AcDbLine
 62
7
  6
BYLAYER
 10
22.6154020449
 20
54.3204477664
 11
23.0293261591
 21
55.7104476329
  0
LINE
  5
229
100
AcDbEntity
  8
0
100
AcDbLine
 62
7
  6
BYLAYER
 10
37.1144019823
 20
30.9604476329
 11
37.1254019823
 21
30.9604476329
  0
LINE
  5
22A
100
AcDbEntity
  8
0
100
AcDbLine
 62
7
  6
BYLAYER
 10
37.1254019823
 20
31.3204476329
 11
45.7254019823
 21
31.3204476329
  0
LINE
  5
22B
100
AcDbEntity
  8
0
100
AcDbLine
 62
7
  6
BYLAYER
 10
45.7254019823
 20
32.3604476329
 11
48.6134019823
 21
32.3604476329
  0
LINE
  5
22C
100
AcDbEntity
  8
0
100
AcDbLine
 62
7
  6
BYLAYER
 10
23.0293261591
 20
27.2104476329
 11
22.6154020449
 21
28.6004474994
  0
LINE
  5
22D
100
AcDbEntity
  8
0
100
AcDbLine
 62
7
  6
BYLAYER
 10
21.8814777051
 20
53.5838853207
 11
21.881477705
 21
52.715268934
  0
LINE
  5
22E
100
AcDbEntity
  8
0
100
AcDbLine
 62
7
  6
BYLAYER
 10
21.8814777034
 20
36.0782096079
 11
21.8814777027
 21
29.3387721311
  0
LINE
  5
22F
100
AcDbEntity
  8
0
100
AcDbLine
 62
7
  6
BYLAYER
 10
21.8850864335
 20
38.1896516247
 11
21.8850864335
 21
50.520001018
  0
LINE
  5
230
100
AcDbEntity
  8
0
100
AcDbLine
 62
7
  6
BYLAYER
 10
22.3854016905
 20
28.9854478698
 11
22.3854016905
 21
53.9354473959
  0
LINE
  5
231
100
AcDbEntity
  8
0
100
AcDbLine
 62
7
  6
BYLAYER
 10
22.6114777027
 20
29.8907794727
 11
22.6114777027
 21
36.0779499232
  0
LINE
  5
232
100
AcDbEntity
  8
0
100
AcDbLine
 62
7
  6
BYLAYER
 10
22.6154020449
 20
28.6004474994
 11
22.6154020449
 21
29.8864319322
  0
LINE
  5
233
100
AcDbEntity
  8
0
100
AcDbLine
 62
7
  6
BYLAYER
 10
22.6154020449
 20
35.8331604751
 11
22.6154020449
 21
54.3204477664
  0
LINE
  5
234
100
AcDbEntity
  8
0
100
AcDbLine
 62
7
  6
BYLAYER
 10
34.1654019823
 20
34.2468616658
 11
34.9500524583
 21
34.246902136
  0
LINE
  5
235
100
AcDbEntity
  8
0
100
AcDbLine
 62
7
  6
BYLAYER
 10
23.0293261591
 20
27.2104476291
 11
23.0293261591
 21
55.7104476366
  0
LINE
  5
236
100
AcDbEntity
  8
0
100
AcDbLine
 62
7
  6
BYLAYER
 10
37.5254019823
 20
34.6604476329
 11
51.8144019823
 21
34.6604476329
  0
LINE
  5
237
100
AcDbEntity
  8
0
100
AcDbLine
 62
7
  6
BYLAYER
 10
48.4144019823
 20
34.748282909
 11
45.7254019823
 21
34.748282909
  0
LINE
  5
238
100
AcDbEntity
  8
0
100
AcDbLine
 62
7
  6
BYLAYER
 10
48.4144019823
 20
34.7753833508
 11
51.8144019823
 21
34.7753833508
  0
LINE
  5
239
100
AcDbEntity
  8
0
100
AcDbLine
 62
7
  6
BYLAYER
 10
37.5254019823
 20
34.8189381989
 11
45.7254019823
 21
34.8189381989
  0
LINE
  5
23A
100
AcDbEntity
  8
0
100
AcDbLine
 62
7
  6
BYLAYER
 10
8.2557712527
 20
35.9792142782
 11
21.8814776966
 21
35.9792142782
  0
LINE
  5
23B
100
AcDbEntity
  8
0
100
AcDbLine
 62
7
  6
BYLAYER
 10
21.8814776966
 20
36.0782096079
 11
22.3852703739
 21
36.0782096079
  0
LINE
  5
23C
100
AcDbEntity
  8
0
100
AcDbLine
 62
7
  6
BYLAYER
 10
34.1654019823
 20
36.4086540498
 11
32.9154019823
 21
36.4086540498
  0
LINE
  5
23D
100
AcDbEntity
  8
0
100
AcDbLine
 62
7
  6
BYLAYER
 10
48.4144019823
 20
37.652213254
 11
49.4226363611
 21
37.652213254
  0
LINE
  5
23E
100
AcDbEntity
  8
0
100
AcDbLine
 62
7
  6
BYLAYER
 10
34.9500524583
 20
38.0193278046
 11
34.1654019823
 21
38.0193791059
  0
LINE
  5
23F
100
AcDbEntity
  8
0
100
AcDbLine
 62
7
  6
BYLAYER
 10
48.7126709212
 20
38.2604476328
 11
48.4144019823
 21
38.2604476328
  0
LINE
  5
240
100
AcDbEntity
  8
0
100
AcDbLine
 62
7
  6
BYLAYER
 10
45.7254019823
 20
38.2604478304
 11
37.5254019823
 21
38.2604478304
  0
LINE
  5
241
100
AcDbEntity
  8
0
100
AcDbLine
 62
7
  6
BYLAYER
 10
45.7254019823
 20
38.9604476329
 11
37.5254019823
 21
38.9604476329
  0
LINE
  5
242
100
AcDbEntity
  8
0
100
AcDbLine
 62
7
  6
BYLAYER
 10
50.6144019823
 20
40.6604476329
 11
46.5144019823
 21
40.6604476329
  0
LINE
  5
243
100
AcDbEntity
  8
0
100
AcDbLine
 62
7
  6
BYLAYER
 10
32.9154019823
 20
40.3054476329
 11
31.7154019823
 21
40.4104476329
  0
LINE
  5
244
100
AcDbEntity
  8
0
100
AcDbLine
 62
7
  6
BYLAYER
 10
31.7154019823
 20
42.5104476329
 11
31.7154019823
 21
40.4104476329
  0
LINE
  5
245
100
AcDbEntity
  8
0
100
AcDbLine
 62
7
  6
BYLAYER
 10
31.7154019823
 20
42.5104476329
 11
32.9154017774
 21
42.6154476149
  0
LINE
  5
246
100
AcDbEntity
  8
0
100
AcDbLine
 62
7
  6
BYLAYER
 10
46.5144019823
 20
42.2604476329
 11
50.6144019823
 21
42.2604476329
  0
LINE
  5
247
100
AcDbEntity
  8
0
100
AcDbLine
 62
7
  6
BYLAYER
 10
32.9154017774
 20
27.2104476254
 11
32.9154017774
 21
55.7104476403
  0
LINE
  5
248
100
AcDbEntity
  8
0
100
AcDbLine
 62
7
  6
BYLAYER
 10
51.8144019823
 20
45.2604476329
 11
53.0144019823
 21
45.2813937108
  0
LINE
  5
249
100
AcDbEntity
  8
0
100
AcDbLine
 62
7
  6
BYLAYER
 10
37.5254019823
 20
43.9604476329
 11
40.1694084029
 21
43.9604476329
  0
LINE
  5
24A
100
AcDbEntity
  8
0
100
AcDbLine
 62
7
  6
BYLAYER
 10
42.6613955617
 20
43.9604476329
 11
45.7254019823
 21
43.9604476329
  0
LINE
  5
24B
100
AcDbEntity
  8
0
100
AcDbLine
 62
7
  6
BYLAYER
 10
45.7254019823
 20
44.1287804457
 11
51.6144019823
 21
44.1287804457
  0
LINE
  5
24C
100
AcDbEntity
  8
0
100
AcDbLine
 62
7
  6
BYLAYER
 10
34.1654019823
 20
27.8854478758
 11
34.1654019823
 21
55.03544739
  0
LINE
  5
24D
100
AcDbEntity
  8
0
100
AcDbLine
 62
7
  6
BYLAYER
 10
34.9500524583
 20
51.2402528985
 11
34.9500524583
 21
48.5155621907
  0
LINE
  5
24E
100
AcDbEntity
  8
0
100
AcDbLine
 62
7
  6
BYLAYER
 10
34.9500524583
 20
38.0192765029
 11
34.9500524583
 21
34.2469426065
  0
LINE
  5
24F
100
AcDbEntity
  8
0
100
AcDbLine
 62
7
  6
BYLAYER
 10
35.1491046725
 20
34.2936485627
 11
35.1491046725
 21
37.9602906992
  0
LINE
  5
250
100
AcDbEntity
  8
0
100
AcDbLine
 62
7
  6
BYLAYER
 10
35.1491046725
 20
48.5628072252
 11
35.1491046725
 21
51.2037265758
  0
LINE
  5
251
100
AcDbEntity
  8
0
100
AcDbLine
 62
7
  6
BYLAYER
 10
32.9154019823
 20
46.5122412159
 11
34.1654019823
 21
46.5122412159
  0
LINE
  5
252
100
AcDbEntity
  8
0
100
AcDbLine
 62
7
  6
BYLAYER
 10
36.4154019823
 20
52.1001433522
 11
36.4154019823
 21
52.3353477626
  0
LINE
  5
253
100
AcDbEntity
  8
0
100
AcDbLine
 62
7
  6
BYLAYER
 10
36.7744019818
 20
35.8778023686
 11
36.7744019818
 21
36.1693973889
  0
LINE
  5
254
100
AcDbEntity
  8
0
100
AcDbLine
 62
7
  6
BYLAYER
 10
36.7744019818
 20
49.9253900078
 11
36.7744019818
 21
50.1326862331
  0
LINE
  5
255
100
AcDbEntity
  8
0
100
AcDbLine
 62
7
  6
BYLAYER
 10
36.8644019823
 20
52.3354476329
 11
36.8644019823
 21
30.5854476329
  0
LINE
  5
256
100
AcDbEntity
  8
0
100
AcDbLine
 62
7
  6
BYLAYER
 10
37.1144019823
 20
52.0854476329
 11
37.1144019823
 21
30.8354476329
  0
LINE
  5
257
100
AcDbEntity
  8
0
100
AcDbLine
 62
7
  6
BYLAYER
 10
37.1254019823
 20
31.3204476329
 11
37.1254019823
 21
30.9604504866
  0
LINE
  5
258
100
AcDbEntity
  8
0
100
AcDbLine
 62
7
  6
BYLAYER
 10
51.6144019823
 20
47.2750843369
 11
48.4144019823
 21
47.2750843369
  0
LINE
  5
259
100
AcDbEntity
  8
0
100
AcDbLine
 62
7
  6
BYLAYER
 10
34.1654019823
 20
48.5154798795
 11
34.9500524583
 21
48.5155210349
  0
LINE
  5
25A
100
AcDbEntity
  8
0
100
AcDbLine
 62
7
  6
BYLAYER
 10
53.0144019823
 20
47.439501555
 11
51.8144019823
 21
47.4604476329
  0
LINE
  5
25B
100
AcDbEntity
  8
0
100
AcDbLine
 62
7
  6
BYLAYER
 10
37.5254019823
 20
43.9604476329
 11
37.5254019823
 21
38.9604476329
  0
LINE
  5
25C
100
AcDbEntity
  8
0
100
AcDbLine
 62
7
  6
BYLAYER
 10
37.5254019823
 20
34.6604476822
 11
37.5254019823
 21
38.2604478304
  0
LINE
  5
25D
100
AcDbEntity
  8
0
100
AcDbLine
 62
7
  6
BYLAYER
 10
37.5254019823
 20
49.286685625
 11
37.5254019823
 21
51.5604476329
  0
LINE
  5
25E
100
AcDbEntity
  8
0
100
AcDbLine
 62
7
  6
BYLAYER
 10
38.7154019823
 20
51.7682116969
 11
38.7154019823
 21
51.5604476329
  0
LINE
  5
25F
100
AcDbEntity
  8
0
100
AcDbLine
 62
7
  6
BYLAYER
 10
48.4144019823
 20
49.105708184
 11
50.3485923712
 21
49.105708184
  0
LINE
  5
260
100
AcDbEntity
  8
0
100
AcDbLine
 62
7
  6
BYLAYER
 10
45.7254019823
 20
49.286685625
 11
37.5254019823
 21
49.286685625
  0
LINE
  5
261
100
AcDbEntity
  8
0
100
AcDbLine
 62
7
  6
BYLAYER
 10
48.4144019823
 20
49.4084901753
 11
50.2144019823
 21
49.4084901753
  0
LINE
  5
262
100
AcDbEntity
  8
0
100
AcDbLine
 62
7
  6
BYLAYER
 10
37.5254019823
 20
49.7550240579
 11
45.7254019823
 21
49.7550240579
  0
LINE
  5
263
100
AcDbEntity
  8
0
100
AcDbLine
 62
7
  6
BYLAYER
 10
37.5254019823
 20
50.0680270626
 11
45.7254019823
 21
50.0680270626
  0
LINE
  5
264
100
AcDbEntity
  8
0
100
AcDbLine
 62
7
  6
BYLAYER
 10
45.7254019823
 20
50.5604476329
 11
48.4144019823
 21
50.5604476329
  0
LINE
  5
265
100
AcDbEntity
  8
0
100
AcDbLine
 62
7
  6
BYLAYER
 10
50.6144019823
 20
42.2604476329
 11
51.8144019823
 21
42.9532679559
  0
LINE
  5
266
100
AcDbEntity
  8
0
100
AcDbLine
 62
7
  6
BYLAYER
 10
34.9500524583
 20
51.2402528985
 11
34.9605747548
 21
51.2403628805
  0
LINE
  5
267
100
AcDbEntity
  8
0
100
AcDbLine
 62
7
  6
BYLAYER
 10
50.6144019823
 20
51.5604476328
 11
48.4144019823
 21
51.5604476328
  0
LINE
  5
268
100
AcDbEntity
  8
0
100
AcDbLine
 62
7
  6
BYLAYER
 10
45.7254019823
 20
51.5604476329
 11
37.5254019823
 21
51.5604476329
  0
LINE
  5
269
100
AcDbEntity
  8
0
100
AcDbLine
 62
7
  6
BYLAYER
 10
37.1144019823
 20
51.9604476329
 11
42.538829706
 21
51.9604476329
  0
LINE
  5
26A
100
AcDbEntity
  8
0
100
AcDbLine
 62
7
  6
BYLAYER
 10
36.4154019823
 20
52.1001433522
 11
34.1654019823
 21
52.1001433522
  0
LINE
  5
26B
100
AcDbEntity
  8
0
100
AcDbLine
 62
7
  6
BYLAYER
 10
36.4154019823
 20
52.3354476329
 11
36.8644019823
 21
52.3354476329
  0
LINE
  5
26C
100
AcDbEntity
  8
0
100
AcDbLine
 62
7
  6
BYLAYER
 10
34.9500524583
 20
51.2402528985
 11
34.1654019823
 21
51.2403808142
  0
LINE
  5
26D
100
AcDbEntity
  8
0
100
AcDbLine
 62
7
  6
BYLAYER
 10
34.9605747548
 20
51.2403628805
 11
35.1491046725
 21
51.2037265758
  0
LINE
  5
26E
100
AcDbEntity
  8
0
100
AcDbLine
 62
7
  6
BYLAYER
 10
35.7773900727
 20
50.9318737722
 11
35.1491046725
 21
51.2037265758
  0
LINE
  5
26F
100
AcDbEntity
  8
0
100
AcDbLine
 62
7
  6
BYLAYER
 10
51.8144019823
 20
39.9676273098
 11
50.6144019823
 21
40.6604476329
  0
LINE
  5
270
100
AcDbEntity
  8
0
100
AcDbLine
 62
7
  6
BYLAYER
 10
42.5388695479
 20
51.9568872311
 11
42.5388695479
 21
51.5604476329
  0
LINE
  5
271
100
AcDbEntity
  8
0
100
AcDbLine
 62
7
  6
BYLAYER
 10
42.7145097665
 20
51.9604459726
 11
42.7145097665
 21
51.5604476329
  0
LINE
  5
272
100
AcDbEntity
  8
0
100
AcDbLine
 62
7
  6
BYLAYER
 10
8.2554230514
 20
52.8493678804
 11
21.8814777028
 21
52.8493678804
  0
LINE
  5
273
100
AcDbEntity
  8
0
100
AcDbLine
 62
7
  6
BYLAYER
 10
11.5475598195
 20
53.5840058048
 11
21.8814777028
 21
53.5840058048
  0
LINE
  5
274
100
AcDbEntity
  8
0
100
AcDbLine
 62
7
  6
BYLAYER
 10
22.3854016905
 20
53.9354473959
 11
22.6154020449
 21
53.9354473959
  0
LINE
  5
275
100
AcDbEntity
  8
0
100
AcDbLine
 62
7
  6
BYLAYER
 10
22.2036992352
 20
52.7150322264
 11
21.8814776982
 21
52.715268934
  0
LINE
  5
276
100
AcDbEntity
  8
0
100
AcDbLine
 62
7
  6
BYLAYER
 10
48.8977514022
 20
38.1770982129
 11
51.8144019823
 21
35.2604476329
  0
LINE
  5
277
100
AcDbEntity
  8
0
100
AcDbLine
 62
7
  6
BYLAYER
 10
32.9154017774
 20
55.03544739
 11
34.1654019823
 21
55.03544739
  0
LINE
  5
278
100
AcDbEntity
  8
0
100
AcDbLine
 62
7
  6
BYLAYER
 10
23.0293261591
 20
55.7104476366
 11
32.9154017774
 21
55.7104476366
  0
LINE
  5
279
100
AcDbEntity
  8
0
100
AcDbLine
 62
7
  6
BYLAYER
 10
45.7254019823
 20
34.6604476329
 11
45.7254019823
 21
31.3204476329
  0
LINE
  5
27A
100
AcDbEntity
  8
0
100
AcDbLine
 62
7
  6
BYLAYER
 10
45.7254019823
 20
34.7483161951
 11
45.7254019823
 21
51.5604476329
  0
LINE
  5
27B
100
AcDbEntity
  8
0
100
AcDbLine
 62
7
  6
BYLAYER
 10
46.5144019823
 20
40.6604476329
 11
46.5144019823
 21
42.2604476329
  0
LINE
  5
27C
100
AcDbEntity
  8
0
100
AcDbLine
 62
7
  6
BYLAYER
 10
48.4144019823
 20
34.7483310169
 11
48.4144019823
 21
38.2604476328
  0
LINE
  5
27D
100
AcDbEntity
  8
0
100
AcDbLine
 62
7
  6
BYLAYER
 10
48.4144019823
 20
47.2750843369
 11
48.4144019823
 21
51.5604476328
  0
LINE
  5
27E
100
AcDbEntity
  8
0
100
AcDbLine
 62
7
  6
BYLAYER
 10
48.4444019823
 20
42.2604476329
 11
48.4444019823
 21
40.6604476329
  0
LINE
  5
27F
100
AcDbEntity
  8
0
100
AcDbLine
 62
7
  6
BYLAYER
 10
48.6134019823
 20
33.060447747
 11
48.6134019823
 21
32.360586372
  0
LINE
  5
280
100
AcDbEntity
  8
0
100
AcDbLine
 62
7
  6
BYLAYER
 10
50.2144019823
 20
51.5604476328
 11
50.2144019823
 21
49.4084901753
  0
LINE
  5
281
100
AcDbEntity
  8
0
100
AcDbLine
 62
7
  6
BYLAYER
 10
51.5144019823
 20
50.6604408784
 11
51.5144019823
 21
49.5937126599
  0
LINE
  5
282
100
AcDbEntity
  8
0
100
AcDbLine
 62
7
  6
BYLAYER
 10
51.6144019823
 20
47.2750843369
 11
51.6144019823
 21
44.1287804457
  0
LINE
  5
283
100
AcDbEntity
  8
0
100
AcDbLine
 62
7
  6
BYLAYER
 10
51.8144019823
 20
34.5909498346
 11
51.8144019823
 21
39.9676273098
  0
LINE
  5
284
100
AcDbEntity
  8
0
100
AcDbLine
 62
7
  6
BYLAYER
 10
51.8144019823
 20
42.9532679559
 11
51.8144019823
 21
49.2527515284
  0
LINE
  5
285
100
AcDbEntity
  8
0
100
AcDbLine
 62
7
  6
BYLAYER
 10
51.5144019823
 20
50.6604476329
 11
50.6144019823
 21
51.5604476328
  0
LINE
  5
286
100
AcDbEntity
  8
0
100
AcDbLine
 62
7
  6
BYLAYER
 10
53.0144019823
 20
47.439501555
 11
53.0144019823
 21
45.2813937108
  0
LINE
  5
287
100
AcDbEntity
  8
0
100
AcDbLine
 62
7
  6
BYLAYER
 10
51.5144011827
 20
34.0721215062
 11
51.8144019823
 21
34.5909498346
  0
ARC
  5
288
100
AcDbEntity
  8
0
100
AcDbCircle
 62
7
  6
BYLAYER
 10
11.6543623106
 20
-726.5000127021
 40
780.0840258402
100
AcDbArc
 50
90.0078444498
 51
90.1979677207
  0
ARC
  5
289
100
AcDbEntity
  8
0
100
AcDbCircle
 62
7
  6
BYLAYER
 10
11.4727856176
 20
792.9266444516
 40
763.5879783941
100
AcDbArc
 50
269.8113801762
 51
269.9954712112
  0
ARC
  5
28A
100
AcDbEntity
  8
0
100
AcDbCircle
 62
7
  6
BYLAYER
 10
-12.3355515033
 20
-418.8754428501
 40
454.0347658993
100
AcDbArc
 50
86.9781537894
 51
87.3118312774
  0
ARC
  5
28B
100
AcDbEntity
  8
0
100
AcDbCircle
 62
7
  6
BYLAYER
 10
56.7849817402
 20
41.4823068751
 40
50.1535083753
100
AcDbArc
 50
180.0238297702
 51
181.0954855822
  0
ARC
  5
28C
100
AcDbEntity
  8
0
100
AcDbCircle
 62
7
  6
BYLAYER
 10
56.7849817402
 20
41.4405883906
 40
50.1535083753
100
AcDbArc
 50
178.8422131674
 51
179.9761702298
  0
ARC
  5
28D
100
AcDbEntity
  8
0
100
AcDbCircle
 62
7
  6
BYLAYER
 10
56.7849817402
 20
41.4405883906
 40
50.1535083753
100
AcDbArc
 50
174.5961856975
 51
177.9573685067
  0
ARC
  5
28E
100
AcDbEntity
  8
0
100
AcDbCircle
 62
7
  6
BYLAYER
 10
31.5661171724
 20
42.304393062
 40
24.9198544712
100
AcDbArc
 50
178.065892988
 51
178.28418525
  0
ARC
  5
28F
100
AcDbEntity
  8
0
100
AcDbCircle
 62
7
  6
BYLAYER
 10
31.4081375463
 20
42.3439439195
 40
24.7605850753
100
AcDbArc
 50
178.1899019052
 51
180.1218220607
  0
ARC
  5
290
100
AcDbEntity
  8
0
100
AcDbCircle
 62
7
  6
BYLAYER
 10
31.3981588964
 20
42.3088850266
 40
24.7518370088
100
AcDbArc
 50
178.2829373829
 51
179.9997899456
  0
ARC
  5
291
100
AcDbEntity
  8
0
100
AcDbCircle
 62
7
  6
BYLAYER
 10
43.8490585608
 20
51.4523254735
 40
18.9989508801
100
AcDbArc
 50
284.5230083061
 51
289.8813806044
  0
ARC
  5
292
100
AcDbEntity
  8
0
100
AcDbCircle
 62
7
  6
BYLAYER
 10
44.8089244176
 20
49.001437269
 40
16.3656482887
100
AcDbArc
 50
293.6610595177
 51
294.1839494392
  0
ARC
  5
293
100
AcDbEntity
  8
0
100
AcDbCircle
 62
7
  6
BYLAYER
 10
33.4203945245
 20
32.345844559
 40
11.5353080911
100
AcDbArc
 50
190.7799713864
 51
196.9314485105
  0
ARC
  5
294
100
AcDbEntity
  8
0
100
AcDbCircle
 62
7
  6
BYLAYER
 10
41.489543319
 20
41.1512049044
 40
10.5536116593
100
AcDbArc
 50
11.951105034
 51
16.3878524663
  0
CIRCLE
  5
295
100
AcDbEntity
  8
0
100
AcDbCircle
 62
7
  6
BYLAYER
 10
41.4154019823
 20
43.8604476329
 40
1.25
  0
ARC
  5
296
100
AcDbEntity
  8
0
100
AcDbCircle
 62
7
  6
BYLAYER
 10
36.8644019823
 20
30.8354476329
 40
0.25
100
AcDbArc
 50
270.0
 51
360.0
  0
ARC
  5
297
100
AcDbEntity
  8
0
100
AcDbCircle
 62
7
  6
BYLAYER
 10
36.8644019823
 20
52.0854476329
 40
0.25
100
AcDbArc
 50
0.0
 51
90.0
  0
ARC
  5
298
100
AcDbEntity
  8
0
100
AcDbCircle
 62
7
  6
BYLAYER
 10
48.7117597634
 20
38.0112606238
 40
0.2491886749
100
AcDbArc
 50
41.7214736212
 51
89.7904976448
  0
SPLINE
  5
299
100
AcDbEntity
  8
0
100
AcDbSpline
 62
7
  6
BYLAYER
 70
0
 71
3
 72
16
 73
12
 74
0
 42
0.0000001
 43
0.0000001
 44
0.0000000001
 40
0.0
 40
0.0
 40
0.0
 40
0.0
 40
0.0485138494
 40
0.0793935795
 40
0.1156658353
 40
0.2056360999
 40
0.3196551489
 40
0.4572688569
 40
0.6174291632
 40
0.7988692497
 40
1.0
 40
1.0
 40
1.0
 40
1.0
 10
22.9356850065
 20
29.3386805955
 30
0.0
 10
22.9251956532
 20
29.3386781724
 30
0.0
 10
22.9081999896
 20
29.3450999798
 30
0.0
 10
22.8879692047
 20
29.3596651596
 30
0.0
 10
22.8630853173
 20
29.3829823039
 30
0.0
 10
22.8307686147
 20
29.4238890718
 30
0.0
 10
22.7911055958
 20
29.4862706675
 30
0.0
 10
22.7489215346
 20
29.5647562686
 30
0.0
 10
22.7051546147
 20
29.6587173412
 30
0.0
 10
22.6602998415
 20
29.7671782524
 30
0.0
 10
22.6307271935
 20
29.84443434
 30
0.0
 10
22.6154981852
 20
29.885167791
 30
0.0
  0
LINE
  5
29A
100
AcDbEntity
  8
0
100
AcDbLine
 62
7
  6
BYLAYER
 10
22.6154981852
 20
29.885167791
 11
22.6134379657
 21
29.8906842939
  0
SPLINE
  5
29B
100
AcDbEntity
  8
0
100
AcDbSpline
 62
7
  6
BYLAYER
 70
0
 71
3
 72
9
 73
5
 74
0
 42
0.0000001
 43
0.0000001
 44
0.0000000001
 40
0.0
 40
0.0
 40
0.0
 40
0.0
 40
0.4991957437
 40
1.0
 40
1.0
 40
1.0
 40
1.0
 10
50.3101071562
 20
33.5857369465
 30
0.0
 10
50.4898481309
 20
33.6507936906
 30
0.0
 10
50.8476701797
 20
33.7873367432
 30
0.0
 10
51.2012542286
 20
33.9345340579
 30
0.0
 10
51.3768741625
 20
34.0115580148
 30
0.0
  0
SPLINE
  5
29C
100
AcDbEntity
  8
0
100
AcDbSpline
 62
7
  6
BYLAYER
 70
0
 71
3
 72
9
 73
5
 74
0
 42
0.0000001
 43
0.0000001
 44
0.0000000001
 40
0.0
 40
0.0
 40
0.0
 40
0.0
 40
0.4867041436
 40
1.0
 40
1.0
 40
1.0
 40
1.0
 10
6.8543785606
 20
46.1637740964
 30
0.0
 10
6.9589101681
 20
47.2686029205
 30
0.0
 10
7.3119155029
 20
49.5268611873
 30
0.0
 10
7.9010420199
 20
51.7339122258
 30
0.0
 10
8.2554230514
 20
52.8493678804
 30
0.0
  0
SPLINE
  5
29D
100
AcDbEntity
  8
0
100
AcDbSpline
 62
7
  6
BYLAYER
 70
0
 71
3
 72
10
 73
6
 74
0
 42
0.0000001
 43
0.0000001
 44
0.0000000001
 40
0.0
 40
0.0
 40
0.0
 40
0.0
 40
0.4863081049
 40
0.7398329659
 40
1.0
 40
1.0
 40
1.0
 40
1.0
 10
6.854603099
 20
36.7570403644
 30
0.0
 10
6.9619230745
 20
35.6227867988
 30
0.0
 10
7.2331641488
 20
33.9057776333
 30
0.0
 10
7.7830349966
 20
31.6278905457
 30
0.0
 10
8.1254495071
 20
30.4734399979
 30
0.0
 10
8.3129146889
 20
29.8934671363
 30
0.0
  0
LINE
  5
29E
100
AcDbEntity
  8
0
100
AcDbLine
 62
7
  6
BYLAYER
 10
51.8144019823
 20
49.2527515284
 11
51.5144019823
 21
49.5937126599
  0
SPLINE
  5
29F
100
AcDbEntity
  8
0
100
AcDbSpline
 62
7
  6
BYLAYER
 70
0
 71
3
 72
11
 73
7
 74
0
 42
0.0000001
 43
0.0000001
 44
0.0000000001
 40
0.0
 40
0.0
 40
0.0
 40
0.0
 40
0.3265111046
 40
0.5983153027
 40
0.8185955024
 40
1.0
 40
1.0
 40
1.0
 40
1.0
 10
8.9590302876
 20
53.5793566933
 30
0.0
 10
8.9149998655
 20
53.5791258011
 30
0.0
 10
8.8343127668
 20
53.577494007
 30
0.0
 10
8.724137918
 20
53.568572573
 30
0.0
 10
8.6347884766
 20
53.5510010001
 30
0.0
 10
8.5839009705
 20
53.5307869645
 30
0.0
 10
8.5627551265
 20
53.5184869871
 30
0.0
  0
SPLINE
  5
2A0
100
AcDbEntity
  8
0
100
AcDbSpline
 62
7
  6
BYLAYER
 70
0
 71
3
 72
9
 73
5
 74
0
 42
0.0000001
 43
0.0000001
 44
0.0000000001
 40
0.0
 40
0.0
 40
0.0
 40
0.0
 40
0.2250663522
 40
1.0
 40
1.0
 40
1.0
 40
1.0
 10
8.5627551265
 20
53.5184869871
 30
0.0
 10
8.5510493552
 20
53.5086084064
 30
0.0
 10
8.5020094468
 20
53.4611928533
 30
0.0
 10
8.4658575438
 20
53.4014837739
 30
0.0
 10
8.4445856815
 20
53.3532254373
 30
0.0
  0
SPLINE
  5
2A1
100
AcDbEntity
  8
0
100
AcDbSpline
 62
7
  6
BYLAYER
 70
0
 71
3
 72
10
 73
6
 74
0
 42
0.0000001
 43
0.0000001
 44
0.0000000001
 40
0.0
 40
0.0
 40
0.0
 40
0.0
 40
0.2085091386
 40
0.4463614451
 40
1.0
 40
1.0
 40
1.0
 40
1.0
 10
8.4445856815
 20
53.3532254373
 30
0.0
 10
8.4286779969
 20
53.319346802
 30
0.0
 10
8.3966225633
 20
53.2458800351
 30
0.0
 10
8.331170097
 20
53.0787115164
 30
0.0
 10
8.2855536118
 20
52.9440685044
 30
0.0
 10
8.2554230514
 20
52.8493678804
 30
0.0
  0
SPLINE
  5
2A2
100
AcDbEntity
  8
0
100
AcDbSpline
 62
7
  6
BYLAYER
 70
0
 71
3
 72
9
 73
5
 74
0
 42
0.0000001
 43
0.0000001
 44
0.0000000001
 40
0.0
 40
0.0
 40
0.0
 40
0.0
 40
0.4569761588
 40
1.0
 40
1.0
 40
1.0
 40
1.0
 10
8.4445856816
 20
29.5652486599
 30
0.0
 10
8.4214892229
 20
29.6139342931
 30
0.0
 10
8.375195497
 20
29.7224824386
 30
0.0
 10
8.3341713964
 20
29.8330653101
 30
0.0
 10
8.3129146889
 20
29.8934671363
 30
0.0
  0
SPLINE
  5
2A3
100
AcDbEntity
  8
0
100
AcDbSpline
 62
7
  6
BYLAYER
 70
0
 71
3
 72
9
 73
5
 74
0
 42
0.0000001
 43
0.0000001
 44
0.0000000001
 40
0.0
 40
0.0
 40
0.0
 40
0.0
 40
0.2252058784
 40
1.0
 40
1.0
 40
1.0
 40
1.0
 10
8.5627551265
 20
29.4020806107
 30
0.0
 10
8.5510547615
 20
29.4117832489
 30
0.0
 10
8.5020405219
 20
29.4584167837
 30
0.0
 10
8.4658601136
 20
29.5174779931
 30
0.0
 10
8.4445856816
 20
29.5652486599
 30
0.0
  0
SPLINE
  5
2A4
100
AcDbEntity
  8
0
100
AcDbSpline
 62
7
  6
BYLAYER
 70
0
 71
3
 72
11
 73
7
 74
0
 42
0.0000001
 43
0.0000001
 44
0.0000000001
 40
0.0
 40
0.0
 40
0.0
 40
0.0
 40
0.3276255156
 40
0.5995841003
 40
0.8194310296
 40
1.0
 40
1.0
 40
1.0
 40
1.0
 10
8.9590303106
 20
29.3428037489
 30
0.0
 10
8.9148881456
 20
29.3430216567
 30
0.0
 10
8.8341011825
 20
29.3445519813
 30
0.0
 10
8.7238884259
 20
29.3531347337
 30
0.0
 10
8.6346887316
 20
29.3702273047
 30
0.0
 10
8.5838772611
 20
29.3900076717
 30
0.0
 10
8.5627551265
 20
29.4020806107
 30
0.0
  0
SPLINE
  5
2A5
100
AcDbEntity
  8
0
100
AcDbSpline
 62
7
  6
BYLAYER
 70
0
 71
3
 72
14
 73
10
 74
0
 42
0.0000001
 43
0.0000001
 44
0.0000000001
 40
0.0
 40
0.0
 40
0.0
 40
0.0
 40
0.2558205714
 40
0.3829435855
 40
0.50924935
 40
0.6344039627
 40
0.7580010749
 40
0.8797467824
 40
1.0
 40
1.0
 40
1.0
 40
1.0
 10
35.1492420657
 20
34.2937115509
 30
0.0
 10
35.3229627014
 20
34.3908560347
 30
0.0
 10
35.5792503998
 20
34.5434667439
 30
0.0
 10
35.9057803616
 20
34.7681350874
 30
0.0
 10
36.1387204157
 20
34.9487625459
 30
0.0
 10
36.3550222947
 20
35.1452116259
 30
0.0
 10
36.5463906246
 20
35.3619242942
 30
0.0
 10
36.6988621539
 20
35.6039858525
 30
0.0
 10
36.7592322279
 20
35.7854790897
 30
0.0
 10
36.7744019818
 20
35.8778023686
 30
0.0
  0
SPLINE
  5
2A6
100
AcDbEntity
  8
0
100
AcDbSpline
 62
7
  6
BYLAYER
 70
0
 71
3
 72
14
 73
10
 74
0
 42
0.0000001
 43
0.0000001
 44
0.0000000001
 40
0.0
 40
0.0
 40
0.0
 40
0.0
 40
0.1172448969
 40
0.2381013163
 40
0.3617581235
 40
0.4873736407
 40
0.6143366256
 40
0.7422478651
 40
1.0
 40
1.0
 40
1.0
 40
1.0
 10
36.7744019818
 20
36.1693973889
 30
0.0
 10
36.7590171767
 20
36.2647177233
 30
0.0
 10
36.6976667534
 20
36.4538388804
 30
0.0
 10
36.5457140181
 20
36.7116140329
 30
0.0
 10
36.3547078953
 20
36.9500600354
 30
0.0
 10
36.1385583357
 20
37.1724690689
 30
0.0
 10
35.9056674045
 20
37.3823420674
 30
0.0
 10
35.5789906598
 20
37.649900573
 30
0.0
 10
35.3228157425
 20
37.8380159328
 30
0.0
 10
35.1492418497
 20
37.9601981574
 30
0.0
  0
SPLINE
  5
2A7
100
AcDbEntity
  8
0
100
AcDbSpline
 62
7
  6
BYLAYER
 70
0
 71
3
 72
9
 73
5
 74
0
 42
0.0000001
 43
0.0000001
 44
0.0000000001
 40
0.0
 40
0.0
 40
0.0
 40
0.0
 40
0.510066126
 40
1.0
 40
1.0
 40
1.0
 40
1.0
 10
34.9605747548
 20
34.246803365
 30
0.0
 10
34.993870558
 20
34.246803365
 30
0.0
 10
35.0594146058
 20
34.2551174913
 30
0.0
 10
35.1208907166
 20
34.2789120532
 30
0.0
 10
35.1492420657
 20
34.2937115509
 30
0.0
  0
SPLINE
  5
2A8
100
AcDbEntity
  8
0
100
AcDbSpline
 62
7
  6
BYLAYER
 70
0
 71
3
 72
9
 73
5
 74
0
 42
0.0000001
 43
0.0000001
 44
0.0000000001
 40
0.0
 40
0.0
 40
0.0
 40
0.0
 40
0.4979351397
 40
1.0
 40
1.0
 40
1.0
 40
1.0
 10
35.1492418497
 20
37.9601981574
 30
0.0
 10
35.1215144673
 20
37.9784177646
 30
0.0
 10
35.0610528809
 20
38.0084561009
 30
0.0
 10
34.9940276515
 20
38.0194530104
 30
0.0
 10
34.9605747548
 20
38.0194530104
 30
0.0
  0
LINE
  5
2A9
100
AcDbEntity
  8
0
100
AcDbLine
 62
7
  6
BYLAYER
 10
34.9605747548
 20
38.0194530104
 11
34.9500524583
 21
38.0193278046
  0
LINE
  5
2AA
100
AcDbEntity
  8
0
100
AcDbLine
 62
7
  6
BYLAYER
 10
34.9500524583
 20
34.246902136
 11
34.9605747548
 21
34.246803365
  0
SPLINE
  5
2AB
100
AcDbEntity
  8
0
100
AcDbSpline
 62
7
  6
BYLAYER
 70
0
 71
3
 72
12
 73
8
 74
0
 42
0.0000001
 43
0.0000001
 44
0.0000000001
 40
0.0
 40
0.0
 40
0.0
 40
0.0
 40
0.2776495827
 40
0.5468919306
 40
0.7931706844
 40
0.902631183
 40
1.0
 40
1.0
 40
1.0
 40
1.0
 10
50.3486015131
 20
49.1057076023
 30
0.0
 10
50.330164772
 20
49.1307050028
 30
0.0
 10
50.2958144783
 20
49.181453413
 30
0.0
 10
50.2532415847
 20
49.2594439962
 30
0.0
 10
50.2275668188
 20
49.3248830807
 30
0.0
 10
50.2165565978
 20
49.3744530452
 30
0.0
 10
50.2144019823
 20
49.3975974189
 30
0.0
 10
50.2144019823
 20
49.4084901753
 30
0.0
  0
SPLINE
  5
2AC
100
AcDbEntity
  8
0
100
AcDbSpline
 62
7
  6
BYLAYER
 70
0
 71
3
 72
15
 73
11
 74
0
 42
0.0000001
 43
0.0000001
 44
0.0000000001
 40
0.0
 40
0.0
 40
0.0
 40
0.0
 40
0.2742596884
 40
0.4083290883
 40
0.5394146707
 40
0.6662786801
 40
0.7870202773
 40
0.8443417376
 40
0.8991073098
 40
1.0
 40
1.0
 40
1.0
 40
1.0
 10
35.1492420657
 20
48.5628859635
 30
0.0
 10
35.321528803
 20
48.6598869561
 30
0.0
 10
35.5760912654
 20
48.8079477928
 30
0.0
 10
35.9038769249
 20
49.0172845526
 30
0.0
 10
36.1360945986
 20
49.1785454748
 30
0.0
 10
36.3512421384
 20
49.3468925429
 30
0.0
 10
36.5123285588
 20
49.4972149931
 30
0.0
 10
36.6220222316
 20
49.6246450124
 30
0.0
 10
36.7104128188
 20
49.7501116644
 30
0.0
 10
36.7584620065
 20
49.8544235203
 30
0.0
 10
36.7744019818
 20
49.9253900078
 30
0.0
  0
SPLINE
  5
2AD
100
AcDbEntity
  8
0
100
AcDbSpline
 62
7
  6
BYLAYER
 70
0
 71
3
 72
15
 73
11
 74
0
 42
0.0000001
 43
0.0000001
 44
0.0000000001
 40
0.0
 40
0.0
 40
0.0
 40
0.0
 40
0.1064860022
 40
0.2186848032
 40
0.3374146392
 40
0.4620311903
 40
0.5915384991
 40
0.7248607506
 40
0.8612456853
 40
1.0
 40
1.0
 40
1.0
 40
1.0
 10
36.7744019818
 20
50.1326862331
 30
0.0
 10
36.7637703365
 20
50.1781795664
 30
0.0
 10
36.7271130991
 20
50.2683991685
 30
0.0
 10
36.6402499546
 20
50.3893659047
 30
0.0
 10
36.5286909297
 20
50.4991593349
 30
0.0
 10
36.3993258435
 20
50.5996900973
 30
0.0
 10
36.2565186992
 20
50.6921754481
 30
0.0
 10
36.1037475679
 20
50.7780158628
 30
0.0
 10
35.9433165271
 20
50.8579930528
 30
0.0
 10
35.8332891859
 20
50.9077144156
 30
0.0
 10
35.777420741
 20
50.9318938633
 30
0.0
  0
SPLINE
  5
2AE
100
AcDbEntity
  8
0
100
AcDbSpline
 62
7
  6
BYLAYER
 70
0
 71
3
 72
9
 73
5
 74
0
 42
0.0000001
 43
0.0000001
 44
0.0000000001
 40
0.0
 40
0.0
 40
0.0
 40
0.0
 40
0.5097883476
 40
1.0
 40
1.0
 40
1.0
 40
1.0
 10
34.9605747548
 20
48.5154205909
 30
0.0
 10
34.9938787676
 20
48.5154205909
 30
0.0
 10
35.0594796151
 20
48.5239052438
 30
0.0
 10
35.1208937796
 20
48.5479869452
 30
0.0
 10
35.1492420657
 20
48.5628859635
 30
0.0
  0
LINE
  5
2AF
100
AcDbEntity
  8
0
100
AcDbLine
 62
7
  6
BYLAYER
 10
34.9500524583
 20
48.5155210349
 11
34.9605747548
 21
48.5154205909
  0
SPLINE
  5
2B0
100
AcDbEntity
  8
0
100
AcDbSpline
 62
7
  6
BYLAYER
 70
0
 71
3
 72
33
 73
29
 74
0
 42
0.0000001
 43
0.0000001
 44
0.0000000001
 40
0.0
 40
0.0
 40
0.0
 40
0.0
 40
0.0074255385
 40
0.0150793266
 40
0.0227776618
 40
0.0305255702
 40
0.0382869467
 40
0.046060222
 40
0.0616335501
 40
0.0772256294
 40
0.0928303796
 40
0.1084435845
 40
0.1240624987
 40
0.1553125864
 40
0.1865737148
 40
0.217841888
 40
0.249115035
 40
0.2803917176
 40
0.3116710547
 40
0.3742353358
 40
0.4368047447
 40
0.4993774301
 40
0.5619523381
 40
0.6245287624
 40
0.687106216
 40
0.7496843645
 40
0.8748418182
 40
1.0
 40
1.0
 40
1.0
 40
1.0
 10
21.8814777026
 20
33.5638738027
 30
0.0
 10
21.8629179769
 20
33.5815121015
 30
0.0
 10
21.8164632866
 20
33.6072106656
 30
0.0
 10
21.7437139115
 20
33.6361495221
 30
0.0
 10
21.6676862328
 20
33.6603376025
 30
0.0
 10
21.5905088131
 20
33.6814350176
 30
0.0
 10
21.5125508142
 20
33.7006658325
 30
0.0
 10
21.4078539209
 20
33.7240149298
 30
0.0
 10
21.2761062043
 20
33.7499844853
 30
0.0
 10
21.1173137455
 20
33.7781716318
 30
0.0
 10
20.9579535511
 20
33.8038312155
 30
0.0
 10
20.7982074649
 20
33.8275786091
 30
0.0
 10
20.584846843
 20
33.8574998424
 30
0.0
 10
20.3176151891
 20
33.8917036377
 30
0.0
 10
19.9964340841
 20
33.929234973
 30
0.0
 10
19.674884162
 20
33.9642000277
 30
0.0
 10
19.3530456516
 20
33.9969238446
 30
0.0
 10
19.0310011393
 20
34.0279501524
 30
0.0
 10
18.6013716725
 20
34.0673393817
 30
0.0
 10
18.0639930017
 20
34.1132506127
 30
0.0
 10
17.4187854422
 20
34.1644648874
 30
0.0
 10
16.7733113033
 20
34.2126901735
 30
0.0
 10
16.1276175608
 20
34.2582184077
 30
0.0
 10
15.4817497514
 20
34.3014468229
 30
0.0
 10
14.8357423533
 20
34.3427070201
 30
0.0
 10
13.9742530101
 20
34.3955830113
 30
0.0
 10
12.8971748049
 20
34.4582358911
 30
0.0
 10
12.0353291867
 20
34.5051351421
 30
0.0
 10
11.6043676633
 20
34.5278671669
 30
0.0
  0
SPLINE
  5
2B1
100
AcDbEntity
  8
0
100
AcDbSpline
 62
7
  6
BYLAYER
 70
0
 71
3
 72
9
 73
5
 74
0
 42
0.0000001
 43
0.0000001
 44
0.0000000001
 40
0.0
 40
0.0
 40
0.0
 40
0.0
 40
0.4581313484
 40
1.0
 40
1.0
 40
1.0
 40
1.0
 10
8.2557712527
 20
35.9792142782
 30
0.0
 10
8.2921171345
 20
35.8952944799
 30
0.0
 10
8.3610638379
 20
35.7076370536
 30
0.0
 10
8.4169701908
 20
35.5158974114
 30
0.0
 10
8.4445856815
 20
35.4113137692
 30
0.0
  0
SPLINE
  5
2B2
100
AcDbEntity
  8
0
100
AcDbSpline
 62
7
  6
BYLAYER
 70
0
 71
3
 72
9
 73
5
 74
0
 42
0.0000001
 43
0.0000001
 44
0.0000000001
 40
0.0
 40
0.0
 40
0.0
 40
0.0
 40
0.4879985876
 40
1.0
 40
1.0
 40
1.0
 40
1.0
 10
8.4445856815
 20
35.4113137692
 30
0.0
 10
8.4609199369
 20
35.3454178925
 30
0.0
 10
8.4983088087
 20
35.2113528304
 30
0.0
 10
8.5404872109
 20
35.0787670881
 30
0.0
 10
8.5627551265
 20
35.0111078586
 30
0.0
  0
SPLINE
  5
2B3
100
AcDbEntity
  8
0
100
AcDbSpline
 62
7
  6
BYLAYER
 70
0
 71
3
 72
12
 73
8
 74
0
 42
0.0000001
 43
0.0000001
 44
0.0000000001
 40
0.0
 40
0.0
 40
0.0
 40
0.0
 40
0.246748941
 40
0.4965964978
 40
0.6224530436
 40
0.7485483247
 40
1.0
 40
1.0
 40
1.0
 40
1.0
 10
8.5627551265
 20
35.0111078586
 30
0.0
 10
8.5822880007
 20
34.9702007855
 30
0.0
 10
8.6275194711
 20
34.890564046
 30
0.0
 10
8.6993891809
 20
34.8007503202
 30
0.0
 10
8.7679538432
 20
34.7387155094
 30
0.0
 10
8.8443213383
 20
34.6864222411
 30
0.0
 10
8.9126890135
 20
34.6630436915
 30
0.0
 10
8.9587626491
 20
34.6596945208
 30
0.0
  0
SPLINE
  5
2B4
100
AcDbEntity
  8
0
100
AcDbSpline
 62
7
  6
BYLAYER
 70
0
 71
3
 72
9
 73
5
 74
0
 42
0.0000001
 43
0.0000001
 44
0.0000000001
 40
0.0
 40
0.0
 40
0.0
 40
0.0
 40
0.5000045132
 40
1.0
 40
1.0
 40
1.0
 40
1.0
 10
50.3485923712
 20
49.105708184
 30
0.0
 10
50.5688018887
 20
48.8071377659
 30
0.0
 10
51.0016934835
 20
48.2044015552
 30
0.0
 10
51.4146481694
 20
47.5877022683
 30
0.0
 10
51.6144019823
 20
47.2750843369
 30
0.0
  0
SPLINE
  5
2B5
100
AcDbEntity
  8
0
100
AcDbSpline
 62
7
  6
BYLAYER
 70
0
 71
3
 72
15
 73
11
 74
0
 42
0.0000001
 43
0.0000001
 44
0.0000000001
 40
0.0
 40
0.0
 40
0.0
 40
0.0
 40
0.2087467502
 40
0.39265031
 40
0.5510156508
 40
0.6833419448
 40
0.7903439791
 40
0.8743684383
 40
0.9407882815
 40
1.0
 40
1.0
 40
1.0
 40
1.0
 10
23.0230428744
 20
29.641804027
 30
0.0
 10
23.0229345265
 20
29.6185743742
 30
0.0
 10
23.0217253071
 20
29.5748740067
 30
0.0
 10
23.0167494345
 20
29.5137246817
 30
0.0
 10
23.0092078927
 20
29.4614132167
 30
0.0
 10
22.9996531181
 20
29.4181438183
 30
0.0
 10
22.9880112132
 20
29.3839771555
 30
0.0
 10
22.9740099773
 20
29.3587203371
 30
0.0
 10
22.9565091602
 20
29.3423187917
 30
0.0
 10
22.9422742473
 20
29.3386821176
 30
0.0
 10
22.9356850065
 20
29.3386805955
 30
0.0
  0
SPLINE
  5
2B6
100
AcDbEntity
  8
0
100
AcDbSpline
 62
7
  6
BYLAYER
 70
0
 71
3
 72
12
 73
8
 74
0
 42
0.0000001
 43
0.0000001
 44
0.0000000001
 40
0.0
 40
0.0
 40
0.0
 40
0.0
 40
0.264070092
 40
0.5225582529
 40
0.647887261
 40
0.7697429785
 40
1.0
 40
1.0
 40
1.0
 40
1.0
 10
22.9371308255
 20
34.5278671669
 30
0.0
 10
22.9505138032
 20
34.4402367834
 30
0.0
 10
22.9744103509
 20
34.2664132526
 30
0.0
 10
22.9961233655
 20
34.0499599615
 30
0.0
 10
23.0087636778
 20
33.8806729057
 30
0.0
 10
23.018600971
 20
33.7207079016
 30
0.0
 10
23.0229740204
 20
33.6025148787
 30
0.0
 10
23.0230002287
 20
33.5252192642
 30
0.0
  0
SPLINE
  5
2B7
100
AcDbEntity
  8
0
100
AcDbSpline
 62
7
  6
BYLAYER
 70
0
 71
3
 72
12
 73
8
 74
0
 42
0.0000001
 43
0.0000001
 44
0.0000000001
 40
0.0
 40
0.0
 40
0.0
 40
0.0
 40
0.2302696375
 40
0.3520880682
 40
0.4774091163
 40
0.7359382453
 40
1.0
 40
1.0
 40
1.0
 40
1.0
 10
23.0230002287
 20
33.5252192642
 30
0.0
 10
23.0229889039
 20
33.602484308
 30
0.0
 10
23.0214367481
 20
33.7206472507
 30
0.0
 10
23.0139694124
 20
33.8806790923
 30
0.0
 10
23.0018890614
 20
34.0499351745
 30
0.0
 10
22.9802294531
 20
34.266295314
 30
0.0
 10
22.9576233651
 20
34.4402159305
 30
0.0
 10
22.9446666111
 20
34.5278671669
 30
0.0
  0
SPLINE
  5
2B8
100
AcDbEntity
  8
0
100
AcDbSpline
 62
7
  6
BYLAYER
 70
0
 71
3
 72
12
 73
8
 74
0
 42
0.0000001
 43
0.0000001
 44
0.0000000001
 40
0.0
 40
0.0
 40
0.0
 40
0.0
 40
0.1033677746
 40
0.2150132075
 40
0.4592617855
 40
0.7241900873
 40
1.0
 40
1.0
 40
1.0
 40
1.0
 10
22.6134379361
 20
35.8333086098
 30
0.0
 10
22.630271897
 20
35.790051455
 30
0.0
 10
22.6627132546
 20
35.6990680429
 30
0.0
 10
22.7249597211
 20
35.5024414219
 30
0.0
 10
22.7999444513
 20
35.2337984866
 30
0.0
 10
22.8763323658
 20
34.8895316043
 30
0.0
 10
22.9184327929
 20
34.6502999922
 30
0.0
 10
22.9371308255
 20
34.5278671669
 30
0.0
  0
SPLINE
  5
2B9
100
AcDbEntity
  8
0
100
AcDbSpline
 62
7
  6
BYLAYER
 70
0
 71
3
 72
14
 73
10
 74
0
 42
0.0000001
 43
0.0000001
 44
0.0000000001
 40
0.0
 40
0.0
 40
0.0
 40
0.0
 40
0.0175222872
 40
0.0694024674
 40
0.1546040283
 40
0.2715504683
 40
0.4178105153
 40
0.5907674345
 40
1.0
 40
1.0
 40
1.0
 40
1.0
 10
42.7145097664
 20
51.9604459726
 30
0.0
 10
42.7134885693
 20
51.9603458428
 30
0.0
 10
42.7094153234
 20
51.9603980049
 30
0.0
 10
42.7003755563
 20
51.9599855734
 30
0.0
 10
42.6854993743
 20
51.9596787142
 30
0.0
 10
42.6651057305
 20
51.9591266072
 30
0.0
 10
42.6395699705
 20
51.9585579888
 30
0.0
 10
42.5969214059
 20
51.9576946506
 30
0.0
 10
42.5628322562
 20
51.9571727306
 30
0.0
 10
42.5388695479
 20
51.9568873693
 30
0.0
  0
SPLINE
  5
2BA
100
AcDbEntity
  8
0
100
AcDbSpline
 62
7
  6
BYLAYER
 70
0
 71
3
 72
11
 73
7
 74
0
 42
0.0000001
 43
0.0000001
 44
0.0000000001
 40
0.0
 40
0.0
 40
0.0
 40
0.0
 40
0.2756489851
 40
0.5403458907
 40
0.7844170238
 40
1.0
 40
1.0
 40
1.0
 40
1.0
 10
22.9446666943
 20
34.5278671669
 30
0.0
 10
22.9265301811
 20
34.6505589934
 30
0.0
 10
22.8855746427
 20
34.8903241078
 30
0.0
 10
22.8090525616
 20
35.234983081
 30
0.0
 10
22.7220820888
 20
35.5493490486
 30
0.0
 10
22.6503921262
 20
35.743624687
 30
0.0
 10
22.6134379361
 20
35.8333086098
 30
0.0
  0
SPLINE
  5
2BB
100
AcDbEntity
  8
0
100
AcDbSpline
 62
7
  6
BYLAYER
 70
0
 71
3
 72
34
 73
30
 74
0
 42
0.0000001
 43
0.0000001
 44
0.0000000001
 40
0.0
 40
0.0
 40
0.0
 40
0.0
 40
0.125579297
 40
0.2511322068
 40
0.3138962246
 40
0.3766500249
 40
0.4393916286
 40
0.5021183862
 40
0.5648266235
 40
0.627511032
 40
0.6901634981
 40
0.7214739324
 40
0.7527707312
 40
0.7840504625
 40
0.8153081678
 40
0.8465362576
 40
0.8777222602
 40
0.8932931042
 40
0.9088435012
 40
0.9243664774
 40
0.9398506905
 40
0.9552757294
 40
0.9629545303
 40
0.9705992588
 40
0.9781935015
 40
0.9857049626
 40
0.9930574848
 40
0.9966146414
 40
1.0
 40
1.0
 40
1.0
 40
1.0
 10
11.4124298868
 20
29.3386684428
 30
0.0
 10
11.8512071698
 20
29.3386683831
 30
0.0
 10
12.7286698448
 20
29.3395419988
 30
0.0
 10
13.8254264306
 20
29.3432646247
 30
0.0
 10
14.7026603894
 20
29.3482104709
 30
0.0
 10
15.3604262893
 20
29.3530374557
 30
0.0
 10
16.0180514765
 20
29.3591437843
 30
0.0
 10
16.6755021299
 20
29.36673761
 30
0.0
 10
17.3327305494
 20
29.3760920571
 30
0.0
 10
17.9896658498
 20
29.3875800055
 30
0.0
 10
18.5368708211
 20
29.3993691876
 30
0.0
 10
18.9743894626
 20
29.4105370132
 30
0.0
 10
19.3022991111
 20
29.4199279507
 30
0.0
 10
19.6299879619
 20
29.4305230846
 30
0.0
 10
19.9573866563
 20
29.4425781954
 30
0.0
 10
20.2843857748
 20
29.4564589719
 30
0.0
 10
20.5565342889
 20
29.4700012506
 30
0.0
 10
20.7738806666
 20
29.4824777541
 30
0.0
 10
20.936528872
 20
29.4928304123
 30
0.0
 10
21.0987908044
 20
29.504424146
 30
0.0
 10
21.2604915056
 20
29.5176232409
 30
0.0
 10
21.3947153945
 20
29.5304469416
 30
0.0
 10
21.5014939983
 20
29.542340916
 30
0.0
 10
21.5809508407
 20
29.5522921418
 30
0.0
 10
21.6596410488
 20
29.5636107301
 30
0.0
 10
21.736981944
 20
29.5768833728
 30
0.0
 10
21.7999710689
 20
29.5904265931
 30
0.0
 10
21.8479696002
 20
29.6042594411
 30
0.0
 10
21.8707895704
 20
29.6127060984
 30
0.0
 10
21.8814777024
 20
29.61777344
 30
0.0
  0
SPLINE
  5
2BC
100
AcDbEntity
  8
0
100
AcDbSpline
 62
7
  6
BYLAYER
 70
0
 71
3
 72
11
 73
7
 74
0
 42
0.0000001
 43
0.0000001
 44
0.0000000001
 40
0.0
 40
0.0
 40
0.0
 40
0.0
 40
0.242453912
 40
0.4892768777
 40
0.7415007781
 40
1.0
 40
1.0
 40
1.0
 40
1.0
 10
8.2557712527
 20
35.9792142782
 30
0.0
 10
8.0727078988
 20
36.4001412352
 30
0.0
 10
7.7383221419
 20
37.2652676301
 30
0.0
 10
7.3383132108
 20
38.6123249274
 30
0.0
 10
7.0371312392
 20
40.0158856823
 30
0.0
 10
6.9045379991
 20
40.9746382268
 30
0.0
 10
6.8543605559
 20
41.4614475531
 30
0.0
  0
SPLINE
  5
2BD
100
AcDbEntity
  8
0
100
AcDbSpline
 62
7
  6
BYLAYER
 70
0
 71
3
 72
9
 73
5
 74
0
 42
0.0000001
 43
0.0000001
 44
0.0000000001
 40
0.0
 40
0.0
 40
0.0
 40
0.0
 40
0.4893015076
 40
1.0
 40
1.0
 40
1.0
 40
1.0
 10
6.8543605559
 20
41.4614475531
 30
0.0
 10
6.7756288748
 20
42.225282898
 30
0.0
 10
6.6998764591
 20
43.7959826383
 30
0.0
 10
6.7788867081
 20
45.3658759623
 30
0.0
 10
6.8543785606
 20
46.1637740964
 30
0.0
  0
SPLINE
  5
2BE
100
AcDbEntity
  8
0
100
AcDbSpline
 62
7
  6
BYLAYER
 70
0
 71
3
 72
11
 73
7
 74
0
 42
0.0000001
 43
0.0000001
 44
0.0000000001
 40
0.0
 40
0.0
 40
0.0
 40
0.0
 40
0.2499877512
 40
0.4984602091
 40
0.7476791327
 40
1.0
 40
1.0
 40
1.0
 40
1.0
 10
21.8850874568
 20
38.1896519032
 30
0.0
 10
21.8850935625
 20
38.0072484644
 30
0.0
 10
21.9050763277
 20
37.6431804022
 30
0.0
 10
21.9983426571
 20
37.1044079716
 30
0.0
 10
22.1557433059
 20
36.578962197
 30
0.0
 10
22.3021860219
 20
36.242501831
 30
0.0
 10
22.3852703739
 20
36.0782096079
 30
0.0
  0
ELLIPSE
  5
2BF
100
AcDbEntity
  8
0
100
AcDbEllipse
 62
7
  6
BYLAYER
 10
43.1443383597
 20
41.4604476329
 30
0.0
 11
23.2519159813
 21
-0.0
 31
0.0
 40
0.4515756899
 41
1.5968387939
 42
1.7624435218
  0
ENDSEC
  0
SECTION
  2
OBJECTS
  0
DICTIONARY
  5
C
100
AcDbDictionary
280
0
281
1
  3
ACAD_GROUP
350
D
  3
ACAD_MLINESTYLE
350
17
  3
ACAD_LAYOUT
350
1A
  3
ACAD_PLOTSETTINGS
350
19
  3
ACAD_PLOTSTYLENAME
350
E
  0
DICTIONARY
  5
D
102
{ACAD_REACTORS
330
C
102
}
100
AcDbDictionary
280
0
281
1
  0
ACDBDICTIONARYWDFLT
  5
E
102
{ACAD_REACTORS
330
C
102
}
100
AcDbDictionary
281
1
  3
Normal
350
F
100
AcDbDictionaryWithDefault
340
F
  0
DICTIONARY
  5
17
102
{ACAD_REACTORS
330
C
102
}
100
AcDbDictionary
280
0
281
1
  3
Standard
350
18
  0
DICTIONARY
  5
19
102
{ACAD_REACTORS
330
C
102
}
100
AcDbDictionary
281
1
  0
DICTIONARY
  5
1A
102
{ACAD_REACTORS
330
C
102
}
100
AcDbDictionary
281
1
  3
Model
350
2C0
  3
Layout1
350
2C1
  0
ACDBPLACEHOLDER
  5
F
102
{ACAD_REACTORS
330
E
102
}
  0
MLINESTYLE
  5
18
102
{ACAD_REACTORS
330
17
102
}
100
AcDbMlineStyle
  2
STANDARD
 70
0
  3

 62
256
 51
90.0
 52
90.0
 71
2
 49
0.5
 62
256
  6
BYLAYER
 49
-0.5
 62
256
  6
BYLAYER
  0
LAYOUT
  5
2C0
102
{ACAD_REACTORS
330
1A
102
}
100
AcDbPlotSettings
  1

  2
none_device
  4

  6

 40
0.0
 41
0.0
 42
0.0
 43
0.0
 44
210.0
 45
297.0
 46
0.0
 47
0.0
 48
0.0
 49
0.0
140
0.0
141
0.0
142
1.0
143
1.0
 70
1024
 72
1
 73
0
 74
0
  7

 75
0
147
1.0
148
0.0
149
0.0
100
AcDbLayout
  1
Model
 70
0
 71
0
 10
0.0
 20
0.0
 11
210.0
 21
297.0
 12
0.0
 22
0.0
 32
0.0
 14
0.0
 24
0.0
 34
0.0
 15
0.0
 25
0.0
 35
0.0
146
0.0
 13
0.0
 23
0.0
 33
0.0
 16
1.0
 26
0.0
 36
0.0
 17
0.0
 27
1.0
 37
0.0
 76
0
330
210
345
0
346
0
  0
LAYOUT
  5
2C1
102
{ACAD_REACTORS
330
1A
102
}
100
AcDbPlotSettings
  1

  2
none_device
  4

  6

 40
0.0
 41
0.0
 42
0.0
 43
0.0
 44
210.0
 45
297.0
 46
0.0
 47
0.0
 48
0.0
 49
0.0
140
0.0
141
0.0
142
1.0
143
1.0
 70
0
 72
1
 73
0
 74
0
  7

 75
0
147
1.0
148
0.0
149
0.0
100
AcDbLayout
  1
Layout1
 70
0
 71
1
 10
0.0
 20
0.0
 11
210.0
 21
297.0
 12
0.0
 22
0.0
 32
0.0
 14
0.0
 24
0.0
 34
0.0
 15
0.0
 25
0.0
 35
0.0
146
0.0
 13
0.0
 23
0.0
 33
0.0
 16
1.0
 26
0.0
 36
0.0
 17
0.0
 27
1.0
 37
0.0
 76
0
330
211
345
0
346
0
  0
ENDSEC
  0
EOF
