999
DXF file: C:\Users\sesa63760\Dev\_Creo\CAD\MCADPD0004503_3D-CAD\drw0001_4.dxf
999
Pro/ENGINEER 2019471 by Parametric Technology Corporation
  0
SECTION
  2
HEADER
  9
$ACADVER
  1
AC1024
  9
$DWGCODEPAGE
  3
ANSI_1252
  9
$EXTMAX
 10
203.5563610239
 20
287.8868534481
 30
0.0
  9
$EXTMIN
 10
0.0
 20
0.0
 30
0.0
  9
$LIMMIN
 10
0.0
 20
0.0
  9
$LIMMAX
 10
203.5563610239
 20
287.8868534481
  9
$VIEWCTR
 10
101.778180512
 20
143.9434267241
  9
$VIEWSIZE
 40
287.8868534481
  9
$CLAYER
  8
0
  9
$LTSCALE
 40
18.7659578544
  9
$CELTYPE
  6
BYLAYER
  9
$DIMSCALE
 40
1.0
  9
$DIMASZ
 40
2.4232900122
  9
$DIMEXO
 40
1.0
  9
$DIMDLI
 40
12.9655708812
  9
$DIMEXE
 40
1.0
  9
$DIMCEN
 40
3.0707931034
  9
$DIMLFAC
 40
1.0
  9
$DIMBLK
  1
_FILLED
  9
$DIMALT
 70
0
  9
$DIMALTF
 40
0.0393700787
  9
$DIMTXT
 40
3.3926060171
  9
$DIMTOL
 70
1
  9
$DIMLIM
 70
0
  9
$DIMTFAC
 40
1.0
  9
$DIMTP
 40
0.01
  9
$DIMTM
 40
0.01
  9
$DIMGAP
 40
0.625
  9
$DIMDSEP
 70
46
  9
$AUNITS
 70
0
  9
$PDMODE
 70
3
  9
$PDSIZE
 40
0.3125
  9
$HANDSEED
  5
2E8
  9
$TILEMODE
 70
1
  9
$MEASUREMENT
 70
1
  9
$INSUNITS
 70
4
  0
ENDSEC
  0
SECTION
  2
CLASSES
  0
CLASS
  1
ACDBDICTIONARYWDFLT
  2
AcDbDictionaryWithDefault
  3
AutoCAD 2000
 90
0
 91
1
280
0
281
0
  0
CLASS
  1
ACDBPLACEHOLDER
  2
AcDbPlaceHolder
  3
AutoCAD 2000
 90
0
 91
1
280
0
281
0
  0
CLASS
  1
LAYOUT
  2
AcDbLayout
  3
AutoCAD 2000
 90
0
 91
0
280
0
281
0
  0
ENDSEC
  0
SECTION
  2
TABLES
  0
TABLE
  2
VPORT
  5
8
100
AcDbSymbolTable
 70
2
  0
VPORT
  5
1F4
100
AcDbSymbolTableRecord
100
AcDbViewportTableRecord
  2
*ACTIVE
 70
0
 10
0.0
 20
0.0
 11
1.0
 21
1.0
 12
101.778180512
 22
143.9434267241
 13
0.0
 23
0.0
 14
1.0
 24
1.0
 15
0.0
 25
0.0
 16
0.0
 26
0.0
 36
1.0
 17
0.0
 27
0.0
 37
0.0
 40
287.8868534481
 41
0.7070707071
 42
50.0
 43
0.0
 44
0.0
 50
0.0
 51
0.0
 71
0
 72
100
 73
1
 74
1
 75
0
 76
0
 77
0
 78
0
  0
ENDTAB
  0
TABLE
  2
LTYPE
  5
5
100
AcDbSymbolTable
 70
6
  0
LTYPE
  5
14
100
AcDbSymbolTableRecord
100
AcDbLinetypeTableRecord
  2
BYBLOCK
 70
0
  3

 72
65
 73
0
 40
0.0
  0
LTYPE
  5
15
100
AcDbSymbolTableRecord
100
AcDbLinetypeTableRecord
  2
BYLAYER
 70
0
  3

 72
65
 73
0
 40
0.0
  0
LTYPE
  5
16
100
AcDbSymbolTableRecord
100
AcDbLinetypeTableRecord
  2
CONTINUOUS
 70
64
  3
Solid line
 72
65
 73
0
 40
0.0
  0
LTYPE
  5
1F5
100
AcDbSymbolTableRecord
100
AcDbLinetypeTableRecord
  2
CENTER
 70
64
  3
____ _ ____ _ ____ _ ____ _ ____ _ ____ _ ____
 72
65
 73
4
 40
0.6
 49
0.375
 74
0
 49
-0.075
 74
0
 49
0.075
 74
0
 49
-0.075
 74
0
  0
LTYPE
  5
1F6
100
AcDbSymbolTableRecord
100
AcDbLinetypeTableRecord
  2
HIDDEN
 70
64
  3
- - - - - - - - - - - - - - - - - - - -
 72
65
 73
2
 40
0.2
 49
0.1
 74
0
 49
-0.1
 74
0
  0
LTYPE
  5
1F7
100
AcDbSymbolTableRecord
100
AcDbLinetypeTableRecord
  2
PHANTOM
 70
64
  3
_____ _ _ _____ _ _ _____ _ _ _____
 72
65
 73
6
 40
0.8
 49
0.45
 74
0
 49
-0.05
 74
0
 49
0.1
 74
0
 49
-0.05
 74
0
 49
0.1
 74
0
 49
-0.05
 74
0
  0
LTYPE
  5
1F8
100
AcDbSymbolTableRecord
100
AcDbLinetypeTableRecord
  2
DOT
 70
64
  3
. . . . . . . . . . . . . . . . . . . .
 72
65
 73
2
 40
0.2
 49
0.1
 74
0
 49
-0.1
 74
0
  0
LTYPE
  5
1F9
100
AcDbSymbolTableRecord
100
AcDbLinetypeTableRecord
  2
DASHED
 70
64
  3
- - - - - - - - - - - - - - - - - - - -
 72
65
 73
2
 40
0.2
 49
0.1
 74
0
 49
-0.1
 74
0
  0
ENDTAB
  0
TABLE
  2
LAYER
  5
2
100
AcDbSymbolTable
 70
36
  0
LAYER
  5
10
100
AcDbSymbolTableRecord
100
AcDbLayerTableRecord
  2
0
 70
0
 62
7
  6
CONTINUOUS
370
-3
390
F
  0
LAYER
  5
1FA
100
AcDbSymbolTableRecord
100
AcDbLayerTableRecord
  2
DEFAULT_1
 70
0
 62
7
  6
CENTER
370
-3
390
F
  0
LAYER
  5
1FB
100
AcDbSymbolTableRecord
100
AcDbLayerTableRecord
  2
DEFAULT_2
 70
0
 62
7
  6
HIDDEN
370
-3
390
F
  0
LAYER
  5
1FC
100
AcDbSymbolTableRecord
100
AcDbLayerTableRecord
  2
DEFAULT_3
 70
0
 62
7
  6
PHANTOM
370
-3
390
F
  0
LAYER
  5
1FD
100
AcDbSymbolTableRecord
100
AcDbLayerTableRecord
  2
00_COMPONENTS
 70
0
 62
7
  6
CONTINUOUS
370
-3
390
F
  0
LAYER
  5
1FE
100
AcDbSymbolTableRecord
100
AcDbLayerTableRecord
  2
01_1_DEFAULT_DATUMS
 70
0
 62
7
  6
CONTINUOUS
370
-3
390
F
  0
LAYER
  5
1FF
100
AcDbSymbolTableRecord
100
AcDbLayerTableRecord
  2
01_PLANES
 70
0
 62
7
  6
CONTINUOUS
370
-3
390
F
  0
LAYER
  5
200
100
AcDbSymbolTableRecord
100
AcDbLayerTableRecord
  2
02_COORD_SYS
 70
0
 62
7
  6
CONTINUOUS
370
-3
390
F
  0
LAYER
  5
201
100
AcDbSymbolTableRecord
100
AcDbLayerTableRecord
  2
03_AXES
 70
0
 62
7
  6
CONTINUOUS
370
-3
390
F
  0
LAYER
  5
202
100
AcDbSymbolTableRecord
100
AcDbLayerTableRecord
  2
04_POINTS
 70
0
 62
7
  6
CONTINUOUS
370
-3
390
F
  0
LAYER
  5
203
100
AcDbSymbolTableRecord
100
AcDbLayerTableRecord
  2
05_CURVES
 70
0
 62
7
  6
CONTINUOUS
370
-3
390
F
  0
LAYER
  5
204
100
AcDbSymbolTableRecord
100
AcDbLayerTableRecord
  2
06_SURFS
 70
0
 62
7
  6
CONTINUOUS
370
-3
390
F
  0
LAYER
  5
205
100
AcDbSymbolTableRecord
100
AcDbLayerTableRecord
  2
07_COSMETICS
 70
0
 62
7
  6
CONTINUOUS
370
-3
390
F
  0
LAYER
  5
206
100
AcDbSymbolTableRecord
100
AcDbLayerTableRecord
  2
10_NOTES
 70
0
 62
7
  6
CONTINUOUS
370
-3
390
F
  0
LAYER
  5
207
100
AcDbSymbolTableRecord
100
AcDbLayerTableRecord
  2
11_NOTES_PUB
 70
0
 62
7
  6
CONTINUOUS
370
-3
390
F
  0
LAYER
  5
208
100
AcDbSymbolTableRecord
100
AcDbLayerTableRecord
  2
13_REF_GTOL
 70
0
 62
7
  6
CONTINUOUS
370
-3
390
F
  0
LAYER
  5
209
100
AcDbSymbolTableRecord
100
AcDbLayerTableRecord
  2
16_MISC
 70
0
 62
7
  6
CONTINUOUS
370
-3
390
F
  0
LAYER
  5
20A
100
AcDbSymbolTableRecord
100
AcDbLayerTableRecord
  2
17_NO_PRINT
 70
0
 62
7
  6
CONTINUOUS
370
-3
390
F
  0
LAYER
  5
20B
100
AcDbSymbolTableRecord
100
AcDbLayerTableRecord
  2
18_DATUM_CAMS_JOINTS
 70
0
 62
7
  6
CONTINUOUS
370
-3
390
F
  0
LAYER
  5
20C
100
AcDbSymbolTableRecord
100
AcDbLayerTableRecord
  2
19_DATUM_FUNCTIONAL
 70
0
 62
7
  6
CONTINUOUS
370
-3
390
F
  0
LAYER
  5
20D
100
AcDbSymbolTableRecord
100
AcDbLayerTableRecord
  2
20_DATUM_KINEMATIC_SCHEME
 70
0
 62
7
  6
CONTINUOUS
370
-3
390
F
  0
ENDTAB
  0
TABLE
  2
STYLE
  5
3
100
AcDbSymbolTable
 70
1
  0
STYLE
  5
11
100
AcDbSymbolTableRecord
100
AcDbTextStyleTableRecord
  2
STANDARD
 70
0
 40
0.0
 41
1.0
 50
0.0
 71
0
 42
0.2
  3
ARIAL.TTF
  4

  0
STYLE
  5
20E
100
AcDbSymbolTableRecord
100
AcDbTextStyleTableRecord
  2
TEXTSTYLE_1
 70
0
 40
0.0
 41
0.8
 50
0.0
 71
0
 42
0.2
  3
gdt
  4

  0
ENDTAB
  0
TABLE
  2
VIEW
  5
6
100
AcDbSymbolTable
 70
0
  0
ENDTAB
  0
TABLE
  2
UCS
  5
7
100
AcDbSymbolTable
 70
0
  0
ENDTAB
  0
TABLE
  2
APPID
  5
9
100
AcDbSymbolTable
 70
1
  0
APPID
  5
20F
100
AcDbSymbolTableRecord
100
AcDbRegAppTableRecord
  2
ACAD
 70
0
  0
ENDTAB
  0
TABLE
  2
BLOCK_RECORD
  5
1
100
AcDbSymbolTable
 70
0
  0
BLOCK_RECORD
  5
210
100
AcDbSymbolTableRecord
100
AcDbBlockTableRecord
  2
*Model_Space
  0
BLOCK_RECORD
  5
211
100
AcDbSymbolTableRecord
100
AcDbBlockTableRecord
  2
*Paper_Space
  0
BLOCK_RECORD
  5
212
100
AcDbSymbolTableRecord
100
AcDbBlockTableRecord
  2
_FILLED
  0
ENDTAB
  0
TABLE
  2
DIMSTYLE
  5
A
100
AcDbSymbolTable
 70
1
100
AcDbDimStyleTable
 71
0
  0
DIMSTYLE
105
213
100
AcDbSymbolTableRecord
100
AcDbDimStyleTableRecord
  2
STANDARD
 70
0
  3

  4

 40
1.0
 41
2.4232900122
 42
1.0
 43
0.38
 44
1.0
 45
0.0
 46
0.0
 47
0.01
 48
0.01
140
3.3926060171
141
0.09
142
0.0
143
25.4
144
1.0
145
0.0
146
1.0
147
0.625
 71
1
 72
0
 73
0
 74
0
 75
0
 76
0
 77
1
 78
8
 79
2
170
0
171
1
172
0
173
0
174
0
175
0
176
0
177
0
178
0
270
2
179
2
271
2
272
2
273
2
274
2
275
0
280
0
281
0
282
0
283
1
284
8
285
0
286
0
287
3
288
0
340
11
278
46
341
212
342
212
343
212
344
212
  0
ENDTAB
  0
ENDSEC
  0
SECTION
  2
BLOCKS
  0
BLOCK
  5
20
100
AcDbEntity
  8
0
100
AcDbBlockBegin
  2
*Model_Space
 70
0
 10
0.0
 20
0.0
 30
0.0
  3
*Model_Space
  1

  0
ENDBLK
  5
21
100
AcDbEntity
  8
0
100
AcDbBlockEnd
  0
BLOCK
  5
1C
100
AcDbEntity
  8
0
100
AcDbBlockBegin
  2
*Paper_Space
 70
0
 10
0.0
 20
0.0
 30
0.0
  3
*Paper_Space
  1

  0
ENDBLK
  5
1D
100
AcDbEntity
  8
0
100
AcDbBlockEnd
  0
BLOCK
  5
214
100
AcDbEntity
  8
0
100
AcDbBlockBegin
  2
_FILLED
 70
64
 10
0.0
 20
0.0
  3
_FILLED
  1

  0
SOLID
  5
215
100
AcDbEntity
  8
0
  6
BYBLOCK
 62
0
100
AcDbTrace
 10
0.0
 20
0.0
 11
-1.0
 21
0.25
 12
-1.0
 22
-0.25
 13
-1.0
 23
-0.25
  0
ENDBLK
  5
216
100
AcDbEntity
  8
0
  6
BYBLOCK
 62
0
100
AcDbBlockEnd
  0
ENDSEC
  0
SECTION
  2
ENTITIES
  0
LINE
  5
217
100
AcDbEntity
  8
0
100
AcDbLine
 62
7
  6
BYLAYER
 10
22.6709606843
 20
126.394123238
 11
22.6709606843
 21
176.894123238
  0
LINE
  5
218
100
AcDbEntity
  8
0
100
AcDbLine
 62
7
  6
BYLAYER
 10
23.6709606843
 20
126.394123238
 11
23.6709606843
 21
130.6620724305
  0
LINE
  5
219
100
AcDbEntity
  8
0
100
AcDbLine
 62
7
  6
BYLAYER
 10
24.1533087573
 20
175.7918954524
 11
24.1533245797
 21
177.8600563077
  0
LINE
  5
21A
100
AcDbEntity
  8
0
100
AcDbLine
 62
7
  6
BYLAYER
 10
24.6709606843
 20
130.394123238
 11
24.6709606843
 21
174.894123238
  0
LINE
  5
21B
100
AcDbEntity
  8
0
100
AcDbLine
 62
7
  6
BYLAYER
 10
136.0709606843
 20
58.494123238
 11
114.2709606843
 21
58.494123238
  0
LINE
  5
21C
100
AcDbEntity
  8
0
100
AcDbLine
 62
7
  6
BYLAYER
 10
112.5709588612
 20
59.594123238
 11
137.5709606843
 21
59.594123238
  0
LINE
  5
21D
100
AcDbEntity
  8
0
100
AcDbLine
 62
7
  6
BYLAYER
 10
137.5709606843
 20
61.594123238
 11
112.4969926678
 21
61.5941233818
  0
LINE
  5
21E
100
AcDbEntity
  8
0
100
AcDbLine
 62
7
  6
BYLAYER
 10
40.2709606843
 20
61.9732403305
 11
38.7709606843
 21
61.9732403305
  0
LINE
  5
21F
100
AcDbEntity
  8
0
100
AcDbLine
 62
7
  6
BYLAYER
 10
139.5709606843
 20
62.094123238
 11
138.0709606843
 21
62.094123238
  0
LINE
  5
220
100
AcDbEntity
  8
0
100
AcDbLine
 62
7
  6
BYLAYER
 10
37.9209606843
 20
63.594123238
 11
140.4209606843
 21
63.594123238
  0
LINE
  5
221
100
AcDbEntity
  8
0
100
AcDbLine
 62
7
  6
BYLAYER
 10
29.9297797295
 20
177.8941231469
 11
29.9297797295
 21
175.894123238
  0
LINE
  5
222
100
AcDbEntity
  8
0
100
AcDbLine
 62
7
  6
BYLAYER
 10
30.6709606843
 20
175.894123238
 11
30.6709606843
 21
226.094123238
  0
LINE
  5
223
100
AcDbEntity
  8
0
100
AcDbLine
 62
7
  6
BYLAYER
 10
31.6709606843
 20
174.894123238
 11
31.6709606844
 21
227.094123238
  0
LINE
  5
224
100
AcDbEntity
  8
0
100
AcDbLine
 62
7
  6
BYLAYER
 10
36.1709606843
 20
126.394123238
 11
36.1709606843
 21
148.894123238
  0
LINE
  5
225
100
AcDbEntity
  8
0
100
AcDbLine
 62
7
  6
BYLAYER
 10
36.1709606843
 20
223.894123238
 11
36.1709606843
 21
227.894123238
  0
LINE
  5
226
100
AcDbEntity
  8
0
100
AcDbLine
 62
7
  6
BYLAYER
 10
37.9209606843
 20
116.094123238
 11
37.9209606843
 21
63.594123238
  0
LINE
  5
227
100
AcDbEntity
  8
0
100
AcDbLine
 62
7
  6
BYLAYER
 10
38.1709606843
 20
223.894123238
 11
38.1709606843
 21
116.094123238
  0
LINE
  5
228
100
AcDbEntity
  8
0
100
AcDbLine
 62
7
  6
BYLAYER
 10
38.7709606843
 20
61.4550609894
 11
38.7709606843
 21
63.594123238
  0
LINE
  5
229
100
AcDbEntity
  8
0
100
AcDbLine
 62
7
  6
BYLAYER
 10
40.1709606843
 20
123.994123238
 11
40.1709606843
 21
120.994123238
  0
LINE
  5
22A
100
AcDbEntity
  8
0
100
AcDbLine
 62
7
  6
BYLAYER
 10
40.2709606843
 20
61.9732403306
 11
40.2709606843
 21
63.594123238
  0
LINE
  5
22B
100
AcDbEntity
  8
0
100
AcDbLine
 62
7
  6
BYLAYER
 10
40.9209606843
 20
63.594123238
 11
40.9209606843
 21
116.094123238
  0
LINE
  5
22C
100
AcDbEntity
  8
0
100
AcDbLine
 62
7
  6
BYLAYER
 10
41.1709606843
 20
116.094123238
 11
41.1709606843
 21
120.994123238
  0
LINE
  5
22D
100
AcDbEntity
  8
0
100
AcDbLine
 62
7
  6
BYLAYER
 10
41.1709606843
 20
123.994123238
 11
41.1709606843
 21
148.894123238
  0
LINE
  5
22E
100
AcDbEntity
  8
0
100
AcDbLine
 62
7
  6
BYLAYER
 10
43.9209606843
 20
63.594123238
 11
43.9209606843
 21
120.994123238
  0
LINE
  5
22F
100
AcDbEntity
  8
0
100
AcDbLine
 62
7
  6
BYLAYER
 10
43.9209606843
 20
123.994123238
 11
43.9209606843
 21
148.894123238
  0
LINE
  5
230
100
AcDbEntity
  8
0
100
AcDbLine
 62
7
  6
BYLAYER
 10
46.4209606843
 20
116.094123238
 11
46.4209606843
 21
120.994123238
  0
LINE
  5
231
100
AcDbEntity
  8
0
100
AcDbLine
 62
7
  6
BYLAYER
 10
46.4209606843
 20
123.994123238
 11
46.4209606843
 21
148.894123238
  0
LINE
  5
232
100
AcDbEntity
  8
0
100
AcDbLine
 62
7
  6
BYLAYER
 10
48.9209606843
 20
63.594123238
 11
48.9209606843
 21
116.094123238
  0
LINE
  5
233
100
AcDbEntity
  8
0
100
AcDbLine
 62
7
  6
BYLAYER
 10
40.6308000418
 20
59.4599782858
 11
40.7709606843
 21
61.4550609894
  0
LINE
  5
234
100
AcDbEntity
  8
0
100
AcDbLine
 62
7
  6
BYLAYER
 10
50.6709606843
 20
116.094123238
 11
50.6709606843
 21
120.994123238
  0
LINE
  5
235
100
AcDbEntity
  8
0
100
AcDbLine
 62
7
  6
BYLAYER
 10
54.9209606843
 20
124.694123238
 11
54.9209606843
 21
123.994123238
  0
LINE
  5
236
100
AcDbEntity
  8
0
100
AcDbLine
 62
7
  6
BYLAYER
 10
54.9209606843
 20
120.294123238
 11
54.9209606843
 21
120.994123238
  0
LINE
  5
237
100
AcDbEntity
  8
0
100
AcDbLine
 62
7
  6
BYLAYER
 10
58.4209606843
 20
124.694123238
 11
58.4209606843
 21
123.994123238
  0
LINE
  5
238
100
AcDbEntity
  8
0
100
AcDbLine
 62
7
  6
BYLAYER
 10
58.4209606843
 20
120.294123238
 11
58.4209606843
 21
120.994123238
  0
LINE
  5
239
100
AcDbEntity
  8
0
100
AcDbLine
 62
7
  6
BYLAYER
 10
59.1709606843
 20
123.994123238
 11
59.1709606843
 21
120.994123238
  0
LINE
  5
23A
100
AcDbEntity
  8
0
100
AcDbLine
 62
7
  6
BYLAYER
 10
60.0496403408
 20
120.994123238
 11
60.0496403408
 21
123.994123238
  0
LINE
  5
23B
100
AcDbEntity
  8
0
100
AcDbLine
 62
7
  6
BYLAYER
 10
61.2333204982
 20
123.994123238
 11
61.2333204982
 21
120.994123238
  0
LINE
  5
23C
100
AcDbEntity
  8
0
100
AcDbLine
 62
7
  6
BYLAYER
 10
61.9953152741
 20
123.994123238
 11
61.9953152741
 21
120.994123238
  0
LINE
  5
23D
100
AcDbEntity
  8
0
100
AcDbLine
 62
7
  6
BYLAYER
 10
62.5709606843
 20
120.994123238
 11
62.5709606843
 21
123.994123238
  0
LINE
  5
23E
100
AcDbEntity
  8
0
100
AcDbLine
 62
7
  6
BYLAYER
 10
62.6709606843
 20
116.094123238
 11
62.6709606843
 21
123.994123238
  0
LINE
  5
23F
100
AcDbEntity
  8
0
100
AcDbLine
 62
7
  6
BYLAYER
 10
64.4209606843
 20
116.094123238
 11
64.4209606843
 21
63.594123238
  0
LINE
  5
240
100
AcDbEntity
  8
0
100
AcDbLine
 62
7
  6
BYLAYER
 10
66.9209606843
 20
148.894123238
 11
66.9209606843
 21
116.094123238
  0
LINE
  5
241
100
AcDbEntity
  8
0
100
AcDbLine
 62
7
  6
BYLAYER
 10
69.4209606843
 20
63.594123238
 11
69.4209606843
 21
148.894123238
  0
LINE
  5
242
100
AcDbEntity
  8
0
100
AcDbLine
 62
7
  6
BYLAYER
 10
169.1709606843
 20
107.444123238
 11
159.1709606843
 21
107.444123238
  0
LINE
  5
243
100
AcDbEntity
  8
0
100
AcDbLine
 62
7
  6
BYLAYER
 10
172.1709606843
 20
108.744123238
 11
169.1709606843
 21
108.744123238
  0
LINE
  5
244
100
AcDbEntity
  8
0
100
AcDbLine
 62
7
  6
BYLAYER
 10
159.1709606843
 20
108.744123238
 11
142.1709606843
 21
108.744123238
  0
LINE
  5
245
100
AcDbEntity
  8
0
100
AcDbLine
 62
7
  6
BYLAYER
 10
175.1709606843
 20
108.944123238
 11
169.1709606843
 21
108.944123238
  0
LINE
  5
246
100
AcDbEntity
  8
0
100
AcDbLine
 62
7
  6
BYLAYER
 10
159.1709606843
 20
108.944123238
 11
153.1709606843
 21
108.944123238
  0
LINE
  5
247
100
AcDbEntity
  8
0
100
AcDbLine
 62
7
  6
BYLAYER
 10
173.1709606843
 20
109.344123238
 11
168.8709606843
 21
109.344123238
  0
LINE
  5
248
100
AcDbEntity
  8
0
100
AcDbLine
 62
7
  6
BYLAYER
 10
159.4709606843
 20
109.344123238
 11
155.1709606843
 21
109.344123238
  0
LINE
  5
249
100
AcDbEntity
  8
0
100
AcDbLine
 62
7
  6
BYLAYER
 10
175.1709606843
 20
111.844123238
 11
173.2709606843
 21
111.844123238
  0
LINE
  5
24A
100
AcDbEntity
  8
0
100
AcDbLine
 62
7
  6
BYLAYER
 10
173.1709606843
 20
111.844123238
 11
171.1709606843
 21
111.844123238
  0
LINE
  5
24B
100
AcDbEntity
  8
0
100
AcDbLine
 62
7
  6
BYLAYER
 10
157.1709606843
 20
111.844123238
 11
155.1709606843
 21
111.844123238
  0
LINE
  5
24C
100
AcDbEntity
  8
0
100
AcDbLine
 62
7
  6
BYLAYER
 10
155.0709606843
 20
111.844123238
 11
153.1709606843
 21
111.844123238
  0
LINE
  5
24D
100
AcDbEntity
  8
0
100
AcDbLine
 62
7
  6
BYLAYER
 10
76.4209606843
 20
63.594123238
 11
76.4209606843
 21
148.894123238
  0
LINE
  5
24E
100
AcDbEntity
  8
0
100
AcDbLine
 62
7
  6
BYLAYER
 10
78.9209606843
 20
116.094123238
 11
78.9209606843
 21
148.894123238
  0
LINE
  5
24F
100
AcDbEntity
  8
0
100
AcDbLine
 62
7
  6
BYLAYER
 10
79.1709606843
 20
123.994123238
 11
79.1709606843
 21
120.994123238
  0
LINE
  5
250
100
AcDbEntity
  8
0
100
AcDbLine
 62
7
  6
BYLAYER
 10
81.4209606843
 20
63.594123238
 11
81.4209606843
 21
116.094123238
  0
LINE
  5
251
100
AcDbEntity
  8
0
100
AcDbLine
 62
7
  6
BYLAYER
 10
142.1709606843
 20
113.944123238
 11
186.1709606843
 21
113.944123238
  0
LINE
  5
252
100
AcDbEntity
  8
0
100
AcDbLine
 62
7
  6
BYLAYER
 10
186.1709606843
 20
114.894123238
 11
142.1709606843
 21
114.894123238
  0
LINE
  5
253
100
AcDbEntity
  8
0
100
AcDbLine
 62
7
  6
BYLAYER
 10
37.9209606843
 20
116.094123238
 11
140.4209606843
 21
116.094123238
  0
LINE
  5
254
100
AcDbEntity
  8
0
100
AcDbLine
 62
7
  6
BYLAYER
 10
183.8709606843
 20
117.094123238
 11
186.1709606843
 21
117.094123238
  0
LINE
  5
255
100
AcDbEntity
  8
0
100
AcDbLine
 62
7
  6
BYLAYER
 10
142.1709606843
 20
117.194123238
 11
140.1709606843
 21
117.194123238
  0
LINE
  5
256
100
AcDbEntity
  8
0
100
AcDbLine
 62
7
  6
BYLAYER
 10
123.4202989438
 20
120.294123238
 11
119.9216224249
 21
120.294123238
  0
LINE
  5
257
100
AcDbEntity
  8
0
100
AcDbLine
 62
7
  6
BYLAYER
 10
90.9209606843
 20
120.294123238
 11
87.4209606843
 21
120.294123238
  0
LINE
  5
258
100
AcDbEntity
  8
0
100
AcDbLine
 62
7
  6
BYLAYER
 10
58.4202989438
 20
120.294123238
 11
54.9216224249
 21
120.294123238
  0
LINE
  5
259
100
AcDbEntity
  8
0
100
AcDbLine
 62
7
  6
BYLAYER
 10
83.1709606843
 20
116.094123238
 11
83.1709606843
 21
120.994123238
  0
LINE
  5
25A
100
AcDbEntity
  8
0
100
AcDbLine
 62
7
  6
BYLAYER
 10
83.1709606843
 20
224.394123238
 11
83.1709606843
 21
227.394123238
  0
LINE
  5
25B
100
AcDbEntity
  8
0
100
AcDbLine
 62
7
  6
BYLAYER
 10
85.9209606843
 20
223.894123238
 11
85.9209606843
 21
227.894123238
  0
LINE
  5
25C
100
AcDbEntity
  8
0
100
AcDbLine
 62
7
  6
BYLAYER
 10
87.4209606843
 20
120.994123238
 11
87.4209606843
 21
120.294123238
  0
LINE
  5
25D
100
AcDbEntity
  8
0
100
AcDbLine
 62
7
  6
BYLAYER
 10
99.1709606843
 20
120.994123238
 11
79.1709606843
 21
120.994123238
  0
LINE
  5
25E
100
AcDbEntity
  8
0
100
AcDbLine
 62
7
  6
BYLAYER
 10
62.5709606843
 20
120.994123238
 11
40.1709606843
 21
120.994123238
  0
LINE
  5
25F
100
AcDbEntity
  8
0
100
AcDbLine
 62
7
  6
BYLAYER
 10
115.7709606843
 20
120.994123238
 11
138.1709606843
 21
120.994123238
  0
LINE
  5
260
100
AcDbEntity
  8
0
100
AcDbLine
 62
7
  6
BYLAYER
 10
99.1709606843
 20
123.994123238
 11
79.1709606843
 21
123.994123238
  0
LINE
  5
261
100
AcDbEntity
  8
0
100
AcDbLine
 62
7
  6
BYLAYER
 10
40.1709606843
 20
123.994123238
 11
62.6709606843
 21
123.994123238
  0
LINE
  5
262
100
AcDbEntity
  8
0
100
AcDbLine
 62
7
  6
BYLAYER
 10
115.6709606843
 20
123.994123238
 11
138.1709606843
 21
123.994123238
  0
LINE
  5
263
100
AcDbEntity
  8
0
100
AcDbLine
 62
7
  6
BYLAYER
 10
54.9218264436
 20
124.694123238
 11
58.4200983764
 21
124.694123238
  0
LINE
  5
264
100
AcDbEntity
  8
0
100
AcDbLine
 62
7
  6
BYLAYER
 10
36.1709606843
 20
126.394123238
 11
22.6709606843
 21
126.394123238
  0
LINE
  5
265
100
AcDbEntity
  8
0
100
AcDbLine
 62
7
  6
BYLAYER
 10
90.9209606843
 20
120.994123238
 11
90.9209606843
 21
120.294123238
  0
LINE
  5
266
100
AcDbEntity
  8
0
100
AcDbLine
 62
7
  6
BYLAYER
 10
92.4209606843
 20
223.894123238
 11
92.4209606843
 21
227.894123238
  0
LINE
  5
267
100
AcDbEntity
  8
0
100
AcDbLine
 62
7
  6
BYLAYER
 10
95.1709606843
 20
116.094123238
 11
95.1709606843
 21
120.994123238
  0
LINE
  5
268
100
AcDbEntity
  8
0
100
AcDbLine
 62
7
  6
BYLAYER
 10
95.1709606843
 20
224.394123238
 11
95.1709606843
 21
227.394123238
  0
LINE
  5
269
100
AcDbEntity
  8
0
100
AcDbLine
 62
7
  6
BYLAYER
 10
96.9209606843
 20
116.094123238
 11
96.9209606843
 21
63.594123238
  0
LINE
  5
26A
100
AcDbEntity
  8
0
100
AcDbLine
 62
7
  6
BYLAYER
 10
24.6709606843
 20
130.394123238
 11
36.1709606843
 21
130.394123238
  0
LINE
  5
26B
100
AcDbEntity
  8
0
100
AcDbLine
 62
7
  6
BYLAYER
 10
36.1709606843
 20
132.394123238
 11
22.6709606843
 21
132.394123238
  0
LINE
  5
26C
100
AcDbEntity
  8
0
100
AcDbLine
 62
7
  6
BYLAYER
 10
36.1709606843
 20
134.894123238
 11
38.1709606843
 21
134.894123238
  0
LINE
  5
26D
100
AcDbEntity
  8
0
100
AcDbLine
 62
7
  6
BYLAYER
 10
38.1709606843
 20
135.894123238
 11
36.1709606843
 21
135.894123238
  0
LINE
  5
26E
100
AcDbEntity
  8
0
100
AcDbLine
 62
7
  6
BYLAYER
 10
99.1709606843
 20
123.994123238
 11
99.1709606843
 21
120.994123238
  0
LINE
  5
26F
100
AcDbEntity
  8
0
100
AcDbLine
 62
7
  6
BYLAYER
 10
99.4209606843
 20
148.894123238
 11
99.4209606843
 21
116.094123238
  0
LINE
  5
270
100
AcDbEntity
  8
0
100
AcDbLine
 62
7
  6
BYLAYER
 10
101.9209606843
 20
63.594123238
 11
101.9209606843
 21
148.894123238
  0
LINE
  5
271
100
AcDbEntity
  8
0
100
AcDbLine
 62
7
  6
BYLAYER
 10
36.1709606843
 20
137.394123238
 11
38.1709606843
 21
137.394123238
  0
LINE
  5
272
100
AcDbEntity
  8
0
100
AcDbLine
 62
7
  6
BYLAYER
 10
36.1709606843
 20
138.394123238
 11
38.1709606843
 21
138.394123238
  0
LINE
  5
273
100
AcDbEntity
  8
0
100
AcDbLine
 62
7
  6
BYLAYER
 10
38.1709606843
 20
138.6870164568
 11
36.1709606843
 21
138.6870164568
  0
LINE
  5
274
100
AcDbEntity
  8
0
100
AcDbLine
 62
7
  6
BYLAYER
 10
36.1709606843
 20
140.1039920828
 11
38.1709606843
 21
140.1039920828
  0
LINE
  5
275
100
AcDbEntity
  8
0
100
AcDbLine
 62
7
  6
BYLAYER
 10
38.1709606843
 20
140.8905581753
 11
36.1709606843
 21
140.8905581753
  0
LINE
  5
276
100
AcDbEntity
  8
0
100
AcDbLine
 62
7
  6
BYLAYER
 10
36.1709606843
 20
141.7599898717
 11
38.1709606843
 21
141.7599898717
  0
LINE
  5
277
100
AcDbEntity
  8
0
100
AcDbLine
 62
7
  6
BYLAYER
 10
36.1709606843
 20
141.8269771698
 11
38.1709606843
 21
141.8269771698
  0
LINE
  5
278
100
AcDbEntity
  8
0
100
AcDbLine
 62
7
  6
BYLAYER
 10
38.1709606843
 20
141.869123238
 11
36.1709606843
 21
141.869123238
  0
LINE
  5
279
100
AcDbEntity
  8
0
100
AcDbLine
 62
7
  6
BYLAYER
 10
38.1709606843
 20
142.4541308614
 11
36.1709606843
 21
142.4541308614
  0
LINE
  5
27A
100
AcDbEntity
  8
0
100
AcDbLine
 62
7
  6
BYLAYER
 10
38.1709606843
 20
142.894123238
 11
36.1709606843
 21
142.894123238
  0
LINE
  5
27B
100
AcDbEntity
  8
0
100
AcDbLine
 62
7
  6
BYLAYER
 10
38.1709606843
 20
143.3341156147
 11
36.1709606843
 21
143.3341156147
  0
LINE
  5
27C
100
AcDbEntity
  8
0
100
AcDbLine
 62
7
  6
BYLAYER
 10
38.1709606843
 20
143.919123238
 11
36.1709606843
 21
143.919123238
  0
LINE
  5
27D
100
AcDbEntity
  8
0
100
AcDbLine
 62
7
  6
BYLAYER
 10
38.1709606843
 20
143.9612693063
 11
36.1709606843
 21
143.9612693063
  0
LINE
  5
27E
100
AcDbEntity
  8
0
100
AcDbLine
 62
7
  6
BYLAYER
 10
38.1709606843
 20
144.0282566044
 11
36.1709606843
 21
144.0282566044
  0
LINE
  5
27F
100
AcDbEntity
  8
0
100
AcDbLine
 62
7
  6
BYLAYER
 10
112.4969873795
 20
61.594123238
 11
112.570961052
 21
59.594123238
  0
LINE
  5
280
100
AcDbEntity
  8
0
100
AcDbLine
 62
7
  6
BYLAYER
 10
108.9209606843
 20
63.594123238
 11
108.9209606843
 21
148.894123238
  0
LINE
  5
281
100
AcDbEntity
  8
0
100
AcDbLine
 62
7
  6
BYLAYER
 10
111.4209606843
 20
116.094123238
 11
111.4209606843
 21
148.894123238
  0
LINE
  5
282
100
AcDbEntity
  8
0
100
AcDbLine
 62
7
  6
BYLAYER
 10
36.1709606843
 20
144.8976883008
 11
38.1709606843
 21
144.8976883008
  0
LINE
  5
283
100
AcDbEntity
  8
0
100
AcDbLine
 62
7
  6
BYLAYER
 10
38.1709606843
 20
145.6842543932
 11
36.1709606843
 21
145.6842543932
  0
LINE
  5
284
100
AcDbEntity
  8
0
100
AcDbLine
 62
7
  6
BYLAYER
 10
36.1709606843
 20
147.394123238
 11
38.1709606843
 21
147.394123238
  0
LINE
  5
285
100
AcDbEntity
  8
0
100
AcDbLine
 62
7
  6
BYLAYER
 10
38.1709606843
 20
148.394123238
 11
36.1709606843
 21
148.394123238
  0
LINE
  5
286
100
AcDbEntity
  8
0
100
AcDbLine
 62
7
  6
BYLAYER
 10
36.1709606843
 20
148.894123238
 11
140.1709606843
 21
148.894123238
  0
LINE
  5
287
100
AcDbEntity
  8
0
100
AcDbLine
 62
7
  6
BYLAYER
 10
113.9209606843
 20
63.594123238
 11
113.9209606843
 21
116.094123238
  0
LINE
  5
288
100
AcDbEntity
  8
0
100
AcDbLine
 62
7
  6
BYLAYER
 10
114.2709606843
 20
59.594123238
 11
114.2709606843
 21
58.494123238
  0
LINE
  5
289
100
AcDbEntity
  8
0
100
AcDbLine
 62
7
  6
BYLAYER
 10
115.6709606843
 20
116.094123238
 11
115.6709606843
 21
123.994123238
  0
LINE
  5
28A
100
AcDbEntity
  8
0
100
AcDbLine
 62
7
  6
BYLAYER
 10
115.7709606843
 20
123.994123238
 11
115.7709606843
 21
120.994123238
  0
LINE
  5
28B
100
AcDbEntity
  8
0
100
AcDbLine
 62
7
  6
BYLAYER
 10
116.3466060946
 20
120.994123238
 11
116.3466060946
 21
123.994123238
  0
LINE
  5
28C
100
AcDbEntity
  8
0
100
AcDbLine
 62
7
  6
BYLAYER
 10
117.1086008705
 20
120.994123238
 11
117.1086008705
 21
123.994123238
  0
LINE
  5
28D
100
AcDbEntity
  8
0
100
AcDbLine
 62
7
  6
BYLAYER
 10
118.2922810279
 20
123.994123238
 11
118.2922810279
 21
120.994123238
  0
LINE
  5
28E
100
AcDbEntity
  8
0
100
AcDbLine
 62
7
  6
BYLAYER
 10
119.1709606843
 20
120.994123238
 11
119.1709606843
 21
123.994123238
  0
LINE
  5
28F
100
AcDbEntity
  8
0
100
AcDbLine
 62
7
  6
BYLAYER
 10
119.9209606843
 20
120.294123238
 11
119.9209606843
 21
120.994123238
  0
LINE
  5
290
100
AcDbEntity
  8
0
100
AcDbLine
 62
7
  6
BYLAYER
 10
123.4209606843
 20
120.294123238
 11
123.4209606843
 21
120.994123238
  0
LINE
  5
291
100
AcDbEntity
  8
0
100
AcDbLine
 62
7
  6
BYLAYER
 10
127.6709606843
 20
116.094123238
 11
127.6709606843
 21
120.994123238
  0
LINE
  5
292
100
AcDbEntity
  8
0
100
AcDbLine
 62
7
  6
BYLAYER
 10
38.1709606843
 20
159.9149385182
 11
140.1709606843
 21
159.9149385182
  0
LINE
  5
293
100
AcDbEntity
  8
0
100
AcDbLine
 62
7
  6
BYLAYER
 10
140.1709606843
 20
160.97559869
 11
38.1709606843
 21
160.97559869
  0
LINE
  5
294
100
AcDbEntity
  8
0
100
AcDbLine
 62
7
  6
BYLAYER
 10
22.6709606843
 20
166.8941232629
 11
38.1709606843
 21
166.8941232378
  0
LINE
  5
295
100
AcDbEntity
  8
0
100
AcDbLine
 62
7
  6
BYLAYER
 10
140.1709606843
 20
166.894123238
 11
170.0207480509
 21
166.894123238
  0
LINE
  5
296
100
AcDbEntity
  8
0
100
AcDbLine
 62
7
  6
BYLAYER
 10
129.4209606843
 20
116.094123238
 11
129.4209606843
 21
63.594123238
  0
LINE
  5
297
100
AcDbEntity
  8
0
100
AcDbLine
 62
7
  6
BYLAYER
 10
131.9209606843
 20
148.894123238
 11
131.9209606843
 21
123.994123238
  0
LINE
  5
298
100
AcDbEntity
  8
0
100
AcDbLine
 62
7
  6
BYLAYER
 10
131.9209606843
 20
120.994123238
 11
131.9209606843
 21
116.094123238
  0
LINE
  5
299
100
AcDbEntity
  8
0
100
AcDbLine
 62
7
  6
BYLAYER
 10
134.4209606843
 20
63.594123238
 11
134.4209606843
 21
120.994123238
  0
LINE
  5
29A
100
AcDbEntity
  8
0
100
AcDbLine
 62
7
  6
BYLAYER
 10
134.4209606843
 20
123.994123238
 11
134.4209606843
 21
148.894123238
  0
LINE
  5
29B
100
AcDbEntity
  8
0
100
AcDbLine
 62
7
  6
BYLAYER
 10
136.0709606843
 20
59.594123238
 11
136.0709606843
 21
58.494123238
  0
LINE
  5
29C
100
AcDbEntity
  8
0
100
AcDbLine
 62
7
  6
BYLAYER
 10
38.1709606843
 20
172.9362588618
 11
140.1709606843
 21
172.9362588618
  0
LINE
  5
29D
100
AcDbEntity
  8
0
100
AcDbLine
 62
7
  6
BYLAYER
 10
168.6101322052
 20
174.894123238
 11
140.1709606843
 21
174.894123238
  0
LINE
  5
29E
100
AcDbEntity
  8
0
100
AcDbLine
 62
7
  6
BYLAYER
 10
38.1709606843
 20
174.894123238
 11
24.6709606843
 21
174.894123238
  0
LINE
  5
29F
100
AcDbEntity
  8
0
100
AcDbLine
 62
7
  6
BYLAYER
 10
137.1709606843
 20
148.894123238
 11
137.1709606843
 21
123.994123238
  0
LINE
  5
2A0
100
AcDbEntity
  8
0
100
AcDbLine
 62
7
  6
BYLAYER
 10
137.1709606843
 20
120.994123238
 11
137.1709606843
 21
116.094123238
  0
LINE
  5
2A1
100
AcDbEntity
  8
0
100
AcDbLine
 62
7
  6
BYLAYER
 10
137.4209606843
 20
116.094123238
 11
137.4209606843
 21
63.594123238
  0
LINE
  5
2A2
100
AcDbEntity
  8
0
100
AcDbLine
 62
7
  6
BYLAYER
 10
137.5709606843
 20
61.594123238
 11
137.5709606843
 21
59.594123238
  0
LINE
  5
2A3
100
AcDbEntity
  8
0
100
AcDbLine
 62
7
  6
BYLAYER
 10
138.0709606843
 20
63.594123238
 11
138.0709606843
 21
62.0941232381
  0
LINE
  5
2A4
100
AcDbEntity
  8
0
100
AcDbLine
 62
7
  6
BYLAYER
 10
138.1709606843
 20
120.994123238
 11
138.1709606843
 21
123.994123238
  0
LINE
  5
2A5
100
AcDbEntity
  8
0
100
AcDbLine
 62
7
  6
BYLAYER
 10
139.5709606843
 20
61.594123238
 11
139.5709606843
 21
63.594123238
  0
LINE
  5
2A6
100
AcDbEntity
  8
0
100
AcDbLine
 62
7
  6
BYLAYER
 10
140.1709606843
 20
116.094123238
 11
140.1709606843
 21
174.894123238
  0
LINE
  5
2A7
100
AcDbEntity
  8
0
100
AcDbLine
 62
7
  6
BYLAYER
 10
140.4209606843
 20
63.594123238
 11
140.4209606843
 21
116.094123238
  0
LINE
  5
2A8
100
AcDbEntity
  8
0
100
AcDbLine
 62
7
  6
BYLAYER
 10
142.1709606843
 20
108.744123238
 11
142.1709606843
 21
117.194123238
  0
LINE
  5
2A9
100
AcDbEntity
  8
0
100
AcDbLine
 62
7
  6
BYLAYER
 10
142.1709606843
 20
174.894123238
 11
142.1709606843
 21
227.894123238
  0
LINE
  5
2AA
100
AcDbEntity
  8
0
100
AcDbLine
 62
7
  6
BYLAYER
 10
38.1709606843
 20
175.894123238
 11
24.9297797139
 21
175.8941208509
  0
LINE
  5
2AB
100
AcDbEntity
  8
0
100
AcDbLine
 62
7
  6
BYLAYER
 10
24.4121694422
 20
177.8941217637
 11
30.6709606843
 21
177.8941232408
  0
LINE
  5
2AC
100
AcDbEntity
  8
0
100
AcDbLine
 62
7
  6
BYLAYER
 10
24.6709607457
 20
178.894123238
 11
29.6709606337
 21
178.894123238
  0
LINE
  5
2AD
100
AcDbEntity
  8
0
100
AcDbLine
 62
7
  6
BYLAYER
 10
183.8709606843
 20
117.094123238
 11
173.3709606843
 21
127.594123238
  0
LINE
  5
2AE
100
AcDbEntity
  8
0
100
AcDbLine
 62
7
  6
BYLAYER
 10
153.1709606843
 20
111.844123238
 11
153.1709606843
 21
108.944123238
  0
LINE
  5
2AF
100
AcDbEntity
  8
0
100
AcDbLine
 62
7
  6
BYLAYER
 10
155.0709606843
 20
113.944123238
 11
155.0709606843
 21
108.944123238
  0
LINE
  5
2B0
100
AcDbEntity
  8
0
100
AcDbLine
 62
7
  6
BYLAYER
 10
155.1709606843
 20
113.944123238
 11
155.1709606843
 21
109.344123238
  0
LINE
  5
2B1
100
AcDbEntity
  8
0
100
AcDbLine
 62
7
  6
BYLAYER
 10
157.1709606843
 20
113.944123238
 11
157.1709606843
 21
111.844123238
  0
LINE
  5
2B2
100
AcDbEntity
  8
0
100
AcDbLine
 62
7
  6
BYLAYER
 10
159.1709606843
 20
108.944123238
 11
159.1709606843
 21
107.444123238
  0
LINE
  5
2B3
100
AcDbEntity
  8
0
100
AcDbLine
 62
7
  6
BYLAYER
 10
159.4709606843
 20
113.944123238
 11
159.4709606843
 21
109.344123238
  0
LINE
  5
2B4
100
AcDbEntity
  8
0
100
AcDbLine
 62
7
  6
BYLAYER
 10
168.8709606843
 20
113.944123238
 11
168.8709606843
 21
109.344123238
  0
LINE
  5
2B5
100
AcDbEntity
  8
0
100
AcDbLine
 62
7
  6
BYLAYER
 10
169.1709606843
 20
108.944123238
 11
169.1709606843
 21
107.444123238
  0
LINE
  5
2B6
100
AcDbEntity
  8
0
100
AcDbLine
 62
7
  6
BYLAYER
 10
171.1709606843
 20
113.944123238
 11
171.1709606843
 21
111.844123238
  0
LINE
  5
2B7
100
AcDbEntity
  8
0
100
AcDbLine
 62
7
  6
BYLAYER
 10
173.1709606843
 20
113.944123238
 11
173.1709606843
 21
109.344123238
  0
LINE
  5
2B8
100
AcDbEntity
  8
0
100
AcDbLine
 62
7
  6
BYLAYER
 10
173.2709606843
 20
113.944123238
 11
173.2709606843
 21
108.944123238
  0
LINE
  5
2B9
100
AcDbEntity
  8
0
100
AcDbLine
 62
7
  6
BYLAYER
 10
173.3709606843
 20
147.894123238
 11
173.3709606843
 21
127.594123238
  0
LINE
  5
2BA
100
AcDbEntity
  8
0
100
AcDbLine
 62
7
  6
BYLAYER
 10
175.1709606843
 20
111.844123238
 11
175.1709606843
 21
108.944123238
  0
LINE
  5
2BB
100
AcDbEntity
  8
0
100
AcDbLine
 62
7
  6
BYLAYER
 10
173.3709606843
 20
147.894123238
 11
168.6101322052
 21
174.894123238
  0
LINE
  5
2BC
100
AcDbEntity
  8
0
100
AcDbLine
 62
7
  6
BYLAYER
 10
173.564296485
 20
113.944123238
 11
173.2709606843
 21
112.8493791264
  0
LINE
  5
2BD
100
AcDbEntity
  8
0
100
AcDbLine
 62
7
  6
BYLAYER
 10
172.2245505228
 20
108.944123238
 11
172.1709606843
 21
108.744123238
  0
LINE
  5
2BE
100
AcDbEntity
  8
0
100
AcDbLine
 62
7
  6
BYLAYER
 10
38.1709606843
 20
221.400548376
 11
142.1709606843
 21
221.400548376
  0
LINE
  5
2BF
100
AcDbEntity
  8
0
100
AcDbLine
 62
7
  6
BYLAYER
 10
186.1709606843
 20
117.094123238
 11
186.1709606843
 21
113.944123238
  0
LINE
  5
2C0
100
AcDbEntity
  8
0
100
AcDbLine
 62
7
  6
BYLAYER
 10
142.1709606843
 20
222.7753210845
 11
38.1709606843
 21
222.7753210845
  0
LINE
  5
2C1
100
AcDbEntity
  8
0
100
AcDbLine
 62
7
  6
BYLAYER
 10
36.1709606843
 20
223.894123238
 11
142.1709606843
 21
223.894123238
  0
LINE
  5
2C2
100
AcDbEntity
  8
0
100
AcDbLine
 62
7
  6
BYLAYER
 10
142.1709606843
 20
224.394123238
 11
95.1709606843
 21
224.394123238
  0
LINE
  5
2C3
100
AcDbEntity
  8
0
100
AcDbLine
 62
7
  6
BYLAYER
 10
83.1709606843
 20
224.394123238
 11
36.1709606843
 21
224.394123238
  0
LINE
  5
2C4
100
AcDbEntity
  8
0
100
AcDbLine
 62
7
  6
BYLAYER
 10
30.6709606843
 20
225.0941231779
 11
36.1709606843
 21
225.0941232359
  0
LINE
  5
2C5
100
AcDbEntity
  8
0
100
AcDbLine
 62
7
  6
BYLAYER
 10
36.1709606843
 20
227.094123238
 11
31.6709606844
 21
227.094123238
  0
LINE
  5
2C6
100
AcDbEntity
  8
0
100
AcDbLine
 62
7
  6
BYLAYER
 10
36.1709606843
 20
227.394123238
 11
83.1709606843
 21
227.394123238
  0
LINE
  5
2C7
100
AcDbEntity
  8
0
100
AcDbLine
 62
7
  6
BYLAYER
 10
95.1709606843
 20
227.394123238
 11
142.1709606843
 21
227.394123238
  0
LINE
  5
2C8
100
AcDbEntity
  8
0
100
AcDbLine
 62
7
  6
BYLAYER
 10
36.1709606843
 20
227.894123238
 11
142.1709606843
 21
227.894123238
  0
ARC
  5
2C9
100
AcDbEntity
  8
0
100
AcDbCircle
 62
7
  6
BYLAYER
 10
75.6709606843
 20
558.2306541902
 40
500.0
100
AcDbArc
 50
265.9813993816
 51
274.2322760299
  0
ARC
  5
2CA
100
AcDbEntity
  8
0
100
AcDbCircle
 62
7
  6
BYLAYER
 10
75.6709606843
 20
558.2306541902
 40
498.0
100
AcDbArc
 50
265.9813988419
 51
274.2407709773
  0
ARC
  5
2CB
100
AcDbEntity
  8
0
100
AcDbCircle
 62
7
  6
BYLAYER
 10
24.9314097832
 20
172.8817159592
 40
3.0124053328
100
AcDbArc
 50
90.0310038278
 51
104.9691496289
  0
ARC
  5
2CC
100
AcDbEntity
  8
0
100
AcDbCircle
 62
7
  6
BYLAYER
 10
137.5709606843
 20
61.594123238
 40
2.0
100
AcDbArc
 50
270.0
 51
360.0
  0
ARC
  5
2CD
100
AcDbEntity
  8
0
100
AcDbCircle
 62
7
  6
BYLAYER
 10
40.7709606843
 20
61.4550609894
 40
2.0
100
AcDbArc
 50
180.0
 51
265.9813993816
  0
ARC
  5
2CE
100
AcDbEntity
  8
0
100
AcDbCircle
 62
7
  6
BYLAYER
 10
24.6709606843
 20
172.894123238
 40
2.0
100
AcDbArc
 50
90.0000001349
 51
180.0
  0
ARC
  5
2CF
100
AcDbEntity
  8
0
100
AcDbCircle
 62
7
  6
BYLAYER
 10
24.6709606843
 20
132.394123238
 40
2.0
100
AcDbArc
 50
180.0
 51
270.0
  0
ARC
  5
2D0
100
AcDbEntity
  8
0
100
AcDbCircle
 62
7
  6
BYLAYER
 10
24.6709606843
 20
176.894123238
 40
2.0
100
AcDbArc
 50
89.9999987854
 51
180.0
  0
ARC
  5
2D1
100
AcDbEntity
  8
0
100
AcDbCircle
 62
7
  6
BYLAYER
 10
24.4125909984
 20
176.8904752328
 40
1.0036466193
100
AcDbArc
 50
90.0240656312
 51
104.9706616376
  0
ARC
  5
2D2
100
AcDbEntity
  8
0
100
AcDbCircle
 62
7
  6
BYLAYER
 10
31.6709606843
 20
226.094123238
 40
1.0
100
AcDbArc
 50
89.9999999999
 51
179.9999999993
  0
ARC
  5
2D3
100
AcDbEntity
  8
0
100
AcDbCircle
 62
7
  6
BYLAYER
 10
29.6709606843
 20
175.894123238
 40
1.0
100
AcDbArc
 50
270.0
 51
360.0
  0
ARC
  5
2D4
100
AcDbEntity
  8
0
100
AcDbCircle
 62
7
  6
BYLAYER
 10
29.6709606843
 20
179.894123238
 40
1.0
100
AcDbArc
 50
270.0
 51
360.0
  0
SPLINE
  5
2D5
100
AcDbEntity
  8
0
100
AcDbSpline
 62
7
  6
BYLAYER
 70
0
 71
3
 72
9
 73
5
 74
0
 42
0.0000001
 43
0.0000001
 44
0.0000000001
 40
0.0
 40
0.0
 40
0.0
 40
0.0
 40
0.4985081803
 40
1.0
 40
1.0
 40
1.0
 40
1.0
 10
40.2709606843
 20
61.9732403306
 30
0.0
 10
40.2718963264
 20
61.8471140609
 30
0.0
 10
40.4098990541
 20
61.6015777009
 30
0.0
 10
40.6455121089
 20
61.4741278844
 30
0.0
 10
40.770955979
 20
61.4550609423
 30
0.0
  0
SPLINE
  5
2D6
100
AcDbEntity
  8
0
100
AcDbSpline
 62
7
  6
BYLAYER
 70
0
 71
3
 72
20
 73
16
 74
0
 42
0.0000001
 43
0.0000001
 44
0.0000000001
 40
0.0
 40
0.0
 40
0.0
 40
0.0
 40
0.1424495181
 40
0.272884185
 40
0.3308740825
 40
0.3870323783
 40
0.4410358746
 40
0.4931714114
 40
0.5452520078
 40
0.5994255185
 40
0.6576983288
 40
0.7200351752
 40
0.7857641419
 40
0.8552153817
 40
1.0
 40
1.0
 40
1.0
 40
1.0
 10
38.7709606843
 20
61.4550609894
 30
0.0
 10
38.7709606843
 20
61.282127129
 30
0.0
 10
38.8149436107
 20
60.9498549593
 30
0.0
 10
38.9788331874
 20
60.5731502973
 30
0.0
 10
39.177305637
 20
60.349578745
 30
0.0
 10
39.3409049272
 20
60.2252847909
 30
0.0
 10
39.5222642735
 20
60.1427630869
 30
0.0
 10
39.715158261
 20
60.1154772687
 30
0.0
 10
39.9079822344
 20
60.1438960335
 30
0.0
 10
40.0920345385
 20
60.2263037703
 30
0.0
 10
40.266002046
 20
60.3491446148
 30
0.0
 10
40.4299924226
 20
60.5069293307
 30
0.0
 10
40.562577695
 20
60.7092132067
 30
0.0
 10
40.6922817507
 20
61.0242780745
 30
0.0
 10
40.7516936817
 20
61.2803514889
 30
0.0
 10
40.7709606843
 20
61.4550609894
 30
0.0
  0
SPLINE
  5
2D7
100
AcDbEntity
  8
0
100
AcDbSpline
 62
7
  6
BYLAYER
 70
0
 71
3
 72
19
 73
15
 74
0
 42
0.0000001
 43
0.0000001
 44
0.0000000001
 40
0.0
 40
0.0
 40
0.0
 40
0.0
 40
0.0731367482
 40
0.1091070307
 40
0.1444348144
 40
0.2137286697
 40
0.2789732149
 40
0.3393379891
 40
0.3957500791
 40
0.5010569385
 40
0.6056642409
 40
0.7217271794
 40
0.8560115995
 40
1.0
 40
1.0
 40
1.0
 40
1.0
 10
137.5709606843
 20
61.594123238
 30
0.0
 10
137.5677922389
 20
61.5025767098
 30
0.0
 10
137.5729718205
 20
61.3648325854
 30
0.0
 10
137.6137529372
 20
61.1878909386
 30
0.0
 10
137.6818236691
 20
61.0247332428
 30
0.0
 10
137.7944658199
 20
60.8436438014
 30
0.0
 10
137.9045086666
 20
60.6258807935
 30
0.0
 10
138.0304658815
 20
60.4341028577
 30
0.0
 10
138.2424063727
 20
60.2474495241
 30
0.0
 10
138.5858077594
 20
60.160601308
 30
0.0
 10
138.9940652553
 20
60.280795325
 30
0.0
 10
139.3197378662
 20
60.6048227353
 30
0.0
 10
139.5233003208
 20
61.0633612769
 30
0.0
 10
139.5709606843
 20
61.4137825605
 30
0.0
 10
139.5709606843
 20
61.594123238
 30
0.0
  0
SPLINE
  5
2D8
100
AcDbEntity
  8
0
100
AcDbSpline
 62
7
  6
BYLAYER
 70
0
 71
3
 72
12
 73
8
 74
0
 42
0.0000001
 43
0.0000001
 44
0.0000000001
 40
0.0
 40
0.0
 40
0.0
 40
0.0
 40
0.3579806034
 40
0.6655605992
 40
0.7873059369
 40
0.8833004232
 40
1.0
 40
1.0
 40
1.0
 40
1.0
 10
29.9297797294
 20
175.894123238
 30
0.0
 10
29.9297797294
 20
175.7663934952
 30
0.0
 10
29.9178730416
 20
175.5285108735
 30
0.0
 10
29.8756033543
 20
175.2509742288
 30
0.0
 10
29.8196204991
 20
175.0694914852
 30
0.0
 10
29.7736347795
 20
174.9644635726
 30
0.0
 10
29.7125998315
 20
174.8941232381
 30
0.0
 10
29.6709606846
 20
174.894123238
 30
0.0
  0
SPLINE
  5
2D9
100
AcDbEntity
  8
0
100
AcDbSpline
 62
7
  6
BYLAYER
 70
0
 71
3
 72
12
 73
8
 74
0
 42
0.0000001
 43
0.0000001
 44
0.0000000001
 40
0.0
 40
0.0
 40
0.0
 40
0.0
 40
0.3531404307
 40
0.6725157657
 40
0.7969091834
 40
0.8915961179
 40
1.0
 40
1.0
 40
1.0
 40
1.0
 10
24.1532660305
 20
175.7918844174
 30
0.0
 10
24.1818332206
 20
175.6776257695
 30
0.0
 10
24.2263365804
 20
175.4572769279
 30
0.0
 10
24.2540224331
 20
175.1929106981
 30
0.0
 10
24.24463987
 20
175.0113512475
 30
0.0
 10
24.2270893652
 20
174.907384861
 30
0.0
 10
24.1882086758
 20
174.8353141207
 30
0.0
 10
24.1532868793
 20
174.8259567236
 30
0.0
  0
SPLINE
  5
2DA
100
AcDbEntity
  8
0
100
AcDbSpline
 62
7
  6
BYLAYER
 70
0
 71
3
 72
12
 73
8
 74
0
 42
0.0000001
 43
0.0000001
 44
0.0000000001
 40
0.0
 40
0.0
 40
0.0
 40
0.0
 40
0.1105226929
 40
0.2076513142
 40
0.3346835388
 40
0.6558240762
 40
1.0
 40
1.0
 40
1.0
 40
1.0
 10
24.6709606577
 20
174.8941229763
 30
0.0
 10
24.71040978
 20
174.8941229769
 30
0.0
 10
24.77134877
 20
174.9603204156
 30
0.0
 10
24.8180855496
 20
175.0655613985
 30
0.0
 10
24.8769330987
 20
175.2536909904
 30
0.0
 10
24.918168014
 20
175.5335093602
 30
0.0
 10
24.9297796762
 20
175.7712757236
 30
0.0
 10
24.9297796604
 20
175.894123238
 30
0.0
  0
SPLINE
  5
2DB
100
AcDbEntity
  8
0
100
AcDbSpline
 62
7
  6
BYLAYER
 70
0
 71
3
 72
13
 73
9
 74
0
 42
0.0000001
 43
0.0000001
 44
0.0000000001
 40
0.0
 40
0.0
 40
0.0
 40
0.0
 40
0.1364655436
 40
0.2670923505
 40
0.3937362565
 40
0.5175982127
 40
0.7600551181
 40
1.0
 40
1.0
 40
1.0
 40
1.0
 10
24.1533166684
 20
175.7918998639
 30
0.0
 10
24.0085385542
 20
175.7336529592
 30
0.0
 10
23.7404715513
 20
175.5775548586
 30
0.0
 10
23.4186059351
 20
175.2579771064
 30
0.0
 10
23.1700161687
 20
174.8977219756
 30
0.0
 10
22.9173598237
 20
174.3922250876
 30
0.0
 10
22.7205963519
 20
173.7213996658
 30
0.0
 10
22.6710035759
 20
173.1685131843
 30
0.0
 10
22.6709606843
 20
172.8941231619
 30
0.0
  0
SPLINE
  5
2DC
100
AcDbEntity
  8
0
100
AcDbSpline
 62
7
  6
BYLAYER
 70
0
 71
3
 72
13
 73
9
 74
0
 42
0.0000001
 43
0.0000001
 44
0.0000000001
 40
0.0
 40
0.0
 40
0.0
 40
0.0
 40
0.3358781661
 40
0.6139570591
 40
0.7284909386
 40
0.8280173412
 40
0.9163861866
 40
1.0
 40
1.0
 40
1.0
 40
1.0
 10
24.1533166684
 20
177.8600472039
 30
0.0
 10
23.9437691541
 20
177.8281268794
 30
0.0
 10
23.5639242038
 20
177.7407709942
 30
0.0
 10
23.1427037028
 20
177.5440970639
 30
0.0
 10
22.8950153604
 20
177.3546859611
 30
0.0
 10
22.767062001
 20
177.2109249809
 30
0.0
 10
22.6883352627
 20
177.0561964295
 30
0.0
 10
22.6709606843
 20
176.9468898927
 30
0.0
 10
22.6709606843
 20
176.8941231893
 30
0.0
  0
SPLINE
  5
2DD
100
AcDbEntity
  8
0
100
AcDbSpline
 62
7
  6
BYLAYER
 70
0
 71
3
 72
12
 73
8
 74
0
 42
0.0000001
 43
0.0000001
 44
0.0000000001
 40
0.0
 40
0.0
 40
0.0
 40
0.0
 40
0.3497082346
 40
0.6688794757
 40
0.7942227757
 40
0.8900717616
 40
1.0
 40
1.0
 40
1.0
 40
1.0
 10
24.1532752198
 20
177.8600364628
 30
0.0
 10
24.1250130328
 20
177.9731530723
 30
0.0
 10
24.0807094428
 20
178.1922318492
 30
0.0
 10
24.0528533417
 20
178.4555485124
 30
0.0
 10
24.0617901556
 20
178.6377484846
 30
0.0
 10
24.0791179593
 20
178.7428083449
 30
0.0
 10
24.118070489
 20
178.816244544
 30
0.0
 10
24.1534711074
 20
178.8257339792
 30
0.0
  0
SPLINE
  5
2DE
100
AcDbEntity
  8
0
100
AcDbSpline
 62
7
  6
BYLAYER
 70
0
 71
3
 72
9
 73
5
 74
0
 42
0.0000001
 43
0.0000001
 44
0.0000000001
 40
0.0
 40
0.0
 40
0.0
 40
0.0
 40
0.5002023348
 40
1.0
 40
1.0
 40
1.0
 40
1.0
 10
137.5709606843
 20
61.594123238
 30
0.0
 10
137.6958151997
 20
61.5998392243
 30
0.0
 10
137.9365007498
 20
61.7278106646
 30
0.0
 10
138.0670687813
 20
61.969299722
 30
0.0
 10
138.0709606843
 20
62.0941232381
 30
0.0
  0
SPLINE
  5
2DF
100
AcDbEntity
  8
0
100
AcDbSpline
 62
7
  6
BYLAYER
 70
0
 71
3
 72
14
 73
10
 74
0
 42
0.0000001
 43
0.0000001
 44
0.0000000001
 40
0.0
 40
0.0
 40
0.0
 40
0.0
 40
0.377584711
 40
0.5434409069
 40
0.6861727086
 40
0.8022931446
 40
0.8905060472
 40
0.9530481363
 40
1.0
 40
1.0
 40
1.0
 40
1.0
 10
29.9297797295
 20
177.894123238
 30
0.0
 10
29.9261825043
 20
178.0286347465
 30
0.0
 10
29.9115375259
 20
178.2223167714
 30
0.0
 10
29.8703743148
 20
178.4634826409
 30
0.0
 10
29.8375670347
 20
178.6112417508
 30
0.0
 10
29.8043164176
 20
178.7306161405
 30
0.0
 10
29.7680231729
 20
178.818630041
 30
0.0
 10
29.7266583704
 20
178.8776800407
 30
0.0
 10
29.6876928591
 20
178.894123244
 30
0.0
 10
29.6709606563
 20
178.894123238
 30
0.0
  0
SPLINE
  5
2E0
100
AcDbEntity
  8
0
100
AcDbSpline
 62
7
  6
BYLAYER
 70
0
 71
3
 72
9
 73
5
 74
0
 42
0.0000001
 43
0.0000001
 44
0.0000000001
 40
0.0
 40
0.0
 40
0.0
 40
0.0
 40
0.5378661294
 40
1.0
 40
1.0
 40
1.0
 40
1.0
 10
24.4120720083
 20
177.894123238
 30
0.0
 10
24.4121064702
 20
178.0218537464
 30
0.0
 10
24.4236765761
 20
178.2593653389
 30
0.0
 10
24.4604489356
 20
178.4949817312
 30
0.0
 10
24.4879480803
 20
178.6012265293
 30
0.0
  0
SPLINE
  5
2E1
100
AcDbEntity
  8
0
100
AcDbSpline
 62
7
  6
BYLAYER
 70
0
 71
3
 72
10
 73
6
 74
0
 42
0.0000001
 43
0.0000001
 44
0.0000000001
 40
0.0
 40
0.0
 40
0.0
 40
0.0
 40
0.3640593626
 40
0.651105124
 40
1.0
 40
1.0
 40
1.0
 40
1.0
 10
24.4879480803
 20
178.6012265293
 30
0.0
 10
24.4988329878
 20
178.6432811027
 30
0.0
 10
24.5224038211
 20
178.718842258
 30
0.0
 10
24.5682552108
 20
178.8237418734
 30
0.0
 10
24.6292982901
 20
178.8941228133
 30
0.0
 10
24.6709292287
 20
178.894123238
 30
0.0
  0
ELLIPSE
  5
2E2
100
AcDbEntity
  8
0
100
AcDbEllipse
 62
7
  6
BYLAYER
 10
94.6709606843
 20
224.394123238
 30
0.0
 11
-0.0
 21
0.5
 31
0.0
 40
1.0
 41
-3.1415926536
 42
-1.5707963268
  0
ELLIPSE
  5
2E3
100
AcDbEntity
  8
0
100
AcDbEllipse
 62
7
  6
BYLAYER
 10
94.6709606843
 20
227.394123238
 30
0.0
 11
-0.0
 21
0.5
 31
0.0
 40
1.0
 41
-1.5707963268
 42
-0.0
  0
ELLIPSE
  5
2E4
100
AcDbEntity
  8
0
100
AcDbEllipse
 62
7
  6
BYLAYER
 10
83.6709606843
 20
227.394123238
 30
0.0
 11
-0.0
 21
0.5
 31
0.0
 40
1.0
 41
0.0
 42
1.5707963268
  0
ELLIPSE
  5
2E5
100
AcDbEntity
  8
0
100
AcDbEllipse
 62
7
  6
BYLAYER
 10
83.6709606843
 20
224.394123238
 30
0.0
 11
0.0
 21
0.5
 31
0.0
 40
1.0
 41
-4.7123889804
 42
-3.1415926536
  0
ENDSEC
  0
SECTION
  2
OBJECTS
  0
DICTIONARY
  5
C
100
AcDbDictionary
280
0
281
1
  3
ACAD_GROUP
350
D
  3
ACAD_MLINESTYLE
350
17
  3
ACAD_LAYOUT
350
1A
  3
ACAD_PLOTSETTINGS
350
19
  3
ACAD_PLOTSTYLENAME
350
E
  0
DICTIONARY
  5
D
102
{ACAD_REACTORS
330
C
102
}
100
AcDbDictionary
280
0
281
1
  0
ACDBDICTIONARYWDFLT
  5
E
102
{ACAD_REACTORS
330
C
102
}
100
AcDbDictionary
281
1
  3
Normal
350
F
100
AcDbDictionaryWithDefault
340
F
  0
DICTIONARY
  5
17
102
{ACAD_REACTORS
330
C
102
}
100
AcDbDictionary
280
0
281
1
  3
Standard
350
18
  0
DICTIONARY
  5
19
102
{ACAD_REACTORS
330
C
102
}
100
AcDbDictionary
281
1
  0
DICTIONARY
  5
1A
102
{ACAD_REACTORS
330
C
102
}
100
AcDbDictionary
281
1
  3
Model
350
2E6
  3
Layout1
350
2E7
  0
ACDBPLACEHOLDER
  5
F
102
{ACAD_REACTORS
330
E
102
}
  0
MLINESTYLE
  5
18
102
{ACAD_REACTORS
330
17
102
}
100
AcDbMlineStyle
  2
STANDARD
 70
0
  3

 62
256
 51
90.0
 52
90.0
 71
2
 49
0.5
 62
256
  6
BYLAYER
 49
-0.5
 62
256
  6
BYLAYER
  0
LAYOUT
  5
2E6
102
{ACAD_REACTORS
330
1A
102
}
100
AcDbPlotSettings
  1

  2
none_device
  4

  6

 40
0.0
 41
0.0
 42
0.0
 43
0.0
 44
210.0
 45
297.0
 46
0.0
 47
0.0
 48
0.0
 49
0.0
140
0.0
141
0.0
142
1.0
143
1.0
 70
1024
 72
1
 73
0
 74
0
  7

 75
0
147
1.0
148
0.0
149
0.0
100
AcDbLayout
  1
Model
 70
0
 71
0
 10
0.0
 20
0.0
 11
210.0
 21
297.0
 12
0.0
 22
0.0
 32
0.0
 14
0.0
 24
0.0
 34
0.0
 15
0.0
 25
0.0
 35
0.0
146
0.0
 13
0.0
 23
0.0
 33
0.0
 16
1.0
 26
0.0
 36
0.0
 17
0.0
 27
1.0
 37
0.0
 76
0
330
210
345
0
346
0
  0
LAYOUT
  5
2E7
102
{ACAD_REACTORS
330
1A
102
}
100
AcDbPlotSettings
  1

  2
none_device
  4

  6

 40
0.0
 41
0.0
 42
0.0
 43
0.0
 44
210.0
 45
297.0
 46
0.0
 47
0.0
 48
0.0
 49
0.0
140
0.0
141
0.0
142
1.0
143
1.0
 70
0
 72
1
 73
0
 74
0
  7

 75
0
147
1.0
148
0.0
149
0.0
100
AcDbLayout
  1
Layout1
 70
0
 71
1
 10
0.0
 20
0.0
 11
210.0
 21
297.0
 12
0.0
 22
0.0
 32
0.0
 14
0.0
 24
0.0
 34
0.0
 15
0.0
 25
0.0
 35
0.0
146
0.0
 13
0.0
 23
0.0
 33
0.0
 16
1.0
 26
0.0
 36
0.0
 17
0.0
 27
1.0
 37
0.0
 76
0
330
211
345
0
346
0
  0
ENDSEC
  0
EOF
