999
DXF file: C:\2D\Gen2D\CAD\GVAM11_3D-CAD\drw0001_4.dxf
999
Pro/ENGINEER 2019471 by Parametric Technology Corporation
  0
SECTION
  2
HEADER
  9
$ACADVER
  1
AC1024
  9
$DWGCODEPAGE
  3
ANSI_1252
  9
$EXTMAX
 10
74.0093885596
 20
104.6704209629
 30
0.0
  9
$EXTMIN
 10
0.0
 20
0.0
 30
0.0
  9
$LIMMIN
 10
0.0
 20
0.0
  9
$LIMMAX
 10
74.0093885596
 20
104.6704209629
  9
$VIEWCTR
 10
37.0046942798
 20
52.3352104814
  9
$VIEWSIZE
 40
104.6704209629
  9
$CLAYER
  8
0
  9
$LTSCALE
 40
6.8229607739
  9
$CELTYPE
  6
BYLAYER
  9
$DIMSCALE
 40
1.0
  9
$DIMASZ
 40
0.8810641495
  9
$DIMEXO
 40
1.0
  9
$DIMDLI
 40
4.7140456256
  9
$DIMEXE
 40
1.0
  9
$DIMCEN
 40
1.1164844903
  9
$DIMLFAC
 40
1.0
  9
$DIMBLK
  1
_FILLED
  9
$DIMALT
 70
0
  9
$DIMALTF
 40
0.0393700787
  9
$DIMTXT
 40
1.2334898093
  9
$DIMTOL
 70
1
  9
$DIMLIM
 70
0
  9
$DIMTFAC
 40
1.0
  9
$DIMTP
 40
0.01
  9
$DIMTM
 40
0.01
  9
$DIMGAP
 40
0.625
  9
$DIMDSEP
 70
46
  9
$AUNITS
 70
0
  9
$PDMODE
 70
3
  9
$PDSIZE
 40
0.3125
  9
$HANDSEED
  5
2B6
  9
$TILEMODE
 70
1
  9
$MEASUREMENT
 70
1
  9
$INSUNITS
 70
4
  0
ENDSEC
  0
SECTION
  2
CLASSES
  0
CLASS
  1
ACDBDICTIONARYWDFLT
  2
AcDbDictionaryWithDefault
  3
AutoCAD 2000
 90
0
 91
1
280
0
281
0
  0
CLASS
  1
ACDBPLACEHOLDER
  2
AcDbPlaceHolder
  3
AutoCAD 2000
 90
0
 91
1
280
0
281
0
  0
CLASS
  1
LAYOUT
  2
AcDbLayout
  3
AutoCAD 2000
 90
0
 91
0
280
0
281
0
  0
ENDSEC
  0
SECTION
  2
TABLES
  0
TABLE
  2
VPORT
  5
8
100
AcDbSymbolTable
 70
2
  0
VPORT
  5
1F4
100
AcDbSymbolTableRecord
100
AcDbViewportTableRecord
  2
*ACTIVE
 70
0
 10
0.0
 20
0.0
 11
1.0
 21
1.0
 12
37.0046942798
 22
52.3352104814
 13
0.0
 23
0.0
 14
1.0
 24
1.0
 15
0.0
 25
0.0
 16
0.0
 26
0.0
 36
1.0
 17
0.0
 27
0.0
 37
0.0
 40
104.6704209629
 41
0.7070707071
 42
50.0
 43
0.0
 44
0.0
 50
0.0
 51
0.0
 71
0
 72
100
 73
1
 74
1
 75
0
 76
0
 77
0
 78
0
  0
ENDTAB
  0
TABLE
  2
LTYPE
  5
5
100
AcDbSymbolTable
 70
6
  0
LTYPE
  5
14
100
AcDbSymbolTableRecord
100
AcDbLinetypeTableRecord
  2
BYBLOCK
 70
0
  3

 72
65
 73
0
 40
0.0
  0
LTYPE
  5
15
100
AcDbSymbolTableRecord
100
AcDbLinetypeTableRecord
  2
BYLAYER
 70
0
  3

 72
65
 73
0
 40
0.0
  0
LTYPE
  5
16
100
AcDbSymbolTableRecord
100
AcDbLinetypeTableRecord
  2
CONTINUOUS
 70
64
  3
Solid line
 72
65
 73
0
 40
0.0
  0
LTYPE
  5
1F5
100
AcDbSymbolTableRecord
100
AcDbLinetypeTableRecord
  2
CENTER
 70
64
  3
____ _ ____ _ ____ _ ____ _ ____ _ ____ _ ____
 72
65
 73
4
 40
0.6
 49
0.375
 74
0
 49
-0.075
 74
0
 49
0.075
 74
0
 49
-0.075
 74
0
  0
LTYPE
  5
1F6
100
AcDbSymbolTableRecord
100
AcDbLinetypeTableRecord
  2
HIDDEN
 70
64
  3
- - - - - - - - - - - - - - - - - - - -
 72
65
 73
2
 40
0.2
 49
0.1
 74
0
 49
-0.1
 74
0
  0
LTYPE
  5
1F7
100
AcDbSymbolTableRecord
100
AcDbLinetypeTableRecord
  2
PHANTOM
 70
64
  3
_____ _ _ _____ _ _ _____ _ _ _____
 72
65
 73
6
 40
0.8
 49
0.45
 74
0
 49
-0.05
 74
0
 49
0.1
 74
0
 49
-0.05
 74
0
 49
0.1
 74
0
 49
-0.05
 74
0
  0
LTYPE
  5
1F8
100
AcDbSymbolTableRecord
100
AcDbLinetypeTableRecord
  2
DOT
 70
64
  3
. . . . . . . . . . . . . . . . . . . .
 72
65
 73
2
 40
0.2
 49
0.1
 74
0
 49
-0.1
 74
0
  0
LTYPE
  5
1F9
100
AcDbSymbolTableRecord
100
AcDbLinetypeTableRecord
  2
DASHED
 70
64
  3
- - - - - - - - - - - - - - - - - - - -
 72
65
 73
2
 40
0.2
 49
0.1
 74
0
 49
-0.1
 74
0
  0
ENDTAB
  0
TABLE
  2
LAYER
  5
2
100
AcDbSymbolTable
 70
36
  0
LAYER
  5
10
100
AcDbSymbolTableRecord
100
AcDbLayerTableRecord
  2
0
 70
0
 62
7
  6
CONTINUOUS
370
-3
390
F
  0
LAYER
  5
1FA
100
AcDbSymbolTableRecord
100
AcDbLayerTableRecord
  2
DEFAULT_1
 70
0
 62
7
  6
CENTER
370
-3
390
F
  0
LAYER
  5
1FB
100
AcDbSymbolTableRecord
100
AcDbLayerTableRecord
  2
DEFAULT_2
 70
0
 62
8
  6
HIDDEN
370
-3
390
F
  0
LAYER
  5
1FC
100
AcDbSymbolTableRecord
100
AcDbLayerTableRecord
  2
DEFAULT_3
 70
0
 62
7
  6
PHANTOM
370
-3
390
F
  0
LAYER
  5
1FD
100
AcDbSymbolTableRecord
100
AcDbLayerTableRecord
  2
00_COMPONENTS
 70
0
 62
7
  6
CONTINUOUS
370
-3
390
F
  0
LAYER
  5
1FE
100
AcDbSymbolTableRecord
100
AcDbLayerTableRecord
  2
00_COMPONENTS_1
 70
0
 62
7
  6
CONTINUOUS
370
-3
390
F
  0
LAYER
  5
1FF
100
AcDbSymbolTableRecord
100
AcDbLayerTableRecord
  2
01_1_DEFAULT_DATUMS
 70
0
 62
7
  6
CONTINUOUS
370
-3
390
F
  0
LAYER
  5
200
100
AcDbSymbolTableRecord
100
AcDbLayerTableRecord
  2
01_PLANES
 70
0
 62
7
  6
CONTINUOUS
370
-3
390
F
  0
LAYER
  5
201
100
AcDbSymbolTableRecord
100
AcDbLayerTableRecord
  2
02_COORD_SYS
 70
0
 62
7
  6
CONTINUOUS
370
-3
390
F
  0
LAYER
  5
202
100
AcDbSymbolTableRecord
100
AcDbLayerTableRecord
  2
03_AXES
 70
0
 62
7
  6
CONTINUOUS
370
-3
390
F
  0
LAYER
  5
203
100
AcDbSymbolTableRecord
100
AcDbLayerTableRecord
  2
04_POINTS
 70
0
 62
7
  6
CONTINUOUS
370
-3
390
F
  0
LAYER
  5
204
100
AcDbSymbolTableRecord
100
AcDbLayerTableRecord
  2
05_CURVES
 70
0
 62
7
  6
CONTINUOUS
370
-3
390
F
  0
LAYER
  5
205
100
AcDbSymbolTableRecord
100
AcDbLayerTableRecord
  2
06_SURFS
 70
0
 62
7
  6
CONTINUOUS
370
-3
390
F
  0
LAYER
  5
206
100
AcDbSymbolTableRecord
100
AcDbLayerTableRecord
  2
07_COSMETICS
 70
0
 62
7
  6
CONTINUOUS
370
-3
390
F
  0
LAYER
  5
207
100
AcDbSymbolTableRecord
100
AcDbLayerTableRecord
  2
10_NOTES
 70
0
 62
7
  6
CONTINUOUS
370
-3
390
F
  0
LAYER
  5
208
100
AcDbSymbolTableRecord
100
AcDbLayerTableRecord
  2
11_NOTES_PUB
 70
0
 62
7
  6
CONTINUOUS
370
-3
390
F
  0
LAYER
  5
209
100
AcDbSymbolTableRecord
100
AcDbLayerTableRecord
  2
13_REF_GTOL
 70
0
 62
7
  6
CONTINUOUS
370
-3
390
F
  0
LAYER
  5
20A
100
AcDbSymbolTableRecord
100
AcDbLayerTableRecord
  2
16_MISC
 70
0
 62
7
  6
CONTINUOUS
370
-3
390
F
  0
LAYER
  5
20B
100
AcDbSymbolTableRecord
100
AcDbLayerTableRecord
  2
17_NO_PRINT
 70
0
 62
7
  6
CONTINUOUS
370
-3
390
F
  0
LAYER
  5
20C
100
AcDbSymbolTableRecord
100
AcDbLayerTableRecord
  2
18_DATUM_CAMS_JOINTS
 70
0
 62
7
  6
CONTINUOUS
370
-3
390
F
  0
LAYER
  5
20D
100
AcDbSymbolTableRecord
100
AcDbLayerTableRecord
  2
19_DATUM_FUNCTIONAL
 70
0
 62
7
  6
CONTINUOUS
370
-3
390
F
  0
LAYER
  5
20E
100
AcDbSymbolTableRecord
100
AcDbLayerTableRecord
  2
20_DATUM_KINEMATIC_SCHEME
 70
0
 62
7
  6
CONTINUOUS
370
-3
390
F
  0
ENDTAB
  0
TABLE
  2
STYLE
  5
3
100
AcDbSymbolTable
 70
1
  0
STYLE
  5
11
100
AcDbSymbolTableRecord
100
AcDbTextStyleTableRecord
  2
STANDARD
 70
0
 40
0.0
 41
0.8
 50
0.0
 71
0
 42
0.2
  3
txt
  4

  0
STYLE
  5
20F
100
AcDbSymbolTableRecord
100
AcDbTextStyleTableRecord
  2
TEXTSTYLE_1
 70
0
 40
0.0
 41
0.8
 50
0.0
 71
0
 42
0.2
  3
gdt
  4

  0
ENDTAB
  0
TABLE
  2
VIEW
  5
6
100
AcDbSymbolTable
 70
0
  0
ENDTAB
  0
TABLE
  2
UCS
  5
7
100
AcDbSymbolTable
 70
0
  0
ENDTAB
  0
TABLE
  2
APPID
  5
9
100
AcDbSymbolTable
 70
1
  0
APPID
  5
210
100
AcDbSymbolTableRecord
100
AcDbRegAppTableRecord
  2
ACAD
 70
0
  0
ENDTAB
  0
TABLE
  2
BLOCK_RECORD
  5
1
100
AcDbSymbolTable
 70
0
  0
BLOCK_RECORD
  5
211
100
AcDbSymbolTableRecord
100
AcDbBlockTableRecord
  2
*Model_Space
  0
BLOCK_RECORD
  5
212
100
AcDbSymbolTableRecord
100
AcDbBlockTableRecord
  2
*Paper_Space
  0
BLOCK_RECORD
  5
213
100
AcDbSymbolTableRecord
100
AcDbBlockTableRecord
  2
_FILLED
  0
ENDTAB
  0
TABLE
  2
DIMSTYLE
  5
A
100
AcDbSymbolTable
 70
1
100
AcDbDimStyleTable
 71
0
  0
DIMSTYLE
105
214
100
AcDbSymbolTableRecord
100
AcDbDimStyleTableRecord
  2
STANDARD
 70
0
  3

  4

 40
1.0
 41
0.8810641495
 42
1.0
 43
0.38
 44
1.0
 45
0.0
 46
0.0
 47
0.01
 48
0.01
140
1.2334898093
141
0.09
142
0.0
143
25.4
144
1.0
145
0.0
146
1.0
147
0.625
 71
1
 72
0
 73
0
 74
0
 75
0
 76
0
 77
1
 78
8
 79
2
170
0
171
1
172
0
173
0
174
0
175
0
176
0
177
0
178
0
270
2
179
2
271
2
272
2
273
2
274
2
275
0
280
0
281
0
282
0
283
1
284
8
285
0
286
0
287
3
288
0
340
11
278
46
341
213
342
213
343
213
344
213
  0
ENDTAB
  0
ENDSEC
  0
SECTION
  2
BLOCKS
  0
BLOCK
  5
20
100
AcDbEntity
  8
0
100
AcDbBlockBegin
  2
*Model_Space
 70
0
 10
0.0
 20
0.0
 30
0.0
  3
*Model_Space
  1

  0
ENDBLK
  5
21
100
AcDbEntity
  8
0
100
AcDbBlockEnd
  0
BLOCK
  5
1C
100
AcDbEntity
  8
0
100
AcDbBlockBegin
  2
*Paper_Space
 70
0
 10
0.0
 20
0.0
 30
0.0
  3
*Paper_Space
  1

  0
ENDBLK
  5
1D
100
AcDbEntity
  8
0
100
AcDbBlockEnd
  0
BLOCK
  5
215
100
AcDbEntity
  8
0
100
AcDbBlockBegin
  2
_FILLED
 70
64
 10
0.0
 20
0.0
  3
_FILLED
  1

  0
SOLID
  5
216
100
AcDbEntity
  8
0
  6
BYBLOCK
 62
0
100
AcDbTrace
 10
0.0
 20
0.0
 11
-1.0
 21
0.25
 12
-1.0
 22
-0.25
 13
-1.0
 23
-0.25
  0
ENDBLK
  5
217
100
AcDbEntity
  8
0
  6
BYBLOCK
 62
0
100
AcDbBlockEnd
  0
ENDSEC
  0
SECTION
  2
ENTITIES
  0
LINE
  5
218
100
AcDbEntity
  8
00_COMPONENTS_1
100
AcDbLine
 62
7
  6
CONTINUOUS
 10
37.615154494
 20
7.4940098989
 11
31.015154494
 21
7.4940098989
  0
LINE
  5
219
100
AcDbEntity
  8
00_COMPONENTS_1
100
AcDbLine
 62
7
  6
CONTINUOUS
 10
31.015154494
 20
7.5235378134
 11
37.615154494
 21
7.5235378134
  0
LINE
  5
21A
100
AcDbEntity
  8
00_COMPONENTS_1
100
AcDbLine
 62
7
  6
CONTINUOUS
 10
37.615154494
 20
8.4285173014
 11
31.015154494
 21
8.4285173014
  0
LINE
  5
21B
100
AcDbEntity
  8
00_COMPONENTS_1
100
AcDbLine
 62
7
  6
CONTINUOUS
 10
31.015154494
 20
9.3950822466
 11
41.915154494
 21
9.3950822466
  0
LINE
  5
21C
100
AcDbEntity
  8
00_COMPONENTS_1
100
AcDbLine
 62
7
  6
CONTINUOUS
 10
39.0139676206
 20
9.5350822466
 11
29.615154494
 21
9.5350822466
  0
LINE
  5
21D
100
AcDbEntity
  8
00_COMPONENTS_1
100
AcDbLine
 62
7
  6
CONTINUOUS
 10
39.0139676206
 20
10.9164486101
 11
40.315154494
 21
10.9164486101
  0
LINE
  5
21E
100
AcDbEntity
  8
00_COMPONENTS_1
100
AcDbLine
 62
7
  6
CONTINUOUS
 10
40.3757705876
 20
11.6273720971
 11
39.0139676206
 21
11.6273720971
  0
LINE
  5
21F
100
AcDbEntity
  8
00_COMPONENTS_1
100
AcDbLine
 62
7
  6
CONTINUOUS
 10
40.4493416386
 20
12.4902351591
 11
41.915154494
 21
12.4902351591
  0
LINE
  5
220
100
AcDbEntity
  8
00_COMPONENTS_1
100
AcDbLine
 62
7
  6
CONTINUOUS
 10
41.4352642352
 20
93.7207291758
 11
40.8684776588
 21
93.5144357329
  0
LINE
  5
221
100
AcDbEntity
  8
00_COMPONENTS_1
100
AcDbLine
 62
7
  6
CONTINUOUS
 10
34.7748229414
 20
17.2663051433
 11
36.6139361928
 21
17.2900728756
  0
LINE
  5
222
100
AcDbEntity
  8
00_COMPONENTS_1
100
AcDbLine
 62
7
  6
CONTINUOUS
 10
33.6748959184
 20
18.6241119729
 11
31.8163051693
 21
18.6000925237
  0
LINE
  5
223
100
AcDbEntity
  8
00_COMPONENTS_1
100
AcDbLine
 62
7
  6
CONTINUOUS
 10
39.0139676206
 20
18.4365075618
 11
38.115154494
 21
18.4365075618
  0
LINE
  5
224
100
AcDbEntity
  8
00_COMPONENTS_1
100
AcDbLine
 62
7
  6
CONTINUOUS
 10
30.315154494
 20
18.4365075618
 11
29.615154494
 21
18.4365075618
  0
LINE
  5
225
100
AcDbEntity
  8
00_COMPONENTS_1
100
AcDbLine
 62
7
  6
CONTINUOUS
 10
31.7929407692
 20
17.3826021533
 11
33.6748959184
 21
17.3593825949
  0
LINE
  5
226
100
AcDbEntity
  8
00_COMPONENTS_1
100
AcDbLine
 62
7
  6
CONTINUOUS
 10
36.6373005463
 20
18.5075614756
 11
34.7748229414
 21
18.5305407201
  0
LINE
  5
227
100
AcDbEntity
  8
00_COMPONENTS_1
100
AcDbLine
 62
7
  6
CONTINUOUS
 10
36.2936154631
 20
20.2450822466
 11
36.1749013229
 21
20.2450822466
  0
LINE
  5
228
100
AcDbEntity
  8
00_COMPONENTS_1
100
AcDbLine
 62
7
  6
CONTINUOUS
 10
32.2628112564
 20
20.2450822466
 11
32.1366935249
 21
20.2450822466
  0
LINE
  5
229
100
AcDbEntity
  8
00_COMPONENTS_1
100
AcDbLine
 62
7
  6
CONTINUOUS
 10
39.0139676206
 20
21.6335701764
 11
29.615154494
 21
21.6335701764
  0
LINE
  5
22A
100
AcDbEntity
  8
00_COMPONENTS_1
100
AcDbLine
 62
7
  6
CONTINUOUS
 10
34.7579729074
 20
26.1661185537
 11
36.6137715171
 21
26.1902003644
  0
LINE
  5
22B
100
AcDbEntity
  8
00_COMPONENTS_1
100
AcDbLine
 62
7
  6
CONTINUOUS
 10
33.6579368051
 20
27.5238665692
 11
31.8159113126
 21
27.4999634855
  0
LINE
  5
22C
100
AcDbEntity
  8
00_COMPONENTS_1
100
AcDbLine
 62
7
  6
CONTINUOUS
 10
31.7926112695
 20
26.2824733788
 11
33.6580043998
 21
26.2595586787
  0
LINE
  5
22D
100
AcDbEntity
  8
00_COMPONENTS_1
100
AcDbLine
 62
7
  6
CONTINUOUS
 10
36.6370715945
 20
27.4076917231
 11
34.757905294
 21
27.4307756143
  0
LINE
  5
22E
100
AcDbEntity
  8
00_COMPONENTS_1
100
AcDbLine
 62
7
  6
CONTINUOUS
 10
39.0139676206
 20
30.5352289331
 11
29.615154494
 21
30.5352289331
  0
LINE
  5
22F
100
AcDbEntity
  8
00_COMPONENTS_1
100
AcDbLine
 62
7
  6
CONTINUOUS
 10
39.0139676206
 20
30.6294557725
 11
29.615154494
 21
30.6294557725
  0
LINE
  5
230
100
AcDbEntity
  8
00_COMPONENTS_1
100
AcDbLine
 62
7
  6
CONTINUOUS
 10
39.0139676206
 20
34.2834651066
 11
29.615154494
 21
34.2834651066
  0
LINE
  5
231
100
AcDbEntity
  8
00_COMPONENTS_1
100
AcDbLine
 62
7
  6
CONTINUOUS
 10
39.0139676206
 20
34.8850822466
 11
29.615154494
 21
34.8850822466
  0
LINE
  5
232
100
AcDbEntity
  8
00_COMPONENTS_1
100
AcDbLine
 62
7
  6
CONTINUOUS
 10
38.115154494
 20
34.9850822466
 11
30.515154494
 21
34.9850822466
  0
LINE
  5
233
100
AcDbEntity
  8
00_COMPONENTS_1
100
AcDbLine
 62
7
  6
CONTINUOUS
 10
38.115154494
 20
36.7530074599
 11
30.515154494
 21
36.7530074599
  0
LINE
  5
234
100
AcDbEntity
  8
00_COMPONENTS_1
100
AcDbLine
 62
7
  6
CONTINUOUS
 10
30.515154494
 20
35.931696524
 11
38.115154494
 21
35.9129121883
  0
LINE
  5
235
100
AcDbEntity
  8
00_COMPONENTS_1
100
AcDbLine
 62
7
  6
CONTINUOUS
 10
38.115154494
 20
38.457252305
 11
30.515154494
 21
38.4384679693
  0
LINE
  5
236
100
AcDbEntity
  8
00_COMPONENTS_1
100
AcDbLine
 62
7
  6
CONTINUOUS
 10
38.115154494
 20
37.6171570334
 11
30.515154494
 21
37.6171570334
  0
LINE
  5
237
100
AcDbEntity
  8
00_COMPONENTS_1
100
AcDbLine
 62
7
  6
CONTINUOUS
 10
30.515154494
 20
39.3850822466
 11
38.115154494
 21
39.3850822466
  0
LINE
  5
238
100
AcDbEntity
  8
00_COMPONENTS_1
100
AcDbLine
 62
7
  6
CONTINUOUS
 10
39.0139676206
 20
39.4850822466
 11
29.615154494
 21
39.4850822466
  0
LINE
  5
239
100
AcDbEntity
  8
00_COMPONENTS_1
100
AcDbLine
 62
7
  6
CONTINUOUS
 10
39.0139676206
 20
40.0866993867
 11
29.615154494
 21
40.0866993867
  0
LINE
  5
23A
100
AcDbEntity
  8
00_COMPONENTS_1
100
AcDbLine
 62
7
  6
CONTINUOUS
 10
29.615154494
 20
9.5350822466
 11
29.615154494
 21
96.5350822466
  0
LINE
  5
23B
100
AcDbEntity
  8
00_COMPONENTS_1
100
AcDbLine
 62
7
  6
CONTINUOUS
 10
30.315154494
 20
18.4365075618
 11
30.315154494
 21
21.6347940995
  0
LINE
  5
23C
100
AcDbEntity
  8
00_COMPONENTS_1
100
AcDbLine
 62
7
  6
CONTINUOUS
 10
30.315154494
 20
84.4352330984
 11
30.315154494
 21
87.6350822466
  0
LINE
  5
23D
100
AcDbEntity
  8
00_COMPONENTS_1
100
AcDbLine
 62
7
  6
CONTINUOUS
 10
30.515154494
 20
39.3850822466
 11
30.515154494
 21
37.6171570334
  0
LINE
  5
23E
100
AcDbEntity
  8
00_COMPONENTS_1
100
AcDbLine
 62
7
  6
CONTINUOUS
 10
30.515154494
 20
36.7530074599
 11
30.515154494
 21
34.9850822466
  0
LINE
  5
23F
100
AcDbEntity
  8
00_COMPONENTS_1
100
AcDbLine
 62
7
  6
CONTINUOUS
 10
31.015154494
 20
7.4940578857
 11
31.015154494
 21
9.5350822466
  0
LINE
  5
240
100
AcDbEntity
  8
00_COMPONENTS_1
100
AcDbLine
 62
7
  6
CONTINUOUS
 10
31.3611227389
 20
66.2091140018
 11
31.3611227389
 21
59.6010504915
  0
LINE
  5
241
100
AcDbEntity
  8
00_COMPONENTS_1
100
AcDbLine
 62
7
  6
CONTINUOUS
 10
31.6911227389
 20
58.3250885518
 11
31.6911227389
 21
65.3899373091
  0
LINE
  5
242
100
AcDbEntity
  8
00_COMPONENTS_1
100
AcDbLine
 62
7
  6
CONTINUOUS
 10
32.315154494
 20
9.3950822466
 11
32.315154494
 21
9.5350822466
  0
LINE
  5
243
100
AcDbEntity
  8
00_COMPONENTS_1
100
AcDbLine
 62
7
  6
CONTINUOUS
 10
33.657813984
 20
29.8211441848
 11
33.6579368051
 21
27.5238665692
  0
LINE
  5
244
100
AcDbEntity
  8
00_COMPONENTS_1
100
AcDbLine
 62
7
  6
CONTINUOUS
 10
33.6580043998
 20
26.2595586787
 11
33.6581322102
 21
23.8689623771
  0
LINE
  5
245
100
AcDbEntity
  8
00_COMPONENTS_1
100
AcDbLine
 62
7
  6
CONTINUOUS
 10
33.6748959184
 20
20.9174847515
 11
33.6748959184
 21
18.6241119729
  0
LINE
  5
246
100
AcDbEntity
  8
00_COMPONENTS_1
100
AcDbLine
 62
7
  6
CONTINUOUS
 10
33.6748959184
 20
17.3593825949
 11
33.6748959184
 21
14.9726797417
  0
LINE
  5
247
100
AcDbEntity
  8
00_COMPONENTS_1
100
AcDbLine
 62
7
  6
CONTINUOUS
 10
33.6748959184
 20
85.1626797417
 11
33.6748959184
 21
87.4560525204
  0
LINE
  5
248
100
AcDbEntity
  8
00_COMPONENTS_1
100
AcDbLine
 62
7
  6
CONTINUOUS
 10
33.6748959184
 20
88.7207818984
 11
33.6748959184
 21
91.1074847515
  0
LINE
  5
249
100
AcDbEntity
  8
00_COMPONENTS_1
100
AcDbLine
 62
7
  6
CONTINUOUS
 10
34.7580955561
 20
23.8720669861
 11
34.7579729074
 21
26.1661185537
  0
LINE
  5
24A
100
AcDbEntity
  8
00_COMPONENTS_1
100
AcDbLine
 62
7
  6
CONTINUOUS
 10
34.757905294
 20
27.4307756143
 11
34.7577776555
 21
29.8181572001
  0
LINE
  5
24B
100
AcDbEntity
  8
00_COMPONENTS_1
100
AcDbLine
 62
7
  6
CONTINUOUS
 10
34.7748229414
 20
91.1117921758
 11
34.7748229414
 21
88.81385935
  0
LINE
  5
24C
100
AcDbEntity
  8
00_COMPONENTS_1
100
AcDbLine
 62
7
  6
CONTINUOUS
 10
34.7748229414
 20
87.5496237732
 11
34.7748229414
 21
85.1583723175
  0
LINE
  5
24D
100
AcDbEntity
  8
00_COMPONENTS_1
100
AcDbLine
 62
7
  6
CONTINUOUS
 10
34.7748229414
 20
14.9683723175
 11
34.7748229414
 21
17.2663051433
  0
LINE
  5
24E
100
AcDbEntity
  8
00_COMPONENTS_1
100
AcDbLine
 62
7
  6
CONTINUOUS
 10
34.7748229414
 20
18.5305407201
 11
34.7748229414
 21
20.9217921758
  0
LINE
  5
24F
100
AcDbEntity
  8
00_COMPONENTS_1
100
AcDbLine
 62
7
  6
CONTINUOUS
 10
33.657813984
 20
76.2590203085
 11
33.6579368051
 21
78.5562979241
  0
LINE
  5
250
100
AcDbEntity
  8
00_COMPONENTS_1
100
AcDbLine
 62
7
  6
CONTINUOUS
 10
33.6580043998
 20
79.8206058146
 11
33.6581322102
 21
82.2112021162
  0
LINE
  5
251
100
AcDbEntity
  8
00_COMPONENTS_1
100
AcDbLine
 62
7
  6
CONTINUOUS
 10
34.7580955561
 20
82.2080975072
 11
34.7579729074
 21
79.9140459396
  0
LINE
  5
252
100
AcDbEntity
  8
00_COMPONENTS_1
100
AcDbLine
 62
7
  6
CONTINUOUS
 10
34.757905294
 20
78.649388879
 11
34.7577776555
 21
76.2620072932
  0
LINE
  5
253
100
AcDbEntity
  8
00_COMPONENTS_1
100
AcDbLine
 62
7
  6
CONTINUOUS
 10
46.3159676206
 20
49.0895296183
 11
39.0139676206
 21
49.0895296183
  0
LINE
  5
254
100
AcDbEntity
  8
00_COMPONENTS_1
100
AcDbLine
 62
7
  6
CONTINUOUS
 10
36.3211227389
 20
58.3250885518
 11
36.3211227389
 21
65.3899373091
  0
LINE
  5
255
100
AcDbEntity
  8
00_COMPONENTS_1
100
AcDbLine
 62
7
  6
CONTINUOUS
 10
37.0691862492
 20
66.2091140018
 11
37.0691862492
 21
59.6010504915
  0
LINE
  5
256
100
AcDbEntity
  8
00_COMPONENTS_1
100
AcDbLine
 62
7
  6
CONTINUOUS
 10
37.615154494
 20
7.494057491
 11
37.615154494
 21
9.3950822466
  0
LINE
  5
257
100
AcDbEntity
  8
00_COMPONENTS_1
100
AcDbLine
 62
7
  6
CONTINUOUS
 10
38.115154494
 20
87.6350822466
 11
38.115154494
 21
84.4352330984
  0
LINE
  5
258
100
AcDbEntity
  8
00_COMPONENTS_1
100
AcDbLine
 62
7
  6
CONTINUOUS
 10
38.115154494
 20
21.6347940995
 11
38.115154494
 21
18.4365075618
  0
LINE
  5
259
100
AcDbEntity
  8
00_COMPONENTS_1
100
AcDbLine
 62
7
  6
CONTINUOUS
 10
38.115154494
 20
34.9850822466
 11
38.115154494
 21
36.7530074599
  0
LINE
  5
25A
100
AcDbEntity
  8
00_COMPONENTS_1
100
AcDbLine
 62
7
  6
CONTINUOUS
 10
38.115154494
 20
37.6171570334
 11
38.115154494
 21
39.3850822466
  0
LINE
  5
25B
100
AcDbEntity
  8
00_COMPONENTS_1
100
AcDbLine
 62
7
  6
CONTINUOUS
 10
46.3159676206
 20
51.4250822466
 11
39.0139676206
 21
51.4250822466
  0
LINE
  5
25C
100
AcDbEntity
  8
00_COMPONENTS_1
100
AcDbLine
 62
7
  6
CONTINUOUS
 10
39.0139676206
 20
52.0350822466
 11
39.5134208837
 21
52.0350822466
  0
LINE
  5
25D
100
AcDbEntity
  8
00_COMPONENTS_1
100
AcDbLine
 62
7
  6
CONTINUOUS
 10
40.1139676206
 20
52.1350822466
 11
39.5134208837
 21
52.1350822466
  0
LINE
  5
25E
100
AcDbEntity
  8
00_COMPONENTS_1
100
AcDbLine
 62
7
  6
CONTINUOUS
 10
39.0139676206
 20
9.5350822466
 11
39.0139676206
 21
96.5350822466
  0
LINE
  5
25F
100
AcDbEntity
  8
00_COMPONENTS_1
100
AcDbLine
 62
7
  6
CONTINUOUS
 10
39.5134208837
 20
53.0350822466
 11
39.5134208837
 21
52.0350822466
  0
LINE
  5
260
100
AcDbEntity
  8
00_COMPONENTS_1
100
AcDbLine
 62
7
  6
CONTINUOUS
 10
40.1139676206
 20
51.4250822466
 11
40.1139676206
 21
52.1341411296
  0
LINE
  5
261
100
AcDbEntity
  8
00_COMPONENTS_1
100
AcDbLine
 62
7
  6
CONTINUOUS
 10
40.1139676206
 20
52.1350822466
 11
40.1139676206
 21
53.0350822466
  0
LINE
  5
262
100
AcDbEntity
  8
00_COMPONENTS_1
100
AcDbLine
 62
7
  6
CONTINUOUS
 10
40.7651676206
 20
55.4350822466
 11
40.7651676206
 21
56.5350822466
  0
LINE
  5
263
100
AcDbEntity
  8
00_COMPONENTS_1
100
AcDbLine
 62
7
  6
CONTINUOUS
 10
44.9651676206
 20
53.0350822466
 11
39.0139676206
 21
53.0350822466
  0
LINE
  5
264
100
AcDbEntity
  8
00_COMPONENTS_1
100
AcDbLine
 62
7
  6
CONTINUOUS
 10
44.9651676206
 20
55.4350822466
 11
41.5651676206
 21
55.4350822466
  0
LINE
  5
265
100
AcDbEntity
  8
00_COMPONENTS_1
100
AcDbLine
 62
7
  6
CONTINUOUS
 10
40.7651676206
 20
55.4350822466
 11
39.0139676206
 21
55.4350822466
  0
LINE
  5
266
100
AcDbEntity
  8
00_COMPONENTS_1
100
AcDbLine
 62
7
  6
CONTINUOUS
 10
41.5651676206
 20
55.4350822466
 11
41.5651676206
 21
56.5350822466
  0
LINE
  5
267
100
AcDbEntity
  8
00_COMPONENTS_1
100
AcDbLine
 62
7
  6
CONTINUOUS
 10
41.915154494
 20
12.4902351591
 11
41.915154494
 21
9.3950822466
  0
LINE
  5
268
100
AcDbEntity
  8
00_COMPONENTS_1
100
AcDbLine
 62
7
  6
CONTINUOUS
 10
40.315154494
 20
10.9164486101
 11
40.4493416386
 21
12.4902351591
  0
LINE
  5
269
100
AcDbEntity
  8
00_COMPONENTS_1
100
AcDbLine
 62
7
  6
CONTINUOUS
 10
40.7651676206
 20
56.5350822466
 11
41.5651676206
 21
56.5350822466
  0
LINE
  5
26A
100
AcDbEntity
  8
00_COMPONENTS_1
100
AcDbLine
 62
7
  6
CONTINUOUS
 10
31.6911227389
 20
58.3250885518
 11
36.3211227389
 21
58.3250885518
  0
LINE
  5
26B
100
AcDbEntity
  8
00_COMPONENTS_1
100
AcDbLine
 62
7
  6
CONTINUOUS
 10
44.9651676206
 20
53.0350822466
 11
44.9651676206
 21
55.4350822466
  0
LINE
  5
26C
100
AcDbEntity
  8
00_COMPONENTS_1
100
AcDbLine
 62
7
  6
CONTINUOUS
 10
46.3159676206
 20
49.0895296183
 11
46.3159676206
 21
51.4250822466
  0
LINE
  5
26D
100
AcDbEntity
  8
00_COMPONENTS_1
100
AcDbLine
 62
7
  6
CONTINUOUS
 10
37.0691862492
 20
59.6010504915
 11
36.3211227389
 21
59.6010504915
  0
LINE
  5
26E
100
AcDbEntity
  8
00_COMPONENTS_1
100
AcDbLine
 62
7
  6
CONTINUOUS
 10
31.6911227389
 20
59.6010504915
 11
31.3611227389
 21
59.6010504915
  0
LINE
  5
26F
100
AcDbEntity
  8
00_COMPONENTS_1
100
AcDbLine
 62
7
  6
CONTINUOUS
 10
36.3211227389
 20
63.7346438872
 11
31.6911227389
 21
63.7346438872
  0
LINE
  5
270
100
AcDbEntity
  8
00_COMPONENTS_1
100
AcDbLine
 62
7
  6
CONTINUOUS
 10
31.6911227389
 20
65.389937309
 11
36.3211227389
 21
65.389937309
  0
LINE
  5
271
100
AcDbEntity
  8
00_COMPONENTS_1
100
AcDbLine
 62
7
  6
CONTINUOUS
 10
31.3611227389
 20
66.2091140018
 11
37.0691862492
 21
66.2091140018
  0
LINE
  5
272
100
AcDbEntity
  8
00_COMPONENTS_1
100
AcDbLine
 62
7
  6
CONTINUOUS
 10
40.8684776588
 20
93.5144357329
 11
40.4751545431
 21
94.5950830579
  0
LINE
  5
273
100
AcDbEntity
  8
00_COMPONENTS_1
100
AcDbLine
 62
7
  6
CONTINUOUS
 10
39.0139676206
 20
75.4408334037
 11
29.615154494
 21
75.4408334037
  0
LINE
  5
274
100
AcDbEntity
  8
00_COMPONENTS_1
100
AcDbLine
 62
7
  6
CONTINUOUS
 10
39.0139676206
 20
75.5338077832
 11
29.615154494
 21
75.5338077832
  0
LINE
  5
275
100
AcDbEntity
  8
00_COMPONENTS_1
100
AcDbLine
 62
7
  6
CONTINUOUS
 10
34.757905294
 20
78.649388879
 11
36.6370715945
 21
78.6724727702
  0
LINE
  5
276
100
AcDbEntity
  8
00_COMPONENTS_1
100
AcDbLine
 62
7
  6
CONTINUOUS
 10
31.8159113126
 20
78.5802010077
 11
33.6579368051
 21
78.5562979241
  0
LINE
  5
277
100
AcDbEntity
  8
00_COMPONENTS_1
100
AcDbLine
 62
7
  6
CONTINUOUS
 10
33.6580043998
 20
79.8206058146
 11
31.7926112695
 21
79.7976911145
  0
LINE
  5
278
100
AcDbEntity
  8
00_COMPONENTS_1
100
AcDbLine
 62
7
  6
CONTINUOUS
 10
36.6137715171
 20
79.8899641289
 11
34.7579729074
 21
79.9140459396
  0
LINE
  5
279
100
AcDbEntity
  8
00_COMPONENTS_1
100
AcDbLine
 62
7
  6
CONTINUOUS
 10
39.0139676206
 20
84.4352330984
 11
29.615154494
 21
84.4352330984
  0
LINE
  5
27A
100
AcDbEntity
  8
00_COMPONENTS_1
100
AcDbLine
 62
7
  6
CONTINUOUS
 10
34.7748229414
 20
87.5496237732
 11
36.6373005463
 21
87.5726030177
  0
LINE
  5
27B
100
AcDbEntity
  8
00_COMPONENTS_1
100
AcDbLine
 62
7
  6
CONTINUOUS
 10
32.1366935249
 20
85.8350822466
 11
32.2628112564
 21
85.8350822466
  0
LINE
  5
27C
100
AcDbEntity
  8
00_COMPONENTS_1
100
AcDbLine
 62
7
  6
CONTINUOUS
 10
36.1749013229
 20
85.8350822466
 11
36.2936154631
 21
85.8350822466
  0
LINE
  5
27D
100
AcDbEntity
  8
00_COMPONENTS_1
100
AcDbLine
 62
7
  6
CONTINUOUS
 10
39.0139676206
 20
87.6350822466
 11
38.115154494
 21
87.6350822466
  0
LINE
  5
27E
100
AcDbEntity
  8
00_COMPONENTS_1
100
AcDbLine
 62
7
  6
CONTINUOUS
 10
30.315154494
 20
87.6350822466
 11
29.615154494
 21
87.6350822466
  0
LINE
  5
27F
100
AcDbEntity
  8
00_COMPONENTS_1
100
AcDbLine
 62
7
  6
CONTINUOUS
 10
31.8163051693
 20
87.4800719696
 11
33.6748959184
 21
87.4560525204
  0
LINE
  5
280
100
AcDbEntity
  8
00_COMPONENTS_1
100
AcDbLine
 62
7
  6
CONTINUOUS
 10
41.2694514182
 20
96.5169145997
 11
41.9512837713
 21
95.8350822467
  0
LINE
  5
281
100
AcDbEntity
  8
00_COMPONENTS_1
100
AcDbLine
 62
7
  6
CONTINUOUS
 10
33.6748959184
 20
88.7207818984
 11
31.7929407692
 21
88.69756234
  0
LINE
  5
282
100
AcDbEntity
  8
00_COMPONENTS_1
100
AcDbLine
 62
7
  6
CONTINUOUS
 10
36.6139361928
 20
88.7900916177
 11
34.7748229414
 21
88.81385935
  0
LINE
  5
283
100
AcDbEntity
  8
00_COMPONENTS_1
100
AcDbLine
 62
7
  6
CONTINUOUS
 10
29.615154494
 20
96.5350822466
 11
39.0139676206
 21
96.5350822466
  0
LINE
  5
284
100
AcDbEntity
  8
00_COMPONENTS_1
100
AcDbLine
 62
7
  6
CONTINUOUS
 10
40.4751545431
 20
94.5950830579
 11
39.0139676218
 21
94.6034991012
  0
LINE
  5
285
100
AcDbEntity
  8
00_COMPONENTS_1
100
AcDbLine
 62
7
  6
CONTINUOUS
 10
39.0139676206
 20
96.532493822
 11
41.2694514182
 21
96.5169145997
  0
CIRCLE
  5
286
100
AcDbEntity
  8
00_COMPONENTS_1
100
AcDbCircle
 62
7
  6
CONTINUOUS
 10
34.215154494
 20
88.1350822466
 40
3.1
  0
CIRCLE
  5
287
100
AcDbEntity
  8
00_COMPONENTS_1
100
AcDbCircle
 62
7
  6
CONTINUOUS
 10
34.215154494
 20
17.9450822466
 40
3.1
  0
CIRCLE
  5
288
100
AcDbEntity
  8
00_COMPONENTS_1
100
AcDbCircle
 62
7
  6
CONTINUOUS
 10
34.215154494
 20
79.2350822466
 40
3.0965641137
  0
CIRCLE
  5
289
100
AcDbEntity
  8
00_COMPONENTS_1
100
AcDbCircle
 62
7
  6
CONTINUOUS
 10
34.215154494
 20
26.8450822466
 40
3.0965641137
  0
ARC
  5
28A
100
AcDbEntity
  8
00_COMPONENTS_1
100
AcDbCircle
 62
7
  6
CONTINUOUS
 10
34.2191970335
 20
17.8919194881
 40
3.0792288161
100
AcDbArc
 50
79.7276690413
 51
83.0846258479
  0
ARC
  5
28B
100
AcDbEntity
  8
00_COMPONENTS_1
100
AcDbCircle
 62
7
  6
CONTINUOUS
 10
34.2410414398
 20
17.9970371336
 40
3.0780966437
100
AcDbArc
 50
259.2779903781
 51
262.7831829964
  0
ARC
  5
28C
100
AcDbEntity
  8
00_COMPONENTS_1
100
AcDbCircle
 62
7
  6
CONTINUOUS
 10
34.2245559914
 20
17.9685940485
 40
3.0490974794
100
AcDbArc
 50
273.4923471796
 51
280.2726035676
  0
ARC
  5
28D
100
AcDbEntity
  8
00_COMPONENTS_1
100
AcDbCircle
 62
7
  6
CONTINUOUS
 10
34.2328909288
 20
17.9391146124
 40
3.0313959593
100
AcDbArc
 50
90.0548258533
 51
100.7323566851
  0
ARC
  5
28E
100
AcDbEntity
  8
00_COMPONENTS_1
100
AcDbCircle
 62
7
  6
CONTINUOUS
 10
34.2308951929
 20
17.9299111944
 40
3.0102283115
100
AcDbArc
 50
262.8142690158
 51
266.3985537285
  0
ARC
  5
28F
100
AcDbEntity
  8
00_COMPONENTS_1
100
AcDbCircle
 62
7
  6
CONTINUOUS
 10
34.2300805153
 20
17.9707042524
 40
2.999707089
100
AcDbArc
 50
83.1098072409
 51
85.4152366082
  0
ARC
  5
290
100
AcDbEntity
  8
00_COMPONENTS_1
100
AcDbCircle
 62
7
  6
CONTINUOUS
 10
34.2288695947
 20
17.9710184208
 40
2.9994909725
100
AcDbArc
 50
85.3917001186
 51
89.978588874
  0
ARC
  5
291
100
AcDbEntity
  8
00_COMPONENTS_1
100
AcDbCircle
 62
7
  6
CONTINUOUS
 10
34.2306890976
 20
17.9094508768
 40
2.989795649
100
AcDbArc
 50
266.3778656413
 51
269.9866120075
  0
ARC
  5
292
100
AcDbEntity
  8
00_COMPONENTS_1
100
AcDbCircle
 62
7
  6
CONTINUOUS
 10
34.2291658413
 20
17.9028317916
 40
2.9831765961
100
AcDbArc
 50
270.0158435987
 51
273.480912389
  0
ARC
  5
293
100
AcDbEntity
  8
00_COMPONENTS_1
100
AcDbCircle
 62
7
  6
CONTINUOUS
 10
39.615154494
 20
95.2850822466
 40
2.4
100
AcDbArc
 50
319.3215069287
 51
13.2480149059
  0
ELLIPSE
  5
294
100
AcDbEntity
  8
00_COMPONENTS_1
100
AcDbEllipse
 62
7
  6
CONTINUOUS
 10
34.1997188249
 20
26.8450822466
 30
0.0
 11
0.0
 21
3.025
 31
0.0
 40
0.9999668275
 41
0.1801204122
 42
1.0656843492
  0
ELLIPSE
  5
295
100
AcDbEntity
  8
00_COMPONENTS_1
100
AcDbEllipse
 62
7
  6
CONTINUOUS
 10
34.1997188249
 20
26.8450822466
 30
0.0
 11
0.0
 21
3.025
 31
0.0
 40
0.9999668275
 41
-4.2226074951
 42
-3.3216061347
  0
ELLIPSE
  5
296
100
AcDbEntity
  8
00_COMPONENTS_1
100
AcDbEllipse
 62
7
  6
CONTINUOUS
 10
34.1997188249
 20
26.8450822466
 30
0.0
 11
-0.0
 21
3.025
 31
0.0
 40
0.9999668275
 41
1.1445918067
 42
2.0058097019
  0
ELLIPSE
  5
297
100
AcDbEntity
  8
00_COMPONENTS_1
100
AcDbEllipse
 62
7
  6
CONTINUOUS
 10
34.2031745577
 20
26.8450822466
 30
0.0
 11
-0.0
 21
3.025
 31
0.0
 40
0.9999668275
 41
2.9615791725
 42
3.3272508641
  0
ELLIPSE
  5
298
100
AcDbEntity
  8
00_COMPONENTS_1
100
AcDbEllipse
 62
7
  6
CONTINUOUS
 10
34.2031745577
 20
26.8450822466
 30
0.0
 11
0.0
 21
3.025
 31
0.0
 40
0.9999668275
 41
6.0976340278
 42
6.4633057194
  0
ELLIPSE
  5
299
100
AcDbEntity
  8
00_COMPONENTS_1
100
AcDbEllipse
 62
7
  6
CONTINUOUS
 10
34.2148415027
 20
26.8450822466
 30
0.0
 11
-0.0
 21
2.4867885554
 31
0.0
 40
0.9999668275
 41
-1.8372836858
 42
-1.342581118
  0
ELLIPSE
  5
29A
100
AcDbEntity
  8
00_COMPONENTS_1
100
AcDbEllipse
 62
7
  6
CONTINUOUS
 10
34.2169974889
 20
26.8450822466
 30
0.0
 11
0.0
 21
3.025
 31
0.0
 40
0.9999668275
 41
3.6066399387
 42
5.4153246298
  0
ELLIPSE
  5
29B
100
AcDbEntity
  8
00_COMPONENTS_1
100
AcDbEllipse
 62
7
  6
CONTINUOUS
 10
34.2151205574
 20
88.1350822466
 30
0.0
 11
-0.0
 21
2.4867885554
 31
0.0
 40
0.9999336573
 41
1.3426345307
 42
1.8373372061
  0
ELLIPSE
  5
29C
100
AcDbEntity
  8
00_COMPONENTS_1
100
AcDbEllipse
 62
7
  6
CONTINUOUS
 10
34.236506544
 20
88.1350822466
 30
0.0
 11
0.0
 21
3.025
 31
0.0
 40
0.9999336573
 41
-1.0782232062
 42
-0.1789207344
  0
ELLIPSE
  5
29D
100
AcDbEntity
  8
00_COMPONENTS_1
100
AcDbEllipse
 62
7
  6
CONTINUOUS
 10
34.236506544
 20
88.1350822466
 30
0.0
 11
-0.0
 21
3.025
 31
0.0
 40
0.9999336573
 41
3.320513388
 42
5.1448626648
  0
ELLIPSE
  5
29E
100
AcDbEntity
  8
00_COMPONENTS_1
100
AcDbEllipse
 62
7
  6
CONTINUOUS
 10
34.2299904598
 20
88.1350822466
 30
0.0
 11
0.0
 21
3.025
 31
0.0
 40
0.9999336573
 41
2.9548402788
 42
3.320513388
  0
ELLIPSE
  5
29F
100
AcDbEntity
  8
00_COMPONENTS_1
100
AcDbEllipse
 62
7
  6
CONTINUOUS
 10
34.2299904598
 20
88.1350822466
 30
0.0
 11
-0.0
 21
3.025
 31
0.0
 40
0.9999336573
 41
6.1042645728
 42
6.469937682
  0
ELLIPSE
  5
2A0
100
AcDbEntity
  8
00_COMPONENTS_1
100
AcDbEllipse
 62
7
  6
CONTINUOUS
 10
34.1960253709
 20
88.1350822466
 30
0.0
 11
-0.0
 21
3.025
 31
0.0
 40
0.9999336573
 41
2.4432254336
 42
2.7445481969
  0
ELLIPSE
  5
2A1
100
AcDbEntity
  8
00_COMPONENTS_1
100
AcDbEllipse
 62
7
  6
CONTINUOUS
 10
34.2169974889
 20
79.2350822466
 30
0.0
 11
-0.0
 21
3.025
 31
0.0
 40
0.9999668275
 41
4.0094893422
 42
5.8181375825
  0
ELLIPSE
  5
2A2
100
AcDbEntity
  8
00_COMPONENTS_1
100
AcDbEllipse
 62
7
  6
CONTINUOUS
 10
34.2148415027
 20
79.2350822466
 30
0.0
 11
-0.0
 21
2.4867885554
 31
0.0
 40
0.9999668275
 41
-1.7990115356
 42
-1.3043089678
  0
ELLIPSE
  5
2A3
100
AcDbEntity
  8
00_COMPONENTS_1
100
AcDbEllipse
 62
7
  6
CONTINUOUS
 10
34.2031745577
 20
79.2350822466
 30
0.0
 11
0.0
 21
3.025
 31
0.0
 40
0.9999668275
 41
2.9614722414
 42
3.3271439329
  0
ELLIPSE
  5
2A4
100
AcDbEntity
  8
00_COMPONENTS_1
100
AcDbEllipse
 62
7
  6
CONTINUOUS
 10
34.2031745577
 20
79.2350822466
 30
0.0
 11
-0.0
 21
3.025
 31
0.0
 40
0.9999668275
 41
6.0975270967
 42
6.4631987883
  0
ELLIPSE
  5
2A5
100
AcDbEntity
  8
00_COMPONENTS_1
100
AcDbEllipse
 62
7
  6
CONTINUOUS
 10
34.1997188249
 20
79.2350822466
 30
0.0
 11
0.0
 21
3.025
 31
0.0
 40
0.9999668275
 41
0.1800134811
 42
1.0810333122
  0
ELLIPSE
  5
2A6
100
AcDbEntity
  8
00_COMPONENTS_1
100
AcDbEllipse
 62
7
  6
CONTINUOUS
 10
34.1997188249
 20
79.2350822466
 30
0.0
 11
0.0
 21
3.025
 31
0.0
 40
0.9999668275
 41
-4.2072580457
 42
-3.3217130658
  0
ELLIPSE
  5
2A7
100
AcDbEntity
  8
00_COMPONENTS_1
100
AcDbEllipse
 62
7
  6
CONTINUOUS
 10
34.1997188249
 20
79.2350822466
 30
0.0
 11
-0.0
 21
3.025
 31
0.0
 40
0.9999668275
 41
7.4189903666
 42
8.2802056738
  0
ELLIPSE
  5
2A8
100
AcDbEntity
  8
00_COMPONENTS_1
100
AcDbEllipse
 62
7
  6
CONTINUOUS
 10
34.1960253709
 20
17.9450822466
 30
0.0
 11
-0.0
 21
3.025
 31
0.0
 40
0.9999336573
 41
6.6802297639
 42
6.9815525272
  0
ELLIPSE
  5
2A9
100
AcDbEntity
  8
00_COMPONENTS_1
100
AcDbEllipse
 62
7
  6
CONTINUOUS
 10
34.236506544
 20
17.9450822466
 30
0.0
 11
0.0
 21
3.025
 31
0.0
 40
0.9999336573
 41
-2.9626719192
 42
-2.063351173
  0
ELLIPSE
  5
2AA
100
AcDbEntity
  8
00_COMPONENTS_1
100
AcDbEllipse
 62
7
  6
CONTINUOUS
 10
34.236506544
 20
17.9450822466
 30
0.0
 11
0.0
 21
3.025
 31
0.0
 40
0.9999336573
 41
4.2799373511
 42
6.1042645728
  0
ELLIPSE
  5
2AB
100
AcDbEntity
  8
00_COMPONENTS_1
100
AcDbEllipse
 62
7
  6
CONTINUOUS
 10
34.2151205574
 20
17.9450822466
 30
0.0
 11
-0.0
 21
2.4867885554
 31
0.0
 40
0.9999336573
 41
1.3042554474
 42
1.7989581228
  0
ELLIPSE
  5
2AC
100
AcDbEntity
  8
00_COMPONENTS_1
100
AcDbEllipse
 62
7
  6
CONTINUOUS
 10
34.2148415027
 20
26.8450822466
 30
0.0
 11
-0.0
 21
2.4867885554
 31
0.0
 40
0.9999668275
 41
1.3043092359
 42
1.7990112844
  0
ELLIPSE
  5
2AD
100
AcDbEntity
  8
00_COMPONENTS_1
100
AcDbEllipse
 62
7
  6
CONTINUOUS
 10
34.2151205574
 20
88.1350822466
 30
0.0
 11
-0.0
 21
2.4867885554
 31
0.0
 40
0.9999336573
 41
-1.798957766
 42
-1.3042558251
  0
ELLIPSE
  5
2AE
100
AcDbEntity
  8
00_COMPONENTS_1
100
AcDbEllipse
 62
7
  6
CONTINUOUS
 10
34.2148415027
 20
79.2350822466
 30
0.0
 11
-0.0
 21
2.4867885554
 31
0.0
 40
0.9999668275
 41
1.3425813692
 42
1.8372834177
  0
ELLIPSE
  5
2AF
100
AcDbEntity
  8
00_COMPONENTS_1
100
AcDbEllipse
 62
7
  6
CONTINUOUS
 10
34.236506544
 20
88.1350822466
 30
0.0
 11
0.0
 21
3.025
 31
0.0
 40
0.9999336573
 41
0.1867523748
 42
2.9548402788
  0
ELLIPSE
  5
2B0
100
AcDbEntity
  8
00_COMPONENTS_1
100
AcDbEllipse
 62
7
  6
CONTINUOUS
 10
34.1997188249
 20
26.8450822466
 30
0.0
 11
0.0
 21
3.025
 31
0.0
 40
0.9999668275
 41
3.3272508641
 42
6.0976340278
  0
ELLIPSE
  5
2B1
100
AcDbEntity
  8
00_COMPONENTS_1
100
AcDbEllipse
 62
7
  6
CONTINUOUS
 10
34.2151205574
 20
17.9450822466
 30
0.0
 11
0.0
 21
2.4867885554
 31
0.0
 40
0.9999336573
 41
-1.8373368285
 42
-1.3426348876
  0
ELLIPSE
  5
2B2
100
AcDbEntity
  8
00_COMPONENTS_1
100
AcDbEllipse
 62
7
  6
CONTINUOUS
 10
34.1997188249
 20
79.2350822466
 30
0.0
 11
0.0
 21
3.025
 31
0.0
 40
0.9999668275
 41
3.3271439329
 42
6.0975270967
  0
ELLIPSE
  5
2B3
100
AcDbEntity
  8
00_COMPONENTS_1
100
AcDbEllipse
 62
7
  6
CONTINUOUS
 10
34.236506544
 20
17.9450822466
 30
0.0
 11
0.0
 21
3.025
 31
0.0
 40
0.9999336573
 41
0.1867523748
 42
2.9548402788
  0
ENDSEC
  0
SECTION
  2
OBJECTS
  0
DICTIONARY
  5
C
100
AcDbDictionary
280
0
281
1
  3
ACAD_GROUP
350
D
  3
ACAD_MLINESTYLE
350
17
  3
ACAD_LAYOUT
350
1A
  3
ACAD_PLOTSETTINGS
350
19
  3
ACAD_PLOTSTYLENAME
350
E
  0
DICTIONARY
  5
D
102
{ACAD_REACTORS
330
C
102
}
100
AcDbDictionary
280
0
281
1
  0
ACDBDICTIONARYWDFLT
  5
E
102
{ACAD_REACTORS
330
C
102
}
100
AcDbDictionary
281
1
  3
Normal
350
F
100
AcDbDictionaryWithDefault
340
F
  0
DICTIONARY
  5
17
102
{ACAD_REACTORS
330
C
102
}
100
AcDbDictionary
280
0
281
1
  3
Standard
350
18
  0
DICTIONARY
  5
19
102
{ACAD_REACTORS
330
C
102
}
100
AcDbDictionary
281
1
  0
DICTIONARY
  5
1A
102
{ACAD_REACTORS
330
C
102
}
100
AcDbDictionary
281
1
  3
Model
350
2B4
  3
Layout1
350
2B5
  0
ACDBPLACEHOLDER
  5
F
102
{ACAD_REACTORS
330
E
102
}
  0
MLINESTYLE
  5
18
102
{ACAD_REACTORS
330
17
102
}
100
AcDbMlineStyle
  2
STANDARD
 70
0
  3

 62
256
 51
90.0
 52
90.0
 71
2
 49
0.5
 62
256
  6
BYLAYER
 49
-0.5
 62
256
  6
BYLAYER
  0
LAYOUT
  5
2B4
102
{ACAD_REACTORS
330
1A
102
}
100
AcDbPlotSettings
  1

  2
none_device
  4

  6

 40
0.0
 41
0.0
 42
0.0
 43
0.0
 44
210.0
 45
297.0
 46
0.0
 47
0.0
 48
0.0
 49
0.0
140
0.0
141
0.0
142
1.0
143
1.0
 70
1024
 72
1
 73
0
 74
0
  7

 75
0
147
1.0
148
0.0
149
0.0
100
AcDbLayout
  1
Model
 70
0
 71
0
 10
0.0
 20
0.0
 11
210.0
 21
297.0
 12
0.0
 22
0.0
 32
0.0
 14
0.0
 24
0.0
 34
0.0
 15
0.0
 25
0.0
 35
0.0
146
0.0
 13
0.0
 23
0.0
 33
0.0
 16
1.0
 26
0.0
 36
0.0
 17
0.0
 27
1.0
 37
0.0
 76
0
330
211
345
0
346
0
  0
LAYOUT
  5
2B5
102
{ACAD_REACTORS
330
1A
102
}
100
AcDbPlotSettings
  1

  2
none_device
  4

  6

 40
0.0
 41
0.0
 42
0.0
 43
0.0
 44
210.0
 45
297.0
 46
0.0
 47
0.0
 48
0.0
 49
0.0
140
0.0
141
0.0
142
1.0
143
1.0
 70
0
 72
1
 73
0
 74
0
  7

 75
0
147
1.0
148
0.0
149
0.0
100
AcDbLayout
  1
Layout1
 70
0
 71
1
 10
0.0
 20
0.0
 11
210.0
 21
297.0
 12
0.0
 22
0.0
 32
0.0
 14
0.0
 24
0.0
 34
0.0
 15
0.0
 25
0.0
 35
0.0
146
0.0
 13
0.0
 23
0.0
 33
0.0
 16
1.0
 26
0.0
 36
0.0
 17
0.0
 27
1.0
 37
0.0
 76
0
330
212
345
0
346
0
  0
ENDSEC
  0
EOF
