999
DXF file: C:\Users\sesa63760\Dev\_Creo\CAD\MCADPE0010441_3D-CAD\drw0001_1.dxf
999
Pro/ENGINEER 2019471 by Parametric Technology Corporation
  0
SECTION
  2
HEADER
  9
$ACADVER
  1
AC1024
  9
$DWGCODEPAGE
  3
ANSI_1252
  9
$EXTMAX
 10
67.5283443635
 20
95.5043727426
 30
0.0
  9
$EXTMIN
 10
0.0
 20
0.0
 30
0.0
  9
$LIMMIN
 10
0.0
 20
0.0
  9
$LIMMAX
 10
67.5283443635
 20
95.5043727426
  9
$VIEWCTR
 10
33.7641721817
 20
47.7521863713
  9
$VIEWSIZE
 40
95.5043727426
  9
$CLAYER
  8
0
  9
$LTSCALE
 40
6.2254702232
  9
$CELTYPE
  6
BYLAYER
  9
$DIMSCALE
 40
1.0
  9
$DIMASZ
 40
0.8039088615
  9
$DIMEXO
 40
1.0
  9
$DIMDLI
 40
4.3012339724
  9
$DIMEXE
 40
1.0
  9
$DIMCEN
 40
1.0187133093
  9
$DIMLFAC
 40
1.0
  9
$DIMBLK
  1
_FILLED
  9
$DIMALT
 70
0
  9
$DIMALTF
 40
0.0393700787
  9
$DIMTXT
 40
1.1254724061
  9
$DIMTOL
 70
1
  9
$DIMLIM
 70
0
  9
$DIMTFAC
 40
1.0
  9
$DIMTP
 40
0.01
  9
$DIMTM
 40
0.01
  9
$DIMGAP
 40
0.625
  9
$DIMDSEP
 70
46
  9
$AUNITS
 70
0
  9
$PDMODE
 70
3
  9
$PDSIZE
 40
0.3125
  9
$HANDSEED
  5
2A1
  9
$TILEMODE
 70
1
  9
$MEASUREMENT
 70
1
  9
$INSUNITS
 70
4
  0
ENDSEC
  0
SECTION
  2
CLASSES
  0
CLASS
  1
ACDBDICTIONARYWDFLT
  2
AcDbDictionaryWithDefault
  3
AutoCAD 2000
 90
0
 91
1
280
0
281
0
  0
CLASS
  1
ACDBPLACEHOLDER
  2
AcDbPlaceHolder
  3
AutoCAD 2000
 90
0
 91
1
280
0
281
0
  0
CLASS
  1
LAYOUT
  2
AcDbLayout
  3
AutoCAD 2000
 90
0
 91
0
280
0
281
0
  0
ENDSEC
  0
SECTION
  2
TABLES
  0
TABLE
  2
VPORT
  5
8
100
AcDbSymbolTable
 70
2
  0
VPORT
  5
1F4
100
AcDbSymbolTableRecord
100
AcDbViewportTableRecord
  2
*ACTIVE
 70
0
 10
0.0
 20
0.0
 11
1.0
 21
1.0
 12
33.7641721817
 22
47.7521863713
 13
0.0
 23
0.0
 14
1.0
 24
1.0
 15
0.0
 25
0.0
 16
0.0
 26
0.0
 36
1.0
 17
0.0
 27
0.0
 37
0.0
 40
95.5043727426
 41
0.7070707071
 42
50.0
 43
0.0
 44
0.0
 50
0.0
 51
0.0
 71
0
 72
100
 73
1
 74
1
 75
0
 76
0
 77
0
 78
0
  0
ENDTAB
  0
TABLE
  2
LTYPE
  5
5
100
AcDbSymbolTable
 70
6
  0
LTYPE
  5
14
100
AcDbSymbolTableRecord
100
AcDbLinetypeTableRecord
  2
BYBLOCK
 70
0
  3

 72
65
 73
0
 40
0.0
  0
LTYPE
  5
15
100
AcDbSymbolTableRecord
100
AcDbLinetypeTableRecord
  2
BYLAYER
 70
0
  3

 72
65
 73
0
 40
0.0
  0
LTYPE
  5
16
100
AcDbSymbolTableRecord
100
AcDbLinetypeTableRecord
  2
CONTINUOUS
 70
64
  3
Solid line
 72
65
 73
0
 40
0.0
  0
LTYPE
  5
1F5
100
AcDbSymbolTableRecord
100
AcDbLinetypeTableRecord
  2
CENTER
 70
64
  3
____ _ ____ _ ____ _ ____ _ ____ _ ____ _ ____
 72
65
 73
4
 40
0.6
 49
0.375
 74
0
 49
-0.075
 74
0
 49
0.075
 74
0
 49
-0.075
 74
0
  0
LTYPE
  5
1F6
100
AcDbSymbolTableRecord
100
AcDbLinetypeTableRecord
  2
HIDDEN
 70
64
  3
- - - - - - - - - - - - - - - - - - - -
 72
65
 73
2
 40
0.2
 49
0.1
 74
0
 49
-0.1
 74
0
  0
LTYPE
  5
1F7
100
AcDbSymbolTableRecord
100
AcDbLinetypeTableRecord
  2
PHANTOM
 70
64
  3
_____ _ _ _____ _ _ _____ _ _ _____
 72
65
 73
6
 40
0.8
 49
0.45
 74
0
 49
-0.05
 74
0
 49
0.1
 74
0
 49
-0.05
 74
0
 49
0.1
 74
0
 49
-0.05
 74
0
  0
LTYPE
  5
1F8
100
AcDbSymbolTableRecord
100
AcDbLinetypeTableRecord
  2
DOT
 70
64
  3
. . . . . . . . . . . . . . . . . . . .
 72
65
 73
2
 40
0.2
 49
0.1
 74
0
 49
-0.1
 74
0
  0
LTYPE
  5
1F9
100
AcDbSymbolTableRecord
100
AcDbLinetypeTableRecord
  2
DASHED
 70
64
  3
- - - - - - - - - - - - - - - - - - - -
 72
65
 73
2
 40
0.2
 49
0.1
 74
0
 49
-0.1
 74
0
  0
ENDTAB
  0
TABLE
  2
LAYER
  5
2
100
AcDbSymbolTable
 70
36
  0
LAYER
  5
10
100
AcDbSymbolTableRecord
100
AcDbLayerTableRecord
  2
0
 70
0
 62
7
  6
CONTINUOUS
370
-3
390
F
  0
LAYER
  5
1FA
100
AcDbSymbolTableRecord
100
AcDbLayerTableRecord
  2
DEFAULT_1
 70
0
 62
7
  6
CENTER
370
-3
390
F
  0
LAYER
  5
1FB
100
AcDbSymbolTableRecord
100
AcDbLayerTableRecord
  2
DEFAULT_2
 70
0
 62
7
  6
HIDDEN
370
-3
390
F
  0
LAYER
  5
1FC
100
AcDbSymbolTableRecord
100
AcDbLayerTableRecord
  2
DEFAULT_3
 70
0
 62
7
  6
PHANTOM
370
-3
390
F
  0
LAYER
  5
1FD
100
AcDbSymbolTableRecord
100
AcDbLayerTableRecord
  2
00_COMPONENTS
 70
0
 62
7
  6
CONTINUOUS
370
-3
390
F
  0
LAYER
  5
1FE
100
AcDbSymbolTableRecord
100
AcDbLayerTableRecord
  2
01_1_DEFAULT_DATUMS
 70
0
 62
7
  6
CONTINUOUS
370
-3
390
F
  0
LAYER
  5
1FF
100
AcDbSymbolTableRecord
100
AcDbLayerTableRecord
  2
01_PLANES
 70
0
 62
7
  6
CONTINUOUS
370
-3
390
F
  0
LAYER
  5
200
100
AcDbSymbolTableRecord
100
AcDbLayerTableRecord
  2
02_COORD_SYS
 70
0
 62
7
  6
CONTINUOUS
370
-3
390
F
  0
LAYER
  5
201
100
AcDbSymbolTableRecord
100
AcDbLayerTableRecord
  2
03_AXES
 70
0
 62
7
  6
CONTINUOUS
370
-3
390
F
  0
LAYER
  5
202
100
AcDbSymbolTableRecord
100
AcDbLayerTableRecord
  2
04_POINTS
 70
0
 62
7
  6
CONTINUOUS
370
-3
390
F
  0
LAYER
  5
203
100
AcDbSymbolTableRecord
100
AcDbLayerTableRecord
  2
05_CURVES
 70
0
 62
7
  6
CONTINUOUS
370
-3
390
F
  0
LAYER
  5
204
100
AcDbSymbolTableRecord
100
AcDbLayerTableRecord
  2
06_SURFS
 70
0
 62
7
  6
CONTINUOUS
370
-3
390
F
  0
LAYER
  5
205
100
AcDbSymbolTableRecord
100
AcDbLayerTableRecord
  2
07_COSMETICS
 70
0
 62
7
  6
CONTINUOUS
370
-3
390
F
  0
LAYER
  5
206
100
AcDbSymbolTableRecord
100
AcDbLayerTableRecord
  2
10_NOTES
 70
0
 62
7
  6
CONTINUOUS
370
-3
390
F
  0
LAYER
  5
207
100
AcDbSymbolTableRecord
100
AcDbLayerTableRecord
  2
11_NOTES_PUB
 70
0
 62
7
  6
CONTINUOUS
370
-3
390
F
  0
LAYER
  5
208
100
AcDbSymbolTableRecord
100
AcDbLayerTableRecord
  2
13_REF_GTOL
 70
0
 62
7
  6
CONTINUOUS
370
-3
390
F
  0
LAYER
  5
209
100
AcDbSymbolTableRecord
100
AcDbLayerTableRecord
  2
16_MISC
 70
0
 62
7
  6
CONTINUOUS
370
-3
390
F
  0
LAYER
  5
20A
100
AcDbSymbolTableRecord
100
AcDbLayerTableRecord
  2
17_NO_PRINT
 70
0
 62
7
  6
CONTINUOUS
370
-3
390
F
  0
LAYER
  5
20B
100
AcDbSymbolTableRecord
100
AcDbLayerTableRecord
  2
18_DATUM_CAMS_JOINTS
 70
0
 62
7
  6
CONTINUOUS
370
-3
390
F
  0
LAYER
  5
20C
100
AcDbSymbolTableRecord
100
AcDbLayerTableRecord
  2
19_DATUM_FUNCTIONAL
 70
0
 62
7
  6
CONTINUOUS
370
-3
390
F
  0
LAYER
  5
20D
100
AcDbSymbolTableRecord
100
AcDbLayerTableRecord
  2
20_DATUM_KINEMATIC_SCHEME
 70
0
 62
7
  6
CONTINUOUS
370
-3
390
F
  0
ENDTAB
  0
TABLE
  2
STYLE
  5
3
100
AcDbSymbolTable
 70
1
  0
STYLE
  5
11
100
AcDbSymbolTableRecord
100
AcDbTextStyleTableRecord
  2
STANDARD
 70
0
 40
0.0
 41
1.0
 50
0.0
 71
0
 42
0.2
  3
ARIAL.TTF
  4

  0
STYLE
  5
20E
100
AcDbSymbolTableRecord
100
AcDbTextStyleTableRecord
  2
TEXTSTYLE_1
 70
0
 40
0.0
 41
0.8
 50
0.0
 71
0
 42
0.2
  3
gdt
  4

  0
ENDTAB
  0
TABLE
  2
VIEW
  5
6
100
AcDbSymbolTable
 70
0
  0
ENDTAB
  0
TABLE
  2
UCS
  5
7
100
AcDbSymbolTable
 70
0
  0
ENDTAB
  0
TABLE
  2
APPID
  5
9
100
AcDbSymbolTable
 70
1
  0
APPID
  5
20F
100
AcDbSymbolTableRecord
100
AcDbRegAppTableRecord
  2
ACAD
 70
0
  0
ENDTAB
  0
TABLE
  2
BLOCK_RECORD
  5
1
100
AcDbSymbolTable
 70
0
  0
BLOCK_RECORD
  5
210
100
AcDbSymbolTableRecord
100
AcDbBlockTableRecord
  2
*Model_Space
  0
BLOCK_RECORD
  5
211
100
AcDbSymbolTableRecord
100
AcDbBlockTableRecord
  2
*Paper_Space
  0
BLOCK_RECORD
  5
212
100
AcDbSymbolTableRecord
100
AcDbBlockTableRecord
  2
_FILLED
  0
ENDTAB
  0
TABLE
  2
DIMSTYLE
  5
A
100
AcDbSymbolTable
 70
1
100
AcDbDimStyleTable
 71
0
  0
DIMSTYLE
105
213
100
AcDbSymbolTableRecord
100
AcDbDimStyleTableRecord
  2
STANDARD
 70
0
  3

  4

 40
1.0
 41
0.8039088615
 42
1.0
 43
0.38
 44
1.0
 45
0.0
 46
0.0
 47
0.01
 48
0.01
140
1.1254724061
141
0.09
142
0.0
143
25.4
144
1.0
145
0.0
146
1.0
147
0.625
 71
1
 72
0
 73
0
 74
0
 75
0
 76
0
 77
1
 78
8
 79
2
170
0
171
1
172
0
173
0
174
0
175
0
176
0
177
0
178
0
270
2
179
2
271
2
272
2
273
2
274
2
275
0
280
0
281
0
282
0
283
1
284
8
285
0
286
0
287
3
288
0
340
11
278
46
341
212
342
212
343
212
344
212
  0
ENDTAB
  0
ENDSEC
  0
SECTION
  2
BLOCKS
  0
BLOCK
  5
20
100
AcDbEntity
  8
0
100
AcDbBlockBegin
  2
*Model_Space
 70
0
 10
0.0
 20
0.0
 30
0.0
  3
*Model_Space
  1

  0
ENDBLK
  5
21
100
AcDbEntity
  8
0
100
AcDbBlockEnd
  0
BLOCK
  5
1C
100
AcDbEntity
  8
0
100
AcDbBlockBegin
  2
*Paper_Space
 70
0
 10
0.0
 20
0.0
 30
0.0
  3
*Paper_Space
  1

  0
ENDBLK
  5
1D
100
AcDbEntity
  8
0
100
AcDbBlockEnd
  0
BLOCK
  5
214
100
AcDbEntity
  8
0
100
AcDbBlockBegin
  2
_FILLED
 70
64
 10
0.0
 20
0.0
  3
_FILLED
  1

  0
SOLID
  5
215
100
AcDbEntity
  8
0
  6
BYBLOCK
 62
0
100
AcDbTrace
 10
0.0
 20
0.0
 11
-1.0
 21
0.25
 12
-1.0
 22
-0.25
 13
-1.0
 23
-0.25
  0
ENDBLK
  5
216
100
AcDbEntity
  8
0
  6
BYBLOCK
 62
0
100
AcDbBlockEnd
  0
ENDSEC
  0
SECTION
  2
ENTITIES
  0
LINE
  5
217
100
AcDbEntity
  8
0
100
AcDbLine
 62
7
  6
BYLAYER
 10
9.803930915
 20
14.4872812397
 11
8.2482895197
 21
15.3854108996
  0
LINE
  5
218
100
AcDbEntity
  8
0
100
AcDbLine
 62
7
  6
BYLAYER
 10
9.3897062735
 20
15.4028535353
 11
7.8340648782
 21
16.3009831952
  0
LINE
  5
219
100
AcDbEntity
  8
0
100
AcDbLine
 62
7
  6
BYLAYER
 10
9.8039518534
 20
14.4873174536
 11
10.2062439589
 21
14.3942739761
  0
LINE
  5
21A
100
AcDbEntity
  8
0
100
AcDbLine
 62
7
  6
BYLAYER
 10
33.3462301976
 20
13.7854234104
 11
39.0887810943
 21
14.0087800908
  0
LINE
  5
21B
100
AcDbEntity
  8
0
100
AcDbLine
 62
7
  6
BYLAYER
 10
10.2062439589
 20
14.3942739761
 11
16.6432287728
 21
14.6446406836
  0
LINE
  5
21C
100
AcDbEntity
  8
0
100
AcDbLine
 62
7
  6
BYLAYER
 10
32.9439380921
 20
13.8784668879
 11
33.3462301976
 21
13.7854234104
  0
LINE
  5
21D
100
AcDbEntity
  8
0
100
AcDbLine
 62
7
  6
BYLAYER
 10
32.9439171538
 20
13.8784306739
 11
31.388275904
 21
14.7765602498
  0
LINE
  5
21E
100
AcDbEntity
  8
0
100
AcDbLine
 62
7
  6
BYLAYER
 10
32.5296925123
 20
14.7940029695
 11
30.9740512626
 21
15.6921325454
  0
LINE
  5
21F
100
AcDbEntity
  8
0
100
AcDbLine
 62
7
  6
BYLAYER
 10
7.8340648782
 20
35.4970484955
 11
7.8340648782
 21
16.3009831952
  0
LINE
  5
220
100
AcDbEntity
  8
0
100
AcDbLine
 62
7
  6
BYLAYER
 10
9.3897062735
 20
15.4028535353
 11
9.3897062735
 21
34.5989188356
  0
LINE
  5
221
100
AcDbEntity
  8
0
100
AcDbLine
 62
7
  6
BYLAYER
 10
35.8586258477
 20
23.1318155625
 11
32.7473563017
 21
23.1318080839
  0
LINE
  5
222
100
AcDbEntity
  8
0
100
AcDbLine
 62
7
  6
BYLAYER
 10
32.7473563017
 20
23.4831244276
 11
32.2170259246
 21
23.4831231528
  0
LINE
  5
223
100
AcDbEntity
  8
0
100
AcDbLine
 62
7
  6
BYLAYER
 10
30.9740512626
 20
21.699744845
 11
32.5296925123
 21
20.8016152691
  0
LINE
  5
224
100
AcDbEntity
  8
0
100
AcDbLine
 62
7
  6
BYLAYER
 10
7.8340648782
 20
35.4970484955
 11
9.3897062735
 21
34.5989188356
  0
LINE
  5
225
100
AcDbEntity
  8
0
100
AcDbLine
 62
7
  6
BYLAYER
 10
32.8832444309
 20
21.4139885546
 11
31.3276031812
 21
22.3121181305
  0
LINE
  5
226
100
AcDbEntity
  8
0
100
AcDbLine
 62
7
  6
BYLAYER
 10
48.5199782808
 20
81.7632556875
 11
38.1308098337
 21
75.7651022921
  0
LINE
  5
227
100
AcDbEntity
  8
0
100
AcDbLine
 62
7
  6
BYLAYER
 10
39.6864510834
 20
74.8669727162
 11
50.0756195305
 21
80.8651261116
  0
LINE
  5
228
100
AcDbEntity
  8
0
100
AcDbLine
 62
7
  6
BYLAYER
 10
10.2062439589
 20
36.5503492716
 11
8.6506025635
 21
37.4484789315
  0
LINE
  5
229
100
AcDbEntity
  8
0
100
AcDbLine
 62
7
  6
BYLAYER
 10
57.5920790252
 20
29.0480640083
 11
57.8111483574
 21
29.0565151904
  0
LINE
  5
22A
100
AcDbEntity
  8
0
100
AcDbLine
 62
7
  6
BYLAYER
 10
31.7905909434
 20
68.8595114621
 11
37.5331398445
 21
75.267039586
  0
LINE
  5
22B
100
AcDbEntity
  8
0
100
AcDbLine
 62
7
  6
BYLAYER
 10
39.0887810942
 20
74.3689100101
 11
33.3462321931
 21
67.9613818862
  0
LINE
  5
22C
100
AcDbEntity
  8
0
100
AcDbLine
 62
7
  6
BYLAYER
 10
8.6506025635
 20
37.4484789315
 11
15.0875873776
 21
44.6308576869
  0
LINE
  5
22D
100
AcDbEntity
  8
0
100
AcDbLine
 62
7
  6
BYLAYER
 10
15.0875873776
 20
44.6308576868
 11
16.6432287729
 21
43.7327280269
  0
LINE
  5
22E
100
AcDbEntity
  8
0
100
AcDbLine
 62
7
  6
BYLAYER
 10
17.240898762
 20
44.2307907329
 11
15.6852573666
 21
45.1289203929
  0
LINE
  5
22F
100
AcDbEntity
  8
0
100
AcDbLine
 62
7
  6
BYLAYER
 10
16.6432287729
 20
43.7327280269
 11
10.2062439589
 21
36.5503492716
  0
LINE
  5
230
100
AcDbEntity
  8
0
100
AcDbLine
 62
7
  6
BYLAYER
 10
56.5454821027
 20
25.0068740149
 11
58.1011233524
 21
24.108744439
  0
LINE
  5
231
100
AcDbEntity
  8
0
100
AcDbLine
 62
7
  6
BYLAYER
 10
57.9147223608
 20
24.520751916
 11
56.359081014
 21
25.4188815479
  0
LINE
  5
232
100
AcDbEntity
  8
0
100
AcDbLine
 62
7
  6
BYLAYER
 10
15.6852573666
 20
45.1289203929
 11
30.9740532581
 21
53.9558581267
  0
LINE
  5
233
100
AcDbEntity
  8
0
100
AcDbLine
 62
7
  6
BYLAYER
 10
56.6065801649
 20
68.4077699439
 11
55.8994763277
 21
67.9995257901
  0
LINE
  5
234
100
AcDbEntity
  8
0
100
AcDbLine
 62
7
  6
BYLAYER
 10
31.2202463146
 20
52.3017226286
 11
17.240898762
 21
44.230790733
  0
LINE
  5
235
100
AcDbEntity
  8
0
100
AcDbLine
 62
7
  6
BYLAYER
 10
30.9740512626
 20
21.699744845
 11
30.9740512626
 21
15.6921325454
  0
LINE
  5
236
100
AcDbEntity
  8
0
100
AcDbLine
 62
7
  6
BYLAYER
 10
30.9740532581
 20
52.6129652899
 11
30.9740532581
 21
66.9080810261
  0
LINE
  5
237
100
AcDbEntity
  8
0
100
AcDbLine
 62
7
  6
BYLAYER
 10
58.6001904363
 20
67.3950430948
 11
58.0258130716
 21
67.0634281482
  0
LINE
  5
238
100
AcDbEntity
  8
0
100
AcDbLine
 62
7
  6
BYLAYER
 10
35.8586258477
 20
53.2285324382
 11
32.8832464264
 21
51.5107065824
  0
LINE
  5
239
100
AcDbEntity
  8
0
100
AcDbLine
 62
7
  6
BYLAYER
 10
53.365234306
 20
38.9915400135
 11
53.2807694192
 21
39.0149890156
  0
LINE
  5
23A
100
AcDbEntity
  8
0
100
AcDbLine
 62
7
  6
BYLAYER
 10
57.5586891354
 20
29.0332041116
 11
57.9147223608
 21
28.8276528832
  0
LINE
  5
23B
100
AcDbEntity
  8
0
100
AcDbLine
 62
7
  6
BYLAYER
 10
32.2170259246
 20
23.4831231528
 11
32.2170259246
 21
51.7262446715
  0
LINE
  5
23C
100
AcDbEntity
  8
0
100
AcDbLine
 62
7
  6
BYLAYER
 10
32.5296925123
 20
14.7940029695
 11
32.5296925123
 21
20.8016152691
  0
LINE
  5
23D
100
AcDbEntity
  8
0
100
AcDbLine
 62
7
  6
BYLAYER
 10
32.5296945078
 20
51.714835714
 11
32.5296945078
 21
66.0099514502
  0
LINE
  5
23E
100
AcDbEntity
  8
0
100
AcDbLine
 62
7
  6
BYLAYER
 10
32.7473563017
 20
23.4831244276
 11
32.7473563017
 21
23.1318080839
  0
LINE
  5
23F
100
AcDbEntity
  8
0
100
AcDbLine
 62
7
  6
BYLAYER
 10
31.0776148416
 20
52.3840816094
 11
30.9740532581
 21
52.6129652899
  0
LINE
  5
240
100
AcDbEntity
  8
0
100
AcDbLine
 62
7
  6
BYLAYER
 10
32.5296945078
 20
51.714835714
 11
32.6332560913
 21
51.4859520335
  0
LINE
  5
241
100
AcDbEntity
  8
0
100
AcDbLine
 62
7
  6
BYLAYER
 10
35.8586258477
 20
23.1318155625
 11
35.8586258477
 21
53.2285324382
  0
LINE
  5
242
100
AcDbEntity
  8
0
100
AcDbLine
 62
7
  6
BYLAYER
 10
53.2500039981
 20
39.0580667577
 11
53.3652344516
 21
38.9915399294
  0
LINE
  5
243
100
AcDbEntity
  8
0
100
AcDbLine
 62
7
  6
BYLAYER
 10
32.6332506681
 20
51.4859426401
 11
31.0776094184
 21
52.384072216
  0
LINE
  5
244
100
AcDbEntity
  8
0
100
AcDbLine
 62
7
  6
BYLAYER
 10
32.5296945078
 20
51.714835714
 11
30.9740532581
 21
52.6129652899
  0
LINE
  5
245
100
AcDbEntity
  8
0
100
AcDbLine
 62
7
  6
BYLAYER
 10
32.6332560913
 20
51.4859520335
 11
32.8832464264
 21
51.5107065824
  0
LINE
  5
246
100
AcDbEntity
  8
0
100
AcDbLine
 62
7
  6
BYLAYER
 10
60.3288799937
 20
41.6720820646
 11
60.1491703893
 21
41.7439145019
  0
LINE
  5
247
100
AcDbEntity
  8
0
100
AcDbLine
 62
7
  6
BYLAYER
 10
58.5935291396
 20
42.6420440778
 11
58.773238744
 21
42.5702116405
  0
LINE
  5
248
100
AcDbEntity
  8
0
100
AcDbLine
 62
7
  6
BYLAYER
 10
56.1116075759
 20
39.7893651058
 11
55.3385721586
 21
40.2356672154
  0
LINE
  5
249
100
AcDbEntity
  8
0
100
AcDbLine
 62
7
  6
BYLAYER
 10
55.8193682616
 20
40.6606501908
 11
56.7200549401
 21
40.1406502584
  0
LINE
  5
24A
100
AcDbEntity
  8
0
100
AcDbLine
 62
7
  6
BYLAYER
 10
56.8609375588
 20
40.3995214491
 11
55.9100441973
 21
40.9485075676
  0
LINE
  5
24B
100
AcDbEntity
  8
0
100
AcDbLine
 62
7
  6
BYLAYER
 10
55.8994763277
 20
41.3416690583
 11
56.8287997134
 21
40.8051360894
  0
LINE
  5
24C
100
AcDbEntity
  8
0
100
AcDbLine
 62
7
  6
BYLAYER
 10
56.9344616774
 20
40.9992894824
 11
55.8994763277
 21
41.5968250347
  0
LINE
  5
24D
100
AcDbEntity
  8
0
100
AcDbLine
 62
7
  6
BYLAYER
 10
55.8994763277
 20
41.9175142496
 11
57.2121906546
 21
41.159635425
  0
LINE
  5
24E
100
AcDbEntity
  8
0
100
AcDbLine
 62
7
  6
BYLAYER
 10
59.4113466345
 20
68.1586871347
 11
60.4416118745
 21
69.5865172965
  0
LINE
  5
24F
100
AcDbEntity
  8
0
100
AcDbLine
 62
7
  6
BYLAYER
 10
58.3422037794
 20
42.6938364263
 11
59.8978451747
 21
41.7957067664
  0
LINE
  5
250
100
AcDbEntity
  8
0
100
AcDbLine
 62
7
  6
BYLAYER
 10
58.5935291396
 20
42.6420440778
 11
60.1491705349
 21
41.7439144178
  0
LINE
  5
251
100
AcDbEntity
  8
0
100
AcDbLine
 62
7
  6
BYLAYER
 10
58.7732717214
 20
42.5702688222
 11
60.3289129712
 21
41.6721392464
  0
LINE
  5
252
100
AcDbEntity
  8
0
100
AcDbLine
 62
7
  6
BYLAYER
 10
57.8111483574
 20
29.0565151904
 11
57.9147222637
 21
28.8276529393
  0
LINE
  5
253
100
AcDbEntity
  8
0
100
AcDbLine
 62
7
  6
BYLAYER
 10
51.6568533044
 20
26.030940268
 11
51.6568533044
 21
22.7449216488
  0
LINE
  5
254
100
AcDbEntity
  8
0
100
AcDbLine
 62
7
  6
BYLAYER
 10
56.9344616774
 20
40.9992894824
 11
57.2121906546
 21
41.159635425
  0
LINE
  5
255
100
AcDbEntity
  8
0
100
AcDbLine
 62
7
  6
BYLAYER
 10
30.9740532581
 20
66.9080810261
 11
32.5296945078
 21
66.0099514502
  0
LINE
  5
256
100
AcDbEntity
  8
0
100
AcDbLine
 62
7
  6
BYLAYER
 10
33.3462321931
 20
67.9613818862
 11
31.7905909434
 21
68.8595114621
  0
LINE
  5
257
100
AcDbEntity
  8
0
100
AcDbLine
 62
7
  6
BYLAYER
 10
56.1116075759
 20
39.7893651058
 11
56.7200549401
 21
40.1406502584
  0
LINE
  5
258
100
AcDbEntity
  8
0
100
AcDbLine
 62
7
  6
BYLAYER
 10
17.2408987619
 20
14.8367037162
 11
32.2170259246
 21
23.4831231528
  0
LINE
  5
259
100
AcDbEntity
  8
0
100
AcDbLine
 62
7
  6
BYLAYER
 10
56.8287996163
 20
40.8051361454
 11
56.8609374618
 21
40.3995215051
  0
LINE
  5
25A
100
AcDbEntity
  8
0
100
AcDbLine
 62
7
  6
BYLAYER
 10
55.8994763277
 20
67.9995257901
 11
55.8994763277
 21
40.9302030665
  0
LINE
  5
25B
100
AcDbEntity
  8
0
100
AcDbLine
 62
7
  6
BYLAYER
 10
56.359081014
 20
28.5015743161
 11
56.359081014
 21
25.4188815479
  0
LINE
  5
25C
100
AcDbEntity
  8
0
100
AcDbLine
 62
7
  6
BYLAYER
 10
32.7473563017
 20
23.1318080839
 11
31.3276031812
 21
22.3121181305
  0
LINE
  5
25D
100
AcDbEntity
  8
0
100
AcDbLine
 62
7
  6
BYLAYER
 10
32.8832444309
 20
21.4139885546
 11
35.8586258477
 21
23.1318155625
  0
LINE
  5
25E
100
AcDbEntity
  8
0
100
AcDbLine
 62
7
  6
BYLAYER
 10
57.9147223608
 20
24.520751916
 11
57.9147223608
 21
28.8276528832
  0
LINE
  5
25F
100
AcDbEntity
  8
0
100
AcDbLine
 62
7
  6
BYLAYER
 10
37.5331398446
 20
75.267039586
 11
39.0887810943
 21
74.3689100102
  0
LINE
  5
260
100
AcDbEntity
  8
0
100
AcDbLine
 62
7
  6
BYLAYER
 10
39.6864510834
 20
74.8669727162
 11
38.1308098337
 21
75.7651022921
  0
LINE
  5
261
100
AcDbEntity
  8
0
100
AcDbLine
 62
7
  6
BYLAYER
 10
60.7431377097
 20
40.7565668947
 11
60.7431377097
 21
26.2353787732
  0
LINE
  5
262
100
AcDbEntity
  8
0
100
AcDbLine
 62
7
  6
BYLAYER
 10
60.7431376126
 20
70.4294418476
 11
60.7431376126
 21
70.5394421109
  0
LINE
  5
263
100
AcDbEntity
  8
0
100
AcDbLine
 62
7
  6
BYLAYER
 10
56.0055166898
 20
68.0607478562
 11
57.7758141124
 21
67.0386660539
  0
LINE
  5
264
100
AcDbEntity
  8
0
100
AcDbLine
 62
7
  6
BYLAYER
 10
56.898648667
 20
67.6224630618
 11
56.0725077676
 21
68.0994249422
  0
LINE
  5
265
100
AcDbEntity
  8
0
100
AcDbLine
 62
7
  6
BYLAYER
 10
56.7385275372
 20
68.2200516105
 11
56.5099821321
 21
68.3519993766
  0
LINE
  5
266
100
AcDbEntity
  8
0
100
AcDbLine
 62
7
  6
BYLAYER
 10
56.7385275372
 20
68.2200516105
 11
56.898648667
 21
67.6224630619
  0
LINE
  5
267
100
AcDbEntity
  8
0
100
AcDbLine
 62
7
  6
BYLAYER
 10
50.24264563
 20
20.2954285068
 11
39.6864510834
 21
14.2008431235
  0
LINE
  5
268
100
AcDbEntity
  8
0
100
AcDbLine
 62
7
  6
BYLAYER
 10
56.6065801649
 20
68.4077699439
 11
56.7385275372
 21
68.2200516105
  0
LINE
  5
269
100
AcDbEntity
  8
0
100
AcDbLine
 62
7
  6
BYLAYER
 10
60.0360338725
 20
25.0106322022
 11
58.5511158143
 21
24.1533194791
  0
LINE
  5
26A
100
AcDbEntity
  8
0
100
AcDbLine
 62
7
  6
BYLAYER
 10
60.5360316937
 20
70.9972245626
 11
56.2176730544
 21
73.4905013707
  0
LINE
  5
26B
100
AcDbEntity
  8
0
100
AcDbLine
 62
7
  6
BYLAYER
 10
56.2176730544
 20
73.4905013707
 11
55.8462422968
 21
74.0189269208
  0
LINE
  5
26C
100
AcDbEntity
  8
0
100
AcDbLine
 62
7
  6
BYLAYER
 10
55.8089437559
 20
74.0863141764
 11
51.3087620617
 21
80.7435334254
  0
LINE
  5
26D
100
AcDbEntity
  8
0
100
AcDbLine
 62
7
  6
BYLAYER
 10
48.5199782808
 20
81.7632556875
 11
50.0756195305
 21
80.8651261116
  0
LINE
  5
26E
100
AcDbEntity
  8
0
100
AcDbLine
 62
7
  6
BYLAYER
 10
49.5199613137
 20
81.8623114566
 11
51.0756025634
 21
80.9641818808
  0
LINE
  5
26F
100
AcDbEntity
  8
0
100
AcDbLine
 62
7
  6
BYLAYER
 10
51.3087620617
 20
80.7435334254
 11
51.075605995
 21
80.9641878203
  0
ARC
  5
270
100
AcDbEntity
  8
0
100
AcDbCircle
 62
7
  6
BYLAYER
 10
57.757195653
 20
39.2193691516
 40
3.5233730077
100
AcDbArc
 50
76.2687926538
 51
80.4425543854
  0
ARC
  5
271
100
AcDbEntity
  8
0
100
AcDbCircle
 62
7
  6
BYLAYER
 10
59.3183624893
 20
38.348052803
 40
3.4960146516
100
AcDbArc
 50
76.2524542818
 51
80.4588927574
  0
ARC
  5
272
100
AcDbEntity
  8
0
100
AcDbCircle
 62
7
  6
BYLAYER
 10
53.3642045225
 20
39.1600059791
 40
0.16743741
100
AcDbArc
 50
231.5653986521
 51
240.0861075224
  0
SPLINE
  5
273
100
AcDbEntity
  8
0
100
AcDbSpline
 62
7
  6
BYLAYER
 70
0
 71
3
 72
12
 73
8
 74
0
 42
0.0000001
 43
0.0000001
 44
0.0000000001
 40
0.0
 40
0.0
 40
0.0
 40
0.0
 40
0.2895104871
 40
0.5486232845
 40
0.7815559591
 40
0.891768883
 40
1.0
 40
1.0
 40
1.0
 40
1.0
 10
60.7431376126
 20
40.7565669508
 30
0.0
 10
60.7431376126
 20
40.8579134057
 30
0.0
 10
60.727758904
 20
41.0506483717
 30
0.0
 10
60.6498637479
 20
41.3153006785
 30
0.0
 10
60.5378632022
 20
41.4978983528
 30
0.0
 10
60.4248001441
 20
41.6091811188
 30
0.0
 10
60.3617147399
 20
41.6531784448
 30
0.0
 10
60.3288976478
 20
41.6721126497
 30
0.0
  0
SPLINE
  5
274
100
AcDbEntity
  8
0
100
AcDbSpline
 62
7
  6
BYLAYER
 70
0
 71
3
 72
13
 73
9
 74
0
 42
0.0000001
 43
0.0000001
 44
0.0000000001
 40
0.0
 40
0.0
 40
0.0
 40
0.0
 40
0.114175582
 40
0.23756922
 40
0.49999856
 40
0.7624286893
 40
0.8858231943
 40
1.0
 40
1.0
 40
1.0
 40
1.0
 10
60.0360337754
 20
25.0106322583
 30
0.0
 10
60.0844059983
 20
25.0385598075
 30
0.0
 10
60.1800035212
 20
25.1056402487
 30
0.0
 10
60.3590959205
 20
25.2731019862
 30
0.0
 10
60.5480939247
 20
25.5314891529
 30
0.0
 10
60.6773632854
 20
25.8243608496
 30
0.0
 10
60.7328429463
 20
26.0631917777
 30
0.0
 10
60.7431376126
 20
26.1795228821
 30
0.0
 10
60.7431376126
 20
26.2353788292
 30
0.0
  0
SPLINE
  5
275
100
AcDbEntity
  8
0
100
AcDbSpline
 62
7
  6
BYLAYER
 70
0
 71
3
 72
9
 73
5
 74
0
 42
0.0000001
 43
0.0000001
 44
0.0000000001
 40
0.0
 40
0.0
 40
0.0
 40
0.0
 40
0.2416965078
 40
1.0
 40
1.0
 40
1.0
 40
1.0
 10
54.0310407106
 20
27.6859935923
 30
0.0
 10
54.3265271499
 20
27.7706273693
 30
0.0
 10
55.5410163076
 20
28.1487198443
 30
0.0
 10
56.7213510832
 20
28.6335888518
 30
0.0
 10
57.5920790252
 20
29.0480640083
 30
0.0
  0
SPLINE
  5
276
100
AcDbEntity
  8
0
100
AcDbSpline
 62
7
  6
BYLAYER
 70
0
 71
3
 72
9
 73
5
 74
0
 42
0.0000001
 43
0.0000001
 44
0.0000000001
 40
0.0
 40
0.0
 40
0.0
 40
0.0
 40
0.2629464805
 40
1.0
 40
1.0
 40
1.0
 40
1.0
 10
52.7353922127
 20
27.1235237797
 30
0.0
 10
52.8427520391
 20
27.1855076344
 30
0.0
 10
53.2570464386
 20
27.4103978045
 30
0.0
 10
53.6969833621
 20
27.5903122637
 30
0.0
 10
54.0310407106
 20
27.6859935923
 30
0.0
  0
SPLINE
  5
277
100
AcDbEntity
  8
0
100
AcDbSpline
 62
7
  6
BYLAYER
 70
0
 71
3
 72
9
 73
5
 74
0
 42
0.0000001
 43
0.0000001
 44
0.0000000001
 40
0.0
 40
0.0
 40
0.0
 40
0.0
 40
0.2563400095
 40
1.0
 40
1.0
 40
1.0
 40
1.0
 10
51.958620438
 20
26.6090128231
 30
0.0
 10
52.0223821044
 20
26.6567270673
 30
0.0
 10
52.2736678217
 20
26.8394170662
 30
0.0
 10
52.5353096509
 20
27.0080067483
 30
0.0
 10
52.7353922127
 20
27.1235237797
 30
0.0
  0
SPLINE
  5
278
100
AcDbEntity
  8
0
100
AcDbSpline
 62
7
  6
BYLAYER
 70
0
 71
3
 72
11
 73
7
 74
0
 42
0.0000001
 43
0.0000001
 44
0.0000000001
 40
0.0
 40
0.0
 40
0.0
 40
0.0
 40
0.2333350285
 40
0.4915213108
 40
0.7542481311
 40
1.0
 40
1.0
 40
1.0
 40
1.0
 10
51.6568533044
 20
26.030940268
 30
0.0
 10
51.6568533044
 20
26.0831566604
 30
0.0
 10
51.6745989435
 20
26.1932503553
 30
0.0
 10
51.7380513133
 20
26.3508126015
 30
0.0
 10
51.8328485138
 20
26.4950948271
 30
0.0
 10
51.914588939
 20
26.576063093
 30
0.0
 10
51.958620438
 20
26.6090128231
 30
0.0
  0
SPLINE
  5
279
100
AcDbEntity
  8
0
100
AcDbSpline
 62
7
  6
BYLAYER
 70
0
 71
3
 72
15
 73
11
 74
0
 42
0.0000001
 43
0.0000001
 44
0.0000000001
 40
0.0
 40
0.0
 40
0.0
 40
0.0
 40
0.1141229605
 40
0.2373462928
 40
0.366971064
 40
0.4999983279
 40
0.633025824
 40
0.762651271
 40
0.8858756957
 40
1.0
 40
1.0
 40
1.0
 40
1.0
 10
50.24264563
 20
20.2954285068
 30
0.0
 10
50.3394325126
 20
20.351308106
 30
0.0
 10
50.5306468025
 20
20.4854007002
 30
0.0
 10
50.7938020191
 20
20.731515089
 30
0.0
 10
51.0362595245
 20
21.0225543681
 30
0.0
 10
51.2489833058
 20
21.3474075548
 30
0.0
 10
51.4239511647
 20
21.6940597713
 30
0.0
 10
51.5547690604
 20
22.0495561242
 30
0.0
 10
51.6363325598
 20
22.4005155758
 30
0.0
 10
51.6568533044
 20
22.6331606341
 30
0.0
 10
51.6568533044
 20
22.7449216488
 30
0.0
  0
SPLINE
  5
27A
100
AcDbEntity
  8
0
100
AcDbSpline
 62
7
  6
BYLAYER
 70
0
 71
3
 72
9
 73
5
 74
0
 42
0.0000001
 43
0.0000001
 44
0.0000000001
 40
0.0
 40
0.0
 40
0.0
 40
0.0
 40
0.2280643103
 40
1.0
 40
1.0
 40
1.0
 40
1.0
 10
39.0887810943
 20
14.0087800908
 30
0.0
 10
39.1367445012
 20
14.0106456289
 30
0.0
 10
39.3464534437
 20
14.0354783565
 30
0.0
 10
39.5457513244
 20
14.1196105647
 30
0.0
 10
39.6864510834
 20
14.2008431235
 30
0.0
  0
SPLINE
  5
27B
100
AcDbEntity
  8
0
100
AcDbSpline
 62
7
  6
BYLAYER
 70
0
 71
3
 72
9
 73
5
 74
0
 42
0.0000001
 43
0.0000001
 44
0.0000000001
 40
0.0
 40
0.0
 40
0.0
 40
0.0
 40
0.2560109191
 40
1.0
 40
1.0
 40
1.0
 40
1.0
 10
55.8462422968
 20
74.0189269208
 30
0.0
 10
55.8435487866
 20
74.0249273563
 30
0.0
 10
55.832560185
 20
74.0481510929
 30
0.0
 10
55.8196482568
 20
74.0704787693
 30
0.0
 10
55.8089437559
 20
74.0863141764
 30
0.0
  0
SPLINE
  5
27C
100
AcDbEntity
  8
0
100
AcDbSpline
 62
7
  6
BYLAYER
 70
0
 71
3
 72
11
 73
7
 74
0
 42
0.0000001
 43
0.0000001
 44
0.0000000001
 40
0.0
 40
0.0
 40
0.0
 40
0.0
 40
0.2897049461
 40
0.5490581834
 40
0.7822832707
 40
1.0
 40
1.0
 40
1.0
 40
1.0
 10
60.7431376126
 20
70.5394421109
 30
0.0
 10
60.7431376126
 20
70.5901098536
 30
0.0
 10
60.7354425734
 20
70.6864589661
 30
0.0
 10
60.6964534838
 20
70.8188774423
 30
0.0
 10
60.6307075384
 20
70.9262796988
 30
0.0
 10
60.569007466
 20
70.9781854473
 30
0.0
 10
60.5360316937
 20
70.9972245626
 30
0.0
  0
SPLINE
  5
27D
100
AcDbEntity
  8
0
100
AcDbSpline
 62
7
  6
BYLAYER
 70
0
 71
3
 72
11
 73
7
 74
0
 42
0.0000001
 43
0.0000001
 44
0.0000000001
 40
0.0
 40
0.0
 40
0.0
 40
0.0
 40
0.263286056
 40
0.52405504
 40
0.7723689199
 40
1.0
 40
1.0
 40
1.0
 40
1.0
 10
60.4416118745
 20
69.5865172965
 30
0.0
 10
60.4882408945
 20
69.6511398021
 30
0.0
 10
60.5720175478
 20
69.7865181173
 30
0.0
 10
60.6672703935
 20
70.000826314
 30
0.0
 10
60.727492949
 20
70.2163458985
 30
0.0
 10
60.7431376126
 20
70.3605445837
 30
0.0
 10
60.7431376126
 20
70.4294418476
 30
0.0
  0
SPLINE
  5
27E
100
AcDbEntity
  8
0
100
AcDbSpline
 62
7
  6
BYLAYER
 70
0
 71
3
 72
9
 73
5
 74
0
 42
0.0000001
 43
0.0000001
 44
0.0000000001
 40
0.0
 40
0.0
 40
0.0
 40
0.0
 40
0.4757636218
 40
1.0
 40
1.0
 40
1.0
 40
1.0
 10
58.6001904363
 20
67.3950430948
 30
0.0
 10
58.7540174976
 20
67.48385466
 30
0.0
 10
59.0518574157
 20
67.7153276022
 30
0.0
 10
59.2968229268
 20
67.9999703326
 30
0.0
 10
59.4113466345
 20
68.1586871347
 30
0.0
  0
SPLINE
  5
27F
100
AcDbEntity
  8
0
100
AcDbSpline
 62
7
  6
BYLAYER
 70
0
 71
3
 72
11
 73
7
 74
0
 42
0.0000001
 43
0.0000001
 44
0.0000000001
 40
0.0
 40
0.0
 40
0.0
 40
0.0
 40
0.2177182217
 40
0.4509432136
 40
0.7102956781
 40
1.0
 40
1.0
 40
1.0
 40
1.0
 10
57.7758141124
 20
67.0386660539
 30
0.0
 10
57.7923019177
 20
67.029146543
 30
0.0
 10
57.8302021239
 20
67.0154052154
 30
0.0
 10
57.8931444855
 20
67.0137857865
 30
0.0
 10
57.9602299335
 20
67.0300067037
 30
0.0
 10
58.003873568
 20
67.0507614455
 30
0.0
 10
58.0258130716
 20
67.0634281482
 30
0.0
  0
SPLINE
  5
280
100
AcDbEntity
  8
0
100
AcDbSpline
 62
7
  6
BYLAYER
 70
0
 71
3
 72
11
 73
7
 74
0
 42
0.0000001
 43
0.0000001
 44
0.0000000001
 40
0.0
 40
0.0
 40
0.0
 40
0.0
 40
0.2372423294
 40
0.4999983821
 40
0.7627553152
 40
1.0
 40
1.0
 40
1.0
 40
1.0
 10
55.5459244091
 20
40.317829781
 30
0.0
 10
55.5961193462
 20
40.3468096684
 30
0.0
 10
55.691102067
 20
40.4267573892
 30
0.0
 10
55.8019623062
 20
40.578253584
 30
0.0
 10
55.8777310762
 20
40.7500103897
 30
0.0
 10
55.8994763277
 20
40.8722424567
 30
0.0
 10
55.8994763277
 20
40.9302030665
 30
0.0
  0
SPLINE
  5
281
100
AcDbEntity
  8
0
100
AcDbSpline
 62
7
  6
BYLAYER
 70
0
 71
3
 72
9
 73
5
 74
0
 42
0.0000001
 43
0.0000001
 44
0.0000000001
 40
0.0
 40
0.0
 40
0.0
 40
0.0
 40
0.2441998105
 40
1.0
 40
1.0
 40
1.0
 40
1.0
 10
55.5043300657
 20
40.2966505311
 30
0.0
 10
55.5078080081
 20
40.2981827322
 30
0.0
 10
55.521958372
 20
40.3046644756
 30
0.0
 10
55.5357377319
 20
40.3119485353
 30
0.0
 10
55.5459244091
 20
40.317829781
 30
0.0
  0
SPLINE
  5
282
100
AcDbEntity
  8
0
100
AcDbSpline
 62
7
  6
BYLAYER
 70
0
 71
3
 72
9
 73
5
 74
0
 42
0.0000001
 43
0.0000001
 44
0.0000000001
 40
0.0
 40
0.0
 40
0.0
 40
0.0
 40
0.4737433688
 40
1.0
 40
1.0
 40
1.0
 40
1.0
 10
53.6961226401
 20
39.9041659424
 30
0.0
 10
53.9899742543
 20
39.8941531895
 30
0.0
 10
54.614418739
 20
39.961956663
 30
0.0
 10
55.2054360014
 20
40.1649733004
 30
0.0
 10
55.5043300657
 20
40.2966505311
 30
0.0
  0
SPLINE
  5
283
100
AcDbEntity
  8
0
100
AcDbSpline
 62
7
  6
BYLAYER
 70
0
 71
3
 72
9
 73
5
 74
0
 42
0.0000001
 43
0.0000001
 44
0.0000000001
 40
0.0
 40
0.0
 40
0.0
 40
0.0
 40
0.2775224548
 40
1.0
 40
1.0
 40
1.0
 40
1.0
 10
53.530678473
 20
39.8561041865
 30
0.0
 10
53.5445731385
 20
39.8641262275
 30
0.0
 10
53.5958921832
 20
39.8904305541
 30
0.0
 10
53.6543789278
 20
39.9055883252
 30
0.0
 10
53.6961226401
 20
39.9041659424
 30
0.0
  0
SPLINE
  5
284
100
AcDbEntity
  8
0
100
AcDbSpline
 62
7
  6
BYLAYER
 70
0
 71
3
 72
11
 73
7
 74
0
 42
0.0000001
 43
0.0000001
 44
0.0000000001
 40
0.0
 40
0.0
 40
0.0
 40
0.0
 40
0.2372446848
 40
0.5000016179
 40
0.7627576706
 40
1.0
 40
1.0
 40
1.0
 40
1.0
 10
30.9740512626
 20
21.699744845
 30
0.0
 10
30.9740512626
 20
21.7577054548
 30
0.0
 10
30.9957965141
 20
21.8799375217
 30
0.0
 10
31.0715652841
 20
22.0516943274
 30
0.0
 10
31.1824255233
 20
22.2031905223
 30
0.0
 10
31.2774082441
 20
22.2831382431
 30
0.0
 10
31.3276031812
 20
22.3121181305
 30
0.0
  0
SPLINE
  5
285
100
AcDbEntity
  8
0
100
AcDbSpline
 62
7
  6
BYLAYER
 70
0
 71
3
 72
11
 73
7
 74
0
 42
0.0000001
 43
0.0000001
 44
0.0000000001
 40
0.0
 40
0.0
 40
0.0
 40
0.0
 40
0.2177456295
 40
0.4508837762
 40
0.7104602913
 40
1.0
 40
1.0
 40
1.0
 40
1.0
 10
58.1011485305
 20
24.1087880504
 30
0.0
 10
58.1308297282
 20
24.0916519958
 30
0.0
 10
58.1990044992
 20
24.0668241478
 30
0.0
 10
58.3123413942
 20
24.0639780956
 30
0.0
 10
58.4330695535
 20
24.0932008719
 30
0.0
 10
58.51164834
 20
24.1305331703
 30
0.0
 10
58.5511157172
 20
24.1533195351
 30
0.0
  0
SPLINE
  5
286
100
AcDbEntity
  8
0
100
AcDbSpline
 62
7
  6
BYLAYER
 70
0
 71
3
 72
11
 73
7
 74
0
 42
0.0000001
 43
0.0000001
 44
0.0000000001
 40
0.0
 40
0.0
 40
0.0
 40
0.0
 40
0.2177442246
 40
0.4508817658
 40
0.7104588047
 40
1.0
 40
1.0
 40
1.0
 40
1.0
 10
56.5455072814
 20
25.0069176259
 30
0.0
 10
56.5158251086
 20
25.0240542646
 30
0.0
 10
56.4602335088
 20
25.0706823666
 30
0.0
 10
56.4010976499
 20
25.1674154173
 30
0.0
 10
56.366039797
 20
25.2865854229
 30
0.0
 10
56.359081014
 20
25.3733065748
 30
0.0
 10
56.359081014
 20
25.4188815479
 30
0.0
  0
SPLINE
  5
287
100
AcDbEntity
  8
0
100
AcDbSpline
 62
7
  6
BYLAYER
 70
0
 71
3
 72
11
 73
7
 74
0
 42
0.0000001
 43
0.0000001
 44
0.0000000001
 40
0.0
 40
0.0
 40
0.0
 40
0.0
 40
0.2177500553
 40
0.4508676863
 40
0.7103394472
 40
1.0
 40
1.0
 40
1.0
 40
1.0
 10
31.3882792439
 20
14.7765659863
 30
0.0
 10
31.3223235523
 20
14.8146624423
 30
0.0
 10
31.1988700122
 20
14.9183793965
 30
0.0
 10
31.0674819451
 20
15.1332820858
 30
0.0
 10
30.9894420125
 20
15.3980773841
 30
0.0
 10
30.9740512626
 20
15.5908111936
 30
0.0
 10
30.9740512626
 20
15.6921325454
 30
0.0
  0
SPLINE
  5
288
100
AcDbEntity
  8
0
100
AcDbSpline
 62
7
  6
BYLAYER
 70
0
 71
3
 72
11
 73
7
 74
0
 42
0.0000001
 43
0.0000001
 44
0.0000000001
 40
0.0
 40
0.0
 40
0.0
 40
0.0
 40
0.2781878989
 40
0.5363942185
 40
0.7760307492
 40
1.0
 40
1.0
 40
1.0
 40
1.0
 10
55.9003298427
 20
42.1915470051
 30
0.0
 10
56.1087497364
 20
42.2999769798
 30
0.0
 10
56.5231504415
 20
42.4864098766
 30
0.0
 10
57.1542439481
 20
42.6717687409
 30
0.0
 10
57.7618033496
 20
42.7486620071
 30
0.0
 10
58.155685037
 20
42.7252694002
 30
0.0
 10
58.3422037794
 20
42.6938364263
 30
0.0
  0
SPLINE
  5
289
100
AcDbEntity
  8
0
100
AcDbSpline
 62
7
  6
BYLAYER
 70
0
 71
3
 72
11
 73
7
 74
0
 42
0.0000001
 43
0.0000001
 44
0.0000000001
 40
0.0
 40
0.0
 40
0.0
 40
0.0
 40
0.2177500553
 40
0.4508676863
 40
0.7103394472
 40
1.0
 40
1.0
 40
1.0
 40
1.0
 10
8.2482928595
 20
15.3854166361
 30
0.0
 10
8.1823371679
 20
15.4235130922
 30
0.0
 10
8.0588836279
 20
15.5272300463
 30
0.0
 10
7.9274955607
 20
15.7421327356
 30
0.0
 10
7.8494556282
 20
16.0069280338
 30
0.0
 10
7.8340648782
 20
16.1996618433
 30
0.0
 10
7.8340648782
 20
16.3009831952
 30
0.0
  0
SPLINE
  5
28A
100
AcDbEntity
  8
0
100
AcDbSpline
 62
7
  6
BYLAYER
 70
0
 71
3
 72
15
 73
11
 74
0
 42
0.0000001
 43
0.0000001
 44
0.0000000001
 40
0.0
 40
0.0
 40
0.0
 40
0.0
 40
0.0883110422
 40
0.1905958451
 40
0.3101048887
 40
0.444500892
 40
0.5880843202
 40
0.7334127627
 40
0.8730620312
 40
1.0
 40
1.0
 40
1.0
 40
1.0
 10
53.2601219214
 20
39.0288492087
 30
0.0
 10
53.2377390757
 20
39.0466145976
 30
0.0
 10
53.1994560072
 20
39.0980707776
 30
0.0
 10
53.1747131241
 20
39.1970098411
 30
0.0
 10
53.1775622389
 20
39.3132765684
 30
0.0
 10
53.2073869403
 20
39.4391727234
 30
0.0
 10
53.2617034711
 20
39.5655847053
 30
0.0
 10
53.3364091155
 20
39.6831619274
 30
0.0
 10
53.4258809649
 20
39.7827609644
 30
0.0
 10
53.4951061095
 20
39.8355665955
 30
0.0
 10
53.530678473
 20
39.8561041865
 30
0.0
  0
SPLINE
  5
28B
100
AcDbEntity
  8
0
100
AcDbSpline
 62
7
  6
BYLAYER
 70
0
 71
3
 72
11
 73
7
 74
0
 42
0.0000001
 43
0.0000001
 44
0.0000000001
 40
0.0
 40
0.0
 40
0.0
 40
0.0
 40
0.2896990452
 40
0.549099186
 40
0.7822064357
 40
1.0
 40
1.0
 40
1.0
 40
1.0
 10
48.5199782808
 20
81.7632556875
 30
0.0
 10
48.6077337479
 20
81.8139210277
 30
0.0
 10
48.7823132787
 20
81.8969774299
 30
0.0
 10
49.0506410627
 20
81.9617510008
 30
0.0
 10
49.3024094326
 20
81.955415586
 30
0.0
 10
49.4539923469
 20
81.9004098186
 30
0.0
 10
49.5199597218
 20
81.8623086961
 30
0.0
  0
SPLINE
  5
28C
100
AcDbEntity
  8
0
100
AcDbSpline
 62
7
  6
BYLAYER
 70
0
 71
3
 72
9
 73
5
 74
0
 42
0.0000001
 43
0.0000001
 44
0.0000000001
 40
0.0
 40
0.0
 40
0.0
 40
0.0
 40
0.5203614391
 40
1.0
 40
1.0
 40
1.0
 40
1.0
 10
37.5331398445
 20
75.267039586
 30
0.0
 10
37.623480095
 20
75.3678411126
 30
0.0
 10
37.8100373341
 20
75.5504563403
 30
0.0
 10
38.0227584427
 20
75.7027191648
 30
0.0
 10
38.1308098337
 20
75.7651022921
 30
0.0
  0
SPLINE
  5
28D
100
AcDbEntity
  8
0
100
AcDbSpline
 62
7
  6
BYLAYER
 70
0
 71
3
 72
11
 73
7
 74
0
 42
0.0000001
 43
0.0000001
 44
0.0000000001
 40
0.0
 40
0.0
 40
0.0
 40
0.0
 40
0.2286125437
 40
0.4797640107
 40
0.7414848026
 40
1.0
 40
1.0
 40
1.0
 40
1.0
 10
30.9740532581
 20
66.9080810261
 30
0.0
 10
30.9740532581
 20
67.0723624314
 30
0.0
 10
31.0182549366
 20
67.4175095261
 30
0.0
 10
31.1844512314
 20
67.9263047128
 30
0.0
 10
31.4417411298
 20
68.4199281701
 30
0.0
 10
31.6666069485
 20
68.721170292
 30
0.0
 10
31.7905909434
 20
68.8595114621
 30
0.0
  0
SPLINE
  5
28E
100
AcDbEntity
  8
0
100
AcDbSpline
 62
7
  6
BYLAYER
 70
0
 71
3
 72
9
 73
5
 74
0
 42
0.0000001
 43
0.0000001
 44
0.0000000001
 40
0.0
 40
0.0
 40
0.0
 40
0.0
 40
0.2280643103
 40
1.0
 40
1.0
 40
1.0
 40
1.0
 10
16.6432287728
 20
14.6446406836
 30
0.0
 10
16.6911921797
 20
14.6465062216
 30
0.0
 10
16.9009011222
 20
14.6713389492
 30
0.0
 10
17.1001990029
 20
14.7554711574
 30
0.0
 10
17.2408987619
 20
14.8367037162
 30
0.0
  0
SPLINE
  5
28F
100
AcDbEntity
  8
0
100
AcDbSpline
 62
7
  6
BYLAYER
 70
0
 71
3
 72
9
 73
5
 74
0
 42
0.0000001
 43
0.0000001
 44
0.0000000001
 40
0.0
 40
0.0
 40
0.0
 40
0.0
 40
0.5203614391
 40
1.0
 40
1.0
 40
1.0
 40
1.0
 10
15.0875873776
 20
44.6308576869
 30
0.0
 10
15.1779276281
 20
44.7316592135
 30
0.0
 10
15.3644848672
 20
44.9142744411
 30
0.0
 10
15.5772059756
 20
45.0665372656
 30
0.0
 10
15.6852573666
 20
45.1289203929
 30
0.0
  0
SPLINE
  5
290
100
AcDbEntity
  8
0
100
AcDbSpline
 62
7
  6
BYLAYER
 70
0
 71
3
 72
11
 73
7
 74
0
 42
0.0000001
 43
0.0000001
 44
0.0000000001
 40
0.0
 40
0.0
 40
0.0
 40
0.0
 40
0.2286125437
 40
0.4797640107
 40
0.7414848026
 40
1.0
 40
1.0
 40
1.0
 40
1.0
 10
7.8340648782
 20
35.4970484955
 30
0.0
 10
7.8340648782
 20
35.6613299008
 30
0.0
 10
7.8782665568
 20
36.0064769955
 30
0.0
 10
8.0444628515
 20
36.5152721822
 30
0.0
 10
8.3017527499
 20
37.0088956395
 30
0.0
 10
8.5266185686
 20
37.3101377614
 30
0.0
 10
8.6506025635
 20
37.4484789315
 30
0.0
  0
SPLINE
  5
291
100
AcDbEntity
  8
0
100
AcDbSpline
 62
7
  6
BYLAYER
 70
0
 71
3
 72
11
 73
7
 74
0
 42
0.0000001
 43
0.0000001
 44
0.0000000001
 40
0.0
 40
0.0
 40
0.0
 40
0.0
 40
0.2896605528
 40
0.5491323137
 40
0.7822499447
 40
1.0
 40
1.0
 40
1.0
 40
1.0
 10
32.5296925123
 20
14.7940029695
 30
0.0
 10
32.5296925123
 20
14.6926816177
 30
0.0
 10
32.5450832622
 20
14.4999478082
 30
0.0
 10
32.6231231948
 20
14.2351525099
 30
0.0
 10
32.754511262
 20
14.0202498206
 30
0.0
 10
32.877964802
 20
13.9165328665
 30
0.0
 10
32.9439204936
 20
13.8784364104
 30
0.0
  0
SPLINE
  5
292
100
AcDbEntity
  8
0
100
AcDbSpline
 62
7
  6
BYLAYER
 70
0
 71
3
 72
11
 73
7
 74
0
 42
0.0000001
 43
0.0000001
 44
0.0000000001
 40
0.0
 40
0.0
 40
0.0
 40
0.0
 40
0.2372423294
 40
0.4999983821
 40
0.7627553152
 40
1.0
 40
1.0
 40
1.0
 40
1.0
 10
32.8832444309
 20
21.4139885546
 30
0.0
 10
32.8330494938
 20
21.3850086672
 30
0.0
 10
32.738066773
 20
21.3050609464
 30
0.0
 10
32.6272065338
 20
21.1535647516
 30
0.0
 10
32.5514377638
 20
20.9818079459
 30
0.0
 10
32.5296925123
 20
20.8595758789
 30
0.0
 10
32.5296925123
 20
20.8016152691
 30
0.0
  0
SPLINE
  5
293
100
AcDbEntity
  8
0
100
AcDbSpline
 62
7
  6
BYLAYER
 70
0
 71
3
 72
11
 73
7
 74
0
 42
0.0000001
 43
0.0000001
 44
0.0000000001
 40
0.0
 40
0.0
 40
0.0
 40
0.0
 40
0.2585151974
 40
0.5202359893
 40
0.7713874563
 40
1.0
 40
1.0
 40
1.0
 40
1.0
 10
33.3462321931
 20
67.9613818862
 30
0.0
 10
33.2222481982
 20
67.8230407161
 30
0.0
 10
32.9973823795
 20
67.5217985942
 30
0.0
 10
32.7400924811
 20
67.0281751369
 30
0.0
 10
32.5738961863
 20
66.5193799502
 30
0.0
 10
32.5296945078
 20
66.1742328555
 30
0.0
 10
32.5296945078
 20
66.0099514502
 30
0.0
  0
SPLINE
  5
294
100
AcDbEntity
  8
0
100
AcDbSpline
 62
7
  6
BYLAYER
 70
0
 71
3
 72
9
 73
5
 74
0
 42
0.0000001
 43
0.0000001
 44
0.0000000001
 40
0.0
 40
0.0
 40
0.0
 40
0.0
 40
0.4796385609
 40
1.0
 40
1.0
 40
1.0
 40
1.0
 10
39.6864510834
 20
74.8669727162
 30
0.0
 10
39.5783996924
 20
74.8045895889
 30
0.0
 10
39.3656785839
 20
74.6523267644
 30
0.0
 10
39.1791213448
 20
74.4697115367
 30
0.0
 10
39.0887810942
 20
74.3689100101
 30
0.0
  0
SPLINE
  5
295
100
AcDbEntity
  8
0
100
AcDbSpline
 62
7
  6
BYLAYER
 70
0
 71
3
 72
11
 73
7
 74
0
 42
0.0000001
 43
0.0000001
 44
0.0000000001
 40
0.0
 40
0.0
 40
0.0
 40
0.0
 40
0.2760631793
 40
0.534292438
 40
0.7750487151
 40
1.0
 40
1.0
 40
1.0
 40
1.0
 10
56.1116074789
 20
39.7893651618
 30
0.0
 10
55.8809560319
 20
39.6561992817
 30
0.0
 10
55.4209345931
 20
39.420927229
 30
0.0
 10
54.7176081584
 20
39.1612243887
 30
0.0
 10
54.0332114521
 20
39.0106361682
 30
0.0
 10
53.5821309957
 20
38.9841494365
 30
0.0
 10
53.365234306
 20
38.9915400135
 30
0.0
  0
SPLINE
  5
296
100
AcDbEntity
  8
0
100
AcDbSpline
 62
7
  6
BYLAYER
 70
0
 71
3
 72
11
 73
7
 74
0
 42
0.0000001
 43
0.0000001
 44
0.0000000001
 40
0.0
 40
0.0
 40
0.0
 40
0.0
 40
0.2316400065
 40
0.4942145089
 40
0.7599720437
 40
1.0
 40
1.0
 40
1.0
 40
1.0
 10
56.8609374618
 20
40.3995215051
 30
0.0
 10
56.862809338
 20
40.3758963867
 30
0.0
 10
56.8563562243
 20
40.3246867369
 30
0.0
 10
56.8268730644
 20
40.2520614463
 30
0.0
 10
56.781295369
 20
40.1872318906
 30
0.0
 10
56.7413221488
 20
40.1529289259
 30
0.0
 10
56.7200548431
 20
40.1406503145
 30
0.0
  0
SPLINE
  5
297
100
AcDbEntity
  8
0
100
AcDbSpline
 62
7
  6
BYLAYER
 70
0
 71
3
 72
11
 73
7
 74
0
 42
0.0000001
 43
0.0000001
 44
0.0000000001
 40
0.0
 40
0.0
 40
0.0
 40
0.0
 40
0.2177935643
 40
0.450900814
 40
0.7103009548
 40
1.0
 40
1.0
 40
1.0
 40
1.0
 10
51.0756009715
 20
80.9641791203
 30
0.0
 10
51.0096335966
 20
81.0022802427
 30
0.0
 10
50.8580506823
 20
81.0572860102
 30
0.0
 10
50.6062823124
 20
81.0636214249
 30
0.0
 10
50.3379545284
 20
80.9988478541
 30
0.0
 10
50.1633749977
 20
80.9157914518
 30
0.0
 10
50.0756195305
 20
80.8651261116
 30
0.0
  0
SPLINE
  5
298
100
AcDbEntity
  8
0
100
AcDbSpline
 62
7
  6
BYLAYER
 70
0
 71
3
 72
11
 73
7
 74
0
 42
0.0000001
 43
0.0000001
 44
0.0000000001
 40
0.0
 40
0.0
 40
0.0
 40
0.0
 40
0.2400279563
 40
0.5057854911
 40
0.7683599935
 40
1.0
 40
1.0
 40
1.0
 40
1.0
 10
56.9344615804
 20
40.9992895385
 30
0.0
 10
56.9185111011
 20
40.9900805799
 30
0.0
 10
56.8885311859
 20
40.9643533564
 30
0.0
 10
56.8543479144
 20
40.9157311896
 30
0.0
 10
56.8322355444
 20
40.8612622216
 30
0.0
 10
56.8273957092
 20
40.8228549843
 30
0.0
 10
56.8287996163
 20
40.8051361454
 30
0.0
  0
SPLINE
  5
299
100
AcDbEntity
  8
0
100
AcDbSpline
 62
7
  6
BYLAYER
 70
0
 71
3
 72
11
 73
7
 74
0
 42
0.0000001
 43
0.0000001
 44
0.0000000001
 40
0.0
 40
0.0
 40
0.0
 40
0.0
 40
0.2214719067
 40
0.4601806075
 40
0.7193694319
 40
1.0
 40
1.0
 40
1.0
 40
1.0
 10
59.8978450291
 20
41.7957068504
 30
0.0
 10
59.6932143841
 20
41.8301921232
 30
0.0
 10
59.2585769168
 20
41.8514628943
 30
0.0
 10
58.5887142225
 20
41.749359526
 30
0.0
 10
57.8937161786
 20
41.5183161301
 30
0.0
 10
57.439909639
 20
41.2911083693
 30
0.0
 10
57.2121905576
 20
41.1596354811
 30
0.0
  0
SPLINE
  5
29A
100
AcDbEntity
  8
0
100
AcDbSpline
 62
7
  6
BYLAYER
 70
0
 71
3
 72
9
 73
5
 74
0
 42
0.0000001
 43
0.0000001
 44
0.0000000001
 40
0.0
 40
0.0
 40
0.0
 40
0.0
 40
0.4796385609
 40
1.0
 40
1.0
 40
1.0
 40
1.0
 10
17.240898762
 20
44.230790733
 30
0.0
 10
17.132847371
 20
44.1684076057
 30
0.0
 10
16.9201262625
 20
44.0161447812
 30
0.0
 10
16.7335690234
 20
43.8335295535
 30
0.0
 10
16.6432287729
 20
43.7327280269
 30
0.0
  0
SPLINE
  5
29B
100
AcDbEntity
  8
0
100
AcDbSpline
 62
7
  6
BYLAYER
 70
0
 71
3
 72
11
 73
7
 74
0
 42
0.0000001
 43
0.0000001
 44
0.0000000001
 40
0.0
 40
0.0
 40
0.0
 40
0.0
 40
0.2895411595
 40
0.5491183966
 40
0.7822559144
 40
1.0
 40
1.0
 40
1.0
 40
1.0
 10
57.9147222637
 20
24.520751972
 30
0.0
 10
57.9147222637
 20
24.4751770053
 30
0.0
 10
57.9216811011
 20
24.3884558382
 30
0.0
 10
57.9567388984
 20
24.2692857913
 30
0.0
 10
58.0158748065
 20
24.1725527681
 30
0.0
 10
58.071466368
 20
24.1259246621
 30
0.0
 10
58.1011485305
 20
24.1087880504
 30
0.0
  0
SPLINE
  5
29C
100
AcDbEntity
  8
0
100
AcDbSpline
 62
7
  6
BYLAYER
 70
0
 71
3
 72
11
 73
7
 74
0
 42
0.0000001
 43
0.0000001
 44
0.0000000001
 40
0.0
 40
0.0
 40
0.0
 40
0.0
 40
0.2896605528
 40
0.5491323137
 40
0.7822499447
 40
1.0
 40
1.0
 40
1.0
 40
1.0
 10
9.3897062735
 20
15.4028535353
 30
0.0
 10
9.3897062735
 20
15.3015321834
 30
0.0
 10
9.4050970235
 20
15.108798374
 30
0.0
 10
9.483136956
 20
14.8440030757
 30
0.0
 10
9.6145250232
 20
14.6291003863
 30
0.0
 10
9.7379785633
 20
14.5253834322
 30
0.0
 10
9.8039342549
 20
14.4872869762
 30
0.0
  0
SPLINE
  5
29D
100
AcDbEntity
  8
0
100
AcDbSpline
 62
7
  6
BYLAYER
 70
0
 71
3
 72
11
 73
7
 74
0
 42
0.0000001
 43
0.0000001
 44
0.0000000001
 40
0.0
 40
0.0
 40
0.0
 40
0.0
 40
0.2585151974
 40
0.5202359893
 40
0.7713874563
 40
1.0
 40
1.0
 40
1.0
 40
1.0
 10
10.2062439589
 20
36.5503492716
 30
0.0
 10
10.082259964
 20
36.4120081015
 30
0.0
 10
9.8573941453
 20
36.1107659796
 30
0.0
 10
9.6001042468
 20
35.6171425223
 30
0.0
 10
9.4339079521
 20
35.1083473356
 30
0.0
 10
9.3897062735
 20
34.7632002409
 30
0.0
 10
9.3897062735
 20
34.5989188356
 30
0.0
  0
SPLINE
  5
29E
100
AcDbEntity
  8
0
100
AcDbSpline
 62
7
  6
BYLAYER
 70
0
 71
3
 72
9
 73
5
 74
0
 42
0.0000001
 43
0.0000001
 44
0.0000000001
 40
0.0
 40
0.0
 40
0.0
 40
0.0
 40
0.5278949473
 40
1.0
 40
1.0
 40
1.0
 40
1.0
 10
56.898648667
 20
67.6224630619
 30
0.0
 10
56.9060412016
 20
67.5948733614
 30
0.0
 10
56.9274108688
 20
67.5438130539
 30
0.0
 10
56.9680327856
 20
67.5050521549
 30
0.0
 10
56.990154637
 20
67.4922797328
 30
0.0
  0
ENDSEC
  0
SECTION
  2
OBJECTS
  0
DICTIONARY
  5
C
100
AcDbDictionary
280
0
281
1
  3
ACAD_GROUP
350
D
  3
ACAD_MLINESTYLE
350
17
  3
ACAD_LAYOUT
350
1A
  3
ACAD_PLOTSETTINGS
350
19
  3
ACAD_PLOTSTYLENAME
350
E
  0
DICTIONARY
  5
D
102
{ACAD_REACTORS
330
C
102
}
100
AcDbDictionary
280
0
281
1
  0
ACDBDICTIONARYWDFLT
  5
E
102
{ACAD_REACTORS
330
C
102
}
100
AcDbDictionary
281
1
  3
Normal
350
F
100
AcDbDictionaryWithDefault
340
F
  0
DICTIONARY
  5
17
102
{ACAD_REACTORS
330
C
102
}
100
AcDbDictionary
280
0
281
1
  3
Standard
350
18
  0
DICTIONARY
  5
19
102
{ACAD_REACTORS
330
C
102
}
100
AcDbDictionary
281
1
  0
DICTIONARY
  5
1A
102
{ACAD_REACTORS
330
C
102
}
100
AcDbDictionary
281
1
  3
Model
350
29F
  3
Layout1
350
2A0
  0
ACDBPLACEHOLDER
  5
F
102
{ACAD_REACTORS
330
E
102
}
  0
MLINESTYLE
  5
18
102
{ACAD_REACTORS
330
17
102
}
100
AcDbMlineStyle
  2
STANDARD
 70
0
  3

 62
256
 51
90.0
 52
90.0
 71
2
 49
0.5
 62
256
  6
BYLAYER
 49
-0.5
 62
256
  6
BYLAYER
  0
LAYOUT
  5
29F
102
{ACAD_REACTORS
330
1A
102
}
100
AcDbPlotSettings
  1

  2
none_device
  4

  6

 40
0.0
 41
0.0
 42
0.0
 43
0.0
 44
210.0
 45
297.0
 46
0.0
 47
0.0
 48
0.0
 49
0.0
140
0.0
141
0.0
142
1.0
143
1.0
 70
1024
 72
1
 73
0
 74
0
  7

 75
0
147
1.0
148
0.0
149
0.0
100
AcDbLayout
  1
Model
 70
0
 71
0
 10
0.0
 20
0.0
 11
210.0
 21
297.0
 12
0.0
 22
0.0
 32
0.0
 14
0.0
 24
0.0
 34
0.0
 15
0.0
 25
0.0
 35
0.0
146
0.0
 13
0.0
 23
0.0
 33
0.0
 16
1.0
 26
0.0
 36
0.0
 17
0.0
 27
1.0
 37
0.0
 76
0
330
210
345
0
346
0
  0
LAYOUT
  5
2A0
102
{ACAD_REACTORS
330
1A
102
}
100
AcDbPlotSettings
  1

  2
none_device
  4

  6

 40
0.0
 41
0.0
 42
0.0
 43
0.0
 44
210.0
 45
297.0
 46
0.0
 47
0.0
 48
0.0
 49
0.0
140
0.0
141
0.0
142
1.0
143
1.0
 70
0
 72
1
 73
0
 74
0
  7

 75
0
147
1.0
148
0.0
149
0.0
100
AcDbLayout
  1
Layout1
 70
0
 71
1
 10
0.0
 20
0.0
 11
210.0
 21
297.0
 12
0.0
 22
0.0
 32
0.0
 14
0.0
 24
0.0
 34
0.0
 15
0.0
 25
0.0
 35
0.0
146
0.0
 13
0.0
 23
0.0
 33
0.0
 16
1.0
 26
0.0
 36
0.0
 17
0.0
 27
1.0
 37
0.0
 76
0
330
211
345
0
346
0
  0
ENDSEC
  0
EOF
