999
DXF file: C:\Users\sesa63760\Dev\_Creo\CAD\MCADID0004771_3D-CAD\drw0001_1.dxf
999
Pro/ENGINEER 2019471 by Parametric Technology Corporation
  0
SECTION
  2
HEADER
  9
$ACADVER
  1
AC1024
  9
$DWGCODEPAGE
  3
ANSI_1252
  9
$EXTMAX
 10
52.2977079628
 20
73.9639012617
 30
0.0
  9
$EXTMIN
 10
0.0
 20
0.0
 30
0.0
  9
$LIMMIN
 10
0.0
 20
0.0
  9
$LIMMAX
 10
52.2977079628
 20
73.9639012617
  9
$VIEWCTR
 10
26.1488539814
 20
36.9819506309
  9
$VIEWSIZE
 40
73.9639012617
  9
$CLAYER
  8
0
  9
$LTSCALE
 40
4.8213506008
  9
$CELTYPE
  6
BYLAYER
  9
$DIMSCALE
 40
1.0
  9
$DIMASZ
 40
0.6225917615
  9
$DIMEXO
 40
1.0
  9
$DIMDLI
 40
3.3311149605
  9
$DIMEXE
 40
1.0
  9
$DIMCEN
 40
0.7889482801
  9
$DIMLFAC
 40
1.0
  9
$DIMBLK
  1
_FILLED
  9
$DIMALT
 70
0
  9
$DIMALTF
 40
0.0393700787
  9
$DIMTXT
 40
0.871628466
  9
$DIMTOL
 70
1
  9
$DIMLIM
 70
0
  9
$DIMTFAC
 40
1.0
  9
$DIMTP
 40
0.01
  9
$DIMTM
 40
0.01
  9
$DIMGAP
 40
0.625
  9
$DIMDSEP
 70
46
  9
$AUNITS
 70
0
  9
$PDMODE
 70
3
  9
$PDSIZE
 40
0.3125
  9
$HANDSEED
  5
343
  9
$TILEMODE
 70
1
  9
$MEASUREMENT
 70
1
  9
$INSUNITS
 70
4
  0
ENDSEC
  0
SECTION
  2
CLASSES
  0
CLASS
  1
ACDBDICTIONARYWDFLT
  2
AcDbDictionaryWithDefault
  3
AutoCAD 2000
 90
0
 91
1
280
0
281
0
  0
CLASS
  1
ACDBPLACEHOLDER
  2
AcDbPlaceHolder
  3
AutoCAD 2000
 90
0
 91
1
280
0
281
0
  0
CLASS
  1
LAYOUT
  2
AcDbLayout
  3
AutoCAD 2000
 90
0
 91
0
280
0
281
0
  0
ENDSEC
  0
SECTION
  2
TABLES
  0
TABLE
  2
VPORT
  5
8
100
AcDbSymbolTable
 70
2
  0
VPORT
  5
1F4
100
AcDbSymbolTableRecord
100
AcDbViewportTableRecord
  2
*ACTIVE
 70
0
 10
0.0
 20
0.0
 11
1.0
 21
1.0
 12
26.1488539814
 22
36.9819506309
 13
0.0
 23
0.0
 14
1.0
 24
1.0
 15
0.0
 25
0.0
 16
0.0
 26
0.0
 36
1.0
 17
0.0
 27
0.0
 37
0.0
 40
73.9639012617
 41
0.7070707071
 42
50.0
 43
0.0
 44
0.0
 50
0.0
 51
0.0
 71
0
 72
100
 73
1
 74
1
 75
0
 76
0
 77
0
 78
0
  0
ENDTAB
  0
TABLE
  2
LTYPE
  5
5
100
AcDbSymbolTable
 70
6
  0
LTYPE
  5
14
100
AcDbSymbolTableRecord
100
AcDbLinetypeTableRecord
  2
BYBLOCK
 70
0
  3

 72
65
 73
0
 40
0.0
  0
LTYPE
  5
15
100
AcDbSymbolTableRecord
100
AcDbLinetypeTableRecord
  2
BYLAYER
 70
0
  3

 72
65
 73
0
 40
0.0
  0
LTYPE
  5
16
100
AcDbSymbolTableRecord
100
AcDbLinetypeTableRecord
  2
CONTINUOUS
 70
64
  3
Solid line
 72
65
 73
0
 40
0.0
  0
LTYPE
  5
1F5
100
AcDbSymbolTableRecord
100
AcDbLinetypeTableRecord
  2
CENTER
 70
64
  3
____ _ ____ _ ____ _ ____ _ ____ _ ____ _ ____
 72
65
 73
4
 40
0.6
 49
0.375
 74
0
 49
-0.075
 74
0
 49
0.075
 74
0
 49
-0.075
 74
0
  0
LTYPE
  5
1F6
100
AcDbSymbolTableRecord
100
AcDbLinetypeTableRecord
  2
HIDDEN
 70
64
  3
- - - - - - - - - - - - - - - - - - - -
 72
65
 73
2
 40
0.2
 49
0.1
 74
0
 49
-0.1
 74
0
  0
LTYPE
  5
1F7
100
AcDbSymbolTableRecord
100
AcDbLinetypeTableRecord
  2
PHANTOM
 70
64
  3
_____ _ _ _____ _ _ _____ _ _ _____
 72
65
 73
6
 40
0.8
 49
0.45
 74
0
 49
-0.05
 74
0
 49
0.1
 74
0
 49
-0.05
 74
0
 49
0.1
 74
0
 49
-0.05
 74
0
  0
LTYPE
  5
1F8
100
AcDbSymbolTableRecord
100
AcDbLinetypeTableRecord
  2
DOT
 70
64
  3
. . . . . . . . . . . . . . . . . . . .
 72
65
 73
2
 40
0.2
 49
0.1
 74
0
 49
-0.1
 74
0
  0
LTYPE
  5
1F9
100
AcDbSymbolTableRecord
100
AcDbLinetypeTableRecord
  2
DASHED
 70
64
  3
- - - - - - - - - - - - - - - - - - - -
 72
65
 73
2
 40
0.2
 49
0.1
 74
0
 49
-0.1
 74
0
  0
ENDTAB
  0
TABLE
  2
LAYER
  5
2
100
AcDbSymbolTable
 70
36
  0
LAYER
  5
10
100
AcDbSymbolTableRecord
100
AcDbLayerTableRecord
  2
0
 70
0
 62
7
  6
CONTINUOUS
370
-3
390
F
  0
LAYER
  5
1FA
100
AcDbSymbolTableRecord
100
AcDbLayerTableRecord
  2
DEFAULT_1
 70
0
 62
7
  6
CENTER
370
-3
390
F
  0
LAYER
  5
1FB
100
AcDbSymbolTableRecord
100
AcDbLayerTableRecord
  2
DEFAULT_2
 70
0
 62
7
  6
HIDDEN
370
-3
390
F
  0
LAYER
  5
1FC
100
AcDbSymbolTableRecord
100
AcDbLayerTableRecord
  2
DEFAULT_3
 70
0
 62
7
  6
PHANTOM
370
-3
390
F
  0
LAYER
  5
1FD
100
AcDbSymbolTableRecord
100
AcDbLayerTableRecord
  2
00_COMPONENTS
 70
0
 62
7
  6
CONTINUOUS
370
-3
390
F
  0
LAYER
  5
1FE
100
AcDbSymbolTableRecord
100
AcDbLayerTableRecord
  2
01_1_DEFAULT_DATUMS
 70
0
 62
7
  6
CONTINUOUS
370
-3
390
F
  0
LAYER
  5
1FF
100
AcDbSymbolTableRecord
100
AcDbLayerTableRecord
  2
01_PLANES
 70
0
 62
7
  6
CONTINUOUS
370
-3
390
F
  0
LAYER
  5
200
100
AcDbSymbolTableRecord
100
AcDbLayerTableRecord
  2
02_COORD_SYS
 70
0
 62
7
  6
CONTINUOUS
370
-3
390
F
  0
LAYER
  5
201
100
AcDbSymbolTableRecord
100
AcDbLayerTableRecord
  2
03_AXES
 70
0
 62
7
  6
CONTINUOUS
370
-3
390
F
  0
LAYER
  5
202
100
AcDbSymbolTableRecord
100
AcDbLayerTableRecord
  2
04_POINTS
 70
0
 62
7
  6
CONTINUOUS
370
-3
390
F
  0
LAYER
  5
203
100
AcDbSymbolTableRecord
100
AcDbLayerTableRecord
  2
05_CURVES
 70
0
 62
7
  6
CONTINUOUS
370
-3
390
F
  0
LAYER
  5
204
100
AcDbSymbolTableRecord
100
AcDbLayerTableRecord
  2
06_SURFS
 70
0
 62
7
  6
CONTINUOUS
370
-3
390
F
  0
LAYER
  5
205
100
AcDbSymbolTableRecord
100
AcDbLayerTableRecord
  2
07_COSMETICS
 70
0
 62
7
  6
CONTINUOUS
370
-3
390
F
  0
LAYER
  5
206
100
AcDbSymbolTableRecord
100
AcDbLayerTableRecord
  2
10_NOTES
 70
0
 62
7
  6
CONTINUOUS
370
-3
390
F
  0
LAYER
  5
207
100
AcDbSymbolTableRecord
100
AcDbLayerTableRecord
  2
11_NOTES_PUB
 70
0
 62
7
  6
CONTINUOUS
370
-3
390
F
  0
LAYER
  5
208
100
AcDbSymbolTableRecord
100
AcDbLayerTableRecord
  2
13_REF_GTOL
 70
0
 62
7
  6
CONTINUOUS
370
-3
390
F
  0
LAYER
  5
209
100
AcDbSymbolTableRecord
100
AcDbLayerTableRecord
  2
16_MISC
 70
0
 62
7
  6
CONTINUOUS
370
-3
390
F
  0
LAYER
  5
20A
100
AcDbSymbolTableRecord
100
AcDbLayerTableRecord
  2
17_NO_PRINT
 70
0
 62
7
  6
CONTINUOUS
370
-3
390
F
  0
LAYER
  5
20B
100
AcDbSymbolTableRecord
100
AcDbLayerTableRecord
  2
18_DATUM_CAMS_JOINTS
 70
0
 62
7
  6
CONTINUOUS
370
-3
390
F
  0
LAYER
  5
20C
100
AcDbSymbolTableRecord
100
AcDbLayerTableRecord
  2
19_DATUM_FUNCTIONAL
 70
0
 62
7
  6
CONTINUOUS
370
-3
390
F
  0
LAYER
  5
20D
100
AcDbSymbolTableRecord
100
AcDbLayerTableRecord
  2
20_DATUM_KINEMATIC_SCHEME
 70
0
 62
7
  6
CONTINUOUS
370
-3
390
F
  0
ENDTAB
  0
TABLE
  2
STYLE
  5
3
100
AcDbSymbolTable
 70
1
  0
STYLE
  5
11
100
AcDbSymbolTableRecord
100
AcDbTextStyleTableRecord
  2
STANDARD
 70
0
 40
0.0
 41
1.0
 50
0.0
 71
0
 42
0.2
  3
ARIAL.TTF
  4

  0
STYLE
  5
20E
100
AcDbSymbolTableRecord
100
AcDbTextStyleTableRecord
  2
TEXTSTYLE_1
 70
0
 40
0.0
 41
0.8
 50
0.0
 71
0
 42
0.2
  3
gdt
  4

  0
ENDTAB
  0
TABLE
  2
VIEW
  5
6
100
AcDbSymbolTable
 70
0
  0
ENDTAB
  0
TABLE
  2
UCS
  5
7
100
AcDbSymbolTable
 70
0
  0
ENDTAB
  0
TABLE
  2
APPID
  5
9
100
AcDbSymbolTable
 70
1
  0
APPID
  5
20F
100
AcDbSymbolTableRecord
100
AcDbRegAppTableRecord
  2
ACAD
 70
0
  0
ENDTAB
  0
TABLE
  2
BLOCK_RECORD
  5
1
100
AcDbSymbolTable
 70
0
  0
BLOCK_RECORD
  5
210
100
AcDbSymbolTableRecord
100
AcDbBlockTableRecord
  2
*Model_Space
  0
BLOCK_RECORD
  5
211
100
AcDbSymbolTableRecord
100
AcDbBlockTableRecord
  2
*Paper_Space
  0
BLOCK_RECORD
  5
212
100
AcDbSymbolTableRecord
100
AcDbBlockTableRecord
  2
_FILLED
  0
ENDTAB
  0
TABLE
  2
DIMSTYLE
  5
A
100
AcDbSymbolTable
 70
1
100
AcDbDimStyleTable
 71
0
  0
DIMSTYLE
105
213
100
AcDbSymbolTableRecord
100
AcDbDimStyleTableRecord
  2
STANDARD
 70
0
  3

  4

 40
1.0
 41
0.6225917615
 42
1.0
 43
0.38
 44
1.0
 45
0.0
 46
0.0
 47
0.01
 48
0.01
140
0.871628466
141
0.09
142
0.0
143
25.4
144
1.0
145
0.0
146
1.0
147
0.625
 71
1
 72
0
 73
0
 74
0
 75
0
 76
0
 77
1
 78
8
 79
2
170
0
171
1
172
0
173
0
174
0
175
0
176
0
177
0
178
0
270
2
179
2
271
2
272
2
273
2
274
2
275
0
280
0
281
0
282
0
283
1
284
8
285
0
286
0
287
3
288
0
340
11
278
46
341
212
342
212
343
212
344
212
  0
ENDTAB
  0
ENDSEC
  0
SECTION
  2
BLOCKS
  0
BLOCK
  5
20
100
AcDbEntity
  8
0
100
AcDbBlockBegin
  2
*Model_Space
 70
0
 10
0.0
 20
0.0
 30
0.0
  3
*Model_Space
  1

  0
ENDBLK
  5
21
100
AcDbEntity
  8
0
100
AcDbBlockEnd
  0
BLOCK
  5
1C
100
AcDbEntity
  8
0
100
AcDbBlockBegin
  2
*Paper_Space
 70
0
 10
0.0
 20
0.0
 30
0.0
  3
*Paper_Space
  1

  0
ENDBLK
  5
1D
100
AcDbEntity
  8
0
100
AcDbBlockEnd
  0
BLOCK
  5
214
100
AcDbEntity
  8
0
100
AcDbBlockBegin
  2
_FILLED
 70
64
 10
0.0
 20
0.0
  3
_FILLED
  1

  0
SOLID
  5
215
100
AcDbEntity
  8
0
  6
BYBLOCK
 62
0
100
AcDbTrace
 10
0.0
 20
0.0
 11
-1.0
 21
0.25
 12
-1.0
 22
-0.25
 13
-1.0
 23
-0.25
  0
ENDBLK
  5
216
100
AcDbEntity
  8
0
  6
BYBLOCK
 62
0
100
AcDbBlockEnd
  0
ENDSEC
  0
SECTION
  2
ENTITIES
  0
LINE
  5
217
100
AcDbEntity
  8
0
100
AcDbLine
 62
7
  6
BYLAYER
 10
23.6741679793
 20
8.0391298404
 11
11.7947245968
 21
14.8975745163
  0
LINE
  5
218
100
AcDbEntity
  8
0
100
AcDbLine
 62
7
  6
BYLAYER
 10
26.2880537718
 20
65.2770768333
 11
26.3780404178
 21
65.3271638237
  0
LINE
  5
219
100
AcDbEntity
  8
0
100
AcDbLine
 62
7
  6
BYLAYER
 10
8.6834175449
 20
18.408519646
 11
8.9662518369
 21
18.2452205224
  0
LINE
  5
21A
100
AcDbEntity
  8
0
100
AcDbLine
 62
7
  6
BYLAYER
 10
25.6540509484
 20
8.6107415375
 11
25.9368852404
 21
8.4474424139
  0
LINE
  5
21B
100
AcDbEntity
  8
0
100
AcDbLine
 62
7
  6
BYLAYER
 10
31.5937698164
 20
7.2226639684
 11
28.2904174987
 21
9.1298121728
  0
LINE
  5
21C
100
AcDbEntity
  8
0
100
AcDbLine
 62
7
  6
BYLAYER
 10
6.0671358231
 20
24.8179942067
 11
6.0671358231
 21
38.5352348145
  0
LINE
  5
21D
100
AcDbEntity
  8
0
100
AcDbLine
 62
7
  6
BYLAYER
 10
8.8761934264
 20
23.1962207327
 11
6.0671358231
 21
24.8179942067
  0
LINE
  5
21E
100
AcDbEntity
  8
0
100
AcDbLine
 62
7
  6
BYLAYER
 10
25.4319616906
 20
13.6379597055
 11
29.401756753
 21
11.3460493075
  0
LINE
  5
21F
100
AcDbEntity
  8
0
100
AcDbLine
 62
7
  6
BYLAYER
 10
7.5520709563
 20
20.3680919938
 11
7.5520686011
 21
20.6946859572
  0
LINE
  5
220
100
AcDbEntity
  8
0
100
AcDbLine
 62
7
  6
BYLAYER
 10
7.5520709563
 20
39.9641500049
 11
7.5520686011
 21
40.2907439683
  0
LINE
  5
221
100
AcDbEntity
  8
0
100
AcDbLine
 62
7
  6
BYLAYER
 10
9.3198134743
 20
41.9877668695
 11
9.3198134743
 21
45.8020738753
  0
LINE
  5
222
100
AcDbEntity
  8
0
100
AcDbLine
 62
7
  6
BYLAYER
 10
24.2054854382
 20
56.9684000525
 11
21.1074939557
 21
55.1797845128
  0
LINE
  5
223
100
AcDbEntity
  8
0
100
AcDbLine
 62
7
  6
BYLAYER
 10
11.7947245968
 20
18.2225919305
 11
11.7947245968
 21
14.8975745163
  0
LINE
  5
224
100
AcDbEntity
  8
0
100
AcDbLine
 62
7
  6
BYLAYER
 10
11.7947245968
 20
37.2582161053
 11
11.7947245968
 21
41.8421542816
  0
LINE
  5
225
100
AcDbEntity
  8
0
100
AcDbLine
 62
7
  6
BYLAYER
 10
18.6190181009
 20
51.6782558831
 11
9.6304814197
 21
46.4887527878
  0
LINE
  5
226
100
AcDbEntity
  8
0
100
AcDbLine
 62
7
  6
BYLAYER
 10
10.380478062
 20
46.4144663693
 11
18.592783626
 21
51.1558148952
  0
LINE
  5
227
100
AcDbEntity
  8
0
100
AcDbLine
 62
7
  6
BYLAYER
 10
21.0975419447
 20
53.5515900461
 11
21.0952168088
 21
53.546779649
  0
LINE
  5
228
100
AcDbEntity
  8
0
100
AcDbLine
 62
7
  6
BYLAYER
 10
11.8228288519
 20
43.4328748454
 11
7.9662925283
 21
41.2063158515
  0
LINE
  5
229
100
AcDbEntity
  8
0
100
AcDbLine
 62
7
  6
BYLAYER
 10
35.7890446678
 20
56.3562362499
 11
34.7827699069
 21
55.841036819
  0
LINE
  5
22A
100
AcDbEntity
  8
0
100
AcDbLine
 62
7
  6
BYLAYER
 10
35.1660014411
 20
56.7159422869
 11
34.2736454726
 21
56.1349732984
  0
LINE
  5
22B
100
AcDbEntity
  8
0
100
AcDbLine
 62
7
  6
BYLAYER
 10
15.047402248
 20
43.7200773894
 11
11.7947245968
 21
41.8421542816
  0
LINE
  5
22C
100
AcDbEntity
  8
0
100
AcDbLine
 62
7
  6
BYLAYER
 10
7.6492234558
 20
39.4486480828
 11
6.0671358231
 21
38.5352348145
  0
LINE
  5
22D
100
AcDbEntity
  8
0
100
AcDbLine
 62
7
  6
BYLAYER
 10
29.578470889
 20
50.2726164388
 11
35.9424054239
 21
53.9468138236
  0
LINE
  5
22E
100
AcDbEntity
  8
0
100
AcDbLine
 62
7
  6
BYLAYER
 10
18.5177798055
 20
49.5784949138
 11
18.5177798055
 21
47.9454900796
  0
LINE
  5
22F
100
AcDbEntity
  8
0
100
AcDbLine
 62
7
  6
BYLAYER
 10
18.5177798055
 20
47.4964137501
 11
18.5177798055
 21
44.6386552902
  0
LINE
  5
230
100
AcDbEntity
  8
0
100
AcDbLine
 62
7
  6
BYLAYER
 10
18.5219796474
 20
49.7458038073
 11
18.5177798055
 21
49.5784949138
  0
LINE
  5
231
100
AcDbEntity
  8
0
100
AcDbLine
 62
7
  6
BYLAYER
 10
18.6694586661
 20
52.6827440171
 11
18.5219796474
 21
49.7458038073
  0
LINE
  5
232
100
AcDbEntity
  8
0
100
AcDbLine
 62
7
  6
BYLAYER
 10
21.0964515116
 20
53.5516819583
 11
21.0952168088
 21
53.546779649
  0
LINE
  5
233
100
AcDbEntity
  8
0
100
AcDbLine
 62
7
  6
BYLAYER
 10
11.7947245968
 20
38.797853682
 11
9.9662835745
 21
37.742209067
  0
LINE
  5
234
100
AcDbEntity
  8
0
100
AcDbLine
 62
7
  6
BYLAYER
 10
29.578470889
 20
48.6396116045
 11
35.9424054239
 21
52.3138089893
  0
LINE
  5
235
100
AcDbEntity
  8
0
100
AcDbLine
 62
7
  6
BYLAYER
 10
10.1523732294
 20
36.4402649791
 11
11.7947245968
 21
37.3884713232
  0
LINE
  5
236
100
AcDbEntity
  8
0
100
AcDbLine
 62
7
  6
BYLAYER
 10
9.9630574289
 20
36.2859743117
 11
6.0671358231
 21
38.5352348145
  0
LINE
  5
237
100
AcDbEntity
  8
0
100
AcDbLine
 62
7
  6
BYLAYER
 10
25.4319616906
 20
27.3552003132
 11
29.401756753
 21
25.0632899153
  0
LINE
  5
238
100
AcDbEntity
  8
0
100
AcDbLine
 62
7
  6
BYLAYER
 10
8.6834175449
 20
38.0045776571
 11
8.9662518369
 21
37.8412785335
  0
LINE
  5
239
100
AcDbEntity
  8
0
100
AcDbLine
 62
7
  6
BYLAYER
 10
25.6540509484
 20
28.2067995486
 11
25.9368852404
 21
28.043500425
  0
LINE
  5
23A
100
AcDbEntity
  8
0
100
AcDbLine
 62
7
  6
BYLAYER
 10
21.0952168088
 20
53.1385284405
 11
21.0952168088
 21
53.546779649
  0
LINE
  5
23B
100
AcDbEntity
  8
0
100
AcDbLine
 62
7
  6
BYLAYER
 10
21.0952257601
 20
52.3054943158
 11
21.0952257601
 21
51.8972431072
  0
LINE
  5
23C
100
AcDbEntity
  8
0
100
AcDbLine
 62
7
  6
BYLAYER
 10
21.1074939557
 20
55.1797845128
 11
21.107502907
 21
52.3054943453
  0
LINE
  5
23D
100
AcDbEntity
  8
0
100
AcDbLine
 62
7
  6
BYLAYER
 10
32.6544344041
 20
26.9412130231
 11
28.9268272487
 21
29.0932993311
  0
LINE
  5
23E
100
AcDbEntity
  8
0
100
AcDbLine
 62
7
  6
BYLAYER
 10
22.4577798055
 20
59.4150953615
 11
22.4577798055
 21
59.7479307328
  0
LINE
  5
23F
100
AcDbEntity
  8
0
100
AcDbLine
 62
7
  6
BYLAYER
 10
23.1863637254
 20
61.7080388313
 11
23.1863637254
 21
64.4841470496
  0
LINE
  5
240
100
AcDbEntity
  8
0
100
AcDbLine
 62
7
  6
BYLAYER
 10
23.5323590986
 20
55.1797903415
 11
23.5323590986
 21
54.9348396163
  0
LINE
  5
241
100
AcDbEntity
  8
0
100
AcDbLine
 62
7
  6
BYLAYER
 10
23.6741679793
 20
12.5211584359
 11
23.6741679793
 21
8.0391298404
  0
LINE
  5
242
100
AcDbEntity
  8
0
100
AcDbLine
 62
7
  6
BYLAYER
 10
23.6741679793
 20
30.3997714294
 11
23.6741679793
 21
34.9837096057
  0
LINE
  5
243
100
AcDbEntity
  8
0
100
AcDbLine
 62
7
  6
BYLAYER
 10
23.9177753299
 20
54.9348405427
 11
23.9177842812
 21
53.6935552095
  0
LINE
  5
244
100
AcDbEntity
  8
0
100
AcDbLine
 62
7
  6
BYLAYER
 10
11.7947245968
 20
41.8421542816
 11
23.6741679793
 21
34.9837096057
  0
LINE
  5
245
100
AcDbEntity
  8
0
100
AcDbLine
 62
7
  6
BYLAYER
 10
24.5227043598
 20
10.5703138853
 11
24.5227020046
 21
10.8969078487
  0
LINE
  5
246
100
AcDbEntity
  8
0
100
AcDbLine
 62
7
  6
BYLAYER
 10
24.5227043598
 20
30.1663718965
 11
24.5227020046
 21
30.4929658598
  0
LINE
  5
247
100
AcDbEntity
  8
0
100
AcDbLine
 62
7
  6
BYLAYER
 10
24.576318298
 20
61.4893038737
 11
24.576318298
 21
58.7131956555
  0
LINE
  5
248
100
AcDbEntity
  8
0
100
AcDbLine
 62
7
  6
BYLAYER
 10
24.6818145565
 20
58.6522887402
 11
24.6818145565
 21
61.4283969584
  0
LINE
  5
249
100
AcDbEntity
  8
0
100
AcDbLine
 62
7
  6
BYLAYER
 10
25.5177798055
 20
53.6558568645
 11
25.5177798055
 21
56.4059759825
  0
LINE
  5
24A
100
AcDbEntity
  8
0
100
AcDbLine
 62
7
  6
BYLAYER
 10
26.3677798055
 20
64.8470901141
 11
26.3677798055
 21
65.2145162018
  0
LINE
  5
24B
100
AcDbEntity
  8
0
100
AcDbLine
 62
7
  6
BYLAYER
 10
10.380478062
 20
46.4144663693
 11
15.047402248
 21
43.7200773894
  0
LINE
  5
24C
100
AcDbEntity
  8
0
100
AcDbLine
 62
7
  6
BYLAYER
 10
26.9268456305
 20
36.8616327135
 11
31.5937698164
 21
34.1672437336
  0
LINE
  5
24D
100
AcDbEntity
  8
0
100
AcDbLine
 62
7
  6
BYLAYER
 10
21.0952257601
 20
52.3054943158
 11
21.0965052449
 21
52.3004152501
  0
LINE
  5
24E
100
AcDbEntity
  8
0
100
AcDbLine
 62
7
  6
BYLAYER
 10
26.9268456305
 20
32.5574115589
 11
26.9268456305
 21
36.8616327135
  0
LINE
  5
24F
100
AcDbEntity
  8
0
100
AcDbLine
 62
7
  6
BYLAYER
 10
27.3927282599
 20
65.904864987
 11
27.3927282599
 21
66.2722895625
  0
LINE
  5
250
100
AcDbEntity
  8
0
100
AcDbLine
 62
7
  6
BYLAYER
 10
27.4571505454
 20
50.2726113397
 11
27.4571505454
 21
48.6396065055
  0
LINE
  5
251
100
AcDbEntity
  8
0
100
AcDbLine
 62
7
  6
BYLAYER
 10
26.9268456305
 20
36.8616327135
 11
23.6741679793
 21
34.9837096057
  0
LINE
  5
252
100
AcDbEntity
  8
0
100
AcDbLine
 62
7
  6
BYLAYER
 10
21.0952257601
 20
52.3054943158
 11
21.0977653038
 21
52.3005214975
  0
LINE
  5
253
100
AcDbEntity
  8
0
100
AcDbLine
 62
7
  6
BYLAYER
 10
29.401756753
 20
25.0632899153
 11
29.401756753
 21
11.3460493075
  0
LINE
  5
254
100
AcDbEntity
  8
0
100
AcDbLine
 62
7
  6
BYLAYER
 10
29.578470889
 20
48.6396116045
 11
29.578470889
 21
50.2726164388
  0
LINE
  5
255
100
AcDbEntity
  8
0
100
AcDbLine
 62
7
  6
BYLAYER
 10
29.6428313512
 20
63.7893152413
 11
29.6428313512
 21
64.1567398169
  0
LINE
  5
256
100
AcDbEntity
  8
0
100
AcDbLine
 62
7
  6
BYLAYER
 10
29.8691208284
 20
60.6259427215
 11
29.8691208284
 21
57.8498345033
  0
LINE
  5
257
100
AcDbEntity
  8
0
100
AcDbLine
 62
7
  6
BYLAYER
 10
30.0132306366
 20
57.8721284207
 11
30.0132306366
 21
60.648236639
  0
LINE
  5
258
100
AcDbEntity
  8
0
100
AcDbLine
 62
7
  6
BYLAYER
 10
30.3499351884
 20
64.5649839708
 11
30.3499351884
 21
64.1975593952
  0
LINE
  5
259
100
AcDbEntity
  8
0
100
AcDbLine
 62
7
  6
BYLAYER
 10
30.6677798055
 20
64.8470901141
 11
30.6677798055
 21
65.2145162018
  0
LINE
  5
25A
100
AcDbEntity
  8
0
100
AcDbLine
 62
7
  6
BYLAYER
 10
31.5177798055
 20
53.6371766201
 11
31.5177798055
 21
56.4125251276
  0
LINE
  5
25B
100
AcDbEntity
  8
0
100
AcDbLine
 62
7
  6
BYLAYER
 10
28.7934622554
 20
33.6350967369
 11
24.9369259318
 21
31.4085377431
  0
LINE
  5
25C
100
AcDbEntity
  8
0
100
AcDbLine
 62
7
  6
BYLAYER
 10
9.2618554828
 20
22.3582469961
 11
7.9662925283
 21
21.6102578404
  0
LINE
  5
25D
100
AcDbEntity
  8
0
100
AcDbLine
 62
7
  6
BYLAYER
 10
24.6080072631
 20
30.938920573
 11
23.6741679793
 21
30.3997714294
  0
LINE
  5
25E
100
AcDbEntity
  8
0
100
AcDbLine
 62
7
  6
BYLAYER
 10
45.8419121363
 20
42.3933634342
 11
31.5937698164
 21
34.1672437336
  0
LINE
  5
25F
100
AcDbEntity
  8
0
100
AcDbLine
 62
7
  6
BYLAYER
 10
32.6544344041
 20
32.3301289762
 11
32.6544344041
 21
26.9412130231
  0
LINE
  5
260
100
AcDbEntity
  8
0
100
AcDbLine
 62
7
  6
BYLAYER
 10
32.6544344041
 20
13.2239724153
 11
32.6544344041
 21
7.8350564623
  0
LINE
  5
261
100
AcDbEntity
  8
0
100
AcDbLine
 62
7
  6
BYLAYER
 10
33.8105823359
 20
62.8406255779
 11
33.8105823359
 21
60.0645173597
  0
LINE
  5
262
100
AcDbEntity
  8
0
100
AcDbLine
 62
7
  6
BYLAYER
 10
33.8491958857
 20
60.1477181925
 11
33.8491958857
 21
62.9238264107
  0
LINE
  5
263
100
AcDbEntity
  8
0
100
AcDbLine
 62
7
  6
BYLAYER
 10
32.6544344041
 20
32.3301289762
 11
46.902576724
 21
40.5562486767
  0
LWPOLYLINE
  5
264
100
AcDbEntity
  8
0
100
AcDbPolyline
 62
7
  6
BYLAYER
 90
7
 70
0
 10
30.2169246844
 20
43.8890271568
 10
32.8126518344
 20
44.3646753766
 10
35.0898479737
 20
45.2270087398
 10
36.0549374208
 20
45.7842000659
 10
37.5485450098
 20
47.098928255
 10
38.3723820567
 20
48.59755456
 10
38.5177798055
 20
49.5784949138
  0
LWPOLYLINE
  5
265
100
AcDbEntity
  8
0
100
AcDbPolyline
 62
7
  6
BYLAYER
 90
5
 70
0
 10
21.4467414334
 20
45.4960533751
 10
22.4754490846
 20
44.9781897002
 10
24.8492763486
 20
44.2075977816
 10
27.4951797318
 20
43.835340733
 10
30.2169246844
 20
43.8890271568
  0
LINE
  5
266
100
AcDbEntity
  8
0
100
AcDbLine
 62
7
  6
BYLAYER
 10
34.5777798055
 20
59.4150953615
 11
34.5777798055
 21
59.7479307328
  0
LINE
  5
267
100
AcDbEntity
  8
0
100
AcDbLine
 62
7
  6
BYLAYER
 10
35.9424054239
 20
53.9468138236
 11
35.9424054239
 21
52.3138089893
  0
LINE
  5
268
100
AcDbEntity
  8
0
100
AcDbLine
 62
7
  6
BYLAYER
 10
36.0177798055
 20
54.3141834375
 11
36.0177798055
 21
52.5179036155
  0
LINE
  5
269
100
AcDbEntity
  8
0
100
AcDbLine
 62
7
  6
BYLAYER
 10
25.4319616906
 20
27.3552003132
 11
26.3658343063
 21
27.8943687009
  0
LINE
  5
26A
100
AcDbEntity
  8
0
100
AcDbLine
 62
7
  6
BYLAYER
 10
30.8355107413
 20
30.1952716815
 11
26.936916978
 21
27.9444309585
  0
LINE
  5
26B
100
AcDbEntity
  8
0
100
AcDbLine
 62
7
  6
BYLAYER
 10
11.2570894567
 20
18.8913937309
 11
9.9662835745
 21
18.1461510559
  0
LINE
  5
26C
100
AcDbEntity
  8
0
100
AcDbLine
 62
7
  6
BYLAYER
 10
38.5177798055
 20
49.5784949138
 11
38.5135799637
 21
49.7458038073
  0
LINE
  5
26D
100
AcDbEntity
  8
0
100
AcDbLine
 62
7
  6
BYLAYER
 10
38.5177798055
 20
49.5784949138
 11
38.5177798055
 21
47.9454900796
  0
LINE
  5
26E
100
AcDbEntity
  8
0
100
AcDbLine
 62
7
  6
BYLAYER
 10
38.5177798055
 20
47.4964137501
 11
38.5177798055
 21
44.6386552902
  0
LINE
  5
26F
100
AcDbEntity
  8
0
100
AcDbLine
 62
7
  6
BYLAYER
 10
32.6544344041
 20
26.9412130231
 11
29.401756753
 21
25.0632899153
  0
LINE
  5
270
100
AcDbEntity
  8
0
100
AcDbLine
 62
7
  6
BYLAYER
 10
21.107502907
 20
52.3054943453
 11
27.4571505454
 21
48.6396065055
  0
LINE
  5
271
100
AcDbEntity
  8
0
100
AcDbLine
 62
7
  6
BYLAYER
 10
21.107502907
 20
53.9384991796
 11
27.4571505454
 21
50.2726113397
  0
LINE
  5
272
100
AcDbEntity
  8
0
100
AcDbLine
 62
7
  6
BYLAYER
 10
38.366100945
 20
52.6827440171
 11
38.5135799637
 21
49.7458038073
  0
LINE
  5
273
100
AcDbEntity
  8
0
100
AcDbLine
 62
7
  6
BYLAYER
 10
38.5177798055
 20
46.6218575456
 11
45.8419121363
 21
42.3933634342
  0
LINE
  5
274
100
AcDbEntity
  8
0
100
AcDbLine
 62
7
  6
BYLAYER
 10
46.0919078945
 20
42.4181273764
 11
38.5177798055
 21
46.7909533409
  0
LINE
  5
275
100
AcDbEntity
  8
0
100
AcDbLine
 62
7
  6
BYLAYER
 10
21.107502907
 20
52.3054943453
 11
21.0952257601
 21
52.3054943158
  0
LINE
  5
276
100
AcDbEntity
  8
0
100
AcDbLine
 62
7
  6
BYLAYER
 10
21.107502907
 20
53.13852847
 11
21.0952168088
 21
53.1385284405
  0
LINE
  5
277
100
AcDbEntity
  8
0
100
AcDbLine
 62
7
  6
BYLAYER
 10
21.0952168088
 20
53.546779649
 11
21.1074939557
 21
53.5467796785
  0
LINE
  5
278
100
AcDbEntity
  8
0
100
AcDbLine
 62
7
  6
BYLAYER
 10
23.9177842812
 20
53.6935552095
 11
23.7006292904
 21
53.6935546875
  0
LINE
  5
279
100
AcDbEntity
  8
0
100
AcDbLine
 62
7
  6
BYLAYER
 10
23.5323680499
 20
53.9385050082
 11
21.107502907
 21
53.9384991796
  0
LINE
  5
27A
100
AcDbEntity
  8
0
100
AcDbLine
 62
7
  6
BYLAYER
 10
33.6137038463
 20
54.6768555693
 11
36.0117857479
 21
54.7322418803
  0
LINE
  5
27B
100
AcDbEntity
  8
0
100
AcDbLine
 62
7
  6
BYLAYER
 10
23.5323590986
 20
54.9348396163
 11
23.9177753299
 21
54.9348405427
  0
LINE
  5
27C
100
AcDbEntity
  8
0
100
AcDbLine
 62
7
  6
BYLAYER
 10
21.1074939557
 20
55.1797845128
 11
23.5323590986
 21
55.1797903415
  0
LINE
  5
27D
100
AcDbEntity
  8
0
100
AcDbLine
 62
7
  6
BYLAYER
 10
36.0117882439
 20
54.3861134631
 11
33.6137055436
 21
54.4414882456
  0
LINE
  5
27E
100
AcDbEntity
  8
0
100
AcDbLine
 62
7
  6
BYLAYER
 10
24.6287087009
 20
58.6825356656
 11
25.1943917706
 21
58.355929055
  0
LINE
  5
27F
100
AcDbEntity
  8
0
100
AcDbLine
 62
7
  6
BYLAYER
 10
46.902576724
 20
40.5562486767
 11
46.902576724
 21
16.0611761628
  0
LINE
  5
280
100
AcDbEntity
  8
0
100
AcDbLine
 62
7
  6
BYLAYER
 10
47.0490218614
 20
16.2652965401
 11
47.0490218614
 21
40.7603690539
  0
LINE
  5
281
100
AcDbEntity
  8
0
100
AcDbLine
 62
7
  6
BYLAYER
 10
23.9023116723
 20
12.6245308351
 11
25.5447980065
 21
13.5728151019
  0
LINE
  5
282
100
AcDbEntity
  8
0
100
AcDbLine
 62
7
  6
BYLAYER
 10
26.7653763821
 20
12.8681297903
 11
24.9369259318
 21
11.8124797319
  0
LINE
  5
283
100
AcDbEntity
  8
0
100
AcDbLine
 62
7
  6
BYLAYER
 10
23.2376644726
 20
13.7767361883
 11
23.2443343813
 21
13.7797609968
  0
LINE
  5
284
100
AcDbEntity
  8
0
100
AcDbLine
 62
7
  6
BYLAYER
 10
23.2376644726
 20
13.7767361883
 11
23.244647457
 21
13.7791268287
  0
LINE
  5
285
100
AcDbEntity
  8
0
100
AcDbLine
 62
7
  6
BYLAYER
 10
35.942396592
 20
55.1715411862
 11
32.8375194472
 21
56.9641022884
  0
LINE
  5
286
100
AcDbEntity
  8
0
100
AcDbLine
 62
7
  6
BYLAYER
 10
32.6544344041
 20
13.2239724153
 11
29.401756753
 21
11.3460493075
  0
LINE
  5
287
100
AcDbEntity
  8
0
100
AcDbLine
 62
7
  6
BYLAYER
 10
25.2562521926
 20
8.9525411345
 11
23.6741679793
 21
8.0391298404
  0
LINE
  5
288
100
AcDbEntity
  8
0
100
AcDbLine
 62
7
  6
BYLAYER
 10
30.7952935136
 20
10.5759943817
 11
26.936916978
 21
8.3483729474
  0
LINE
  5
289
100
AcDbEntity
  8
0
100
AcDbLine
 62
7
  6
BYLAYER
 10
29.6428229526
 20
64.1567252698
 11
30.7475058393
 21
63.5189507362
  0
LINE
  5
28A
100
AcDbEntity
  8
0
100
AcDbLine
 62
7
  6
BYLAYER
 10
26.8314623901
 20
65.9431497193
 11
29.4969933838
 21
64.4042394974
  0
LINE
  5
28B
100
AcDbEntity
  8
0
100
AcDbLine
 62
7
  6
BYLAYER
 10
27.5385658818
 20
66.3513940726
 11
30.2040975665
 21
64.8124834518
  0
LINE
  5
28C
100
AcDbEntity
  8
0
100
AcDbLine
 62
7
  6
BYLAYER
 10
46.902576724
 20
16.0611761628
 11
32.6544344041
 21
7.8350564623
  0
LINE
  5
28D
100
AcDbEntity
  8
0
100
AcDbLine
 62
7
  6
BYLAYER
 10
46.5919087786
 20
15.3744972504
 11
32.3437664588
 21
7.1483775498
  0
LINE
  5
28E
100
AcDbEntity
  8
0
100
AcDbLine
 62
7
  6
BYLAYER
 10
27.3747308108
 20
65.9585603972
 11
27.3818491323
 21
65.9602478898
  0
LINE
  5
28F
100
AcDbEntity
  8
0
100
AcDbLine
 62
7
  6
BYLAYER
 10
27.3854602299
 20
65.9435290756
 11
27.3927282599
 21
65.9448953114
  0
LINE
  5
290
100
AcDbEntity
  8
0
100
AcDbLine
 62
7
  6
BYLAYER
 10
32.4068509102
 20
65.9493295765
 11
31.8411678405
 21
66.2759361871
  0
ARC
  5
291
100
AcDbEntity
  8
0
100
AcDbCircle
 62
7
  6
BYLAYER
 10
-197.2636171305
 20
-69.6021899802
 40
263.2106191395
100
AcDbArc
 50
30.2787909119
 51
30.4499951705
  0
ARC
  5
292
100
AcDbEntity
  8
0
100
AcDbCircle
 62
7
  6
BYLAYER
 10
-196.5565132933
 20
-69.1939458263
 40
263.2106191395
100
AcDbArc
 50
30.2787909119
 51
30.4499951705
  0
ARC
  5
293
100
AcDbEntity
  8
0
100
AcDbCircle
 62
7
  6
BYLAYER
 10
49.5690233106
 20
25.2925676496
 40
46.2725270241
100
AcDbArc
 50
118.6366928619
 51
118.9948628252
  0
ARC
  5
294
100
AcDbEntity
  8
0
100
AcDbCircle
 62
7
  6
BYLAYER
 10
42.2048826014
 20
39.1383526021
 40
30.9135965427
100
AcDbArc
 50
118.3221991666
 51
118.6297003466
  0
ARC
  5
295
100
AcDbEntity
  8
0
100
AcDbCircle
 62
7
  6
BYLAYER
 10
41.4977787541
 20
38.7301084506
 40
30.9135965359
100
AcDbArc
 50
118.3221991523
 51
118.6297003322
  0
ARC
  5
296
100
AcDbEntity
  8
0
100
AcDbCircle
 62
7
  6
BYLAYER
 10
28.5177797014
 20
63.1759550967
 40
12.9468611762
100
AcDbArc
 50
265.3009650745
 51
274.6993103697
  0
ARC
  5
297
100
AcDbEntity
  8
0
100
AcDbCircle
 62
7
  6
BYLAYER
 10
26.2080213574
 20
56.5620649165
 40
9.3141579845
100
AcDbArc
 50
240.0008940209
 51
240.3504514184
  0
ARC
  5
298
100
AcDbEntity
  8
0
100
AcDbCircle
 62
7
  6
BYLAYER
 10
28.5797109505
 20
69.4377156291
 40
8.905611692
100
AcDbArc
 50
278.3249000194
 51
279.2630945701
  0
ARC
  5
299
100
AcDbEntity
  8
0
100
AcDbCircle
 62
7
  6
BYLAYER
 10
28.5829290138
 20
66.6408055717
 40
8.8845631131
100
AcDbArc
 50
278.3237886476
 51
279.2642059419
  0
ARC
  5
29A
100
AcDbEntity
  8
0
100
AcDbCircle
 62
7
  6
BYLAYER
 10
27.2520949576
 20
63.2267865437
 40
5.247129834
100
AcDbArc
 50
240.0022526476
 51
240.6696045181
  0
ARC
  5
29B
100
AcDbEntity
  8
0
100
AcDbCircle
 62
7
  6
BYLAYER
 10
27.243363926
 20
65.9875653062
 40
5.2294886171
100
AcDbArc
 50
240.0011270086
 51
240.6707301571
  0
ARC
  5
29C
100
AcDbEntity
  8
0
100
AcDbCircle
 62
7
  6
BYLAYER
 10
27.1994071425
 20
63.1353199686
 40
5.1415735458
100
AcDbArc
 50
239.3246870207
 51
240.0011366003
  0
ARC
  5
29D
100
AcDbEntity
  8
0
100
AcDbCircle
 62
7
  6
BYLAYER
 10
29.8450027368
 20
61.5116682112
 40
5.1240515665
100
AcDbArc
 50
59.3235304287
 51
60.0022931923
  0
ARC
  5
29E
100
AcDbEntity
  8
0
100
AcDbCircle
 62
7
  6
BYLAYER
 10
27.190556874
 20
65.8963052486
 40
5.1240515659
100
AcDbArc
 50
239.3235304286
 51
240.0022931923
  0
ARC
  5
29F
100
AcDbEntity
  8
0
100
AcDbCircle
 62
7
  6
BYLAYER
 10
27.4662840695
 20
51.9625088883
 40
5.1171047888
100
AcDbArc
 50
116.5108403286
 51
119.9510298321
  0
ARC
  5
2A0
100
AcDbEntity
  8
0
100
AcDbCircle
 62
7
  6
BYLAYER
 10
29.6794044799
 20
62.2634048119
 40
4.464853942
100
AcDbArc
 50
298.9327094838
 51
300.0019809448
  0
ARC
  5
2A1
100
AcDbEntity
  8
0
100
AcDbCircle
 62
7
  6
BYLAYER
 10
27.3769227412
 20
62.4953728721
 40
4.3653275074
100
AcDbArc
 50
119.9992493141
 51
121.1015477408
  0
ARC
  5
2A2
100
AcDbEntity
  8
0
100
AcDbCircle
 62
7
  6
BYLAYER
 10
21.8559572822
 20
17.8250007735
 40
4.2775643044
100
AcDbArc
 50
288.944073221
 51
292.9983950022
  0
ARC
  5
2A3
100
AcDbEntity
  8
0
100
AcDbCircle
 62
7
  6
BYLAYER
 10
13.6051249743
 20
32.1028832475
 40
4.2328510432
100
AcDbArc
 50
124.2410076874
 51
130.9511171352
  0
ARC
  5
2A4
100
AcDbEntity
  8
0
100
AcDbCircle
 62
7
  6
BYLAYER
 10
21.8549132564
 20
47.4961478527
 40
3.3371162777
100
AcDbArc
 50
177.9944167519
 51
179.9954369265
  0
ARC
  5
2A5
100
AcDbEntity
  8
0
100
AcDbCircle
 62
7
  6
BYLAYER
 10
27.8682436565
 20
63.0311947194
 40
2.9448816421
100
AcDbArc
 50
116.7371381443
 51
119.9854477652
  0
ARC
  5
2A6
100
AcDbEntity
  8
0
100
AcDbCircle
 62
7
  6
BYLAYER
 10
23.6725722598
 20
52.9002340081
 40
2.6572133037
100
AcDbArc
 50
165.3408493057
 51
165.8085874333
  0
ARC
  5
2A7
100
AcDbEntity
  8
0
100
AcDbCircle
 62
7
  6
BYLAYER
 10
33.4528932834
 20
54.553183959
 40
2.5651495831
100
AcDbArc
 50
4.0027346293
 51
13.9491630693
  0
ARC
  5
2A8
100
AcDbEntity
  8
0
100
AcDbCircle
 62
7
  6
BYLAYER
 10
33.4529045302
 20
54.5651336275
 40
2.5651382184
100
AcDbArc
 50
346.0516351762
 51
355.9980930194
  0
ARC
  5
2A9
100
AcDbEntity
  8
0
100
AcDbCircle
 62
7
  6
BYLAYER
 10
25.2194481236
 20
63.591152222
 40
2.2205566717
100
AcDbArc
 50
153.920518797
 51
156.2874030931
  0
ARC
  5
2AA
100
AcDbEntity
  8
0
100
AcDbCircle
 62
7
  6
BYLAYER
 10
31.8161114874
 20
63.8168212383
 40
2.2205566718
100
AcDbArc
 50
333.920518797
 51
336.2874030931
  0
ARC
  5
2AB
100
AcDbEntity
  8
0
100
AcDbCircle
 62
7
  6
BYLAYER
 10
31.8281209436
 20
61.0351394252
 40
2.2073197244
100
AcDbArc
 50
333.913420863
 51
336.294501027
  0
ARC
  5
2AC
100
AcDbEntity
  8
0
100
AcDbCircle
 62
7
  6
BYLAYER
 10
32.5020142668
 20
59.7541110696
 40
2.0761476653
100
AcDbArc
 50
349.9036594878
 51
350.6714267612
  0
ARC
  5
2AD
100
AcDbEntity
  8
0
100
AcDbCircle
 62
7
  6
BYLAYER
 10
32.5410410682
 20
59.7485502573
 40
2.0367357809
100
AcDbArc
 50
350.6478298902
 51
359.9825720454
  0
ARC
  5
2AE
100
AcDbEntity
  8
0
100
AcDbCircle
 62
7
  6
BYLAYER
 10
27.5715157658
 20
63.7568746177
 40
1.9895450401
100
AcDbArc
 50
126.9456210328
 51
130.1734180951
  0
ARC
  5
2AF
100
AcDbEntity
  8
0
100
AcDbCircle
 62
7
  6
BYLAYER
 10
27.1128879121
 20
65.2107714631
 40
0.7453817088
100
AcDbArc
 50
167.070988791
 51
169.6246638474
  0
ARC
  5
2B0
100
AcDbEntity
  8
0
100
AcDbCircle
 62
7
  6
BYLAYER
 10
27.0937496733
 20
65.2141267158
 40
0.7259521458
100
AcDbArc
 50
169.6131152308
 51
179.9692598418
  0
ARC
  5
2B1
100
AcDbEntity
  8
0
100
AcDbCircle
 62
7
  6
BYLAYER
 10
29.9429205943
 20
65.2143437318
 40
0.7248414054
100
AcDbArc
 50
0.0136330243
 51
12.768764939
  0
SPLINE
  5
2B2
100
AcDbEntity
  8
0
100
AcDbSpline
 62
7
  6
BYLAYER
 70
0
 71
3
 72
33
 73
29
 74
0
 42
0.0000001
 43
0.0000001
 44
0.0000000001
 40
0.0
 40
0.0
 40
0.0
 40
0.0
 40
0.0306616586
 40
0.0623947748
 40
0.0951126413
 40
0.1287370506
 40
0.1631787451
 40
0.1983312139
 40
0.270288306
 40
0.3436458745
 40
0.4173577743
 40
0.4903626693
 40
0.5616302312
 40
0.6302092696
 40
0.6632391825
 40
0.6953038622
 40
0.7263309684
 40
0.7562648636
 40
0.7850677555
 40
0.8127243824
 40
0.8392425389
 40
0.8646588681
 40
0.8890388804
 40
0.9124820131
 40
0.9351203618
 40
0.9571195888
 40
0.9786739892
 40
1.0
 40
1.0
 40
1.0
 40
1.0
 10
32.8028647399
 20
56.9411563891
 30
0.0
 10
32.695823153
 20
56.879356269
 30
0.0
 10
32.4738670908
 20
56.7606413314
 30
0.0
 10
32.1254989456
 20
56.6000361346
 30
0.0
 10
31.7576314787
 20
56.4546641743
 30
0.0
 10
31.3723237913
 20
56.3252954316
 30
0.0
 10
30.9716083991
 20
56.2126150378
 30
0.0
 10
30.4153959504
 20
56.0844504837
 30
0.0
 10
29.6958373783
 20
55.9703638866
 30
0.0
 10
28.814076988
 20
55.9080283794
 30
0.0
 10
27.9259540213
 20
55.9205232534
 30
0.0
 10
27.0504520053
 20
56.0075873406
 30
0.0
 10
26.2062854042
 20
56.1673546363
 30
0.0
 10
25.5354563747
 20
56.3606720079
 30
0.0
 10
25.0306600781
 20
56.5498346799
 30
0.0
 10
24.6755714303
 20
56.7054419914
 30
0.0
 10
24.3412057558
 20
56.8757062623
 30
0.0
 10
24.0293464392
 20
57.0597166523
 30
0.0
 10
23.7416836937
 20
57.2565210606
 30
0.0
 10
23.4797479911
 20
57.465057941
 30
0.0
 10
23.244982195
 20
57.6842728506
 30
0.0
 10
23.0386372703
 20
57.9129911703
 30
0.0
 10
22.8618992256
 20
58.1500634223
 30
0.0
 10
22.7157400788
 20
58.3942234763
 30
0.0
 10
22.6010760888
 20
58.6442036921
 30
0.0
 10
22.5185940413
 20
58.8986440561
 30
0.0
 10
22.4688818
 20
59.1560731154
 30
0.0
 10
22.457779917
 20
59.329127675
 30
0.0
 10
22.4577828562
 20
59.4150953615
 30
0.0
  0
SPLINE
  5
2B3
100
AcDbEntity
  8
0
100
AcDbSpline
 62
7
  6
BYLAYER
 70
0
 71
3
 72
14
 73
10
 74
0
 42
0.0000001
 43
0.0000001
 44
0.0000000001
 40
0.0
 40
0.0
 40
0.0
 40
0.0
 40
0.271599338
 40
0.4006071695
 40
0.5256468903
 40
0.6473355976
 40
0.7664017958
 40
0.883661237
 40
1.0
 40
1.0
 40
1.0
 40
1.0
 10
23.2160829287
 20
61.4425648946
 30
0.0
 10
23.0968830705
 20
61.318255604
 30
0.0
 10
22.9336795644
 20
61.1216795461
 30
0.0
 10
22.7559143261
 20
60.839309139
 30
0.0
 10
22.6478020685
 20
60.6265714975
 30
0.0
 10
22.5632131333
 20
60.4101808167
 30
0.0
 10
22.502481649
 20
60.190997039
 30
0.0
 10
22.4659310807
 20
59.9699566104
 30
0.0
 10
22.4577853785
 20
59.8217027401
 30
0.0
 10
22.4577828562
 20
59.7479307327
 30
0.0
  0
SPLINE
  5
2B4
100
AcDbEntity
  8
0
100
AcDbSpline
 62
7
  6
BYLAYER
 70
0
 71
3
 72
18
 73
14
 74
0
 42
0.0000001
 43
0.0000001
 44
0.0000000001
 40
0.0
 40
0.0
 40
0.0
 40
0.0
 40
0.0539107218
 40
0.1080796138
 40
0.1627594387
 40
0.2181901774
 40
0.2745951706
 40
0.3321788653
 40
0.4515049561
 40
0.5773918937
 40
0.7105709977
 40
0.8514501938
 40
1.0
 40
1.0
 40
1.0
 40
1.0
 10
34.5777767549
 20
59.4150953615
 30
0.0
 10
34.5777747966
 20
59.3578196848
 30
0.0
 10
34.5728770185
 20
59.242935073
 30
0.0
 10
34.5508948021
 20
59.071223257
 30
0.0
 10
34.5142988561
 20
58.900362977
 30
0.0
 10
34.4632198977
 20
58.7307918077
 30
0.0
 10
34.3977862175
 20
58.5629125504
 30
0.0
 10
34.2903674056
 20
58.3392948477
 30
0.0
 10
34.1193511813
 20
58.0654666097
 30
0.0
 10
33.8628630844
 20
57.7546203348
 30
0.0
 10
33.5552753155
 20
57.4601864761
 30
0.0
 10
33.1996634962
 20
57.1849386607
 30
0.0
 10
32.9395426887
 20
57.0200669686
 30
0.0
 10
32.8028647399
 20
56.9411563891
 30
0.0
  0
SPLINE
  5
2B5
100
AcDbEntity
  8
0
100
AcDbSpline
 62
7
  6
BYLAYER
 70
0
 71
3
 72
14
 73
10
 74
0
 42
0.0000001
 43
0.0000001
 44
0.0000000001
 40
0.0
 40
0.0
 40
0.0
 40
0.0
 40
0.116888279
 40
0.2346332584
 40
0.354059192
 40
0.4759350903
 40
0.6009454899
 40
0.7296862393
 40
1.0
 40
1.0
 40
1.0
 40
1.0
 10
34.5777767549
 20
59.7479307328
 30
0.0
 10
34.5777791802
 20
59.8188677666
 30
0.0
 10
34.5702494762
 20
59.9613745579
 30
0.0
 10
34.5364566633
 20
60.1739427771
 30
0.0
 10
34.4803237996
 20
60.3848755752
 30
0.0
 10
34.4020619211
 20
60.5933166157
 30
0.0
 10
34.3020328452
 20
60.7985332157
 30
0.0
 10
34.1375493753
 20
61.0711070277
 30
0.0
 10
33.9861927336
 20
61.2618723224
 30
0.0
 10
33.87541538
 20
61.3828683324
 30
0.0
  0
SPLINE
  5
2B6
100
AcDbEntity
  8
0
100
AcDbSpline
 62
7
  6
BYLAYER
 70
0
 71
3
 72
15
 73
11
 74
0
 42
0.0000001
 43
0.0000001
 44
0.0000000001
 40
0.0
 40
0.0
 40
0.0
 40
0.0
 40
0.1460968236
 40
0.2856891651
 40
0.4186708701
 40
0.5452676523
 40
0.6659052899
 40
0.7812437682
 40
0.8922158639
 40
1.0
 40
1.0
 40
1.0
 40
1.0
 10
32.8028647399
 20
57.2739917604
 30
0.0
 10
32.9221183702
 20
57.3428424649
 30
0.0
 10
33.1505671054
 20
57.485975279
 30
0.0
 10
33.4674079355
 20
57.7219569819
 30
0.0
 10
33.7484809939
 20
57.9728786824
 30
0.0
 10
33.9916732385
 20
58.2369549268
 30
0.0
 10
34.1952151683
 20
58.5123687897
 30
0.0
 10
34.357468931
 20
58.7972713448
 30
0.0
 10
34.4770651213
 20
59.089539251
 30
0.0
 10
34.52820268
 20
59.2901367135
 30
0.0
 10
34.5460114955
 20
59.3901544003
 30
0.0
  0
SPLINE
  5
2B7
100
AcDbEntity
  8
0
100
AcDbSpline
 62
7
  6
BYLAYER
 70
0
 71
3
 72
33
 73
29
 74
0
 42
0.0000001
 43
0.0000001
 44
0.0000000001
 40
0.0
 40
0.0
 40
0.0
 40
0.0
 40
0.0213260108
 40
0.0428804112
 40
0.0648796382
 40
0.0875179869
 40
0.1109611196
 40
0.1353411319
 40
0.1607574611
 40
0.1872756176
 40
0.2149322445
 40
0.2437351364
 40
0.2736690316
 40
0.3046961378
 40
0.3367608175
 40
0.3697907304
 40
0.4383697688
 40
0.5096373307
 40
0.5826422257
 40
0.6563541255
 40
0.729711694
 40
0.8016687861
 40
0.8368212549
 40
0.8712629494
 40
0.9048873587
 40
0.9376052252
 40
0.9693383414
 40
1.0
 40
1.0
 40
1.0
 40
1.0
 10
22.4577828562
 20
59.7479307327
 30
0.0
 10
22.457779917
 20
59.6619630462
 30
0.0
 10
22.4688818
 20
59.4889084866
 30
0.0
 10
22.5185940413
 20
59.2314794273
 30
0.0
 10
22.6010760888
 20
58.9770390633
 30
0.0
 10
22.7157400788
 20
58.7270588475
 30
0.0
 10
22.8618992256
 20
58.4828987936
 30
0.0
 10
23.0386372703
 20
58.2458265416
 30
0.0
 10
23.244982195
 20
58.0171082218
 30
0.0
 10
23.4797479911
 20
57.7978933123
 30
0.0
 10
23.7416836937
 20
57.5893564318
 30
0.0
 10
24.0293464392
 20
57.3925520236
 30
0.0
 10
24.3412057558
 20
57.2085416336
 30
0.0
 10
24.6755714303
 20
57.0382773627
 30
0.0
 10
25.0306600781
 20
56.8826700511
 30
0.0
 10
25.5354563747
 20
56.6935073791
 30
0.0
 10
26.2062854042
 20
56.5001900075
 30
0.0
 10
27.0504520053
 20
56.3404227119
 30
0.0
 10
27.9259540213
 20
56.2533586247
 30
0.0
 10
28.814076988
 20
56.2408637506
 30
0.0
 10
29.6958373783
 20
56.3031992579
 30
0.0
 10
30.4153959504
 20
56.4172858549
 30
0.0
 10
30.9716083991
 20
56.545450409
 30
0.0
 10
31.3723237913
 20
56.6581308028
 30
0.0
 10
31.7576314787
 20
56.7874995455
 30
0.0
 10
32.1254989456
 20
56.9328715059
 30
0.0
 10
32.4738670908
 20
57.0934767026
 30
0.0
 10
32.695823153
 20
57.2121916402
 30
0.0
 10
32.8028647399
 20
57.2739917604
 30
0.0
  0
SPLINE
  5
2B8
100
AcDbEntity
  8
0
100
AcDbSpline
 62
7
  6
BYLAYER
 70
0
 71
3
 72
13
 73
9
 74
0
 42
0.0000001
 43
0.0000001
 44
0.0000000001
 40
0.0
 40
0.0
 40
0.0
 40
0.0
 40
0.2634310088
 40
0.3928637604
 40
0.520255677
 40
0.6451490842
 40
0.7670549944
 40
1.0
 40
1.0
 40
1.0
 40
1.0
 10
33.8105823359
 20
60.0645173597
 30
0.0
 10
33.6637165276
 20
59.8969306501
 30
0.0
 10
33.439272546
 20
59.6515934899
 30
0.0
 10
33.1280778405
 20
59.3403306785
 30
0.0
 10
32.8920203258
 20
59.1199194707
 30
0.0
 10
32.6521684422
 20
58.9132016112
 30
0.0
 10
32.3329355049
 20
58.66255206
 30
0.0
 10
32.0826106759
 20
58.4953301459
 30
0.0
 10
31.9119651361
 20
58.3968050601
 30
0.0
  0
SPLINE
  5
2B9
100
AcDbEntity
  8
0
100
AcDbSpline
 62
7
  6
BYLAYER
 70
0
 71
3
 72
13
 73
9
 74
0
 42
0.0000001
 43
0.0000001
 44
0.0000000001
 40
0.0
 40
0.0
 40
0.0
 40
0.0
 40
0.2329450052
 40
0.3548509153
 40
0.4797443212
 40
0.6071362394
 40
0.7365689886
 40
1.0
 40
1.0
 40
1.0
 40
1.0
 10
25.123594475
 20
66.235060182
 30
0.0
 10
24.9529489225
 20
66.1365351188
 30
0.0
 10
24.7026241103
 20
65.9693131768
 30
0.0
 10
24.3833911698
 20
65.7186636338
 30
0.0
 10
24.1435392872
 20
65.5119457725
 30
0.0
 10
23.9074817731
 20
65.2915345666
 30
0.0
 10
23.5962870668
 20
64.9802717538
 30
0.0
 10
23.3718430849
 20
64.7349345935
 30
0.0
 10
23.2249772752
 20
64.5673478824
 30
0.0
  0
SPLINE
  5
2BA
100
AcDbEntity
  8
0
100
AcDbSpline
 62
7
  6
BYLAYER
 70
0
 71
3
 72
22
 73
18
 74
0
 42
0.0000001
 43
0.0000001
 44
0.0000000001
 40
0.0
 40
0.0
 40
0.0
 40
0.0
 40
0.0296447952
 40
0.0621069769
 40
0.0980152332
 40
0.1380138733
 40
0.1827155573
 40
0.2326397736
 40
0.2881439452
 40
0.3493658256
 40
0.416196509
 40
0.4882961057
 40
0.5651531471
 40
0.6461629933
 40
0.7307031628
 40
0.8181884782
 40
1.0
 40
1.0
 40
1.0
 40
1.0
 10
24.576318298
 20
58.7131956555
 30
0.0
 10
24.5480459705
 20
58.7305689033
 30
0.0
 10
24.4906785502
 20
58.7700744659
 30
0.0
 10
24.4066269152
 20
58.8408295223
 30
0.0
 10
24.3211657406
 20
58.927137913
 30
0.0
 10
24.2343591911
 20
59.0307168563
 30
0.0
 10
24.1463235064
 20
59.1531732596
 30
0.0
 10
24.0572692695
 20
59.2958102626
 30
0.0
 10
23.9674967908
 20
59.4594285475
 30
0.0
 10
23.8773841572
 20
59.6441564287
 30
0.0
 10
23.7873529864
 20
59.8493720779
 30
0.0
 10
23.6978171448
 20
60.0737524978
 30
0.0
 10
23.6091419741
 20
60.3154453321
 30
0.0
 10
23.5216107297
 20
60.572304986
 30
0.0
 10
23.4354083843
 20
60.8421256535
 30
0.0
 10
23.3209029893
 20
61.2213017075
 30
0.0
 10
23.2395327195
 20
61.5115915657
 30
0.0
 10
23.1863637254
 20
61.7080388313
 30
0.0
  0
SPLINE
  5
2BB
100
AcDbEntity
  8
0
100
AcDbSpline
 62
7
  6
BYLAYER
 70
0
 71
3
 72
23
 73
19
 74
0
 42
0.0000001
 43
0.0000001
 44
0.0000000001
 40
0.0
 40
0.0
 40
0.0
 40
0.0
 40
0.0558379067
 40
0.1141781358
 40
0.1747811679
 40
0.2373512185
 40
0.3015462192
 40
0.3669896943
 40
0.4332798197
 40
0.4999972451
 40
0.5667148643
 40
0.633005358
 40
0.698448948
 40
0.762645107
 40
0.8252159066
 40
0.8858167203
 40
0.9441683284
 40
1.0
 40
1.0
 40
1.0
 40
1.0
 10
31.8412510915
 20
58.3559792559
 30
0.0
 10
31.7299053241
 20
58.2916919054
 30
0.0
 10
31.4964310197
 20
58.1700771106
 30
0.0
 10
31.1259160447
 20
58.0120904594
 30
0.0
 10
30.7304686433
 20
57.8757672256
 30
0.0
 10
30.3138835438
 20
57.7624267991
 30
0.0
 10
29.8801257771
 20
57.6731302201
 30
0.0
 10
29.4333401411
 20
57.6087242956
 30
0.0
 10
28.9777944952
 20
57.5698345023
 30
0.0
 10
28.5178468137
 20
57.5568300782
 30
0.0
 10
28.0578980614
 20
57.5698269044
 30
0.0
 10
27.6023502305
 20
57.6087090685
 30
0.0
 10
27.155559497
 20
57.6731061782
 30
0.0
 10
26.7217959329
 20
57.7623983251
 30
0.0
 10
26.3052100698
 20
57.8757318695
 30
0.0
 10
25.9097345607
 20
58.0120447222
 30
0.0
 10
25.5392172223
 20
58.1700431163
 30
0.0
 10
25.3057265318
 20
58.2916513548
 30
0.0
 10
25.1943917706
 20
58.355929055
 30
0.0
  0
SPLINE
  5
2BC
100
AcDbEntity
  8
0
100
AcDbSpline
 62
7
  6
BYLAYER
 70
0
 71
3
 72
23
 73
19
 74
0
 42
0.0000001
 43
0.0000001
 44
0.0000000001
 40
0.0
 40
0.0
 40
0.0
 40
0.0
 40
0.0558315509
 40
0.1141828193
 40
0.1747833584
 40
0.2373539292
 40
0.3015498982
 40
0.3669934285
 40
0.4332840059
 40
0.5000017965
 40
0.5667194007
 40
0.6330096675
 40
0.6984532518
 40
0.762648362
 40
0.8252185486
 40
0.8858217167
 40
0.9441620501
 40
1.0
 40
1.0
 40
1.0
 40
1.0
 10
31.8411678405
 20
66.2759361871
 30
0.0
 10
31.7298333195
 20
66.3402137485
 30
0.0
 10
31.4963436435
 20
66.4618216375
 30
0.0
 10
31.1258278669
 20
66.6198193907
 30
0.0
 10
30.7303542708
 20
66.7561318003
 30
0.0
 10
30.313770131
 20
66.8694656027
 30
0.0
 10
29.8800076849
 20
66.9587577605
 30
0.0
 10
29.4332173939
 20
67.0231552041
 30
0.0
 10
28.9776691701
 20
67.0620381289
 30
0.0
 10
28.5177194159
 20
67.0750351845
 30
0.0
 10
28.0577705962
 20
67.0620310388
 30
0.0
 10
27.6022239258
 20
67.0231415646
 30
0.0
 10
27.1554374371
 20
66.9587356959
 30
0.0
 10
26.7216788459
 20
66.869439073
 30
0.0
 10
26.3050928295
 20
66.7560986562
 30
0.0
 10
25.9096445886
 20
66.6197751813
 30
0.0
 10
25.539128993
 20
66.4617883175
 30
0.0
 10
25.3056543735
 20
66.3401733868
 30
0.0
 10
25.1943085194
 20
66.2758859861
 30
0.0
  0
SPLINE
  5
2BD
100
AcDbEntity
  8
0
100
AcDbSpline
 62
7
  6
BYLAYER
 70
0
 71
3
 72
23
 73
19
 74
0
 42
0.0000001
 43
0.0000001
 44
0.0000000001
 40
0.0
 40
0.0
 40
0.0
 40
0.0
 40
0.0558269218
 40
0.1141819954
 40
0.1747828757
 40
0.237351575
 40
0.3015474968
 40
0.3669907364
 40
0.4332808993
 40
0.4999996316
 40
0.5667180835
 40
0.633008821
 40
0.6984532997
 40
0.7626485875
 40
0.8252189724
 40
0.8858221881
 40
0.9441621573
 40
1.0
 40
1.0
 40
1.0
 40
1.0
 10
30.639108981
 20
63.1324664003
 30
0.0
 10
30.5680502712
 20
63.09144088
 30
0.0
 10
30.4190133286
 20
63.0138219262
 30
0.0
 10
30.1825170844
 20
62.9129642002
 30
0.0
 10
29.9300830943
 20
62.8259530968
 30
0.0
 10
29.6641780842
 20
62.753618276
 30
0.0
 10
29.3873125452
 20
62.6966136652
 30
0.0
 10
29.1021264199
 20
62.6555117649
 30
0.0
 10
28.8113494763
 20
62.6306944563
 30
0.0
 10
28.517761394
 20
62.6223885484
 30
0.0
 10
28.224172491
 20
62.6306962156
 30
0.0
 10
27.9333935828
 20
62.6555174003
 30
0.0
 10
27.6482062648
 20
62.6966227424
 30
0.0
 10
27.3713373314
 20
62.7536274672
 30
0.0
 10
27.105428704
 20
62.8259690648
 30
0.0
 10
26.8530137746
 20
62.9129841989
 30
0.0
 10
26.6165149077
 20
63.0138290318
 30
0.0
 10
26.4674878545
 20
63.0914542406
 30
0.0
 10
26.3964156865
 20
63.1324885527
 30
0.0
  0
SPLINE
  5
2BE
100
AcDbEntity
  8
0
100
AcDbSpline
 62
7
  6
BYLAYER
 70
0
 71
3
 72
22
 73
18
 74
0
 42
0.0000001
 43
0.0000001
 44
0.0000000001
 40
0.0
 40
0.0
 40
0.0
 40
0.0
 40
0.1818115243
 40
0.2692968431
 40
0.3538370133
 40
0.4348468618
 40
0.5117039047
 40
0.5838035014
 40
0.6506341866
 40
0.7118560633
 40
0.7673602336
 40
0.8172844482
 40
0.8619861301
 40
0.9019847695
 40
0.9378930241
 40
0.9703552046
 40
1.0
 40
1.0
 40
1.0
 40
1.0
 10
33.8491958857
 20
62.9238264107
 30
0.0
 10
33.7960268909
 20
63.1202736791
 30
0.0
 10
33.7146566193
 20
63.4105635437
 30
0.0
 10
33.6001512216
 20
63.7897396047
 30
0.0
 10
33.5139488739
 20
64.0595602792
 30
0.0
 10
33.4264176272
 20
64.3164199374
 30
0.0
 10
33.3377424546
 20
64.5581127754
 30
0.0
 10
33.2482066106
 20
64.7824931983
 30
0.0
 10
33.1581754393
 20
64.987708845
 30
0.0
 10
33.0680628057
 20
65.1724367223
 30
0.0
 10
32.9782903294
 20
65.3360549999
 30
0.0
 10
32.8892360948
 20
65.4786919976
 30
0.0
 10
32.8012004119
 20
65.601148396
 30
0.0
 10
32.7143938652
 20
65.7047273352
 30
0.0
 10
32.6289326929
 20
65.7910357224
 30
0.0
 10
32.5448810601
 20
65.8617907766
 30
0.0
 10
32.4875136408
 20
65.9012963387
 30
0.0
 10
32.459241313
 20
65.9186695866
 30
0.0
  0
SPLINE
  5
2BF
100
AcDbEntity
  8
0
100
AcDbSpline
 62
7
  6
BYLAYER
 70
0
 71
3
 72
26
 73
22
 74
0
 42
0.0000001
 43
0.0000001
 44
0.0000000001
 40
0.0
 40
0.0
 40
0.0
 40
0.0
 40
0.0736836495
 40
0.1435458921
 40
0.2096377118
 40
0.2721708614
 40
0.331539922
 40
0.3883338289
 40
0.4433249955
 40
0.4704512564
 40
0.4974801461
 40
0.5245377849
 40
0.5517498981
 40
0.607074849
 40
0.6643931325
 40
0.724438659
 40
0.7556770508
 40
0.7877828003
 40
0.8547166329
 40
0.9254651743
 40
1.0
 40
1.0
 40
1.0
 40
1.0
 10
25.1219846209
 20
66.2331982185
 30
0.0
 10
25.0197955453
 20
66.1715392432
 30
0.0
 10
24.8255773957
 20
66.0430456979
 30
0.0
 10
24.560948473
 20
65.8294002396
 30
0.0
 10
24.3330004185
 20
65.6017239609
 30
0.0
 10
24.1439588162
 20
65.3619986027
 30
0.0
 10
23.9957406596
 20
65.1122900924
 30
0.0
 10
23.8899702485
 20
64.8549047639
 30
0.0
 10
23.8380664756
 20
64.6348513605
 30
0.0
 10
23.8192462733
 20
64.4588888927
 30
0.0
 10
23.8162324762
 20
64.327219212
 30
0.0
 10
23.8242758403
 20
64.1956218899
 30
0.0
 10
23.8498562888
 20
64.0197814662
 30
0.0
 10
23.9102306147
 20
63.80032923
 30
0.0
 10
24.0257875151
 20
63.5445062596
 30
0.0
 10
24.1554911587
 20
63.340797901
 30
0.0
 10
24.2784681899
 20
63.1831244705
 30
0.0
 10
24.4182154402
 20
63.0248524863
 30
0.0
 10
24.6180517596
 20
62.8350213585
 30
0.0
 10
24.890702752
 20
62.6248676364
 30
0.0
 10
25.0898370044
 20
62.4988044975
 30
0.0
 10
25.1943917706
 20
62.4384411407
 30
0.0
  0
SPLINE
  5
2C0
100
AcDbEntity
  8
0
100
AcDbSpline
 62
7
  6
BYLAYER
 70
0
 71
3
 72
43
 73
39
 74
0
 42
0.0000001
 43
0.0000001
 44
0.0000000001
 40
0.0
 40
0.0
 40
0.0
 40
0.0
 40
0.0325427524
 40
0.0665541684
 40
0.1018766146
 40
0.1383473346
 40
0.175765456
 40
0.2139107529
 40
0.2525497821
 40
0.2914378391
 40
0.3303258095
 40
0.3689647234
 40
0.4071101599
 40
0.444527929
 40
0.4809986105
 40
0.5163228075
 40
0.5503280959
 40
0.5828748458
 40
0.6138634527
 40
0.6432440537
 40
0.6710251044
 40
0.684342654
 40
0.6972957121
 40
0.7221852
 40
0.7459445158
 40
0.7688928518
 40
0.7801917004
 40
0.7914366791
 40
0.8026816699
 40
0.8139805646
 40
0.8369289847
 40
0.860688244
 40
0.885578187
 40
0.8985315625
 40
0.9118489212
 40
0.939628396
 40
0.969015318
 40
1.0
 40
1.0
 40
1.0
 40
1.0
 10
25.1943917706
 20
62.4384411407
 30
0.0
 10
25.3057250353
 20
62.3741643045
 30
0.0
 10
25.5392119621
 20
62.2525577034
 30
0.0
 10
25.9097232119
 20
62.0945613299
 30
0.0
 10
26.305191817
 20
61.9582497925
 30
0.0
 10
26.721770633
 20
61.8449163201
 30
0.0
 10
27.1555275583
 20
61.7556239199
 30
0.0
 10
27.6023122765
 20
61.6912256471
 30
0.0
 10
28.057855023
 20
61.6523413034
 30
0.0
 10
28.5177995388
 20
61.6393422373
 30
0.0
 10
28.9777435219
 20
61.652343809
 30
0.0
 10
29.4332858405
 20
61.6912301425
 30
0.0
 10
29.8800688164
 20
61.7556324612
 30
0.0
 10
30.3138240723
 20
61.8449247169
 30
0.0
 10
30.7304098907
 20
61.9582616597
 30
0.0
 10
31.1258510226
 20
62.094576731
 30
0.0
 10
31.4963886112
 20
62.2525711397
 30
0.0
 10
31.8385009092
 20
62.4307640847
 30
0.0
 10
32.1489419929
 20
62.6275236069
 30
0.0
 10
32.4247392871
 20
62.8410120727
 30
0.0
 10
32.6263354965
 20
63.0339643683
 30
0.0
 10
32.7668660382
 20
63.1948908132
 30
0.0
 10
32.890154319
 20
63.3551617606
 30
0.0
 10
33.019517413
 20
63.5622678202
 30
0.0
 10
33.1333594599
 20
63.8223273195
 30
0.0
 10
33.1911381902
 20
64.0452362737
 30
0.0
 10
33.213978979
 20
64.2236731174
 30
0.0
 10
33.2196659813
 20
64.3571957615
 30
0.0
 10
33.2139784684
 20
64.4907186024
 30
0.0
 10
33.1911350067
 20
64.6691556886
 30
0.0
 10
33.133355138
 20
64.8920644479
 30
0.0
 10
33.0195123453
 20
65.1521259058
 30
0.0
 10
32.89014353
 20
65.3592318283
 30
0.0
 10
32.7668514924
 20
65.5195028848
 30
0.0
 10
32.6263257102
 20
65.6804249216
 30
0.0
 10
32.4247176888
 20
65.8733983687
 30
0.0
 10
32.1489214961
 20
66.0868595512
 30
0.0
 10
31.9471707302
 20
66.2147367746
 30
0.0
 10
31.8411678405
 20
66.2759361871
 30
0.0
  0
SPLINE
  5
2C1
100
AcDbEntity
  8
0
100
AcDbSpline
 62
7
  6
BYLAYER
 70
0
 71
3
 72
9
 73
5
 74
0
 42
0.0000001
 43
0.0000001
 44
0.0000000001
 40
0.0
 40
0.0
 40
0.0
 40
0.0
 40
0.2459279752
 40
1.0
 40
1.0
 40
1.0
 40
1.0
 10
26.999253828
 20
65.8509407579
 30
0.0
 10
27.0295857841
 20
65.8612188639
 30
0.0
 10
27.1534308623
 20
65.9015018915
 30
0.0
 10
27.2791983867
 20
65.9358305682
 30
0.0
 10
27.3747308108
 20
65.9585603972
 30
0.0
  0
SPLINE
  5
2C2
100
AcDbEntity
  8
0
100
AcDbSpline
 62
7
  6
BYLAYER
 70
0
 71
3
 72
24
 73
20
 74
0
 42
0.0000001
 43
0.0000001
 44
0.0000000001
 40
0.0
 40
0.0
 40
0.0
 40
0.0
 40
0.0752957112
 40
0.146694788
 40
0.2141630238
 40
0.2464733283
 40
0.2778664998
 40
0.3380714352
 40
0.3953443549
 40
0.4504359066
 40
0.5042785056
 40
0.5579211067
 40
0.6124310435
 40
0.6687943736
 40
0.7278365728
 40
0.7901694921
 40
0.8561990761
 40
0.9261537337
 40
1.0
 40
1.0
 40
1.0
 40
1.0
 10
30.5584155724
 20
65.6267865723
 30
0.0
 10
30.6302546005
 20
65.5883008471
 30
0.0
 10
30.7672467092
 20
65.5075482109
 30
0.0
 10
30.9554989996
 20
65.3717086098
 30
0.0
 10
31.0940596225
 20
65.2480833362
 30
0.0
 10
31.1913142939
 20
65.144534821
 30
0.0
 10
31.2769676012
 20
65.0412452852
 30
0.0
 10
31.367723131
 20
64.9074420289
 30
0.0
 10
31.4493419843
 20
64.7386360294
 30
0.0
 10
31.501153668
 20
64.5654987497
 30
0.0
 10
31.5223692878
 20
64.3899192388
 30
0.0
 10
31.5126319034
 20
64.2139509056
 30
0.0
 10
31.4721349278
 20
64.0396746767
 30
0.0
 10
31.4014751585
 20
63.869048481
 30
0.0
 10
31.3016196624
 20
63.7038419205
 30
0.0
 10
31.173797384
 20
63.5456260101
 30
0.0
 10
31.0193548459
 20
63.3958720045
 30
0.0
 10
30.8399248732
 20
63.2560218516
 30
0.0
 10
30.7083301484
 20
63.1724310214
 30
0.0
 10
30.639108981
 20
63.1324664003
 30
0.0
  0
SPLINE
  5
2C3
100
AcDbEntity
  8
0
100
AcDbSpline
 62
7
  6
BYLAYER
 70
0
 71
3
 72
25
 73
21
 74
0
 42
0.0000001
 43
0.0000001
 44
0.0000000001
 40
0.0
 40
0.0
 40
0.0
 40
0.0
 40
0.0742974795
 40
0.144740111
 40
0.2113473584
 40
0.24327749
 40
0.2743330303
 40
0.3340083796
 40
0.3909733865
 40
0.4459941398
 40
0.4999973242
 40
0.5540008707
 40
0.6090213916
 40
0.6659858986
 40
0.7256629794
 40
0.7567186763
 40
0.7886468925
 40
0.8552517992
 40
0.925717059
 40
1.0
 40
1.0
 40
1.0
 40
1.0
 10
26.3964156865
 20
63.1324885527
 30
0.0
 10
26.3287483387
 20
63.1715570537
 30
0.0
 10
26.1999800037
 20
63.2531764722
 30
0.0
 10
26.0239538323
 20
63.3894336109
 30
0.0
 10
25.8952818094
 20
63.5125993046
 30
0.0
 10
25.8055806144
 20
63.6153120137
 30
0.0
 10
25.7268970141
 20
63.7176183944
 30
0.0
 10
25.6443174054
 20
63.849799159
 30
0.0
 10
25.5716652513
 20
64.015819012
 30
0.0
 10
25.5276485576
 20
64.1855531967
 30
0.0
 10
25.5128921171
 20
64.3572018336
 30
0.0
 10
25.5276538987
 20
64.5288495756
 30
0.0
 10
25.5716716531
 20
64.6985829761
 30
0.0
 10
25.6443277242
 20
64.8646025582
 30
0.0
 10
25.7269136749
 20
64.9967810344
 30
0.0
 10
25.8055984877
 20
65.0990863327
 30
0.0
 10
25.8952948836
 20
65.2017973887
 30
0.0
 10
26.0239801993
 20
65.3249780162
 30
0.0
 10
26.2000240314
 20
65.4612222523
 30
0.0
 10
26.3287961023
 20
65.5428508007
 30
0.0
 10
26.3964506301
 20
65.5819109274
 30
0.0
  0
SPLINE
  5
2C4
100
AcDbEntity
  8
0
100
AcDbSpline
 62
7
  6
BYLAYER
 70
0
 71
3
 72
14
 73
10
 74
0
 42
0.0000001
 43
0.0000001
 44
0.0000000001
 40
0.0
 40
0.0
 40
0.0
 40
0.0
 40
0.1400777807
 40
0.275078777
 40
0.405238699
 40
0.5309676084
 40
0.6527790224
 40
0.7712218709
 40
1.0
 40
1.0
 40
1.0
 40
1.0
 10
31.839420882
 20
58.3558160584
 30
0.0
 10
31.7614144493
 20
58.3127029137
 30
0.0
 10
31.6055936589
 20
58.2326858041
 30
0.0
 10
31.3688586642
 20
58.1300561903
 30
0.0
 10
31.1343859634
 20
58.0465419584
 30
0.0
 10
30.9029621031
 20
57.9811245475
 30
0.0
 10
30.6750816611
 20
57.9324065954
 30
0.0
 10
30.379817905
 20
57.8880984616
 30
0.0
 10
30.1587824936
 20
57.8741088487
 30
0.0
 10
30.0132306366
 20
57.8721284207
 30
0.0
  0
SPLINE
  5
2C5
100
AcDbEntity
  8
0
100
AcDbSpline
 62
7
  6
BYLAYER
 70
0
 71
3
 72
20
 73
16
 74
0
 42
0.0000001
 43
0.0000001
 44
0.0000000001
 40
0.0
 40
0.0
 40
0.0
 40
0.0
 40
0.1475842572
 40
0.220097446
 40
0.291467224
 40
0.3614371663
 40
0.4297333061
 40
0.5602372638
 40
0.6221467847
 40
0.6817399221
 40
0.7391033197
 40
0.7944151095
 40
0.8479112254
 40
0.8998495758
 40
1.0
 40
1.0
 40
1.0
 40
1.0
 10
30.0132306366
 20
60.648236639
 30
0.0
 10
30.1601007502
 20
60.8158282613
 30
0.0
 10
30.3845515158
 20
61.0611724901
 30
0.0
 10
30.6957556309
 20
61.372443373
 30
0.0
 10
30.9318212916
 20
61.5928602732
 30
0.0
 10
31.1716779366
 20
61.7995805553
 30
0.0
 10
31.4909338655
 20
62.0502419059
 30
0.0
 10
31.8191485682
 20
62.2694938511
 30
0.0
 10
32.1546351695
 20
62.4495460017
 30
0.0
 10
32.4008246811
 20
62.5611139674
 30
0.0
 10
32.6448008548
 20
62.651902425
 30
0.0
 10
32.8856431851
 20
62.7229428237
 30
0.0
 10
33.1227374907
 20
62.7757362995
 30
0.0
 10
33.4296037774
 20
62.8235755957
 30
0.0
 10
33.6593773119
 20
62.8385682311
 30
0.0
 10
33.8105823359
 20
62.8406255779
 30
0.0
  0
SPLINE
  5
2C6
100
AcDbEntity
  8
0
100
AcDbSpline
 62
7
  6
BYLAYER
 70
0
 71
3
 72
19
 73
15
 74
0
 42
0.0000001
 43
0.0000001
 44
0.0000000001
 40
0.0
 40
0.0
 40
0.0
 40
0.0
 40
0.1171473493
 40
0.2367126888
 40
0.2975630038
 40
0.3591526038
 40
0.4214703789
 40
0.4844650782
 40
0.5480472444
 40
0.6120999703
 40
0.6764956377
 40
0.7411123882
 40
0.8705882182
 40
1.0
 40
1.0
 40
1.0
 40
1.0
 10
24.6818145565
 20
61.4283969584
 30
0.0
 10
24.8860816229
 20
61.4810955629
 30
0.0
 10
25.3027285831
 20
61.5732908555
 30
0.0
 10
25.8348801228
 20
61.643360889
 30
0.0
 10
26.2702686786
 20
61.6662753353
 30
0.0
 10
26.6031627322
 20
61.6650397011
 30
0.0
 10
26.9392663954
 20
61.6438733525
 30
0.0
 10
27.2770407169
 20
61.6019571189
 30
0.0
 10
27.6147403347
 20
61.5391893461
 30
0.0
 10
27.9506377158
 20
61.4562377429
 30
0.0
 10
28.283231229
 20
61.3544153268
 30
0.0
 10
28.7210080708
 20
61.195743903
 30
0.0
 10
29.2544500248
 20
60.9598397441
 30
0.0
 10
29.6664322218
 20
60.7409442334
 30
0.0
 10
29.8691208284
 20
60.6259427215
 30
0.0
  0
SPLINE
  5
2C7
100
AcDbEntity
  8
0
100
AcDbSpline
 62
7
  6
BYLAYER
 70
0
 71
3
 72
22
 73
18
 74
0
 42
0.0000001
 43
0.0000001
 44
0.0000000001
 40
0.0
 40
0.0
 40
0.0
 40
0.0
 40
0.0296447952
 40
0.0621069769
 40
0.0980152332
 40
0.1380138733
 40
0.1827155573
 40
0.2326397736
 40
0.2881439452
 40
0.3493658256
 40
0.4161965089
 40
0.4882961057
 40
0.5651531471
 40
0.6461629934
 40
0.7307031629
 40
0.8181884782
 40
1.0
 40
1.0
 40
1.0
 40
1.0
 10
23.1863637254
 20
64.4841470496
 30
0.0
 10
23.214636053
 20
64.4667738018
 30
0.0
 10
23.2720034733
 20
64.4272682391
 30
0.0
 10
23.3560551082
 20
64.3565131827
 30
0.0
 10
23.4415162828
 20
64.2702047921
 30
0.0
 10
23.5283228324
 20
64.1666258488
 30
0.0
 10
23.616358517
 20
64.0441694454
 30
0.0
 10
23.705412754
 20
63.9015324424
 30
0.0
 10
23.7951852326
 20
63.7379141576
 30
0.0
 10
23.8852978662
 20
63.5531862764
 30
0.0
 10
23.975329037
 20
63.3479706272
 30
0.0
 10
24.0648648787
 20
63.1235902072
 30
0.0
 10
24.1535400494
 20
62.8818973729
 30
0.0
 10
24.2410712937
 20
62.6250377191
 30
0.0
 10
24.3272736391
 20
62.3552170515
 30
0.0
 10
24.4417790341
 20
61.9760409975
 30
0.0
 10
24.5231493039
 20
61.6857511394
 30
0.0
 10
24.576318298
 20
61.4893038737
 30
0.0
  0
SPLINE
  5
2C8
100
AcDbEntity
  8
0
100
AcDbSpline
 62
7
  6
BYLAYER
 70
0
 71
3
 72
19
 73
15
 74
0
 42
0.0000001
 43
0.0000001
 44
0.0000000001
 40
0.0
 40
0.0
 40
0.0
 40
0.0
 40
0.117520828
 40
0.2371692282
 40
0.2979263661
 40
0.3593401512
 40
0.4214187343
 40
0.4841434996
 40
0.5474664848
 40
0.6113127418
 40
0.6755880522
 40
0.7401898258
 40
0.8699540634
 40
1.0
 40
1.0
 40
1.0
 40
1.0
 10
29.8691208284
 20
57.8498345033
 30
0.0
 10
29.6866414583
 20
57.8027568792
 30
0.0
 10
29.315294057
 20
57.7191504156
 30
0.0
 10
28.8420038217
 20
57.6497455986
 30
0.0
 10
28.4552778719
 20
57.6195129491
 30
0.0
 10
28.1598201934
 20
57.6108150617
 30
0.0
 10
27.8611412129
 20
57.61738072
 30
0.0
 10
27.5601743779
 20
57.6400944767
 30
0.0
 10
27.2580667378
 20
57.6794490327
 30
0.0
 10
26.9560754624
 20
57.7354598556
 30
0.0
 10
26.6554377521
 20
57.807657641
 30
0.0
 10
26.2573202976
 20
57.9244619563
 30
0.0
 10
25.7689026145
 20
58.1055629123
 30
0.0
 10
25.3902808715
 20
58.2802756192
 30
0.0
 10
25.2037237408
 20
58.3734694679
 30
0.0
  0
SPLINE
  5
2C9
100
AcDbEntity
  8
0
100
AcDbSpline
 62
7
  6
BYLAYER
 70
0
 71
3
 72
9
 73
5
 74
0
 42
0.0000001
 43
0.0000001
 44
0.0000000001
 40
0.0
 40
0.0
 40
0.0
 40
0.0
 40
0.2501667205
 40
1.0
 40
1.0
 40
1.0
 40
1.0
 10
25.2037237408
 20
58.3734694679
 30
0.0
 10
25.1595793199
 20
58.3955216321
 30
0.0
 10
24.9837687663
 20
58.4849692821
 30
0.0
 10
24.8104570645
 20
58.579299522
 30
0.0
 10
24.6818145565
 20
58.6522887402
 30
0.0
  0
SPLINE
  5
2CA
100
AcDbEntity
  8
0
100
AcDbSpline
 62
7
  6
BYLAYER
 70
0
 71
3
 72
15
 73
11
 74
0
 42
0.0000001
 43
0.0000001
 44
0.0000000001
 40
0.0
 40
0.0
 40
0.0
 40
0.0
 40
0.1141515087
 40
0.2373301591
 40
0.3669778071
 40
0.5000005759
 40
0.6330236626
 40
0.7626743904
 40
0.8858459846
 40
1.0
 40
1.0
 40
1.0
 40
1.0
 10
7.5520709563
 20
20.3680919938
 30
0.0
 10
7.5520709563
 20
20.278663023
 30
0.0
 10
7.5684544059
 20
20.0925598537
 30
0.0
 10
7.6337483735
 20
19.8118028564
 30
0.0
 10
7.7383649374
 20
19.5274204726
 30
0.0
 10
7.8783659994
 20
19.2501048749
 30
0.0
 10
8.0485268626
 20
18.9901985983
 30
0.0
 10
8.242503096
 20
18.7574126413
 30
0.0
 10
8.4529923522
 20
18.5604828429
 30
0.0
 10
8.605968705
 20
18.4532459116
 30
0.0
 10
8.683417543
 20
18.408529365
 30
0.0
  0
SPLINE
  5
2CB
100
AcDbEntity
  8
0
100
AcDbSpline
 62
7
  6
BYLAYER
 70
0
 71
3
 72
14
 73
10
 74
0
 42
0.0000001
 43
0.0000001
 44
0.0000000001
 40
0.0
 40
0.0
 40
0.0
 40
0.0
 40
0.1080610879
 40
0.2181596691
 40
0.332155279
 40
0.4515599132
 40
0.7103708631
 40
0.8514080973
 40
1.0
 40
1.0
 40
1.0
 40
1.0
 10
7.9662925283
 20
21.6102578403
 30
0.0
 10
7.9335013053
 20
21.5913263749
 30
0.0
 10
7.8704641369
 20
21.5473227146
 30
0.0
 10
7.7871460702
 20
21.4653547836
 30
0.0
 10
7.7155186175
 20
21.3680284205
 30
0.0
 10
7.6342733866
 20
21.2153323499
 30
0.0
 10
7.5821461757
 20
21.0388809144
 30
0.0
 10
7.5562917228
 20
20.8483361733
 30
0.0
 10
7.5520686011
 20
20.7467514044
 30
0.0
 10
7.5520686011
 20
20.6946859572
 30
0.0
  0
SPLINE
  5
2CC
100
AcDbEntity
  8
0
100
AcDbSpline
 62
7
  6
BYLAYER
 70
0
 71
3
 72
15
 73
11
 74
0
 42
0.0000001
 43
0.0000001
 44
0.0000000001
 40
0.0
 40
0.0
 40
0.0
 40
0.0
 40
0.1486025682
 40
0.2895002298
 40
0.4227203132
 40
0.5486432716
 40
0.6679991308
 40
0.7819389812
 40
0.8919869925
 40
1.0
 40
1.0
 40
1.0
 40
1.0
 10
8.9662518369
 20
18.2452205224
 30
0.0
 10
9.0113655859
 20
18.2191733382
 30
0.0
 10
9.1014174547
 20
18.1720380174
 30
0.0
 10
9.2387722631
 20
18.1158045989
 30
0.0
 10
9.3736849532
 20
18.0764900066
 30
0.0
 10
9.5048739462
 20
18.0544592873
 30
0.0
 10
9.6311245972
 20
18.0500868305
 30
0.0
 10
9.7512170782
 20
18.0634584961
 30
0.0
 10
9.8638639768
 20
18.094630894
 30
0.0
 10
9.9334917959
 20
18.1272192697
 30
0.0
 10
9.9662835745
 20
18.1461510559
 30
0.0
  0
SPLINE
  5
2CD
100
AcDbEntity
  8
0
100
AcDbSpline
 62
7
  6
BYLAYER
 70
0
 71
3
 72
25
 73
21
 74
0
 42
0.0000001
 43
0.0000001
 44
0.0000000001
 40
0.0
 40
0.0
 40
0.0
 40
0.0
 40
0.0623733757
 40
0.1287280346
 40
0.1983135594
 40
0.2702912948
 40
0.3436687514
 40
0.4173996816
 40
0.4904238624
 40
0.5617106244
 40
0.6303076443
 40
0.6953947824
 40
0.7563427378
 40
0.8127809614
 40
0.8646816231
 40
0.9124565119
 40
0.9351018586
 40
0.9571071324
 40
0.9786678002
 40
1.0
 40
1.0
 40
1.0
 40
1.0
 10
10.3805075017
 20
19.0617229391
 30
0.0
 10
10.3805075017
 20
19.1446821099
 30
0.0
 10
10.3692530461
 20
19.3160086196
 30
0.0
 10
10.3230202169
 20
19.5761370139
 30
0.0
 10
10.2478011814
 20
19.8426916246
 30
0.0
 10
10.1452764555
 20
20.1099531442
 30
0.0
 10
10.0175772307
 20
20.3722708383
 30
0.0
 10
9.867449535
 20
20.624043422
 30
0.0
 10
9.6980981635
 20
20.8599065276
 30
0.0
 10
9.513125174
 20
21.0748312269
 30
0.0
 10
9.3164497616
 20
21.2642409553
 30
0.0
 10
9.1122160683
 20
21.4241266794
 30
0.0
 10
8.9046727572
 20
21.5511068923
 30
0.0
 10
8.6980102037
 20
21.6424396705
 30
0.0
 10
8.4964149092
 20
21.6960188375
 30
0.0
 10
8.3329119104
 20
21.7080109573
 30
0.0
 10
8.2102809575
 20
21.6965166451
 30
0.0
 10
8.1239417924
 20
21.6780964379
 30
0.0
 10
8.0421631584
 20
21.649820223
 30
0.0
 10
7.990864195
 20
21.6244438821
 30
0.0
 10
7.9662925283
 20
21.6102578403
 30
0.0
  0
SPLINE
  5
2CE
100
AcDbEntity
  8
0
100
AcDbSpline
 62
7
  6
BYLAYER
 70
0
 71
3
 72
14
 73
10
 74
0
 42
0.0000001
 43
0.0000001
 44
0.0000000001
 40
0.0
 40
0.0
 40
0.0
 40
0.0
 40
0.1080610879
 40
0.2181596691
 40
0.332155279
 40
0.4515599132
 40
0.7103708631
 40
0.8514080973
 40
1.0
 40
1.0
 40
1.0
 40
1.0
 10
9.9662835745
 20
18.1461510559
 30
0.0
 10
9.9990747975
 20
18.1650825214
 30
0.0
 10
10.0621119659
 20
18.2090861817
 30
0.0
 10
10.1454300326
 20
18.2910541127
 30
0.0
 10
10.2170574853
 20
18.3883804758
 30
0.0
 10
10.2983027162
 20
18.5410765464
 30
0.0
 10
10.3504299271
 20
18.7175279819
 30
0.0
 10
10.37628438
 20
18.908072723
 30
0.0
 10
10.3805075017
 20
19.0096574919
 30
0.0
 10
10.3805075017
 20
19.0617229391
 30
0.0
  0
SPLINE
  5
2CF
100
AcDbEntity
  8
0
100
AcDbSpline
 62
7
  6
BYLAYER
 70
0
 71
3
 72
27
 73
23
 74
0
 42
0.0000001
 43
0.0000001
 44
0.0000000001
 40
0.0
 40
0.0
 40
0.0
 40
0.0
 40
0.0660126528
 40
0.1369399478
 40
0.2115540965
 40
0.2883979008
 40
0.3658370048
 40
0.4422091809
 40
0.5159155427
 40
0.5855452021
 40
0.6500037508
 40
0.7086695419
 40
0.7615868221
 40
0.7861914351
 40
0.8097901234
 40
0.832657395
 40
0.8551158317
 40
0.8775213426
 40
0.9002333962
 40
0.9235891638
 40
0.9478734838
 40
1.0
 40
1.0
 40
1.0
 40
1.0
 10
9.8148220767
 20
19.0617215794
 30
0.0
 10
9.8148220767
 20
19.1435300249
 30
0.0
 10
9.8011167379
 20
19.3133815151
 30
0.0
 10
9.7459481032
 20
19.5703013294
 30
0.0
 10
9.6570704331
 20
19.8317907298
 30
0.0
 10
9.5373597787
 20
20.0895304009
 30
0.0
 10
9.3905610542
 20
20.3353973398
 30
0.0
 10
9.2213484726
 20
20.5615971062
 30
0.0
 10
9.0350520876
 20
20.7609746275
 30
0.0
 10
8.8375154537
 20
20.9272540749
 30
0.0
 10
8.6347510516
 20
21.0552180938
 30
0.0
 10
8.4328874004
 20
21.1407907015
 30
0.0
 10
8.2659833071
 20
21.1749002021
 30
0.0
 10
8.1403487818
 20
21.1765281265
 30
0.0
 10
8.0526396683
 20
21.1657258837
 30
0.0
 10
7.9699700563
 20
21.1429985739
 30
0.0
 10
7.8930854436
 20
21.1084748135
 30
0.0
 10
7.8227157989
 20
21.0624412623
 30
0.0
 10
7.7594806096
 20
21.0053644674
 30
0.0
 10
7.7039586284
 20
20.9377389775
 30
0.0
 10
7.6392324317
 20
20.8320427855
 30
0.0
 10
7.6059348296
 20
20.7421839199
 30
0.0
 10
7.5894928286
 20
20.6797118015
 30
0.0
  0
SPLINE
  5
2D0
100
AcDbEntity
  8
0
100
AcDbSpline
 62
7
  6
BYLAYER
 70
0
 71
3
 72
9
 73
5
 74
0
 42
0.0000001
 43
0.0000001
 44
0.0000000001
 40
0.0
 40
0.0
 40
0.0
 40
0.0
 40
0.4824304407
 40
1.0
 40
1.0
 40
1.0
 40
1.0
 10
7.5894928286
 20
20.6797118015
 30
0.0
 10
7.5766203718
 20
20.6308023261
 30
0.0
 10
7.5577234373
 20
20.5272933238
 30
0.0
 10
7.5520709563
 20
20.4223508268
 30
0.0
 10
7.5520709563
 20
20.3680919938
 30
0.0
  0
SPLINE
  5
2D1
100
AcDbEntity
  8
0
100
AcDbSpline
 62
7
  6
BYLAYER
 70
0
 71
3
 72
9
 73
5
 74
0
 42
0.0000001
 43
0.0000001
 44
0.0000000001
 40
0.0
 40
0.0
 40
0.0
 40
0.0
 40
0.264352799
 40
1.0
 40
1.0
 40
1.0
 40
1.0
 10
8.683417543
 20
18.408529365
 30
0.0
 10
8.7085130094
 20
18.3940400244
 30
0.0
 10
8.8049573624
 20
18.3419839503
 30
0.0
 10
8.9080030449
 20
18.3014458412
 30
0.0
 10
8.9861085837
 20
18.2813851111
 30
0.0
  0
SPLINE
  5
2D2
100
AcDbEntity
  8
0
100
AcDbSpline
 62
7
  6
BYLAYER
 70
0
 71
3
 72
19
 73
15
 74
0
 42
0.0000001
 43
0.0000001
 44
0.0000000001
 40
0.0
 40
0.0
 40
0.0
 40
0.0
 40
0.1288908106
 40
0.1893352687
 40
0.2476088899
 40
0.3042768334
 40
0.3599882974
 40
0.4154564381
 40
0.4714093401
 40
0.5285470446
 40
0.5874904681
 40
0.7125676935
 40
0.8497672198
 40
1.0
 40
1.0
 40
1.0
 40
1.0
 10
8.9861085837
 20
18.2813851111
 30
0.0
 10
9.0424091724
 20
18.2669247933
 30
0.0
 10
9.1275133543
 20
18.2530889745
 30
0.0
 10
9.2393872844
 20
18.2544797449
 30
0.0
 10
9.3179752658
 20
18.26523765
 30
0.0
 10
9.3924199098
 20
18.2856554772
 30
0.0
 10
9.462198828
 20
18.3156347407
 30
0.0
 10
9.5267747226
 20
18.3549940961
 30
0.0
 10
9.5857063688
 20
18.4033971229
 30
0.0
 10
9.6385412868
 20
18.4605303395
 30
0.0
 10
9.7016590883
 20
18.549418639
 30
0.0
 10
9.7630941251
 20
18.682086138
 30
0.0
 10
9.8061229507
 20
18.8640445638
 30
0.0
 10
9.8148220767
 20
18.993968715
 30
0.0
 10
9.8148220767
 20
19.0617215794
 30
0.0
  0
SPLINE
  5
2D3
100
AcDbEntity
  8
0
100
AcDbSpline
 62
7
  6
BYLAYER
 70
0
 71
3
 72
15
 73
11
 74
0
 42
0.0000001
 43
0.0000001
 44
0.0000000001
 40
0.0
 40
0.0
 40
0.0
 40
0.0
 40
0.1141515087
 40
0.2373301591
 40
0.3669778071
 40
0.5000005759
 40
0.6330236626
 40
0.7626743904
 40
0.8858459846
 40
1.0
 40
1.0
 40
1.0
 40
1.0
 10
7.5520709563
 20
39.9641500049
 30
0.0
 10
7.5520709563
 20
39.8747210341
 30
0.0
 10
7.5684544059
 20
39.6886178648
 30
0.0
 10
7.6337483735
 20
39.4078608675
 30
0.0
 10
7.7383649374
 20
39.1234784837
 30
0.0
 10
7.8783659994
 20
38.846162886
 30
0.0
 10
8.0485268626
 20
38.5862566094
 30
0.0
 10
8.242503096
 20
38.3534706524
 30
0.0
 10
8.4529923522
 20
38.156540854
 30
0.0
 10
8.605968705
 20
38.0493039227
 30
0.0
 10
8.683417543
 20
38.0045873761
 30
0.0
  0
SPLINE
  5
2D4
100
AcDbEntity
  8
0
100
AcDbSpline
 62
7
  6
BYLAYER
 70
0
 71
3
 72
14
 73
10
 74
0
 42
0.0000001
 43
0.0000001
 44
0.0000000001
 40
0.0
 40
0.0
 40
0.0
 40
0.0
 40
0.1080610879
 40
0.2181596691
 40
0.332155279
 40
0.4515599132
 40
0.7103708631
 40
0.8514080973
 40
1.0
 40
1.0
 40
1.0
 40
1.0
 10
7.9662925283
 20
41.2063158515
 30
0.0
 10
7.9335013053
 20
41.187384386
 30
0.0
 10
7.8704641369
 20
41.1433807257
 30
0.0
 10
7.7871460702
 20
41.0614127947
 30
0.0
 10
7.7155186175
 20
40.9640864316
 30
0.0
 10
7.6342733866
 20
40.811390361
 30
0.0
 10
7.5821461757
 20
40.6349389255
 30
0.0
 10
7.5562917228
 20
40.4443941844
 30
0.0
 10
7.5520686011
 20
40.3428094155
 30
0.0
 10
7.5520686011
 20
40.2907439683
 30
0.0
  0
SPLINE
  5
2D5
100
AcDbEntity
  8
0
100
AcDbSpline
 62
7
  6
BYLAYER
 70
0
 71
3
 72
15
 73
11
 74
0
 42
0.0000001
 43
0.0000001
 44
0.0000000001
 40
0.0
 40
0.0
 40
0.0
 40
0.0
 40
0.1486025682
 40
0.2895002298
 40
0.4227203132
 40
0.5486432716
 40
0.6679991308
 40
0.7819389812
 40
0.8919869925
 40
1.0
 40
1.0
 40
1.0
 40
1.0
 10
8.9662518369
 20
37.8412785335
 30
0.0
 10
9.0113655859
 20
37.8152313494
 30
0.0
 10
9.1014174547
 20
37.7680960285
 30
0.0
 10
9.2387722631
 20
37.71186261
 30
0.0
 10
9.3736849532
 20
37.6725480178
 30
0.0
 10
9.5048739462
 20
37.6505172985
 30
0.0
 10
9.6311245972
 20
37.6461448416
 30
0.0
 10
9.7512170782
 20
37.6595165072
 30
0.0
 10
9.8638639768
 20
37.6906889051
 30
0.0
 10
9.9334917959
 20
37.7232772808
 30
0.0
 10
9.9662835745
 20
37.7422090671
 30
0.0
  0
SPLINE
  5
2D6
100
AcDbEntity
  8
0
100
AcDbSpline
 62
7
  6
BYLAYER
 70
0
 71
3
 72
25
 73
21
 74
0
 42
0.0000001
 43
0.0000001
 44
0.0000000001
 40
0.0
 40
0.0
 40
0.0
 40
0.0
 40
0.0623733757
 40
0.1287280346
 40
0.1983135594
 40
0.2702912948
 40
0.3436687514
 40
0.4173996816
 40
0.4904238624
 40
0.5617106244
 40
0.6303076443
 40
0.6953947824
 40
0.7563427378
 40
0.8127809614
 40
0.8646816231
 40
0.9124565119
 40
0.9351018586
 40
0.9571071324
 40
0.9786678002
 40
1.0
 40
1.0
 40
1.0
 40
1.0
 10
10.3805075017
 20
38.6577809502
 30
0.0
 10
10.3805075017
 20
38.7407401211
 30
0.0
 10
10.3692530461
 20
38.9120666307
 30
0.0
 10
10.3230202169
 20
39.172195025
 30
0.0
 10
10.2478011814
 20
39.4387496357
 30
0.0
 10
10.1452764555
 20
39.7060111553
 30
0.0
 10
10.0175772307
 20
39.9683288494
 30
0.0
 10
9.867449535
 20
40.2201014331
 30
0.0
 10
9.6980981635
 20
40.4559645387
 30
0.0
 10
9.513125174
 20
40.670889238
 30
0.0
 10
9.3164497616
 20
40.8602989664
 30
0.0
 10
9.1122160683
 20
41.0201846905
 30
0.0
 10
8.9046727572
 20
41.1471649034
 30
0.0
 10
8.6980102037
 20
41.2384976817
 30
0.0
 10
8.4964149092
 20
41.2920768486
 30
0.0
 10
8.3329119104
 20
41.3040689684
 30
0.0
 10
8.2102809575
 20
41.2925746563
 30
0.0
 10
8.1239417924
 20
41.274154449
 30
0.0
 10
8.0421631584
 20
41.2458782341
 30
0.0
 10
7.990864195
 20
41.2205018933
 30
0.0
 10
7.9662925283
 20
41.2063158515
 30
0.0
  0
SPLINE
  5
2D7
100
AcDbEntity
  8
0
100
AcDbSpline
 62
7
  6
BYLAYER
 70
0
 71
3
 72
14
 73
10
 74
0
 42
0.0000001
 43
0.0000001
 44
0.0000000001
 40
0.0
 40
0.0
 40
0.0
 40
0.0
 40
0.1080610879
 40
0.2181596691
 40
0.332155279
 40
0.4515599132
 40
0.7103708631
 40
0.8514080973
 40
1.0
 40
1.0
 40
1.0
 40
1.0
 10
9.9662835745
 20
37.7422090671
 30
0.0
 10
9.9990747975
 20
37.7611405325
 30
0.0
 10
10.0621119659
 20
37.8051441928
 30
0.0
 10
10.1454300326
 20
37.8871121238
 30
0.0
 10
10.2170574853
 20
37.9844384869
 30
0.0
 10
10.2983027162
 20
38.1371345575
 30
0.0
 10
10.3504299271
 20
38.313585993
 30
0.0
 10
10.37628438
 20
38.5041307341
 30
0.0
 10
10.3805075017
 20
38.605715503
 30
0.0
 10
10.3805075017
 20
38.6577809502
 30
0.0
  0
SPLINE
  5
2D8
100
AcDbEntity
  8
0
100
AcDbSpline
 62
7
  6
BYLAYER
 70
0
 71
3
 72
27
 73
23
 74
0
 42
0.0000001
 43
0.0000001
 44
0.0000000001
 40
0.0
 40
0.0
 40
0.0
 40
0.0
 40
0.0660126528
 40
0.1369399478
 40
0.2115540965
 40
0.2883979008
 40
0.3658370048
 40
0.4422091809
 40
0.5159155427
 40
0.5855452021
 40
0.6500037508
 40
0.7086695419
 40
0.7615868221
 40
0.7861914351
 40
0.8097901234
 40
0.832657395
 40
0.8551158317
 40
0.8775213426
 40
0.9002333962
 40
0.9235891638
 40
0.9478734838
 40
1.0
 40
1.0
 40
1.0
 40
1.0
 10
9.8148220767
 20
38.6577795905
 30
0.0
 10
9.8148220767
 20
38.739588036
 30
0.0
 10
9.8011167379
 20
38.9094395262
 30
0.0
 10
9.7459481032
 20
39.1663593405
 30
0.0
 10
9.6570704331
 20
39.4278487409
 30
0.0
 10
9.5373597787
 20
39.685588412
 30
0.0
 10
9.3905610542
 20
39.9314553509
 30
0.0
 10
9.2213484726
 20
40.1576551173
 30
0.0
 10
9.0350520876
 20
40.3570326386
 30
0.0
 10
8.8375154537
 20
40.5233120861
 30
0.0
 10
8.6347510516
 20
40.6512761049
 30
0.0
 10
8.4328874004
 20
40.7368487126
 30
0.0
 10
8.2659833071
 20
40.7709582132
 30
0.0
 10
8.1403487818
 20
40.7725861376
 30
0.0
 10
8.0526396683
 20
40.7617838948
 30
0.0
 10
7.9699700563
 20
40.739056585
 30
0.0
 10
7.8930854436
 20
40.7045328246
 30
0.0
 10
7.8227157989
 20
40.6584992734
 30
0.0
 10
7.7594806096
 20
40.6014224785
 30
0.0
 10
7.7039586284
 20
40.5337969886
 30
0.0
 10
7.6392324317
 20
40.4281007966
 30
0.0
 10
7.6059348296
 20
40.338241931
 30
0.0
 10
7.5894928286
 20
40.2757698126
 30
0.0
  0
SPLINE
  5
2D9
100
AcDbEntity
  8
0
100
AcDbSpline
 62
7
  6
BYLAYER
 70
0
 71
3
 72
9
 73
5
 74
0
 42
0.0000001
 43
0.0000001
 44
0.0000000001
 40
0.0
 40
0.0
 40
0.0
 40
0.0
 40
0.4824304407
 40
1.0
 40
1.0
 40
1.0
 40
1.0
 10
7.5894928286
 20
40.2757698126
 30
0.0
 10
7.5766203718
 20
40.2268603372
 30
0.0
 10
7.5577234373
 20
40.1233513349
 30
0.0
 10
7.5520709563
 20
40.0184088379
 30
0.0
 10
7.5520709563
 20
39.9641500049
 30
0.0
  0
SPLINE
  5
2DA
100
AcDbEntity
  8
0
100
AcDbSpline
 62
7
  6
BYLAYER
 70
0
 71
3
 72
9
 73
5
 74
0
 42
0.0000001
 43
0.0000001
 44
0.0000000001
 40
0.0
 40
0.0
 40
0.0
 40
0.0
 40
0.264352799
 40
1.0
 40
1.0
 40
1.0
 40
1.0
 10
8.683417543
 20
38.0045873761
 30
0.0
 10
8.7085130094
 20
37.9900980355
 30
0.0
 10
8.8049573624
 20
37.9380419614
 30
0.0
 10
8.9080030449
 20
37.8975038523
 30
0.0
 10
8.9861085837
 20
37.8774431222
 30
0.0
  0
SPLINE
  5
2DB
100
AcDbEntity
  8
0
100
AcDbSpline
 62
7
  6
BYLAYER
 70
0
 71
3
 72
19
 73
15
 74
0
 42
0.0000001
 43
0.0000001
 44
0.0000000001
 40
0.0
 40
0.0
 40
0.0
 40
0.0
 40
0.1288908106
 40
0.1893352687
 40
0.2476088899
 40
0.3042768334
 40
0.3599882974
 40
0.4154564381
 40
0.4714093401
 40
0.5285470446
 40
0.5874904681
 40
0.7125676935
 40
0.8497672198
 40
1.0
 40
1.0
 40
1.0
 40
1.0
 10
8.9861085837
 20
37.8774431222
 30
0.0
 10
9.0424091724
 20
37.8629828044
 30
0.0
 10
9.1275133543
 20
37.8491469856
 30
0.0
 10
9.2393872844
 20
37.850537756
 30
0.0
 10
9.3179752658
 20
37.8612956612
 30
0.0
 10
9.3924199098
 20
37.8817134883
 30
0.0
 10
9.462198828
 20
37.9116927519
 30
0.0
 10
9.5267747226
 20
37.9510521072
 30
0.0
 10
9.5857063688
 20
37.999455134
 30
0.0
 10
9.6385412868
 20
38.0565883507
 30
0.0
 10
9.7016590883
 20
38.1454766501
 30
0.0
 10
9.7630941251
 20
38.2781441492
 30
0.0
 10
9.8061229507
 20
38.4601025749
 30
0.0
 10
9.8148220767
 20
38.5900267261
 30
0.0
 10
9.8148220767
 20
38.6577795905
 30
0.0
  0
SPLINE
  5
2DC
100
AcDbEntity
  8
0
100
AcDbSpline
 62
7
  6
BYLAYER
 70
0
 71
3
 72
15
 73
11
 74
0
 42
0.0000001
 43
0.0000001
 44
0.0000000001
 40
0.0
 40
0.0
 40
0.0
 40
0.0
 40
0.1141515087
 40
0.2373301591
 40
0.3669778071
 40
0.5000005759
 40
0.6330236626
 40
0.7626743904
 40
0.8858459846
 40
1.0
 40
1.0
 40
1.0
 40
1.0
 10
24.5227043598
 20
10.5703138853
 30
0.0
 10
24.5227043598
 20
10.4808849145
 30
0.0
 10
24.5390878094
 20
10.2947817452
 30
0.0
 10
24.6043817771
 20
10.0140247479
 30
0.0
 10
24.7089983409
 20
9.7296423641
 30
0.0
 10
24.8489994029
 20
9.4523267664
 30
0.0
 10
25.0191602661
 20
9.1924204898
 30
0.0
 10
25.2131364995
 20
8.9596345328
 30
0.0
 10
25.4236257557
 20
8.7627047344
 30
0.0
 10
25.5766021085
 20
8.6554678031
 30
0.0
 10
25.6540509465
 20
8.6107512565
 30
0.0
  0
SPLINE
  5
2DD
100
AcDbEntity
  8
0
100
AcDbSpline
 62
7
  6
BYLAYER
 70
0
 71
3
 72
14
 73
10
 74
0
 42
0.0000001
 43
0.0000001
 44
0.0000000001
 40
0.0
 40
0.0
 40
0.0
 40
0.0
 40
0.1080610879
 40
0.2181596691
 40
0.332155279
 40
0.4515599132
 40
0.7103708631
 40
0.8514080973
 40
1.0
 40
1.0
 40
1.0
 40
1.0
 10
24.9369259318
 20
11.8124797319
 30
0.0
 10
24.9041347088
 20
11.7935482664
 30
0.0
 10
24.8410975404
 20
11.7495446061
 30
0.0
 10
24.7577794737
 20
11.6675766751
 30
0.0
 10
24.686152021
 20
11.570250312
 30
0.0
 10
24.6049067901
 20
11.4175542414
 30
0.0
 10
24.5527795792
 20
11.2411028059
 30
0.0
 10
24.5269251263
 20
11.0505580648
 30
0.0
 10
24.5227020046
 20
10.9489732959
 30
0.0
 10
24.5227020046
 20
10.8969078487
 30
0.0
  0
SPLINE
  5
2DE
100
AcDbEntity
  8
0
100
AcDbSpline
 62
7
  6
BYLAYER
 70
0
 71
3
 72
15
 73
11
 74
0
 42
0.0000001
 43
0.0000001
 44
0.0000000001
 40
0.0
 40
0.0
 40
0.0
 40
0.0
 40
0.1486025682
 40
0.2895002298
 40
0.4227203132
 40
0.5486432716
 40
0.6679991308
 40
0.7819389812
 40
0.8919869925
 40
1.0
 40
1.0
 40
1.0
 40
1.0
 10
25.9368852404
 20
8.4474424139
 30
0.0
 10
25.9819989894
 20
8.4213952298
 30
0.0
 10
26.0720508582
 20
8.3742599089
 30
0.0
 10
26.2094056667
 20
8.3180264904
 30
0.0
 10
26.3443183568
 20
8.2787118982
 30
0.0
 10
26.4755073497
 20
8.2566811789
 30
0.0
 10
26.6017580007
 20
8.252308722
 30
0.0
 10
26.7218504817
 20
8.2656803876
 30
0.0
 10
26.8344973804
 20
8.2968527855
 30
0.0
 10
26.9041251994
 20
8.3294411612
 30
0.0
 10
26.936916978
 20
8.3483729475
 30
0.0
  0
SPLINE
  5
2DF
100
AcDbEntity
  8
0
100
AcDbSpline
 62
7
  6
BYLAYER
 70
0
 71
3
 72
25
 73
21
 74
0
 42
0.0000001
 43
0.0000001
 44
0.0000000001
 40
0.0
 40
0.0
 40
0.0
 40
0.0
 40
0.0623733757
 40
0.1287280346
 40
0.1983135594
 40
0.2702912948
 40
0.3436687514
 40
0.4173996816
 40
0.4904238624
 40
0.5617106244
 40
0.6303076443
 40
0.6953947824
 40
0.7563427378
 40
0.8127809614
 40
0.8646816231
 40
0.9124565119
 40
0.9351018586
 40
0.9571071324
 40
0.9786678002
 40
1.0
 40
1.0
 40
1.0
 40
1.0
 10
27.3511409052
 20
9.2639448306
 30
0.0
 10
27.3511409052
 20
9.3469040015
 30
0.0
 10
27.3398864496
 20
9.5182305111
 30
0.0
 10
27.2936536204
 20
9.7783589054
 30
0.0
 10
27.2184345849
 20
10.0449135161
 30
0.0
 10
27.115909859
 20
10.3121750357
 30
0.0
 10
26.9882106342
 20
10.5744927298
 30
0.0
 10
26.8380829386
 20
10.8262653135
 30
0.0
 10
26.6687315671
 20
11.0621284191
 30
0.0
 10
26.4837585775
 20
11.2770531184
 30
0.0
 10
26.2870831651
 20
11.4664628468
 30
0.0
 10
26.0828494719
 20
11.6263485709
 30
0.0
 10
25.8753061607
 20
11.7533287838
 30
0.0
 10
25.6686436072
 20
11.8446615621
 30
0.0
 10
25.4670483127
 20
11.898240729
 30
0.0
 10
25.3035453139
 20
11.9102328488
 30
0.0
 10
25.180914361
 20
11.8987385367
 30
0.0
 10
25.094575196
 20
11.8803183294
 30
0.0
 10
25.0127965619
 20
11.8520421145
 30
0.0
 10
24.9614975986
 20
11.8266657737
 30
0.0
 10
24.9369259318
 20
11.8124797319
 30
0.0
  0
SPLINE
  5
2E0
100
AcDbEntity
  8
0
100
AcDbSpline
 62
7
  6
BYLAYER
 70
0
 71
3
 72
14
 73
10
 74
0
 42
0.0000001
 43
0.0000001
 44
0.0000000001
 40
0.0
 40
0.0
 40
0.0
 40
0.0
 40
0.1080610879
 40
0.2181596691
 40
0.332155279
 40
0.4515599132
 40
0.7103708631
 40
0.8514080973
 40
1.0
 40
1.0
 40
1.0
 40
1.0
 10
26.936916978
 20
8.3483729475
 30
0.0
 10
26.969708201
 20
8.3673044129
 30
0.0
 10
27.0327453694
 20
8.4113080732
 30
0.0
 10
27.1160634361
 20
8.4932760042
 30
0.0
 10
27.1876908888
 20
8.5906023673
 30
0.0
 10
27.2689361197
 20
8.7432984379
 30
0.0
 10
27.3210633306
 20
8.9197498734
 30
0.0
 10
27.3469177835
 20
9.1102946145
 30
0.0
 10
27.3511409052
 20
9.2118793834
 30
0.0
 10
27.3511409052
 20
9.2639448306
 30
0.0
  0
SPLINE
  5
2E1
100
AcDbEntity
  8
0
100
AcDbSpline
 62
7
  6
BYLAYER
 70
0
 71
3
 72
27
 73
23
 74
0
 42
0.0000001
 43
0.0000001
 44
0.0000000001
 40
0.0
 40
0.0
 40
0.0
 40
0.0
 40
0.0660126528
 40
0.1369399478
 40
0.2115540965
 40
0.2883979008
 40
0.3658370048
 40
0.4422091809
 40
0.5159155427
 40
0.5855452021
 40
0.6500037508
 40
0.7086695419
 40
0.7615868221
 40
0.7861914351
 40
0.8097901234
 40
0.832657395
 40
0.8551158317
 40
0.8775213426
 40
0.9002333962
 40
0.9235891638
 40
0.9478734838
 40
1.0
 40
1.0
 40
1.0
 40
1.0
 10
26.7854554803
 20
9.2639434709
 30
0.0
 10
26.7854554803
 20
9.3457519164
 30
0.0
 10
26.7717501414
 20
9.5156034066
 30
0.0
 10
26.7165815067
 20
9.7725232209
 30
0.0
 10
26.6277038366
 20
10.0340126213
 30
0.0
 10
26.5079931822
 20
10.2917522924
 30
0.0
 10
26.3611944577
 20
10.5376192313
 30
0.0
 10
26.1919818762
 20
10.7638189977
 30
0.0
 10
26.0056854912
 20
10.963196519
 30
0.0
 10
25.8081488573
 20
11.1294759665
 30
0.0
 10
25.6053844551
 20
11.2574399853
 30
0.0
 10
25.4035208039
 20
11.343012593
 30
0.0
 10
25.2366167106
 20
11.3771220936
 30
0.0
 10
25.1109821854
 20
11.378750018
 30
0.0
 10
25.0232730718
 20
11.3679477752
 30
0.0
 10
24.9406034598
 20
11.3452204654
 30
0.0
 10
24.8637188472
 20
11.310696705
 30
0.0
 10
24.7933492024
 20
11.2646631538
 30
0.0
 10
24.7301140131
 20
11.2075863589
 30
0.0
 10
24.6745920319
 20
11.139960869
 30
0.0
 10
24.6098658352
 20
11.034264677
 30
0.0
 10
24.5765682332
 20
10.9444058114
 30
0.0
 10
24.5601262321
 20
10.881933693
 30
0.0
  0
SPLINE
  5
2E2
100
AcDbEntity
  8
0
100
AcDbSpline
 62
7
  6
BYLAYER
 70
0
 71
3
 72
9
 73
5
 74
0
 42
0.0000001
 43
0.0000001
 44
0.0000000001
 40
0.0
 40
0.0
 40
0.0
 40
0.0
 40
0.4824304407
 40
1.0
 40
1.0
 40
1.0
 40
1.0
 10
24.5601262321
 20
10.881933693
 30
0.0
 10
24.5472537753
 20
10.8330242176
 30
0.0
 10
24.5283568408
 20
10.7295152153
 30
0.0
 10
24.5227043598
 20
10.6245727183
 30
0.0
 10
24.5227043598
 20
10.5703138853
 30
0.0
  0
SPLINE
  5
2E3
100
AcDbEntity
  8
0
100
AcDbSpline
 62
7
  6
BYLAYER
 70
0
 71
3
 72
9
 73
5
 74
0
 42
0.0000001
 43
0.0000001
 44
0.0000000001
 40
0.0
 40
0.0
 40
0.0
 40
0.0
 40
0.264352799
 40
1.0
 40
1.0
 40
1.0
 40
1.0
 10
25.6540509465
 20
8.6107512565
 30
0.0
 10
25.6791464129
 20
8.5962619159
 30
0.0
 10
25.7755907659
 20
8.5442058418
 30
0.0
 10
25.8786364485
 20
8.5036677327
 30
0.0
 10
25.9567419872
 20
8.4836070026
 30
0.0
  0
SPLINE
  5
2E4
100
AcDbEntity
  8
0
100
AcDbSpline
 62
7
  6
BYLAYER
 70
0
 71
3
 72
19
 73
15
 74
0
 42
0.0000001
 43
0.0000001
 44
0.0000000001
 40
0.0
 40
0.0
 40
0.0
 40
0.0
 40
0.1288908106
 40
0.1893352687
 40
0.2476088899
 40
0.3042768334
 40
0.3599882974
 40
0.4154564381
 40
0.4714093401
 40
0.5285470446
 40
0.5874904681
 40
0.7125676935
 40
0.8497672198
 40
1.0
 40
1.0
 40
1.0
 40
1.0
 10
25.9567419872
 20
8.4836070026
 30
0.0
 10
26.0130425759
 20
8.4691466848
 30
0.0
 10
26.0981467578
 20
8.455310866
 30
0.0
 10
26.2100206879
 20
8.4567016364
 30
0.0
 10
26.2886086694
 20
8.4674595416
 30
0.0
 10
26.3630533133
 20
8.4878773687
 30
0.0
 10
26.4328322315
 20
8.5178566323
 30
0.0
 10
26.4974081261
 20
8.5572159876
 30
0.0
 10
26.5563397724
 20
8.6056190144
 30
0.0
 10
26.6091746903
 20
8.6627522311
 30
0.0
 10
26.6722924918
 20
8.7516405305
 30
0.0
 10
26.7337275287
 20
8.8843080296
 30
0.0
 10
26.7767563543
 20
9.0662664553
 30
0.0
 10
26.7854554803
 20
9.1961906065
 30
0.0
 10
26.7854554803
 20
9.2639434709
 30
0.0
  0
SPLINE
  5
2E5
100
AcDbEntity
  8
0
100
AcDbSpline
 62
7
  6
BYLAYER
 70
0
 71
3
 72
33
 73
29
 74
0
 42
0.0000001
 43
0.0000001
 44
0.0000000001
 40
0.0
 40
0.0
 40
0.0
 40
0.0
 40
0.0213260029
 40
0.0428803835
 40
0.0648795706
 40
0.087517871
 40
0.1109609753
 40
0.1353409873
 40
0.160757353
 40
0.1872755504
 40
0.2149322035
 40
0.2437350998
 40
0.2736689839
 40
0.3046960519
 40
0.3367606795
 40
0.3697905373
 40
0.4383694162
 40
0.5096366634
 40
0.5826412366
 40
0.6563529237
 40
0.7297104575
 40
0.8016674835
 40
0.8368200408
 40
0.8712619517
 40
0.9048866106
 40
0.9376047889
 40
0.9693381777
 40
1.0
 40
1.0
 40
1.0
 40
1.0
 10
38.5177721917
 20
47.9454900735
 30
0.0
 10
38.5177769219
 20
47.8036297764
 30
0.0
 10
38.4994568217
 20
47.5180624515
 30
0.0
 10
38.4174239222
 20
47.0932640134
 30
0.0
 10
38.2813159444
 20
46.6733975638
 30
0.0
 10
38.092103019
 20
46.2608909201
 30
0.0
 10
37.850918007
 20
45.8579881355
 30
0.0
 10
37.5592729541
 20
45.4667805561
 30
0.0
 10
37.2187712452
 20
45.0893580783
 30
0.0
 10
36.8313706999
 20
44.7276172562
 30
0.0
 10
36.3991353311
 20
44.3834972537
 30
0.0
 10
35.924446678
 20
44.0587375751
 30
0.0
 10
35.4098299824
 20
43.7550904887
 30
0.0
 10
34.858074749
 20
43.4741263433
 30
0.0
 10
34.2721233945
 20
43.2173488319
 30
0.0
 10
33.4391316713
 20
42.9051989782
 30
0.0
 10
32.332161296
 20
42.5861928747
 30
0.0
 10
30.9391581816
 20
42.3225484507
 30
0.0
 10
29.494446791
 20
42.1788747873
 30
0.0
 10
28.0289065836
 20
42.1582504755
 30
0.0
 10
26.5738634824
 20
42.2611079407
 30
0.0
 10
25.3864764481
 20
42.4493622224
 30
0.0
 10
24.4686350472
 20
42.6608505477
 30
0.0
 10
23.8073860699
 20
42.8467873709
 30
0.0
 10
23.1715610474
 20
43.0602645283
 30
0.0
 10
22.5645145043
 20
43.3001494043
 30
0.0
 10
21.9896455457
 20
43.5651720846
 30
0.0
 10
21.6233787471
 20
43.7610692473
 30
0.0
 10
21.4467414334
 20
43.8630485408
 30
0.0
  0
SPLINE
  5
2E6
100
AcDbEntity
  8
0
100
AcDbSpline
 62
7
  6
BYLAYER
 70
0
 71
3
 72
9
 73
5
 74
0
 42
0.0000001
 43
0.0000001
 44
0.0000000001
 40
0.0
 40
0.0
 40
0.0
 40
0.0
 40
0.4888954891
 40
1.0
 40
1.0
 40
1.0
 40
1.0
 10
35.1660014411
 20
56.7159422869
 30
0.0
 10
34.9012532304
 20
56.8556944105
 30
0.0
 10
34.3466355605
 20
57.1171864958
 30
0.0
 10
33.7730617813
 20
57.333462205
 30
0.0
 10
33.4764147437
 20
57.4332132994
 30
0.0
  0
SPLINE
  5
2E7
100
AcDbEntity
  8
0
100
AcDbSpline
 62
7
  6
BYLAYER
 70
0
 71
3
 72
18
 73
14
 74
0
 42
0.0000001
 43
0.0000001
 44
0.0000000001
 40
0.0
 40
0.0
 40
0.0
 40
0.0
 40
0.1541181532
 40
0.3001166584
 40
0.4371899655
 40
0.5650005134
 40
0.6255260102
 40
0.6838873337
 40
0.7946288542
 40
0.8475582536
 40
0.8991992653
 40
0.9498887514
 40
1.0
 40
1.0
 40
1.0
 40
1.0
 10
23.5839845566
 20
57.4415302983
 30
0.0
 10
23.2310695561
 20
57.3236495785
 30
0.0
 10
22.5531772804
 20
57.0644734708
 30
0.0
 10
21.6066664462
 20
56.593327351
 30
0.0
 10
20.7699900666
 20
56.0564581401
 30
0.0
 10
20.164467519
 20
55.5518229608
 30
0.0
 10
19.7511503884
 20
55.1221983902
 30
0.0
 10
19.3986682445
 20
54.6938270473
 30
0.0
 10
19.1096876252
 20
54.2382726288
 30
0.0
 10
18.8974331088
 20
53.7629810922
 30
0.0
 10
18.7795075587
 20
53.4064425403
 30
0.0
 10
18.7012110893
 20
53.0461540007
 30
0.0
 10
18.6755308549
 20
52.8035733827
 30
0.0
 10
18.6694616538
 20
52.682743967
 30
0.0
  0
SPLINE
  5
2E8
100
AcDbEntity
  8
0
100
AcDbSpline
 62
7
  6
BYLAYER
 70
0
 71
3
 72
23
 73
19
 74
0
 42
0.0000001
 43
0.0000001
 44
0.0000000001
 40
0.0
 40
0.0
 40
0.0
 40
0.0
 40
0.0603486665
 40
0.12425024
 40
0.1911385543
 40
0.2603568013
 40
0.3311327192
 40
0.4026430407
 40
0.474034919
 40
0.5444605691
 40
0.6131080678
 40
0.6792333116
 40
0.7421950842
 40
0.8014951718
 40
0.8568280114
 40
0.9081283968
 40
0.9556542921
 40
1.0
 40
1.0
 40
1.0
 40
1.0
 10
32.1240394038
 20
52.4771318103
 30
0.0
 10
31.9578195182
 20
52.3811652874
 30
0.0
 10
31.6036077092
 20
52.2038822957
 30
0.0
 10
31.0343661959
 20
51.9880921466
 30
0.0
 10
30.4205716156
 20
51.8179107641
 30
0.0
 10
29.7731886784
 20
51.6962882155
 30
0.0
 10
29.1035619998
 20
51.6253912865
 30
0.0
 10
28.423566214
 20
51.6064639328
 30
0.0
 10
27.7452379413
 20
51.6398438502
 30
0.0
 10
27.0805909792
 20
51.7249334342
 30
0.0
 10
26.4413757043
 20
51.8602283905
 30
0.0
 10
25.8388641252
 20
52.0433592465
 30
0.0
 10
25.2836466043
 20
52.2711530758
 30
0.0
 10
24.7854225396
 20
52.5397283625
 30
0.0
 10
24.3529126813
 20
52.8446145931
 30
0.0
 10
23.9936388343
 20
53.180979078
 30
0.0
 10
23.7144264626
 20
53.5434072551
 30
0.0
 10
23.581715151
 20
53.8063818357
 30
0.0
 10
23.5323680499
 20
53.9385050082
 30
0.0
  0
SPLINE
  5
2E9
100
AcDbEntity
  8
0
100
AcDbSpline
 62
7
  6
BYLAYER
 70
0
 71
3
 72
15
 73
11
 74
0
 42
0.0000001
 43
0.0000001
 44
0.0000000001
 40
0.0
 40
0.0
 40
0.0
 40
0.0
 40
0.1077341972
 40
0.2180823912
 40
0.3325428042
 40
0.4524260296
 40
0.5786608666
 40
0.7118498361
 40
0.8523278799
 40
1.0
 40
1.0
 40
1.0
 40
1.0
 10
33.6137055436
 20
54.4414882456
 30
0.0
 10
33.6073416896
 20
54.3496256609
 30
0.0
 10
33.5792466995
 20
54.1644079946
 30
0.0
 10
33.4929805598
 20
53.8924901161
 30
0.0
 10
33.3632174507
 20
53.6268812159
 30
0.0
 10
33.1914158607
 20
53.3700015484
 30
0.0
 10
32.9792943316
 20
53.1238734112
 30
0.0
 10
32.728706942
 20
52.8905078216
 30
0.0
 10
32.4419224226
 20
52.6718568094
 30
0.0
 10
32.2333480454
 20
52.5402408072
 30
0.0
 10
32.1240394038
 20
52.4771318103
 30
0.0
  0
SPLINE
  5
2EA
100
AcDbEntity
  8
0
100
AcDbSpline
 62
7
  6
BYLAYER
 70
0
 71
3
 72
26
 73
22
 74
0
 42
0.0000001
 43
0.0000001
 44
0.0000000001
 40
0.0
 40
0.0
 40
0.0
 40
0.0
 40
0.0623759287
 40
0.1287183714
 40
0.198304537
 40
0.2702782931
 40
0.3436509848
 40
0.4173801527
 40
0.4904023041
 40
0.5616862894
 40
0.6302806484
 40
0.6953652373
 40
0.7563100123
 40
0.8127447407
 40
0.8392684362
 40
0.8646905242
 40
0.9124626869
 40
0.935105936
 40
0.9571099715
 40
0.9786692242
 40
1.0
 40
1.0
 40
1.0
 40
1.0
 10
30.8158864123
 20
52.987426481
 30
0.0
 10
30.6991281935
 20
52.9200164943
 30
0.0
 10
30.4488896955
 20
52.7966439003
 30
0.0
 10
30.0452406849
 20
52.6503725913
 30
0.0
 10
29.6090192853
 20
52.539648485
 30
0.0
 10
29.1495969422
 20
52.4667886861
 30
0.0
 10
28.6766851799
 20
52.4333593934
 30
0.0
 10
28.2003844302
 20
52.4400563382
 30
0.0
 10
27.7308504714
 20
52.4867492176
 30
0.0
 10
27.2780932659
 20
52.5724423236
 30
0.0
 10
26.8517378954
 20
52.6953184997
 30
0.0
 10
26.4607752313
 20
52.8528263454
 30
0.0
 10
26.1134890923
 20
53.0417085349
 30
0.0
 10
25.8613679833
 20
53.2259160288
 30
0.0
 10
25.6899548827
 20
53.3859848382
 30
0.0
 10
25.545446722
 20
53.5461172404
 30
0.0
 10
25.4280713188
 20
53.7188630285
 30
0.0
 10
25.3446368204
 20
53.9007700885
 30
0.0
 10
25.3004062579
 20
54.0372378021
 30
0.0
 10
25.2737283536
 20
54.1752925291
 30
0.0
 10
25.2677907059
 20
54.2681041613
 30
0.0
 10
25.2677906336
 20
54.3142089257
 30
0.0
  0
SPLINE
  5
2EB
100
AcDbEntity
  8
0
100
AcDbSpline
 62
7
  6
BYLAYER
 70
0
 71
3
 72
15
 73
11
 74
0
 42
0.0000001
 43
0.0000001
 44
0.0000000001
 40
0.0
 40
0.0
 40
0.0
 40
0.0
 40
0.1080108184
 40
0.218057369
 40
0.3319948538
 40
0.451355449
 40
0.5772633126
 40
0.7104880008
 40
0.8514444813
 40
1.0
 40
1.0
 40
1.0
 40
1.0
 10
31.7677689775
 20
54.3142089406
 30
0.0
 10
31.7677690739
 20
54.2526835059
 30
0.0
 10
31.7570978197
 20
54.1282218337
 30
0.0
 10
31.7093960608
 20
53.944391249
 30
0.0
 10
31.6306815713
 20
53.7645141195
 30
0.0
 10
31.5219254321
 20
53.5904293334
 30
0.0
 10
31.3843755831
 20
53.4236913979
 30
0.0
 10
31.2194047876
 20
53.265774106
 30
0.0
 10
31.0286661521
 20
53.1181726799
 30
0.0
 10
30.8891701318
 20
53.0297366036
 30
0.0
 10
30.8158864123
 20
52.987426481
 30
0.0
  0
SPLINE
  5
2EC
100
AcDbEntity
  8
0
100
AcDbSpline
 62
7
  6
BYLAYER
 70
0
 71
3
 72
15
 73
11
 74
0
 42
0.0000001
 43
0.0000001
 44
0.0000000001
 40
0.0
 40
0.0
 40
0.0
 40
0.0
 40
0.1091193899
 40
0.2204573836
 40
0.3355133827
 40
0.4555385811
 40
0.5814823373
 40
0.7139981533
 40
0.8534934813
 40
1.0
 40
1.0
 40
1.0
 40
1.0
 10
38.3660933113
 20
52.6827438935
 30
0.0
 10
38.3575965401
 20
52.8520581196
 30
0.0
 10
38.3137503317
 20
53.1933368311
 30
0.0
 10
38.1699228996
 20
53.6962082531
 30
0.0
 10
37.9491783674
 20
54.1889368845
 30
0.0
 10
37.6537380664
 20
54.6674421747
 30
0.0
 10
37.2862963665
 20
55.1281468102
 30
0.0
 10
36.8498798908
 20
55.567637478
 30
0.0
 10
36.3480967056
 20
55.9825544959
 30
0.0
 10
35.9814997311
 20
56.2347119786
 30
0.0
 10
35.7890446678
 20
56.3562362499
 30
0.0
  0
SPLINE
  5
2ED
100
AcDbEntity
  8
0
100
AcDbSpline
 62
7
  6
BYLAYER
 70
0
 71
3
 72
18
 73
14
 74
0
 42
0.0000001
 43
0.0000001
 44
0.0000000001
 40
0.0
 40
0.0
 40
0.0
 40
0.0
 40
0.1485501175
 40
0.2894296983
 40
0.4226091449
 40
0.5484961673
 40
0.6678218299
 40
0.7254052545
 40
0.7818100974
 40
0.8372407794
 40
0.8919205616
 40
0.9460893792
 40
1.0
 40
1.0
 40
1.0
 40
1.0
 10
21.4467414334
 20
43.8630485408
 30
0.0
 10
21.2211959903
 20
43.9932643172
 30
0.0
 10
20.7919453294
 20
44.2653309014
 30
0.0
 10
20.2051152686
 20
44.7195382368
 30
0.0
 10
19.6975342076
 20
45.2054067587
 30
0.0
 10
19.2742788607
 20
45.7183590077
 30
0.0
 10
18.9920682716
 20
46.1702240174
 30
0.0
 10
18.8148068207
 20
46.5392329703
 30
0.0
 10
18.7068286897
 20
46.8162639071
 30
0.0
 10
18.6225382222
 20
47.0960872066
 30
0.0
 10
18.5621476467
 20
47.3780380416
 30
0.0
 10
18.5258727635
 20
47.6613940723
 30
0.0
 10
18.5177905709
 20
47.8509747454
 30
0.0
 10
18.5177874194
 20
47.9454900856
 30
0.0
  0
SPLINE
  5
2EE
100
AcDbEntity
  8
0
100
AcDbSpline
 62
7
  6
BYLAYER
 70
0
 71
3
 72
27
 73
23
 74
0
 42
0.0000001
 43
0.0000001
 44
0.0000000001
 40
0.0
 40
0.0
 40
0.0
 40
0.0
 40
0.0300164622
 40
0.0610270448
 40
0.125706063
 40
0.1934658154
 40
0.263576477
 40
0.3352043529
 40
0.407456127
 40
0.4794135894
 40
0.5501705608
 40
0.6188680007
 40
0.684732115
 40
0.7471160991
 40
0.8055475642
 40
0.8597862769
 40
0.8853584967
 40
0.9099335416
 40
0.9335775912
 40
0.9563885535
 40
0.9784856196
 40
1.0
 40
1.0
 40
1.0
 40
1.0
 10
33.8211027441
 20
49.4560979566
 30
0.0
 10
33.6968555895
 20
49.3843642566
 30
0.0
 10
33.4397462923
 20
49.2461880977
 30
0.0
 10
32.8952455463
 20
48.9916139803
 30
0.0
 10
32.1620614805
 20
48.7177052223
 30
0.0
 10
31.2261219833
 20
48.4653366804
 30
0.0
 10
30.2391565984
 20
48.2893558875
 30
0.0
 10
29.2197837133
 20
48.1930921757
 30
0.0
 10
28.1871763734
 20
48.1783375344
 30
0.0
 10
27.1608015477
 20
48.2453786678
 30
0.0
 10
26.1599938285
 20
48.3929486435
 30
0.0
 10
25.2035675328
 20
48.6182856296
 30
0.0
 10
24.3094570978
 20
48.9171862945
 30
0.0
 10
23.4942995973
 20
49.2842033295
 30
0.0
 10
22.7733642777
 20
49.7126274813
 30
0.0
 10
22.2520691632
 20
50.1226631094
 30
0.0
 10
21.8981748302
 20
50.4750366926
 30
0.0
 10
21.6694137372
 20
50.7440692885
 30
0.0
 10
21.4733039267
 20
51.0217943018
 30
0.0
 10
21.3107886859
 20
51.3069507972
 30
0.0
 10
21.1828283563
 20
51.5981213196
 30
0.0
 10
21.1202468525
 20
51.797502536
 30
0.0
 10
21.0952257601
 20
51.8972431072
 30
0.0
  0
SPLINE
  5
2EF
100
AcDbEntity
  8
0
100
AcDbSpline
 62
7
  6
BYLAYER
 70
0
 71
3
 72
23
 73
19
 74
0
 42
0.0000001
 43
0.0000001
 44
0.0000000001
 40
0.0
 40
0.0
 40
0.0
 40
0.0
 40
0.0462297989
 40
0.0939675257
 40
0.1435860518
 40
0.1954079827
 40
0.2496622728
 40
0.3064824388
 40
0.3659243193
 40
0.4279766309
 40
0.4925628364
 40
0.5595566581
 40
0.6287848953
 40
0.7000354673
 40
0.7730584798
 40
0.8475933361
 40
0.9233624804
 40
1.0
 40
1.0
 40
1.0
 40
1.0
 10
21.0965052449
 20
52.3004152501
 30
0.0
 10
21.1258418664
 20
52.1844442875
 30
0.0
 10
21.2015543131
 20
51.9525212573
 30
0.0
 10
21.3608873336
 20
51.6159101786
 30
0.0
 10
21.5663936049
 20
51.2881587376
 30
0.0
 10
21.8164935508
 20
50.9714037832
 30
0.0
 10
22.1095021798
 20
50.6675208657
 30
0.0
 10
22.4435165807
 20
50.3783927323
 30
0.0
 10
22.8163551357
 20
50.1057682394
 30
0.0
 10
23.225655048
 20
49.8513714103
 30
0.0
 10
23.6687777235
 20
49.6167323575
 30
0.0
 10
24.1429274654
 20
49.4033746347
 30
0.0
 10
24.6450654189
 20
49.2126051685
 30
0.0
 10
25.1719835331
 20
49.0456623263
 30
0.0
 10
25.7203172032
 20
48.9035807023
 30
0.0
 10
26.2866197641
 20
48.7872675642
 30
0.0
 10
26.8671756728
 20
48.6975235819
 30
0.0
 10
27.2595147081
 20
48.6559065168
 30
0.0
 10
27.4571505454
 20
48.6396065055
 30
0.0
  0
SPLINE
  5
2F0
100
AcDbEntity
  8
0
100
AcDbSpline
 62
7
  6
BYLAYER
 70
0
 71
3
 72
13
 73
9
 74
0
 42
0.0000001
 43
0.0000001
 44
0.0000000001
 40
0.0
 40
0.0
 40
0.0
 40
0.0
 40
0.2804935253
 40
0.5394793774
 40
0.6612715002
 40
0.7782917916
 40
0.891015863
 40
1.0
 40
1.0
 40
1.0
 40
1.0
 10
24.9115202073
 20
56.3962367812
 30
0.0
 10
24.7457186286
 20
56.3005117665
 30
0.0
 10
24.4372916684
 20
56.0972108965
 30
0.0
 10
24.0983215833
 20
55.7961347313
 30
0.0
 10
23.8753304948
 20
55.5392318799
 30
0.0
 10
23.7351885271
 20
55.3439998718
 30
0.0
 10
23.6196032218
 20
55.1433197922
 30
0.0
 10
23.5583851606
 20
55.004525267
 30
0.0
 10
23.5323590986
 20
54.9348396163
 30
0.0
  0
SPLINE
  5
2F1
100
AcDbEntity
  8
0
100
AcDbSpline
 62
7
  6
BYLAYER
 70
0
 71
3
 72
13
 73
9
 74
0
 42
0.0000001
 43
0.0000001
 44
0.0000000001
 40
0.0
 40
0.0
 40
0.0
 40
0.0
 40
0.1090287223
 40
0.2217870458
 40
0.3388287378
 40
0.4606277042
 40
0.7195832397
 40
1.0
 40
1.0
 40
1.0
 40
1.0
 10
23.5323590986
 20
55.1797903415
 30
0.0
 10
23.5583119005
 20
55.2492798358
 30
0.0
 10
23.6193310306
 20
55.3876843968
 30
0.0
 10
23.7344885909
 20
55.5878261804
 30
0.0
 10
23.8740709876
 20
55.7825568035
 30
0.0
 10
24.096118561
 20
56.0388226669
 30
0.0
 10
24.4336051971
 20
56.3392552058
 30
0.0
 10
24.74070952
 20
56.5422611366
 30
0.0
 10
24.9057997123
 20
56.6378795322
 30
0.0
  0
SPLINE
  5
2F2
100
AcDbEntity
  8
0
100
AcDbSpline
 62
7
  6
BYLAYER
 70
0
 71
3
 72
11
 73
7
 74
0
 42
0.0000001
 43
0.0000001
 44
0.0000000001
 40
0.0
 40
0.0
 40
0.0
 40
0.0
 40
0.262623042
 40
0.5147019604
 40
0.7592994819
 40
1.0
 40
1.0
 40
1.0
 40
1.0
 10
31.5557103908
 20
54.9808844676
 30
0.0
 10
31.5898445864
 20
54.9290353527
 30
0.0
 10
31.6506147025
 20
54.8231671582
 30
0.0
 10
31.7179221409
 20
54.6561429938
 30
0.0
 10
31.7586729407
 20
54.4860129865
 30
0.0
 10
31.7677688883
 20
54.3711034578
 30
0.0
 10
31.7677689775
 20
54.3142089406
 30
0.0
  0
SPLINE
  5
2F3
100
AcDbEntity
  8
0
100
AcDbSpline
 62
7
  6
BYLAYER
 70
0
 71
3
 72
23
 73
19
 74
0
 42
0.0000001
 43
0.0000001
 44
0.0000000001
 40
0.0
 40
0.0
 40
0.0
 40
0.0
 40
0.0559516674
 40
0.1143769569
 40
0.1750189535
 40
0.2375974673
 40
0.301771518
 40
0.3671703694
 40
0.4333993536
 40
0.5000464529
 40
0.5666918332
 40
0.632915967
 40
0.6983074287
 40
0.7624707261
 40
0.8250354552
 40
0.8856650767
 40
0.9440661764
 40
1.0
 40
1.0
 40
1.0
 40
1.0
 10
21.6003669317
 20
48.4674333836
 30
0.0
 10
21.8333256347
 20
48.3348260303
 30
0.0
 10
22.3212955589
 20
48.08400193
 30
0.0
 10
23.0946522207
 20
47.7581895239
 30
0.0
 10
23.9190041206
 20
47.4772181854
 30
0.0
 10
24.7865051871
 20
47.2436906406
 30
0.0
 10
25.6890987655
 20
47.0598037648
 30
0.0
 10
26.6182849373
 20
46.927265776
 30
0.0
 10
27.5653362924
 20
46.8473131444
 30
0.0
 10
28.5213492158
 20
46.8207160939
 30
0.0
 10
29.4773272848
 20
46.8477196527
 30
0.0
 10
30.4242787337
 20
46.928058799
 30
0.0
 10
31.3532991857
 20
47.0609821687
 30
0.0
 10
32.2556574962
 20
47.2452573322
 30
0.0
 10
33.1228795492
 20
47.4791426547
 30
0.0
 10
33.9468578828
 20
47.7604624837
 30
0.0
 10
34.719806971
 20
48.0865726593
 30
0.0
 10
35.207442481
 20
48.3376090209
 30
0.0
 10
35.4402438005
 20
48.4703199458
 30
0.0
  0
SPLINE
  5
2F4
100
AcDbEntity
  8
0
100
AcDbSpline
 62
7
  6
BYLAYER
 70
0
 71
3
 72
18
 73
14
 74
0
 42
0.0000001
 43
0.0000001
 44
0.0000000001
 40
0.0
 40
0.0
 40
0.0
 40
0.0
 40
0.1493618749
 40
0.2906459138
 40
0.4238963355
 40
0.5495349743
 40
0.6684145886
 40
0.7257565678
 40
0.7819384487
 40
0.8371923854
 40
0.8917722495
 40
0.9459477727
 40
1.0
 40
1.0
 40
1.0
 40
1.0
 10
35.4402438005
 20
48.4703199458
 30
0.0
 10
35.6737023713
 20
48.6034055439
 30
0.0
 10
36.1172297612
 20
48.8820596145
 30
0.0
 10
36.7213373099
 20
49.3497145892
 30
0.0
 10
37.2401350692
 20
49.8513222729
 30
0.0
 10
37.6679311068
 20
50.3818787805
 30
0.0
 10
37.9479727549
 20
50.849748999
 30
0.0
 10
38.1194342826
 20
51.2315327595
 30
0.0
 10
38.2212214725
 20
51.5180005986
 30
0.0
 10
38.2973846127
 20
51.8071869789
 30
0.0
 10
38.3477487967
 20
52.0983245047
 30
0.0
 10
38.3720981296
 20
52.3905965534
 30
0.0
 10
38.3709674837
 20
52.5856167953
 30
0.0
 10
38.3660933113
 20
52.6827438935
 30
0.0
  0
SPLINE
  5
2F5
100
AcDbEntity
  8
0
100
AcDbSpline
 62
7
  6
BYLAYER
 70
0
 71
3
 72
11
 73
7
 74
0
 42
0.0000001
 43
0.0000001
 44
0.0000000001
 40
0.0
 40
0.0
 40
0.0
 40
0.0
 40
0.2402602831
 40
0.4846065031
 40
0.736795595
 40
1.0
 40
1.0
 40
1.0
 40
1.0
 10
25.2677906336
 20
54.3142089257
 30
0.0
 10
25.2677905421
 20
54.3725787946
 30
0.0
 10
25.2773737572
 20
54.4905258121
 30
0.0
 10
25.3202772238
 20
54.6650275614
 30
0.0
 10
25.3911205842
 20
54.8361621638
 30
0.0
 10
25.4549791515
 20
54.9443721776
 30
0.0
 10
25.4908260441
 20
54.9973234482
 30
0.0
  0
SPLINE
  5
2F6
100
AcDbEntity
  8
0
100
AcDbSpline
 62
7
  6
BYLAYER
 70
0
 71
3
 72
18
 73
14
 74
0
 42
0.0000001
 43
0.0000001
 44
0.0000000001
 40
0.0
 40
0.0
 40
0.0
 40
0.0
 40
0.0539105976
 40
0.1080793703
 40
0.1627590853
 40
0.2181897279
 40
0.274594642
 40
0.3321782775
 40
0.4515043158
 40
0.5773912951
 40
0.7105705297
 40
0.8514499314
 40
1.0
 40
1.0
 40
1.0
 40
1.0
 10
18.5177848381
 20
49.5784949139
 30
0.0
 10
18.5177880698
 20
49.4839795928
 30
0.0
 10
18.5258703873
 20
49.294399002
 30
0.0
 10
18.5621454433
 20
49.0110431681
 30
0.0
 10
18.6225360727
 20
48.7290925538
 30
0.0
 10
18.7068265729
 20
48.4492692561
 30
0.0
 10
18.8148052177
 20
48.1722379797
 30
0.0
 10
18.9920677406
 20
47.8032281738
 30
0.0
 10
19.2742786827
 20
47.3513621133
 30
0.0
 10
19.6975350614
 20
46.8384102084
 30
0.0
 10
20.2051158525
 20
46.3525423266
 30
0.0
 10
20.7919455771
 20
45.8983355344
 30
0.0
 10
21.2211960133
 20
45.6262691382
 30
0.0
 10
21.4467414334
 20
45.4960533751
 30
0.0
  0
SPLINE
  5
2F7
100
AcDbEntity
  8
0
100
AcDbSpline
 62
7
  6
BYLAYER
 70
0
 71
3
 72
15
 73
11
 74
0
 42
0.0000001
 43
0.0000001
 44
0.0000000001
 40
0.0
 40
0.0
 40
0.0
 40
0.0
 40
0.1057597202
 40
0.21447369
 40
0.3279167827
 40
0.447476789
 40
0.5741084423
 40
0.7083478079
 40
0.8503637514
 40
1.0
 40
1.0
 40
1.0
 40
1.0
 10
33.6131160631
 20
54.4400003021
 30
0.0
 10
33.6056939114
 20
54.5401402536
 30
0.0
 10
33.5725650157
 20
54.7422883546
 30
0.0
 10
33.470460134
 20
55.0378201573
 30
0.0
 10
33.3171238544
 20
55.3251528731
 30
0.0
 10
33.1144931238
 20
55.6012707577
 30
0.0
 10
32.864900206
 20
55.8635659248
 30
0.0
 10
32.5710269646
 20
56.1095809579
 30
0.0
 10
32.2359106631
 20
56.3369298421
 30
0.0
 10
31.9933042517
 20
56.4712559757
 30
0.0
 10
31.8663606226
 20
56.5350543699
 30
0.0
  0
SPLINE
  5
2F8
100
AcDbEntity
  8
0
100
AcDbSpline
 62
7
  6
BYLAYER
 70
0
 71
3
 72
16
 73
12
 74
0
 42
0.0000001
 43
0.0000001
 44
0.0000000001
 40
0.0
 40
0.0
 40
0.0
 40
0.0
 40
0.0539199628
 40
0.1080983175
 40
0.2181363003
 40
0.3320625219
 40
0.4514100598
 40
0.5773171115
 40
0.7105191044
 40
0.8514286136
 40
1.0
 40
1.0
 40
1.0
 40
1.0
 10
36.0177681289
 20
52.5179036155
 30
0.0
 10
36.017768129
 20
52.4470180931
 30
0.0
 10
36.0117131532
 20
52.3048259421
 30
0.0
 10
35.9752628801
 20
52.0201039554
 30
0.0
 10
35.8830657904
 20
51.6643969949
 30
0.0
 10
35.7013928231
 20
51.2493877141
 30
0.0
 10
35.4504237981
 20
50.8476110977
 30
0.0
 10
35.1329824096
 20
50.4628499554
 30
0.0
 10
34.7523034767
 20
50.0984629446
 30
0.0
 10
34.3121840755
 20
49.7578097518
 30
0.0
 10
33.9902536843
 20
49.5537567145
 30
0.0
 10
33.8211027441
 20
49.4560979566
 30
0.0
  0
SPLINE
  5
2F9
100
AcDbEntity
  8
0
100
AcDbSpline
 62
7
  6
BYLAYER
 70
0
 71
3
 72
15
 73
11
 74
0
 42
0.0000001
 43
0.0000001
 44
0.0000000001
 40
0.0
 40
0.0
 40
0.0
 40
0.0
 40
0.1474380996
 40
0.2876711482
 40
0.4207369948
 40
0.5469340005
 40
0.6668624039
 40
0.7814617556
 40
0.892021041
 40
1.0
 40
1.0
 40
1.0
 40
1.0
 10
32.1545686174
 20
56.6234056764
 30
0.0
 10
32.2617370537
 20
56.5604672319
 30
0.0
 10
32.4661605062
 20
56.4294090877
 30
0.0
 10
32.7470534305
 20
56.2120798478
 30
0.0
 10
32.9924260072
 20
55.9805568623
 30
0.0
 10
33.2000964205
 20
55.7366456604
 30
0.0
 10
33.3682680485
 20
55.4823292673
 30
0.0
 10
33.4953127423
 20
55.2195727702
 30
0.0
 10
33.57981471
 20
54.9507120484
 30
0.0
 10
33.6074120597
 20
54.7676589229
 30
0.0
 10
33.6137038463
 20
54.6768555693
 30
0.0
  0
SPLINE
  5
2FA
100
AcDbEntity
  8
0
100
AcDbSpline
 62
7
  6
BYLAYER
 70
0
 71
3
 72
18
 73
14
 74
0
 42
0.0000001
 43
0.0000001
 44
0.0000000001
 40
0.0
 40
0.0
 40
0.0
 40
0.0
 40
0.0541464194
 40
0.1084135366
 40
0.1630779631
 40
0.2184071169
 40
0.274650618
 40
0.3320384313
 40
0.450959526
 40
0.5765690043
 40
0.7097103119
 40
0.8508528099
 40
1.0
 40
1.0
 40
1.0
 40
1.0
 10
18.6694616538
 20
52.682743967
 30
0.0
 10
18.6646206578
 20
52.5863664204
 30
0.0
 10
18.6634420748
 20
52.3928599733
 30
0.0
 10
18.687312939
 20
52.1028495624
 30
0.0
 10
18.7367604788
 20
51.8139345931
 30
0.0
 10
18.8116692676
 20
51.5269344414
 30
0.0
 10
18.911770753
 20
51.2425747185
 30
0.0
 10
19.080442698
 20
50.8635856285
 30
0.0
 10
19.3560040847
 20
50.3989417924
 30
0.0
 10
19.7772302539
 20
49.8716017904
 30
0.0
 10
20.2882544738
 20
49.3725013156
 30
0.0
 10
20.8835756693
 20
48.9066590465
 30
0.0
 10
21.3208702746
 20
48.6285966651
 30
0.0
 10
21.5510682291
 20
48.4956948208
 30
0.0
  0
SPLINE
  5
2FB
100
AcDbEntity
  8
0
100
AcDbSpline
 62
7
  6
BYLAYER
 70
0
 71
3
 72
14
 73
10
 74
0
 42
0.0000001
 43
0.0000001
 44
0.0000000001
 40
0.0
 40
0.0
 40
0.0
 40
0.0
 40
0.1450503077
 40
0.2840257227
 40
0.5433342837
 40
0.6644338167
 40
0.7803747171
 40
0.8919295035
 40
1.0
 40
1.0
 40
1.0
 40
1.0
 10
33.8211027441
 20
49.8643491651
 30
0.0
 10
33.9603533885
 20
49.9447450822
 30
0.0
 10
34.2278180519
 20
50.1115732378
 30
0.0
 10
34.7136256032
 20
50.4680919061
 30
0.0
 10
35.1362156254
 20
50.8647442383
 30
0.0
 10
35.4763749641
 20
51.2983256666
 30
0.0
 10
35.6808904371
 20
51.6272205965
 30
0.0
 10
35.8389735366
 20
51.9649144151
 30
0.0
 10
35.9136309719
 20
52.1975166301
 30
0.0
 10
35.9424054239
 20
52.3138089893
 30
0.0
  0
SPLINE
  5
2FC
100
AcDbEntity
  8
0
100
AcDbSpline
 62
7
  6
BYLAYER
 70
0
 71
3
 72
13
 73
9
 74
0
 42
0.0000001
 43
0.0000001
 44
0.0000000001
 40
0.0
 40
0.0
 40
0.0
 40
0.0
 40
0.2664661149
 40
0.524414438
 40
0.6489894868
 40
0.7700112539
 40
0.8871353403
 40
1.0
 40
1.0
 40
1.0
 40
1.0
 10
29.578470889
 20
48.6396116045
 30
0.0
 10
29.9723308639
 20
48.6720971294
 30
0.0
 10
30.7449951687
 20
48.7720383154
 30
0.0
 10
31.6846505549
 20
48.988694235
 30
0.0
 10
32.3967738609
 20
49.2147575634
 30
0.0
 10
32.8998080205
 20
49.4063074622
 30
0.0
 10
33.3746071036
 20
49.6205474022
 30
0.0
 10
33.676138348
 20
49.7806544316
 30
0.0
 10
33.8211027441
 20
49.8643491651
 30
0.0
  0
SPLINE
  5
2FD
100
AcDbEntity
  8
0
100
AcDbSpline
 62
7
  6
BYLAYER
 70
0
 71
3
 72
15
 73
11
 74
0
 42
0.0000001
 43
0.0000001
 44
0.0000000001
 40
0.0
 40
0.0
 40
0.0
 40
0.0
 40
0.1141515087
 40
0.2373301591
 40
0.3669778071
 40
0.5000005759
 40
0.6330236626
 40
0.7626743904
 40
0.8858459846
 40
1.0
 40
1.0
 40
1.0
 40
1.0
 10
24.5227043598
 20
30.1663718965
 30
0.0
 10
24.5227043598
 20
30.0769429256
 30
0.0
 10
24.5390878094
 20
29.8908397563
 30
0.0
 10
24.6043817771
 20
29.6100827591
 30
0.0
 10
24.7089983409
 20
29.3257003752
 30
0.0
 10
24.8489994029
 20
29.0483847776
 30
0.0
 10
25.0191602661
 20
28.7884785009
 30
0.0
 10
25.2131364995
 20
28.5556925439
 30
0.0
 10
25.4236257557
 20
28.3587627455
 30
0.0
 10
25.5766021085
 20
28.2515258142
 30
0.0
 10
25.6540509465
 20
28.2068092676
 30
0.0
  0
SPLINE
  5
2FE
100
AcDbEntity
  8
0
100
AcDbSpline
 62
7
  6
BYLAYER
 70
0
 71
3
 72
14
 73
10
 74
0
 42
0.0000001
 43
0.0000001
 44
0.0000000001
 40
0.0
 40
0.0
 40
0.0
 40
0.0
 40
0.1080610879
 40
0.2181596691
 40
0.332155279
 40
0.4515599132
 40
0.7103708631
 40
0.8514080973
 40
1.0
 40
1.0
 40
1.0
 40
1.0
 10
24.9369259318
 20
31.408537743
 30
0.0
 10
24.9041347088
 20
31.3896062775
 30
0.0
 10
24.8410975404
 20
31.3456026172
 30
0.0
 10
24.7577794737
 20
31.2636346863
 30
0.0
 10
24.686152021
 20
31.1663083231
 30
0.0
 10
24.6049067901
 20
31.0136122525
 30
0.0
 10
24.5527795792
 20
30.837160817
 30
0.0
 10
24.5269251263
 20
30.6466160759
 30
0.0
 10
24.5227020046
 20
30.545031307
 30
0.0
 10
24.5227020046
 20
30.4929658598
 30
0.0
  0
SPLINE
  5
2FF
100
AcDbEntity
  8
0
100
AcDbSpline
 62
7
  6
BYLAYER
 70
0
 71
3
 72
15
 73
11
 74
0
 42
0.0000001
 43
0.0000001
 44
0.0000000001
 40
0.0
 40
0.0
 40
0.0
 40
0.0
 40
0.1486025682
 40
0.2895002298
 40
0.4227203132
 40
0.5486432716
 40
0.6679991308
 40
0.7819389812
 40
0.8919869925
 40
1.0
 40
1.0
 40
1.0
 40
1.0
 10
25.9368852404
 20
28.043500425
 30
0.0
 10
25.9819989894
 20
28.0174532409
 30
0.0
 10
26.0720508582
 20
27.97031792
 30
0.0
 10
26.2094056667
 20
27.9140845015
 30
0.0
 10
26.3443183568
 20
27.8747699093
 30
0.0
 10
26.4755073497
 20
27.85273919
 30
0.0
 10
26.6017580007
 20
27.8483667331
 30
0.0
 10
26.7218504817
 20
27.8617383987
 30
0.0
 10
26.8344973804
 20
27.8929107966
 30
0.0
 10
26.9041251994
 20
27.9254991723
 30
0.0
 10
26.936916978
 20
27.9444309586
 30
0.0
  0
SPLINE
  5
300
100
AcDbEntity
  8
0
100
AcDbSpline
 62
7
  6
BYLAYER
 70
0
 71
3
 72
25
 73
21
 74
0
 42
0.0000001
 43
0.0000001
 44
0.0000000001
 40
0.0
 40
0.0
 40
0.0
 40
0.0
 40
0.0623733757
 40
0.1287280346
 40
0.1983135594
 40
0.2702912948
 40
0.3436687514
 40
0.4173996816
 40
0.4904238624
 40
0.5617106244
 40
0.6303076443
 40
0.6953947824
 40
0.7563427378
 40
0.8127809614
 40
0.8646816231
 40
0.9124565119
 40
0.9351018586
 40
0.9571071324
 40
0.9786678002
 40
1.0
 40
1.0
 40
1.0
 40
1.0
 10
27.3511409052
 20
28.8600028417
 30
0.0
 10
27.3511409052
 20
28.9429620126
 30
0.0
 10
27.3398864496
 20
29.1142885222
 30
0.0
 10
27.2936536204
 20
29.3744169165
 30
0.0
 10
27.2184345849
 20
29.6409715272
 30
0.0
 10
27.115909859
 20
29.9082330468
 30
0.0
 10
26.9882106342
 20
30.1705507409
 30
0.0
 10
26.8380829386
 20
30.4223233246
 30
0.0
 10
26.6687315671
 20
30.6581864302
 30
0.0
 10
26.4837585775
 20
30.8731111295
 30
0.0
 10
26.2870831651
 20
31.0625208579
 30
0.0
 10
26.0828494719
 20
31.222406582
 30
0.0
 10
25.8753061607
 20
31.3493867949
 30
0.0
 10
25.6686436072
 20
31.4407195732
 30
0.0
 10
25.4670483127
 20
31.4942987401
 30
0.0
 10
25.3035453139
 20
31.5062908599
 30
0.0
 10
25.180914361
 20
31.4947965478
 30
0.0
 10
25.094575196
 20
31.4763763405
 30
0.0
 10
25.0127965619
 20
31.4481001256
 30
0.0
 10
24.9614975986
 20
31.4227237848
 30
0.0
 10
24.9369259318
 20
31.408537743
 30
0.0
  0
SPLINE
  5
301
100
AcDbEntity
  8
0
100
AcDbSpline
 62
7
  6
BYLAYER
 70
0
 71
3
 72
14
 73
10
 74
0
 42
0.0000001
 43
0.0000001
 44
0.0000000001
 40
0.0
 40
0.0
 40
0.0
 40
0.0
 40
0.1080610879
 40
0.2181596691
 40
0.332155279
 40
0.4515599132
 40
0.7103708631
 40
0.8514080973
 40
1.0
 40
1.0
 40
1.0
 40
1.0
 10
26.936916978
 20
27.9444309586
 30
0.0
 10
26.969708201
 20
27.963362424
 30
0.0
 10
27.0327453694
 20
28.0073660844
 30
0.0
 10
27.1160634361
 20
28.0893340153
 30
0.0
 10
27.1876908888
 20
28.1866603784
 30
0.0
 10
27.2689361197
 20
28.339356449
 30
0.0
 10
27.3210633306
 20
28.5158078845
 30
0.0
 10
27.3469177835
 20
28.7063526256
 30
0.0
 10
27.3511409052
 20
28.8079373945
 30
0.0
 10
27.3511409052
 20
28.8600028417
 30
0.0
  0
SPLINE
  5
302
100
AcDbEntity
  8
0
100
AcDbSpline
 62
7
  6
BYLAYER
 70
0
 71
3
 72
27
 73
23
 74
0
 42
0.0000001
 43
0.0000001
 44
0.0000000001
 40
0.0
 40
0.0
 40
0.0
 40
0.0
 40
0.0660126528
 40
0.1369399478
 40
0.2115540965
 40
0.2883979008
 40
0.3658370048
 40
0.4422091809
 40
0.5159155427
 40
0.5855452021
 40
0.6500037508
 40
0.7086695419
 40
0.7615868221
 40
0.7861914351
 40
0.8097901234
 40
0.832657395
 40
0.8551158317
 40
0.8775213426
 40
0.9002333962
 40
0.9235891638
 40
0.9478734838
 40
1.0
 40
1.0
 40
1.0
 40
1.0
 10
26.7854554803
 20
28.860001482
 30
0.0
 10
26.7854554803
 20
28.9418099275
 30
0.0
 10
26.7717501414
 20
29.1116614177
 30
0.0
 10
26.7165815067
 20
29.368581232
 30
0.0
 10
26.6277038366
 20
29.6300706324
 30
0.0
 10
26.5079931822
 20
29.8878103035
 30
0.0
 10
26.3611944577
 20
30.1336772424
 30
0.0
 10
26.1919818762
 20
30.3598770088
 30
0.0
 10
26.0056854912
 20
30.5592545302
 30
0.0
 10
25.8081488573
 20
30.7255339776
 30
0.0
 10
25.6053844551
 20
30.8534979964
 30
0.0
 10
25.4035208039
 20
30.9390706041
 30
0.0
 10
25.2366167106
 20
30.9731801047
 30
0.0
 10
25.1109821854
 20
30.9748080291
 30
0.0
 10
25.0232730718
 20
30.9640057863
 30
0.0
 10
24.9406034598
 20
30.9412784765
 30
0.0
 10
24.8637188472
 20
30.9067547162
 30
0.0
 10
24.7933492024
 20
30.8607211649
 30
0.0
 10
24.7301140131
 20
30.80364437
 30
0.0
 10
24.6745920319
 20
30.7360188801
 30
0.0
 10
24.6098658352
 20
30.6303226882
 30
0.0
 10
24.5765682332
 20
30.5404638225
 30
0.0
 10
24.5601262321
 20
30.4779917041
 30
0.0
  0
SPLINE
  5
303
100
AcDbEntity
  8
0
100
AcDbSpline
 62
7
  6
BYLAYER
 70
0
 71
3
 72
9
 73
5
 74
0
 42
0.0000001
 43
0.0000001
 44
0.0000000001
 40
0.0
 40
0.0
 40
0.0
 40
0.0
 40
0.4824304407
 40
1.0
 40
1.0
 40
1.0
 40
1.0
 10
24.5601262321
 20
30.4779917041
 30
0.0
 10
24.5472537753
 20
30.4290822287
 30
0.0
 10
24.5283568408
 20
30.3255732264
 30
0.0
 10
24.5227043598
 20
30.2206307295
 30
0.0
 10
24.5227043598
 20
30.1663718965
 30
0.0
  0
SPLINE
  5
304
100
AcDbEntity
  8
0
100
AcDbSpline
 62
7
  6
BYLAYER
 70
0
 71
3
 72
9
 73
5
 74
0
 42
0.0000001
 43
0.0000001
 44
0.0000000001
 40
0.0
 40
0.0
 40
0.0
 40
0.0
 40
0.264352799
 40
1.0
 40
1.0
 40
1.0
 40
1.0
 10
25.6540509465
 20
28.2068092676
 30
0.0
 10
25.6791464129
 20
28.192319927
 30
0.0
 10
25.7755907659
 20
28.1402638529
 30
0.0
 10
25.8786364485
 20
28.0997257439
 30
0.0
 10
25.9567419872
 20
28.0796650137
 30
0.0
  0
SPLINE
  5
305
100
AcDbEntity
  8
0
100
AcDbSpline
 62
7
  6
BYLAYER
 70
0
 71
3
 72
19
 73
15
 74
0
 42
0.0000001
 43
0.0000001
 44
0.0000000001
 40
0.0
 40
0.0
 40
0.0
 40
0.0
 40
0.1288908106
 40
0.1893352687
 40
0.2476088899
 40
0.3042768334
 40
0.3599882974
 40
0.4154564381
 40
0.4714093401
 40
0.5285470446
 40
0.5874904681
 40
0.7125676935
 40
0.8497672198
 40
1.0
 40
1.0
 40
1.0
 40
1.0
 10
25.9567419872
 20
28.0796650137
 30
0.0
 10
26.0130425759
 20
28.0652046959
 30
0.0
 10
26.0981467578
 20
28.0513688771
 30
0.0
 10
26.2100206879
 20
28.0527596475
 30
0.0
 10
26.2886086694
 20
28.0635175527
 30
0.0
 10
26.3630533133
 20
28.0839353798
 30
0.0
 10
26.4328322315
 20
28.1139146434
 30
0.0
 10
26.4974081261
 20
28.1532739987
 30
0.0
 10
26.5563397724
 20
28.2016770255
 30
0.0
 10
26.6091746903
 20
28.2588102422
 30
0.0
 10
26.6722924918
 20
28.3476985417
 30
0.0
 10
26.7337275287
 20
28.4803660407
 30
0.0
 10
26.7767563543
 20
28.6623244664
 30
0.0
 10
26.7854554803
 20
28.7922486176
 30
0.0
 10
26.7854554803
 20
28.860001482
 30
0.0
  0
LINE
  5
306
100
AcDbEntity
  8
0
100
AcDbLine
 62
7
  6
BYLAYER
 10
29.4969933838
 20
64.4042394974
 11
29.6428313512
 21
64.1567398169
  0
SPLINE
  5
307
100
AcDbEntity
  8
0
100
AcDbSpline
 62
7
  6
BYLAYER
 70
0
 71
3
 72
11
 73
7
 74
0
 42
0.0000001
 43
0.0000001
 44
0.0000000001
 40
0.0
 40
0.0
 40
0.0
 40
0.0
 40
0.2706838439
 40
0.5261814719
 40
0.7682026895
 40
1.0
 40
1.0
 40
1.0
 40
1.0
 10
26.6856244227
 20
65.8640469208
 30
0.0
 10
26.6475614654
 20
65.8282594063
 30
0.0
 10
26.5774488804
 20
65.7543707777
 30
0.0
 10
26.4900631479
 20
65.6339986737
 30
0.0
 10
26.4249015684
 20
65.5086059626
 30
0.0
 10
26.3964101341
 20
65.4211517952
 30
0.0
 10
26.386403099
 20
65.3775458865
 30
0.0
  0
SPLINE
  5
308
100
AcDbEntity
  8
0
100
AcDbSpline
 62
7
  6
BYLAYER
 70
0
 71
3
 72
15
 73
11
 74
0
 42
0.0000001
 43
0.0000001
 44
0.0000000001
 40
0.0
 40
0.0
 40
0.0
 40
0.0
 40
0.1116858594
 40
0.2311426464
 40
0.3566392531
 40
0.4862439895
 40
0.6176988474
 40
0.7486404756
 40
0.8768348798
 40
1.0
 40
1.0
 40
1.0
 40
1.0
 10
29.8966322881
 20
66.1738927853
 30
0.0
 10
29.8183728572
 20
66.2190748667
 30
0.0
 10
29.6494260903
 20
66.300769675
 30
0.0
 10
29.3758564906
 20
66.3943397191
 30
0.0
 10
29.0796744816
 20
66.4610812168
 30
0.0
 10
28.7687655507
 20
66.4993079268
 30
0.0
 10
28.4512453841
 20
66.5079605228
 30
0.0
 10
28.1354354376
 20
66.4868784188
 30
0.0
 10
27.8297586614
 20
66.4365452071
 30
0.0
 10
27.6330510494
 20
66.3830705614
 30
0.0
 10
27.5385658818
 20
66.3513940726
 30
0.0
  0
SPLINE
  5
309
100
AcDbEntity
  8
0
100
AcDbSpline
 62
7
  6
BYLAYER
 70
0
 71
3
 72
11
 73
7
 74
0
 42
0.0000001
 43
0.0000001
 44
0.0000000001
 40
0.0
 40
0.0
 40
0.0
 40
0.0
 40
0.2191085918
 40
0.4556755744
 40
0.7153954922
 40
1.0
 40
1.0
 40
1.0
 40
1.0
 10
30.6498366627
 20
65.3745459014
 30
0.0
 10
30.6342961877
 20
65.4435321761
 30
0.0
 10
30.581257927
 20
65.5828510247
 30
0.0
 10
30.4481101568
 20
65.7736890586
 30
0.0
 10
30.2641374997
 20
65.947998189
 30
0.0
 10
30.1176006506
 20
66.0463153462
 30
0.0
 10
30.0380530556
 20
66.0922411327
 30
0.0
  0
SPLINE
  5
30A
100
AcDbEntity
  8
0
100
AcDbSpline
 62
7
  6
BYLAYER
 70
0
 71
3
 72
11
 73
7
 74
0
 42
0.0000001
 43
0.0000001
 44
0.0000000001
 40
0.0
 40
0.0
 40
0.0
 40
0.0
 40
0.2747606137
 40
0.5296634504
 40
0.7690250191
 40
1.0
 40
1.0
 40
1.0
 40
1.0
 10
30.3499351884
 20
64.5649854829
 30
0.0
 10
30.3994925234
 20
64.6115802134
 30
0.0
 10
30.488613312
 20
64.7087107278
 30
0.0
 10
30.5908471178
 20
64.8707138194
 30
0.0
 10
30.6535788218
 20
65.0404538762
 30
0.0
 10
30.6677620486
 20
65.1573340968
 30
0.0
 10
30.6677619791
 20
65.2145162014
 30
0.0
  0
LINE
  5
30B
100
AcDbEntity
  8
0
100
AcDbLine
 62
7
  6
BYLAYER
 10
30.204097221
 20
64.8124836512
 11
30.3499351884
 21
64.5649839708
  0
SPLINE
  5
30C
100
AcDbEntity
  8
0
100
AcDbSpline
 62
7
  6
BYLAYER
 70
0
 71
3
 72
15
 73
11
 74
0
 42
0.0000001
 43
0.0000001
 44
0.0000000001
 40
0.0
 40
0.0
 40
0.0
 40
0.0
 40
0.1224028209
 40
0.2502030889
 40
0.3810629169
 40
0.5126710044
 40
0.6425700535
 40
0.7684036314
 40
0.8881501515
 40
1.0
 40
1.0
 40
1.0
 40
1.0
 10
29.6428313512
 20
63.7893152413
 30
0.0
 10
29.5380690499
 20
63.752174503
 30
0.0
 10
29.3192031696
 20
63.6891323033
 30
0.0
 10
28.9779225366
 20
63.6287105537
 30
0.0
 10
28.623998955
 20
63.6016151694
 30
0.0
 10
28.2672223003
 20
63.6085040676
 30
0.0
 10
27.9172908509
 20
63.6492684713
 30
0.0
 10
27.5836808433
 20
63.7227311243
 30
0.0
 10
27.2756031803
 20
63.8269682764
 30
0.0
 10
27.0854677165
 20
63.9185819322
 30
0.0
 10
26.9975065555
 20
63.9693651833
 30
0.0
  0
SPLINE
  5
30D
100
AcDbEntity
  8
0
100
AcDbSpline
 62
7
  6
BYLAYER
 70
0
 71
3
 72
14
 73
10
 74
0
 42
0.0000001
 43
0.0000001
 44
0.0000000001
 40
0.0
 40
0.0
 40
0.0
 40
0.0
 40
0.108050322
 40
0.2181410963
 40
0.3321144833
 40
0.4514899141
 40
0.5774364867
 40
0.7107543314
 40
1.0
 40
1.0
 40
1.0
 40
1.0
 10
26.367797632
 20
65.2145162014
 30
0.0
 10
26.3677976814
 20
65.1738125275
 30
0.0
 10
26.3748389477
 20
65.0914680341
 30
0.0
 10
26.4064224112
 20
64.9698565269
 30
0.0
 10
26.4584868795
 20
64.8508633998
 30
0.0
 10
26.5304166811
 20
64.7357023696
 30
0.0
 10
26.6214300506
 20
64.6253816201
 30
0.0
 10
26.7709777628
 20
64.4822832726
 30
0.0
 10
26.9031423046
 20
64.3912712642
 30
0.0
 10
26.9975065555
 20
64.336791271
 30
0.0
  0
SPLINE
  5
30E
100
AcDbEntity
  8
0
100
AcDbSpline
 62
7
  6
BYLAYER
 70
0
 71
3
 72
9
 73
5
 74
0
 42
0.0000001
 43
0.0000001
 44
0.0000000001
 40
0.0
 40
0.0
 40
0.0
 40
0.0
 40
0.523199129
 40
1.0
 40
1.0
 40
1.0
 40
1.0
 10
30.0404020021
 20
63.1107065823
 30
0.0
 10
30.1733077889
 20
63.1631052418
 30
0.0
 10
30.4212512856
 20
63.2798755864
 30
0.0
 10
30.6480848946
 20
63.4348933863
 30
0.0
 10
30.7475058393
 20
63.5189507362
 30
0.0
  0
SPLINE
  5
30F
100
AcDbEntity
  8
0
100
AcDbSpline
 62
7
  6
BYLAYER
 70
0
 71
3
 72
14
 73
10
 74
0
 42
0.0000001
 43
0.0000001
 44
0.0000000001
 40
0.0
 40
0.0
 40
0.0
 40
0.0
 40
0.2892456684
 40
0.4225635132
 40
0.5485100857
 40
0.6678855164
 40
0.7818589033
 40
0.8919496777
 40
1.0
 40
1.0
 40
1.0
 40
1.0
 10
26.9975065555
 20
63.9693651833
 30
0.0
 10
26.9031423046
 20
64.0238451765
 30
0.0
 10
26.7709777627
 20
64.1148571849
 30
0.0
 10
26.6214300506
 20
64.2579555325
 30
0.0
 10
26.5304166811
 20
64.368276282
 30
0.0
 10
26.4584868795
 20
64.483437312
 30
0.0
 10
26.4064224112
 20
64.6024304391
 30
0.0
 10
26.3748389477
 20
64.7240419465
 30
0.0
 10
26.3677976814
 20
64.8063864401
 30
0.0
 10
26.367797632
 20
64.8470901141
 30
0.0
  0
SPLINE
  5
310
100
AcDbEntity
  8
0
100
AcDbSpline
 62
7
  6
BYLAYER
 70
0
 71
3
 72
15
 73
11
 74
0
 42
0.0000001
 43
0.0000001
 44
0.0000000001
 40
0.0
 40
0.0
 40
0.0
 40
0.0
 40
0.1118498485
 40
0.2315963686
 40
0.3574299464
 40
0.4873289956
 40
0.618937083
 40
0.7497969111
 40
0.8775971788
 40
1.0
 40
1.0
 40
1.0
 40
1.0
 10
26.9975065555
 20
64.336791271
 30
0.0
 10
27.0854677165
 20
64.2860080199
 30
0.0
 10
27.2756031803
 20
64.1943943641
 30
0.0
 10
27.5836808432
 20
64.090157212
 30
0.0
 10
27.917290851
 20
64.016694559
 30
0.0
 10
28.2672223003
 20
63.9759301557
 30
0.0
 10
28.6239989551
 20
63.9690412554
 30
0.0
 10
28.9779225361
 20
63.996136645
 30
0.0
 10
29.3192031694
 20
64.0565583886
 30
0.0
 10
29.5380690528
 20
64.1196005814
 30
0.0
 10
29.6428313512
 20
64.156741329
 30
0.0
  0
SPLINE
  5
311
100
AcDbEntity
  8
0
100
AcDbSpline
 62
7
  6
BYLAYER
 70
0
 71
3
 72
9
 73
5
 74
0
 42
0.0000001
 43
0.0000001
 44
0.0000000001
 40
0.0
 40
0.0
 40
0.0
 40
0.0
 40
0.2559725858
 40
1.0
 40
1.0
 40
1.0
 40
1.0
 10
26.8314620446
 20
65.9431499188
 30
0.0
 10
26.8222779
 20
65.934018464
 30
0.0
 10
26.7869845444
 20
65.8977632823
 30
0.0
 10
26.7540979691
 20
65.8591418318
 30
0.0
 10
26.7313595098
 20
65.8291404461
 30
0.0
  0
SPLINE
  5
312
100
AcDbEntity
  8
0
100
AcDbSpline
 62
7
  6
BYLAYER
 70
0
 71
3
 72
15
 73
11
 74
0
 42
0.0000001
 43
0.0000001
 44
0.0000000001
 40
0.0
 40
0.0
 40
0.0
 40
0.0
 40
0.1230714328
 40
0.23826481
 40
0.3498028932
 40
0.4625647538
 40
0.5811498335
 40
0.7090712171
 40
0.8485156272
 40
1.0
 40
1.0
 40
1.0
 40
1.0
 10
26.7313595098
 20
65.8291404461
 30
0.0
 10
26.6938937904
 20
65.7797077432
 30
0.0
 10
26.6300580311
 20
65.6767550229
 30
0.0
 10
26.5733195828
 20
65.5080245623
 30
0.0
 10
26.5616651311
 20
65.3353276727
 30
0.0
 10
26.59569212
 20
65.1639615089
 30
0.0
 10
26.6737672458
 20
64.9988232081
 30
0.0
 10
26.7930165177
 20
64.8435726385
 30
0.0
 10
26.950154388
 20
64.7012465706
 30
0.0
 10
27.0728092596
 20
64.6199130033
 30
0.0
 10
27.138927323
 20
64.5817405852
 30
0.0
  0
SPLINE
  5
313
100
AcDbEntity
  8
0
100
AcDbSpline
 62
7
  6
BYLAYER
 70
0
 71
3
 72
15
 73
11
 74
0
 42
0.0000001
 43
0.0000001
 44
0.0000000001
 40
0.0
 40
0.0
 40
0.0
 40
0.0
 40
0.1116858594
 40
0.2311426464
 40
0.3566392531
 40
0.4862439895
 40
0.6176988474
 40
0.7486404756
 40
0.8768348798
 40
1.0
 40
1.0
 40
1.0
 40
1.0
 10
27.138927323
 20
64.5817405852
 30
0.0
 10
27.2171867539
 20
64.5365585039
 30
0.0
 10
27.3861335208
 20
64.4548636956
 30
0.0
 10
27.6597031205
 20
64.3612936515
 30
0.0
 10
27.9558851295
 20
64.2945521538
 30
0.0
 10
28.2667940604
 20
64.2563254437
 30
0.0
 10
28.584314227
 20
64.2476728478
 30
0.0
 10
28.9001241735
 20
64.2687549518
 30
0.0
 10
29.2058009497
 20
64.3190881634
 30
0.0
 10
29.4025085617
 20
64.3725628091
 30
0.0
 10
29.4969937293
 20
64.4042392979
 30
0.0
  0
SPLINE
  5
314
100
AcDbEntity
  8
0
100
AcDbSpline
 62
7
  6
BYLAYER
 70
0
 71
3
 72
15
 73
11
 74
0
 42
0.0000001
 43
0.0000001
 44
0.0000000001
 40
0.0
 40
0.0
 40
0.0
 40
0.0
 40
0.132887483
 40
0.2556564132
 40
0.3713362225
 40
0.484485002
 40
0.600084311
 40
0.7225997181
 40
0.8552844456
 40
1.0
 40
1.0
 40
1.0
 40
1.0
 10
30.2040975665
 20
64.8124834518
 30
0.0
 10
30.2508921075
 20
64.8590095304
 30
0.0
 10
30.3338227043
 20
64.9562610323
 30
0.0
 10
30.4232887133
 20
65.1191664111
 30
0.0
 10
30.4693154773
 20
65.2895082467
 30
0.0
 10
30.4697883764
 20
65.4625332565
 30
0.0
 10
30.4246837677
 20
65.6329407693
 30
0.0
 10
30.3361263698
 20
65.796103748
 30
0.0
 10
30.2071150542
 20
65.9485626697
 30
0.0
 10
30.1009001496
 20
66.0373111621
 30
0.0
 10
30.0427052873
 20
66.0794705723
 30
0.0
  0
SPLINE
  5
315
100
AcDbEntity
  8
0
100
AcDbSpline
 62
7
  6
BYLAYER
 70
0
 71
3
 72
9
 73
5
 74
0
 42
0.0000001
 43
0.0000001
 44
0.0000000001
 40
0.0
 40
0.0
 40
0.0
 40
0.0
 40
0.2446873768
 40
1.0
 40
1.0
 40
1.0
 40
1.0
 10
30.0427052873
 20
66.0794705723
 30
0.0
 10
30.0312138934
 20
66.0877955408
 30
0.0
 10
29.9837830326
 20
66.1211706593
 30
0.0
 10
29.9345665715
 20
66.1519919121
 30
0.0
 10
29.8966322881
 20
66.1738927853
 30
0.0
  0
SPLINE
  5
316
100
AcDbEntity
  8
0
100
AcDbSpline
 62
7
  6
BYLAYER
 70
0
 71
3
 72
11
 73
7
 74
0
 42
0.0000001
 43
0.0000001
 44
0.0000000001
 40
0.0
 40
0.0
 40
0.0
 40
0.0
 40
0.2309749822
 40
0.4703365522
 40
0.7252393811
 40
1.0
 40
1.0
 40
1.0
 40
1.0
 10
30.6677619791
 20
64.8470901141
 30
0.0
 10
30.6677620486
 20
64.7899080093
 30
0.0
 10
30.6535788215
 20
64.6730277882
 30
0.0
 10
30.5908471198
 20
64.5032877317
 30
0.0
 10
30.4886133093
 20
64.3412846427
 30
0.0
 10
30.3994925203
 20
64.2441541308
 30
0.0
 10
30.3499351884
 20
64.1975593952
 30
0.0
  0
SPLINE
  5
317
100
AcDbEntity
  8
0
100
AcDbSpline
 62
7
  6
BYLAYER
 70
0
 71
3
 72
22
 73
18
 74
0
 42
0.0000001
 43
0.0000001
 44
0.0000000001
 40
0.0
 40
0.0
 40
0.0
 40
0.0
 40
0.0428186556
 40
0.0874063801
 40
0.1351938163
 40
0.1871109368
 40
0.2435634457
 40
0.3045267983
 40
0.3696330509
 40
0.4382476902
 40
0.509555076
 40
0.5825982149
 40
0.7296203861
 40
0.801614887
 40
0.8712269379
 40
0.9376268117
 40
1.0
 40
1.0
 40
1.0
 40
1.0
 10
28.3974517577
 20
33.5796515946
 30
0.0
 10
28.4504609452
 20
33.6102441379
 30
0.0
 10
28.5672899859
 20
33.6588337593
 30
0.0
 10
28.7601672273
 20
33.6870560225
 30
0.0
 10
28.967281938
 20
33.6718558979
 30
0.0
 10
29.1840358538
 20
33.6142399602
 30
0.0
 10
29.4061793187
 20
33.5160689129
 30
0.0
 10
29.6292995231
 20
33.3795899452
 30
0.0
 10
29.8488274384
 20
33.2076958314
 30
0.0
 10
30.0602595552
 20
33.0041056799
 30
0.0
 10
30.2591167208
 20
32.7730466864
 30
0.0
 10
30.5022320994
 20
32.4344272768
 30
0.0
 10
30.7020734815
 20
32.0651284169
 30
0.0
 10
30.8500609103
 20
31.6795896722
 30
0.0
 10
30.9309411062
 20
31.3929815371
 30
0.0
 10
30.9805940347
 20
31.1133252408
 30
0.0
 10
30.99272655
 20
30.9291416783
 30
0.0
 10
30.99272655
 20
30.8399874979
 30
0.0
  0
SPLINE
  5
318
100
AcDbEntity
  8
0
100
AcDbSpline
 62
7
  6
BYLAYER
 70
0
 71
3
 72
15
 73
11
 74
0
 42
0.0000001
 43
0.0000001
 44
0.0000000001
 40
0.0
 40
0.0
 40
0.0
 40
0.0
 40
0.0958880453
 40
0.1962997249
 40
0.3047821334
 40
0.4234756338
 40
0.5531327851
 40
0.6933662725
 40
0.8429466267
 40
1.0
 40
1.0
 40
1.0
 40
1.0
 10
11.4268183542
 20
43.3774297031
 30
0.0
 10
11.4837007483
 20
43.4102575426
 30
0.0
 10
11.6101639833
 20
43.4614153479
 30
0.0
 10
11.8194777329
 20
43.4863961181
 30
0.0
 10
12.0441406626
 20
43.4614312743
 30
0.0
 10
12.278592103
 20
43.3881511483
 30
0.0
 10
12.5176134464
 20
43.2689587302
 30
0.0
 10
12.7558059317
 20
43.106973066
 30
0.0
 10
12.9875503391
 20
42.9061344487
 30
0.0
 10
13.1313317807
 20
42.7524852848
 30
0.0
 10
13.2010336776
 20
42.6705542654
 30
0.0
  0
SPLINE
  5
319
100
AcDbEntity
  8
0
100
AcDbSpline
 62
7
  6
BYLAYER
 70
0
 71
3
 72
13
 73
9
 74
0
 42
0.0000001
 43
0.0000001
 44
0.0000000001
 40
0.0
 40
0.0
 40
0.0
 40
0.0
 40
0.1081037871
 40
0.2182385972
 40
0.33223943
 40
0.4516639535
 40
0.7106942462
 40
1.0
 40
1.0
 40
1.0
 40
1.0
 10
9.6304851621
 20
46.4887463057
 30
0.0
 10
9.6058904727
 20
46.4745466356
 30
0.0
 10
9.5586217639
 20
46.4415271501
 30
0.0
 10
9.4961431076
 20
46.3800551426
 30
0.0
 10
9.4423965495
 20
46.3071009415
 30
0.0
 10
9.3814658155
 20
46.1925281046
 30
0.0
 10
9.3312994955
 20
46.0225550635
 30
0.0
 10
9.3198134743
 20
45.8780760919
 30
0.0
 10
9.3198134743
 20
45.8020738753
 30
0.0
  0
SPLINE
  5
31A
100
AcDbEntity
  8
0
100
AcDbSpline
 62
7
  6
BYLAYER
 70
0
 71
3
 72
30
 73
26
 74
0
 42
0.0000001
 43
0.0000001
 44
0.0000000001
 40
0.0
 40
0.0
 40
0.0
 40
0.0
 40
0.0213279312
 40
0.0428841264
 40
0.0648851909
 40
0.0875253437
 40
0.1109702218
 40
0.1353520832
 40
0.1607701574
 40
0.1872902146
 40
0.2149486839
 40
0.243753485
 40
0.2736893611
 40
0.3047183458
 40
0.369792659
 40
0.438375749
 40
0.5096474471
 40
0.5826565844
 40
0.6563729085
 40
0.7297349303
 40
0.8016967442
 40
0.8712754771
 40
0.9376015071
 40
0.9693385516
 40
1.0
 40
1.0
 40
1.0
 40
1.0
 10
10.7773772339
 20
35.3577197915
 30
0.0
 10
10.9309539975
 20
35.4463773775
 30
0.0
 10
11.2515361058
 20
35.6050491834
 30
0.0
 10
11.7626826675
 20
35.7817343431
 30
0.0
 10
12.3022758897
 20
35.8968285476
 30
0.0
 10
12.8670965783
 20
35.9498054958
 30
0.0
 10
13.4540008797
 20
35.9405521871
 30
0.0
 10
14.0597782952
 20
35.8693300291
 30
0.0
 10
14.6811731075
 20
35.736637625
 30
0.0
 10
15.3148958596
 20
35.5433466017
 30
0.0
 10
15.9575730048
 20
35.2905280712
 30
0.0
 10
16.6058172443
 20
34.9796415309
 30
0.0
 10
17.2561771157
 20
34.6123355121
 30
0.0
 10
18.1353835594
 20
34.0410534464
 30
0.0
 10
19.2159157643
 20
33.1950765566
 30
0.0
 10
20.4450327961
 20
32.0113357703
 30
0.0
 10
21.6011566768
 20
30.6680541597
 30
0.0
 10
22.6596138598
 20
29.1939314139
 30
0.0
 10
23.5978991413
 20
27.6203368003
 30
0.0
 10
24.3959832001
 20
25.9808650584
 30
0.0
 10
25.0368643598
 20
24.3104086642
 30
0.0
 10
25.5068313259
 20
22.6446733014
 30
0.0
 10
25.7513858793
 20
21.2695260202
 30
0.0
 10
25.8493604259
 20
20.2032574144
 30
0.0
 10
25.8662140152
 20
19.6843217768
 30
0.0
 10
25.8662140152
 20
19.4293884756
 30
0.0
  0
SPLINE
  5
31B
100
AcDbEntity
  8
0
100
AcDbSpline
 62
7
  6
BYLAYER
 70
0
 71
3
 72
16
 73
12
 74
0
 42
0.0000001
 43
0.0000001
 44
0.0000000001
 40
0.0
 40
0.0
 40
0.0
 40
0.0
 40
0.0539201042
 40
0.1080989786
 40
0.2181366185
 40
0.3320628306
 40
0.4514117218
 40
0.5773165691
 40
0.7105192487
 40
0.8514351498
 40
1.0
 40
1.0
 40
1.0
 40
1.0
 10
10.1523806741
 20
36.4402520649
 30
0.0
 10
10.0398272777
 20
36.3752766655
 30
0.0
 10
9.8196110325
 20
36.2353081404
 30
0.0
 10
9.4009662631
 20
35.9164104253
 30
0.0
 10
8.9206778439
 20
35.4439731229
 30
0.0
 10
8.4282720408
 20
34.7750765465
 30
0.0
 10
8.0204254565
 20
34.0082808288
 30
0.0
 10
7.7004796948
 20
33.1515596029
 30
0.0
 10
7.4708830677
 20
32.2130820801
 30
0.0
 10
7.3334721702
 20
31.2019948994
 30
0.0
 10
7.3045837301
 20
30.5037891074
 30
0.0
 10
7.3045837301
 20
30.1457082818
 30
0.0
  0
SPLINE
  5
31C
100
AcDbEntity
  8
0
100
AcDbSpline
 62
7
  6
BYLAYER
 70
0
 71
3
 72
14
 73
10
 74
0
 42
0.0000001
 43
0.0000001
 44
0.0000000001
 40
0.0
 40
0.0
 40
0.0
 40
0.0
 40
0.2892164219
 40
0.4225695868
 40
0.5485259199
 40
0.6678983821
 40
0.7818613927
 40
0.891953166
 40
1.0
 40
1.0
 40
1.0
 40
1.0
 10
30.99272655
 20
30.8399874979
 30
0.0
 10
30.99272655
 20
30.7310346436
 30
0.0
 10
30.9799635282
 20
30.5710706148
 30
0.0
 10
30.9308418506
 20
30.3699905249
 30
0.0
 10
30.8807804777
 20
30.2360012102
 30
0.0
 10
30.8170313947
 20
30.1161157685
 30
0.0
 10
30.7399793335
 20
30.0115554667
 30
0.0
 10
30.6504596575
 20
29.9234003083
 30
0.0
 10
30.5826830098
 20
29.876104058
 30
0.0
 10
30.5474295243
 20
29.8557586456
 30
0.0
  0
SPLINE
  5
31D
100
AcDbEntity
  8
0
100
AcDbSpline
 62
7
  6
BYLAYER
 70
0
 71
3
 72
12
 73
8
 74
0
 42
0.0000001
 43
0.0000001
 44
0.0000000001
 40
0.0
 40
0.0
 40
0.0
 40
0.0
 40
0.2548567188
 40
0.5039352971
 40
0.7514774329
 40
0.8754145719
 40
1.0
 40
1.0
 40
1.0
 40
1.0
 10
47.0490218614
 20
16.2652965401
 30
0.0
 10
47.0490218614
 20
16.1763070197
 30
0.0
 10
47.0326984178
 20
15.9996532065
 30
0.0
 10
46.9498428698
 20
15.7480212414
 30
0.0
 10
46.8277515799
 20
15.564997304
 30
0.0
 10
46.7014678651
 20
15.4456299197
 30
0.0
 10
46.6295827417
 20
15.3962481932
 30
0.0
 10
46.5919087786
 20
15.3744972504
 30
0.0
  0
SPLINE
  5
31E
100
AcDbEntity
  8
0
100
AcDbSpline
 62
7
  6
BYLAYER
 70
0
 71
3
 72
32
 73
28
 74
0
 42
0.0000001
 43
0.0000001
 44
0.0000000001
 40
0.0
 40
0.0
 40
0.0
 40
0.0
 40
0.030659993
 40
0.062395424
 40
0.0951161889
 40
0.1287408551
 40
0.1983159626
 40
0.27027422
 40
0.3436330017
 40
0.41734619
 40
0.4903521064
 40
0.5616205151
 40
0.6302003968
 40
0.6632306012
 40
0.6952958997
 40
0.7263234208
 40
0.7562578971
 40
0.7850613335
 40
0.8127185164
 40
0.8392373307
 40
0.8646542478
 40
0.8890349881
 40
0.9124788082
 40
0.9351179112
 40
0.9571179474
 40
0.9786731036
 40
1.0
 40
1.0
 40
1.0
 40
1.0
 10
7.3045837301
 20
30.1457082818
 30
0.0
 10
7.3045837301
 20
29.8652817417
 30
0.0
 10
7.3231272894
 20
29.2944644227
 30
0.0
 10
7.4027421875
 20
28.4277059783
 30
0.0
 10
7.5344304383
 20
27.5398814689
 30
0.0
 10
7.7811165287
 20
26.3209507484
 30
0.0
 10
8.2168996738
 20
24.7765061244
 30
0.0
 10
8.9218163979
 20
22.9391345895
 30
0.0
 10
9.7997239633
 20
21.1356738157
 30
0.0
 10
10.8318294586
 20
19.4047308865
 30
0.0
 10
11.9961625751
 20
17.7831575039
 30
0.0
 10
13.2678047555
 20
16.3056560301
 30
0.0
 10
14.4087146816
 20
15.206810808
 30
0.0
 10
15.3531185393
 20
14.4295252231
 30
0.0
 10
16.0617215909
 20
13.9083118875
 30
0.0
 10
16.7756335165
 20
13.4444679294
 30
0.0
 10
17.4910138601
 20
13.0404310461
 30
0.0
 10
18.2040870022
 20
12.6984566971
 30
0.0
 10
18.9110304013
 20
12.4203545485
 30
0.0
 10
19.6081267103
 20
12.2077358751
 30
0.0
 10
20.2916612132
 20
12.0617719746
 30
0.0
 10
20.9580176569
 20
11.9834295092
 30
0.0
 10
21.6036132329
 20
11.9732487551
 30
0.0
 10
22.2249164303
 20
12.0315256968
 30
0.0
 10
22.818469441
 20
12.1581273727
 30
0.0
 10
23.380729503
 20
12.3524831868
 30
0.0
 10
23.7333700168
 20
12.5270205454
 30
0.0
 10
23.9023042275
 20
12.6245437493
 30
0.0
  0
SPLINE
  5
31F
100
AcDbEntity
  8
0
100
AcDbSpline
 62
7
  6
BYLAYER
 70
0
 71
3
 72
15
 73
11
 74
0
 42
0.0000001
 43
0.0000001
 44
0.0000000001
 40
0.0
 40
0.0
 40
0.0
 40
0.0
 40
0.1485793469
 40
0.2895082713
 40
0.4227234981
 40
0.5486405526
 40
0.668000909
 40
0.781938251
 40
0.8919868695
 40
1.0
 40
1.0
 40
1.0
 40
1.0
 10
25.8662140152
 20
19.4293884756
 30
0.0
 10
25.8662140152
 20
19.103860181
 30
0.0
 10
25.8399525475
 20
18.4691287958
 30
0.0
 10
25.7150325064
 20
17.5499599712
 30
0.0
 10
25.5063120972
 20
16.6968021966
 30
0.0
 10
25.2154439386
 20
15.9179592676
 30
0.0
 10
24.8447100523
 20
15.2208914447
 30
0.0
 10
24.3969427616
 20
14.6127356276
 30
0.0
 10
23.8762751356
 20
14.1003704221
 30
0.0
 10
23.4822585192
 20
13.8253911073
 30
0.0
 10
23.2773076677
 20
13.7070760228
 30
0.0
  0
SPLINE
  5
320
100
AcDbEntity
  8
0
100
AcDbSpline
 62
7
  6
BYLAYER
 70
0
 71
3
 72
15
 73
11
 74
0
 42
0.0000001
 43
0.0000001
 44
0.0000000001
 40
0.0
 40
0.0
 40
0.0
 40
0.0
 40
0.1195549145
 40
0.2434766319
 40
0.3707224286
 40
0.5000093553
 40
0.629295433
 40
0.7565388044
 40
0.8804444939
 40
1.0
 40
1.0
 40
1.0
 40
1.0
 10
46.0919078945
 20
42.4181273764
 30
0.0
 10
46.1606629884
 20
42.3784325025
 30
0.0
 10
46.2941549263
 20
42.2859164078
 30
0.0
 10
46.4754255299
 20
42.1183653331
 30
0.0
 10
46.6382557262
 20
41.9243704766
 30
0.0
 10
46.7792233217
 20
41.70975496
 30
0.0
 10
46.8945988617
 20
41.4803656993
 30
0.0
 10
46.981178821
 20
41.2423636997
 30
0.0
 10
47.035649281
 20
41.0016160229
 30
0.0
 10
47.0490218614
 20
40.8397605418
 30
0.0
 10
47.0490218614
 20
40.7603690539
 30
0.0
  0
SPLINE
  5
321
100
AcDbEntity
  8
0
100
AcDbSpline
 62
7
  6
BYLAYER
 70
0
 71
3
 72
13
 73
9
 74
0
 42
0.0000001
 43
0.0000001
 44
0.0000000001
 40
0.0
 40
0.0
 40
0.0
 40
0.0
 40
0.2893047681
 40
0.5483346467
 40
0.6677592842
 40
0.7817604224
 40
0.8918956833
 40
1.0
 40
1.0
 40
1.0
 40
1.0
 10
31.5937698164
 20
7.2226639684
 30
0.0
 10
31.6595880525
 20
7.1846646517
 30
0.0
 10
31.790450264
 20
7.1223754044
 30
0.0
 10
31.962729761
 20
7.080836829
 30
0.0
 10
32.092414658
 20
7.0763188115
 30
0.0
 10
32.1824658987
 20
7.0863876582
 30
0.0
 10
32.2669395939
 20
7.10975923
 30
0.0
 10
32.319168565
 20
7.1341846723
 30
0.0
 10
32.3437627164
 20
7.1483840319
 30
0.0
  0
SPLINE
  5
322
100
AcDbEntity
  8
0
100
AcDbSpline
 62
7
  6
BYLAYER
 70
0
 71
3
 72
15
 73
11
 74
0
 42
0.0000001
 43
0.0000001
 44
0.0000000001
 40
0.0
 40
0.0
 40
0.0
 40
0.0
 40
0.1570529015
 40
0.3066324939
 40
0.4468633615
 40
0.5765171448
 40
0.6952090267
 40
0.8036912986
 40
0.904105758
 40
1.0
 40
1.0
 40
1.0
 40
1.0
 10
30.8225119196
 20
12.149269499
 30
0.0
 10
30.8585963611
 20
12.0479565644
 30
0.0
 10
30.9197292327
 20
11.8466457702
 30
0.0
 10
30.9777453434
 20
11.5455863159
 30
0.0
 10
30.9988936425
 20
11.2583713707
 30
0.0
 10
30.9825787797
 20
10.9918369514
 30
0.0
 10
30.9288069141
 20
10.7522113927
 30
0.0
 10
30.8380923921
 20
10.545214609
 30
0.0
 10
30.7118120432
 20
10.3764718672
 30
0.0
 10
30.6042927237
 20
10.2925442105
 30
0.0
 10
30.5474293773
 20
10.2597008862
 30
0.0
  0
SPLINE
  5
323
100
AcDbEntity
  8
0
100
AcDbSpline
 62
7
  6
BYLAYER
 70
0
 71
3
 72
13
 73
9
 74
0
 42
0.0000001
 43
0.0000001
 44
0.0000000001
 40
0.0
 40
0.0
 40
0.0
 40
0.0
 40
0.1081037871
 40
0.2182385972
 40
0.33223943
 40
0.4516639535
 40
0.7106942462
 40
1.0
 40
1.0
 40
1.0
 40
1.0
 10
32.3437627164
 20
7.1483840319
 30
0.0
 10
32.3683574057
 20
7.1625837021
 30
0.0
 10
32.4156261145
 20
7.1956031875
 30
0.0
 10
32.4781047709
 20
7.257075195
 30
0.0
 10
32.5318513289
 20
7.3300293961
 30
0.0
 10
32.5927820629
 20
7.4446022331
 30
0.0
 10
32.6429483829
 20
7.6145752741
 30
0.0
 10
32.6544344041
 20
7.7590542457
 30
0.0
 10
32.6544344041
 20
7.8350564623
 30
0.0
  0
SPLINE
  5
324
100
AcDbEntity
  8
0
100
AcDbSpline
 62
7
  6
BYLAYER
 70
0
 71
3
 72
15
 73
11
 74
0
 42
0.0000001
 43
0.0000001
 44
0.0000000001
 40
0.0
 40
0.0
 40
0.0
 40
0.0
 40
0.1078260678
 40
0.2189062804
 40
0.3343688555
 40
0.4551021013
 40
0.5817319669
 40
0.7146763791
 40
0.8541459438
 40
1.0
 40
1.0
 40
1.0
 40
1.0
 10
10.8308513436
 20
35.2998245632
 30
0.0
 10
10.6741314548
 20
35.1639634146
 30
0.0
 10
10.375518668
 20
34.8647686445
 30
0.0
 10
9.9862706864
 20
34.350534083
 30
0.0
 10
9.6528801684
 20
33.769731632
 30
0.0
 10
9.3776406614
 20
33.1268195766
 30
0.0
 10
9.1621128079
 20
32.4264438853
 30
0.0
 10
9.0076165045
 20
31.6734593429
 30
0.0
 10
8.9151901719
 20
30.8733197224
 30
0.0
 10
8.8955747237
 20
30.3242121646
 30
0.0
 10
8.8955747237
 20
30.0436514925
 30
0.0
  0
SPLINE
  5
325
100
AcDbEntity
  8
0
100
AcDbSpline
 62
7
  6
BYLAYER
 70
0
 71
3
 72
30
 73
26
 74
0
 42
0.0000001
 43
0.0000001
 44
0.0000000001
 40
0.0
 40
0.0
 40
0.0
 40
0.0
 40
0.0213279312
 40
0.0428841264
 40
0.0648851909
 40
0.0875253437
 40
0.1109702218
 40
0.1353520832
 40
0.1607701574
 40
0.1872902146
 40
0.2149486839
 40
0.243753485
 40
0.2736893611
 40
0.3047183458
 40
0.369792659
 40
0.438375749
 40
0.5096474471
 40
0.5826565844
 40
0.6563729085
 40
0.7297349303
 40
0.8016967442
 40
0.8712754771
 40
0.9376015071
 40
0.9693385516
 40
1.0
 40
1.0
 40
1.0
 40
1.0
 10
23.2773076677
 20
13.7070760228
 30
0.0
 10
23.1237309041
 20
13.6184184368
 30
0.0
 10
22.8031487958
 20
13.4597466309
 30
0.0
 10
22.2920022341
 20
13.2830614711
 30
0.0
 10
21.7524090119
 20
13.1679672667
 30
0.0
 10
21.1875883234
 20
13.1149903185
 30
0.0
 10
20.6006840219
 20
13.1242436271
 30
0.0
 10
19.9949066064
 20
13.1954657851
 30
0.0
 10
19.3735117942
 20
13.3281581893
 30
0.0
 10
18.7397890421
 20
13.5214492126
 30
0.0
 10
18.0971118969
 20
13.774267743
 30
0.0
 10
17.4488676574
 20
14.0851542834
 30
0.0
 10
16.798507786
 20
14.4524603022
 30
0.0
 10
15.9193013423
 20
15.0237423678
 30
0.0
 10
14.8387691373
 20
15.8697192577
 30
0.0
 10
13.6096521055
 20
17.053460044
 30
0.0
 10
12.4535282248
 20
18.3967416545
 30
0.0
 10
11.3950710418
 20
19.8708644003
 30
0.0
 10
10.4567857603
 20
21.444459014
 30
0.0
 10
9.6587017015
 20
23.0839307559
 30
0.0
 10
9.0178205418
 20
24.7543871501
 30
0.0
 10
8.5478535758
 20
26.4201225128
 30
0.0
 10
8.3032990223
 20
27.7952697941
 30
0.0
 10
8.2053244758
 20
28.8615383999
 30
0.0
 10
8.1884708865
 20
29.3804740374
 30
0.0
 10
8.1884708865
 20
29.6354073386
 30
0.0
  0
SPLINE
  5
326
100
AcDbEntity
  8
0
100
AcDbSpline
 62
7
  6
BYLAYER
 70
0
 71
3
 72
16
 73
12
 74
0
 42
0.0000001
 43
0.0000001
 44
0.0000000001
 40
0.0
 40
0.0
 40
0.0
 40
0.0
 40
0.0539201042
 40
0.1080989786
 40
0.2181366185
 40
0.3320628306
 40
0.4514117218
 40
0.5773165691
 40
0.7105192487
 40
0.8514351498
 40
1.0
 40
1.0
 40
1.0
 40
1.0
 10
23.9023042275
 20
12.6245437493
 30
0.0
 10
24.0148576239
 20
12.6895191488
 30
0.0
 10
24.2350738691
 20
12.8294876738
 30
0.0
 10
24.6537186385
 20
13.148385389
 30
0.0
 10
25.1340070578
 20
13.6208226914
 30
0.0
 10
25.6264128609
 20
14.2897192677
 30
0.0
 10
26.0342594451
 20
15.0565149855
 30
0.0
 10
26.3542052069
 20
15.9132362114
 30
0.0
 10
26.583801834
 20
16.8517137342
 30
0.0
 10
26.7212127315
 20
17.8628009148
 30
0.0
 10
26.7501011716
 20
18.5610067069
 30
0.0
 10
26.7501011716
 20
18.9190875325
 30
0.0
  0
SPLINE
  5
327
100
AcDbEntity
  8
0
100
AcDbSpline
 62
7
  6
BYLAYER
 70
0
 71
3
 72
13
 73
9
 74
0
 42
0.0000001
 43
0.0000001
 44
0.0000000001
 40
0.0
 40
0.0
 40
0.0
 40
0.0
 40
0.2893027449
 40
0.5483307855
 40
0.667756571
 40
0.7817588375
 40
0.8918950134
 40
1.0
 40
1.0
 40
1.0
 40
1.0
 10
46.902576724
 20
16.0611761628
 30
0.0
 10
46.902576724
 20
15.9851742927
 30
0.0
 10
46.8910928357
 20
15.8406956882
 30
0.0
 10
46.8409274394
 20
15.6707225493
 30
0.0
 10
46.7799990193
 20
15.5561475026
 30
0.0
 10
46.7262522669
 20
15.4831914071
 30
0.0
 10
46.6637732739
 20
15.4217175173
 30
0.0
 10
46.6165038879
 20
15.3886971553
 30
0.0
 10
46.5919087786
 20
15.3744972504
 30
0.0
  0
SPLINE
  5
328
100
AcDbEntity
  8
0
100
AcDbSpline
 62
7
  6
BYLAYER
 70
0
 71
3
 72
15
 73
11
 74
0
 42
0.0000001
 43
0.0000001
 44
0.0000000001
 40
0.0
 40
0.0
 40
0.0
 40
0.0
 40
0.1141241598
 40
0.2373483675
 40
0.3669736385
 40
0.5000010132
 40
0.6330282465
 40
0.7626531028
 40
0.8858766831
 40
1.0
 40
1.0
 40
1.0
 40
1.0
 10
32.6544344041
 20
32.3301289762
 30
0.0
 10
32.6544344041
 20
32.4139496812
 30
0.0
 10
32.6390437584
 20
32.5884333194
 30
0.0
 10
32.5778706325
 20
32.8516525665
 30
0.0
 10
32.4797564343
 20
33.1182743355
 30
0.0
 10
32.3485294648
 20
33.3782628926
 30
0.0
 10
32.1889852938
 20
33.6219020689
 30
0.0
 10
32.0071405976
 20
33.8401807465
 30
0.0
 10
31.8097724351
 20
34.0247656564
 30
0.0
 10
31.6663605508
 20
34.1253344017
 30
0.0
 10
31.5937698164
 20
34.1672437336
 30
0.0
  0
SPLINE
  5
329
100
AcDbEntity
  8
0
100
AcDbSpline
 62
7
  6
BYLAYER
 70
0
 71
3
 72
10
 73
6
 74
0
 42
0.0000001
 43
0.0000001
 44
0.0000000001
 40
0.0
 40
0.0
 40
0.0
 40
0.0
 40
0.5130457193
 40
0.758332998
 40
1.0
 40
1.0
 40
1.0
 40
1.0
 10
28.0951108945
 20
33.2560649831
 30
0.0
 10
28.130878938
 20
33.3238050123
 30
0.0
 10
28.1962400838
 20
33.4184582309
 30
0.0
 10
28.3058880782
 20
33.5203964239
 30
0.0
 10
28.366199379
 20
33.561615292
 30
0.0
 10
28.3974517577
 20
33.5796515946
 30
0.0
  0
SPLINE
  5
32A
100
AcDbEntity
  8
0
100
AcDbSpline
 62
7
  6
BYLAYER
 70
0
 71
3
 72
14
 73
10
 74
0
 42
0.0000001
 43
0.0000001
 44
0.0000000001
 40
0.0
 40
0.0
 40
0.0
 40
0.0
 40
0.1454356854
 40
0.284647197
 40
0.5439840693
 40
0.6649392146
 40
0.7806808476
 40
0.8920435161
 40
1.0
 40
1.0
 40
1.0
 40
1.0
 10
27.4572050088
 20
19.3273316864
 30
0.0
 10
27.4572050088
 20
19.0264013035
 30
0.0
 10
27.4366828215
 20
18.43703703
 30
0.0
 10
27.3108840641
 20
17.3179367253
 30
0.0
 10
27.0582450381
 20
16.2653436073
 30
0.0
 10
26.6655928898
 20
15.3151685171
 30
0.0
 10
26.3168563039
 20
14.683076437
 30
0.0
 10
25.9094010519
 20
14.1199949954
 30
0.0
 10
25.5964284541
 20
13.7891192017
 30
0.0
 10
25.4319616906
 20
13.6379597055
 30
0.0
  0
SPLINE
  5
32B
100
AcDbEntity
  8
0
100
AcDbSpline
 62
7
  6
BYLAYER
 70
0
 71
3
 72
13
 73
9
 74
0
 42
0.0000001
 43
0.0000001
 44
0.0000000001
 40
0.0
 40
0.0
 40
0.0
 40
0.0
 40
0.2664843882
 40
0.5245615453
 40
0.6491823308
 40
0.7702065447
 40
0.8872721261
 40
1.0
 40
1.0
 40
1.0
 40
1.0
 10
25.4319616906
 20
27.3552003132
 30
0.0
 10
25.7539080213
 20
26.6875599804
 30
0.0
 10
26.3259157136
 20
25.3424964821
 30
0.0
 10
26.8648057816
 20
23.6154889865
 30
0.0
 10
27.1711446886
 20
22.2476524368
 30
0.0
 10
27.3348488292
 20
21.2515412235
 30
0.0
 10
27.4340247806
 20
20.2802084624
 30
0.0
 10
27.4572050088
 20
19.640877587
 30
0.0
 10
27.4572050088
 20
19.3273316864
 30
0.0
  0
SPLINE
  5
32C
100
AcDbEntity
  8
0
100
AcDbSpline
 62
7
  6
BYLAYER
 70
0
 71
3
 72
11
 73
7
 74
0
 42
0.0000001
 43
0.0000001
 44
0.0000000001
 40
0.0
 40
0.0
 40
0.0
 40
0.0
 40
0.2177486811
 40
0.4508908272
 40
0.7104626199
 40
1.0
 40
1.0
 40
1.0
 40
1.0
 10
47.0489986324
 20
16.2652965401
 30
0.0
 10
47.0489986333
 20
16.2462556258
 30
0.0
 10
47.0420059843
 20
16.2065570446
 30
0.0
 10
47.0118896291
 20
16.1512377651
 30
0.0
 10
46.9642932038
 20
16.1012699951
 30
0.0
 10
46.924503167
 20
16.073835325
 30
0.0
 10
46.902576724
 20
16.0611761628
 30
0.0
  0
SPLINE
  5
32D
100
AcDbEntity
  8
0
100
AcDbSpline
 62
7
  6
BYLAYER
 70
0
 71
3
 72
32
 73
28
 74
0
 42
0.0000001
 43
0.0000001
 44
0.0000000001
 40
0.0
 40
0.0
 40
0.0
 40
0.0
 40
0.030659993
 40
0.062395424
 40
0.0951161889
 40
0.1287408551
 40
0.1983159626
 40
0.27027422
 40
0.3436330017
 40
0.41734619
 40
0.4903521064
 40
0.5616205151
 40
0.6302003968
 40
0.6632306012
 40
0.6952958997
 40
0.7263234208
 40
0.7562578971
 40
0.7850613335
 40
0.8127185164
 40
0.8392373307
 40
0.8646542478
 40
0.8890349881
 40
0.9124788082
 40
0.9351179112
 40
0.9571179474
 40
0.9786731036
 40
1.0
 40
1.0
 40
1.0
 40
1.0
 10
26.7501011716
 20
18.9190875325
 30
0.0
 10
26.7501011716
 20
19.1995140725
 30
0.0
 10
26.7315576122
 20
19.7703313916
 30
0.0
 10
26.6519427142
 20
20.6370898359
 30
0.0
 10
26.5202544633
 20
21.5249143454
 30
0.0
 10
26.2735683729
 20
22.7438450658
 30
0.0
 10
25.8377852278
 20
24.2882896899
 30
0.0
 10
25.1328685037
 20
26.1256612247
 30
0.0
 10
24.2549609383
 20
27.9291219986
 30
0.0
 10
23.2228554431
 20
29.6600649278
 30
0.0
 10
22.0585223265
 20
31.2816383104
 30
0.0
 10
20.7868801462
 20
32.7591397841
 30
0.0
 10
19.64597022
 20
33.8579850063
 30
0.0
 10
18.7015663624
 20
34.6352705911
 30
0.0
 10
17.9929633107
 20
35.1564839268
 30
0.0
 10
17.2790513852
 20
35.6203278849
 30
0.0
 10
16.5636710416
 20
36.0243647681
 30
0.0
 10
15.8505978994
 20
36.3663391171
 30
0.0
 10
15.1436545003
 20
36.6444412658
 30
0.0
 10
14.4465581913
 20
36.8570599392
 30
0.0
 10
13.7630236885
 20
37.0030238396
 30
0.0
 10
13.0966672447
 20
37.0813663051
 30
0.0
 10
12.4510716688
 20
37.0915470591
 30
0.0
 10
11.8297684714
 20
37.0332701175
 30
0.0
 10
11.2362154607
 20
36.9066684416
 30
0.0
 10
10.6739553986
 20
36.7123126274
 30
0.0
 10
10.3213148848
 20
36.5377752688
 30
0.0
 10
10.1523806741
 20
36.4402520649
 30
0.0
  0
SPLINE
  5
32E
100
AcDbEntity
  8
0
100
AcDbSpline
 62
7
  6
BYLAYER
 70
0
 71
3
 72
15
 73
11
 74
0
 42
0.0000001
 43
0.0000001
 44
0.0000000001
 40
0.0
 40
0.0
 40
0.0
 40
0.0
 40
0.1485793469
 40
0.2895082713
 40
0.4227234981
 40
0.5486405526
 40
0.668000909
 40
0.781938251
 40
0.8919868695
 40
1.0
 40
1.0
 40
1.0
 40
1.0
 10
8.1884708865
 20
29.6354073386
 30
0.0
 10
8.1884708865
 20
29.9609356332
 30
0.0
 10
8.2147323542
 20
30.5956670185
 30
0.0
 10
8.3396523953
 20
31.5148358431
 30
0.0
 10
8.5483728044
 20
32.3679936177
 30
0.0
 10
8.8392409631
 20
33.1468365467
 30
0.0
 10
9.2099748494
 20
33.8439043696
 30
0.0
 10
9.6577421401
 20
34.4520601867
 30
0.0
 10
10.178409766
 20
34.9644253922
 30
0.0
 10
10.5724263824
 20
35.239404707
 30
0.0
 10
10.7773772339
 20
35.3577197915
 30
0.0
  0
SPLINE
  5
32F
100
AcDbEntity
  8
0
100
AcDbSpline
 62
7
  6
BYLAYER
 70
0
 71
3
 72
26
 73
22
 74
0
 42
0.0000001
 43
0.0000001
 44
0.0000000001
 40
0.0
 40
0.0
 40
0.0
 40
0.0
 40
0.0612997756
 40
0.1263352512
 40
0.1944885179
 40
0.2650017701
 40
0.3370104027
 40
0.4095901789
 40
0.4817930153
 40
0.5526863573
 40
0.6213908964
 40
0.6871210327
 40
0.7492296631
 40
0.8072603056
 40
0.8610090997
 40
0.8863226714
 40
0.9106439237
 40
0.934050958
 40
0.9566514341
 40
0.9785802795
 40
1.0
 40
1.0
 40
1.0
 40
1.0
 10
8.8955747237
 20
30.0436514925
 30
0.0
 10
8.8955747237
 20
29.550781458
 30
0.0
 10
8.9589978109
 20
28.5343712982
 30
0.0
 10
9.2211194496
 20
26.990303229
 30
0.0
 10
9.6481089774
 20
25.4067026323
 30
0.0
 10
10.2316216603
 20
23.8143132156
 30
0.0
 10
10.9604223987
 20
22.2437495959
 30
0.0
 10
11.8203844037
 20
20.7254157024
 30
0.0
 10
12.7948699187
 20
19.2887028961
 30
0.0
 10
13.8650170258
 20
17.9614148185
 30
0.0
 10
15.0101866015
 20
16.7691870147
 30
0.0
 10
16.2083735266
 20
15.7349989291
 30
0.0
 10
17.4368939106
 20
14.8787102087
 30
0.0
 10
18.6724186635
 20
14.2169672529
 30
0.0
 10
19.7096829714
 20
13.8309382942
 30
0.0
 10
20.5190320857
 20
13.637642079
 30
0.0
 10
21.1007083823
 20
13.5510068846
 30
0.0
 10
21.6662335264
 20
13.5204459784
 30
0.0
 10
22.21287425
 20
13.5461253524
 30
0.0
 10
22.7377834401
 20
13.6281850126
 30
0.0
 10
23.0746794276
 20
13.7210934449
 30
0.0
 10
23.2376644726
 20
13.7767361883
 30
0.0
  0
SPLINE
  5
330
100
AcDbEntity
  8
0
100
AcDbSpline
 62
7
  6
BYLAYER
 70
0
 71
3
 72
11
 73
7
 74
0
 42
0.0000001
 43
0.0000001
 44
0.0000000001
 40
0.0
 40
0.0
 40
0.0
 40
0.0
 40
0.2177504419
 40
0.4508934119
 40
0.7104646156
 40
1.0
 40
1.0
 40
1.0
 40
1.0
 10
46.0918962802
 20
42.4181072594
 30
0.0
 10
46.0754061804
 20
42.4276276106
 30
0.0
 10
46.0375297354
 20
42.4414209476
 30
0.0
 10
45.974563671
 20
42.442999269
 30
0.0
 10
45.9074923249
 20
42.426763919
 30
0.0
 10
45.8638383737
 20
42.4060224777
 30
0.0
 10
45.8419121363
 20
42.3933634342
 30
0.0
  0
SPLINE
  5
331
100
AcDbEntity
  8
0
100
AcDbSpline
 62
7
  6
BYLAYER
 70
0
 71
3
 72
27
 73
23
 74
0
 42
0.0000001
 43
0.0000001
 44
0.0000000001
 40
0.0
 40
0.0
 40
0.0
 40
0.0
 40
0.0213298323
 40
0.0428881009
 40
0.0648909021
 40
0.0875335028
 40
0.1109802532
 40
0.1353649042
 40
0.1607851354
 40
0.1873080352
 40
0.2437394256
 40
0.3046804992
 40
0.3697610283
 40
0.4383507765
 40
0.5096294875
 40
0.5826457804
 40
0.6563698227
 40
0.7297381108
 40
0.801706361
 40
0.8712894025
 40
0.9376254376
 40
1.0
 40
1.0
 40
1.0
 40
1.0
 10
18.5177969893
 20
47.4964136229
 30
0.0
 10
18.5177866647
 20
47.3545502988
 30
0.0
 10
18.5360963246
 20
47.0689741829
 30
0.0
 10
18.6181644765
 20
46.6441773802
 30
0.0
 10
18.7542263784
 20
46.2242851994
 30
0.0
 10
18.9435043791
 20
45.8118031421
 30
0.0
 10
19.1846377891
 20
45.4088579972
 30
0.0
 10
19.4763425841
 20
45.0176928169
 30
0.0
 10
19.8168170958
 20
44.6402203329
 30
0.0
 10
20.3442451768
 20
44.1478476507
 30
0.0
 10
21.1200051347
 20
43.580967477
 30
0.0
 10
22.1885781988
 20
42.9998167569
 30
0.0
 10
23.391540403
 20
42.5151743093
 30
0.0
 10
24.7033987277
 20
42.1371103957
 30
0.0
 10
26.0964840507
 20
41.8734579675
 30
0.0
 10
27.5411859768
 20
41.7297967043
 30
0.0
 10
29.0067150348
 20
41.7091889729
 30
0.0
 10
30.461818146
 20
41.8120453642
 30
0.0
 10
31.8754300183
 20
42.0362156441
 30
0.0
 10
33.2176313444
 20
42.3769177395
 30
0.0
 10
34.4596443093
 20
42.8269655425
 30
0.0
 10
35.2296066188
 20
43.2065825589
 30
0.0
 10
35.588877057
 20
43.4140062049
 30
0.0
  0
SPLINE
  5
332
100
AcDbEntity
  8
0
100
AcDbSpline
 62
7
  6
BYLAYER
 70
0
 71
3
 72
15
 73
11
 74
0
 42
0.0000001
 43
0.0000001
 44
0.0000000001
 40
0.0
 40
0.0
 40
0.0
 40
0.0
 40
0.108012926
 40
0.2180603222
 40
0.3319976296
 40
0.4513591412
 40
0.5772729786
 40
0.7104893495
 40
0.8514259127
 40
1.0
 40
1.0
 40
1.0
 40
1.0
 10
38.5177734881
 20
44.6386552899
 30
0.0
 10
38.5177773348
 20
44.4493424411
 30
0.0
 10
38.4848720722
 20
44.0663843317
 30
0.0
 10
38.3381485124
 20
43.5007386466
 30
0.0
 10
38.0959426985
 20
42.9472651533
 30
0.0
 10
37.7612837392
 20
42.4116227005
 30
0.0
 10
37.3380597983
 20
41.8985795586
 30
0.0
 10
36.8304716434
 20
41.4127227893
 30
0.0
 10
36.2436273947
 20
40.9585347907
 30
0.0
 10
35.8143937585
 20
40.6864490961
 30
0.0
 10
35.588877057
 20
40.556247745
 30
0.0
  0
SPLINE
  5
333
100
AcDbEntity
  8
0
100
AcDbSpline
 62
7
  6
BYLAYER
 70
0
 71
3
 72
15
 73
11
 74
0
 42
0.0000001
 43
0.0000001
 44
0.0000000001
 40
0.0
 40
0.0
 40
0.0
 40
0.0
 40
0.1485649
 40
0.2895091759
 40
0.4227281968
 40
0.5486390595
 40
0.6680010605
 40
0.7819372944
 40
0.8919853699
 40
1.0
 40
1.0
 40
1.0
 40
1.0
 10
35.588877057
 20
43.4140062049
 30
0.0
 10
35.814379702
 20
43.5441994406
 30
0.0
 10
36.2436042641
 20
43.8162933644
 30
0.0
 10
36.830461886
 20
44.270466282
 30
0.0
 10
37.3380569653
 20
44.7563359099
 30
0.0
 10
37.7612732187
 20
45.2693832832
 30
0.0
 10
38.095944321
 20
45.8050126278
 30
0.0
 10
38.3381263037
 20
46.3584932716
 30
0.0
 10
38.4848979994
 20
46.9241324103
 30
0.0
 10
38.5177488437
 20
47.3070981358
 30
0.0
 10
38.5177626218
 20
47.4964138774
 30
0.0
  0
SPLINE
  5
334
100
AcDbEntity
  8
0
100
AcDbSpline
 62
7
  6
BYLAYER
 70
0
 71
3
 72
27
 73
23
 74
0
 42
0.0000001
 43
0.0000001
 44
0.0000000001
 40
0.0
 40
0.0
 40
0.0
 40
0.0
 40
0.0623737839
 40
0.1287090132
 40
0.1982921412
 40
0.2702608114
 40
0.3436299667
 40
0.4173551455
 40
0.4903726258
 40
0.5616523397
 40
0.6302427053
 40
0.6953233836
 40
0.756264223
 40
0.8126950856
 40
0.8392176842
 40
0.8646374808
 40
0.8890217197
 40
0.9124680376
 40
0.9351102061
 40
0.9571126203
 40
0.9786705104
 40
1.0
 40
1.0
 40
1.0
 40
1.0
 10
35.588877057
 20
40.556247745
 30
0.0
 10
35.2296110992
 20
40.3488266857
 30
0.0
 10
34.4596593164
 20
39.969212254
 30
0.0
 10
33.217655916
 20
39.5191672764
 30
0.0
 10
31.8754575107
 20
39.178461846
 30
0.0
 10
30.461836689
 20
38.9542890035
 30
0.0
 10
29.00671754
 20
38.8514304194
 30
0.0
 10
27.5411671719
 20
38.8720386453
 30
0.0
 10
26.0964433198
 20
39.0157042463
 30
0.0
 10
24.7033404694
 20
39.2793650904
 30
0.0
 10
23.3914726605
 20
39.6574391279
 30
0.0
 10
22.188510638
 20
40.1420914535
 30
0.0
 10
21.119944881
 20
40.723247551
 30
0.0
 10
20.3441966413
 20
41.290131277
 30
0.0
 10
19.8167759457
 20
41.7824996709
 30
0.0
 10
19.4763120033
 20
42.1599714959
 30
0.0
 10
19.1846153618
 20
42.5511319504
 30
0.0
 10
18.9434888702
 20
42.9540714911
 30
0.0
 10
18.7542198702
 20
43.3665483573
 30
0.0
 10
18.6181598784
 20
43.7864327258
 30
0.0
 10
18.5360965003
 20
44.2112229711
 30
0.0
 10
18.5177865581
 20
44.4967941287
 30
0.0
 10
18.5177966716
 20
44.6386551748
 30
0.0
  0
SPLINE
  5
335
100
AcDbEntity
  8
0
100
AcDbSpline
 62
7
  6
BYLAYER
 70
0
 71
3
 72
9
 73
5
 74
0
 42
0.0000001
 43
0.0000001
 44
0.0000000001
 40
0.0
 40
0.0
 40
0.0
 40
0.0
 40
0.4888264709
 40
1.0
 40
1.0
 40
1.0
 40
1.0
 10
30.5474295243
 20
29.8557586456
 30
0.0
 10
30.4914935693
 20
29.8234770129
 30
0.0
 10
30.3674660581
 20
29.7729353023
 30
0.0
 10
30.2349303034
 20
29.7562689888
 30
0.0
 10
30.1674039333
 20
29.755175455
 30
0.0
  0
SPLINE
  5
336
100
AcDbEntity
  8
0
100
AcDbSpline
 62
7
  6
BYLAYER
 70
0
 71
3
 72
11
 73
7
 74
0
 42
0.0000001
 43
0.0000001
 44
0.0000000001
 40
0.0
 40
0.0
 40
0.0
 40
0.0
 40
0.2895373801
 40
0.5491091728
 40
0.7822513189
 40
1.0
 40
1.0
 40
1.0
 40
1.0
 10
46.902576724
 20
40.5562486767
 30
0.0
 10
46.924503167
 20
40.5689078389
 30
0.0
 10
46.9642932038
 20
40.596342509
 30
0.0
 10
47.0118896291
 20
40.646310279
 30
0.0
 10
47.0420059843
 20
40.7016295584
 30
0.0
 10
47.0489986333
 20
40.7413281397
 30
0.0
 10
47.0489986324
 20
40.7603690539
 30
0.0
  0
SPLINE
  5
337
100
AcDbEntity
  8
0
100
AcDbSpline
 62
7
  6
BYLAYER
 70
0
 71
3
 72
13
 73
9
 74
0
 42
0.0000001
 43
0.0000001
 44
0.0000000001
 40
0.0
 40
0.0
 40
0.0
 40
0.0
 40
0.2893047681
 40
0.5483346467
 40
0.6677592842
 40
0.7817604224
 40
0.8918956833
 40
1.0
 40
1.0
 40
1.0
 40
1.0
 10
10.380478062
 20
46.4144663693
 30
0.0
 10
10.3146598259
 20
46.4524656859
 30
0.0
 10
10.1837976145
 20
46.5147549332
 30
0.0
 10
10.0115181174
 20
46.5562935087
 30
0.0
 10
9.8818332205
 20
46.5608115261
 30
0.0
 10
9.7917819797
 20
46.5507426795
 30
0.0
 10
9.7073082845
 20
46.5273711076
 30
0.0
 10
9.6550793135
 20
46.5029456653
 30
0.0
 10
9.6304851621
 20
46.4887463057
 30
0.0
  0
SPLINE
  5
338
100
AcDbEntity
  8
0
100
AcDbSpline
 62
7
  6
BYLAYER
 70
0
 71
3
 72
9
 73
5
 74
0
 42
0.0000001
 43
0.0000001
 44
0.0000000001
 40
0.0
 40
0.0
 40
0.0
 40
0.0
 40
0.2442478422
 40
1.0
 40
1.0
 40
1.0
 40
1.0
 10
45.8419121363
 20
42.3933634342
 30
0.0
 10
45.852918605
 20
42.3870089902
 30
0.0
 10
45.897625323
 20
42.3603785958
 30
0.0
 10
45.9409174041
 20
42.3313914074
 30
0.0
 10
45.9728147178
 20
42.3083918359
 30
0.0
  0
SPLINE
  5
339
100
AcDbEntity
  8
0
100
AcDbSpline
 62
7
  6
BYLAYER
 70
0
 71
3
 72
15
 73
11
 74
0
 42
0.0000001
 43
0.0000001
 44
0.0000000001
 40
0.0
 40
0.0
 40
0.0
 40
0.0
 40
0.1188093073
 40
0.2445701033
 40
0.3749525137
 40
0.5072360551
 40
0.6385290029
 40
0.7660126222
 40
0.8872564486
 40
1.0
 40
1.0
 40
1.0
 40
1.0
 10
45.9728147178
 20
42.3083918359
 30
0.0
 10
46.0385922241
 20
42.2609629374
 30
0.0
 10
46.1671301423
 20
42.153577732
 30
0.0
 10
46.3426755943
 20
41.9666375038
 30
0.0
 10
46.5022186646
 20
41.7542525708
 30
0.0
 10
46.6407006339
 20
41.5231961488
 30
0.0
 10
46.7536659834
 20
41.2808212112
 30
0.0
 10
46.8375650759
 20
41.0347964825
 30
0.0
 10
46.8896026965
 20
40.7930435207
 30
0.0
 10
46.902576724
 20
40.6332021307
 30
0.0
 10
46.902576724
 20
40.5562486767
 30
0.0
  0
SPLINE
  5
33A
100
AcDbEntity
  8
0
100
AcDbSpline
 62
7
  6
BYLAYER
 70
0
 71
3
 72
10
 73
6
 74
0
 42
0.0000001
 43
0.0000001
 44
0.0000000001
 40
0.0
 40
0.0
 40
0.0
 40
0.0
 40
0.5130457193
 40
0.758332998
 40
1.0
 40
1.0
 40
1.0
 40
1.0
 10
11.124477491
 20
43.0538430916
 30
0.0
 10
11.1602455344
 20
43.1215831208
 30
0.0
 10
11.2256066803
 20
43.2162363394
 30
0.0
 10
11.3352546746
 20
43.3181745324
 30
0.0
 10
11.3955659755
 20
43.3593934005
 30
0.0
 10
11.4268183542
 20
43.3774297031
 30
0.0
  0
SPLINE
  5
33B
100
AcDbEntity
  8
0
100
AcDbSpline
 62
7
  6
BYLAYER
 70
0
 71
3
 72
23
 73
19
 74
0
 42
0.0000001
 43
0.0000001
 44
0.0000000001
 40
0.0
 40
0.0
 40
0.0
 40
0.0
 40
0.0460384097
 40
0.0935365446
 40
0.1429007153
 40
0.1944835305
 40
0.2485373606
 40
0.3052113417
 40
0.3645703678
 40
0.4266064474
 40
0.4912412071
 40
0.5583426197
 40
0.6277282407
 40
0.6991741846
 40
0.7724162866
 40
0.8471789266
 40
0.9231687626
 40
1.0
 40
1.0
 40
1.0
 40
1.0
 10
11.7947245968
 20
37.2582161053
 30
0.0
 10
12.007846336
 20
37.3250681774
 30
0.0
 10
12.4508753743
 20
37.430660114
 30
0.0
 10
13.1422542718
 20
37.5020392616
 30
0.0
 10
13.8639985472
 20
37.4880047384
 30
0.0
 10
14.6109099166
 20
37.3890844979
 30
0.0
 10
15.3781463552
 20
37.2062564675
 30
0.0
 10
16.1606450848
 20
36.9408746854
 30
0.0
 10
16.9532926871
 20
36.5949009898
 30
0.0
 10
17.7508381931
 20
36.1706420454
 30
0.0
 10
18.5480867589
 20
35.6710754077
 30
0.0
 10
19.3396961605
 20
35.0994594243
 30
0.0
 10
20.1204570875
 20
34.4596943322
 30
0.0
 10
20.8851086327
 20
33.7560414811
 30
0.0
 10
21.6285901009
 20
32.9932415144
 30
0.0
 10
22.3459789729
 20
32.1763038314
 30
0.0
 10
23.032278389
 20
31.3108074444
 30
0.0
 10
23.464345699
 20
30.7078649454
 30
0.0
 10
23.6741679793
 20
30.3997714294
 30
0.0
  0
SPLINE
  5
33C
100
AcDbEntity
  8
0
100
AcDbSpline
 62
7
  6
BYLAYER
 70
0
 71
3
 72
10
 73
6
 74
0
 42
0.0000001
 43
0.0000001
 44
0.0000000001
 40
0.0
 40
0.0
 40
0.0
 40
0.0
 40
0.2417175032
 40
0.4870331233
 40
1.0
 40
1.0
 40
1.0
 40
1.0
 10
30.5474293773
 20
10.2597008862
 30
0.0
 10
30.5162872401
 20
10.241713705
 30
0.0
 10
30.4506654044
 20
10.2101865293
 30
0.0
 10
30.308102247
 20
10.1662469139
 30
0.0
 10
30.1938845254
 20
10.1568430335
 30
0.0
 10
30.1176136658
 20
10.1596032438
 30
0.0
  0
ELLIPSE
  5
33D
100
AcDbEntity
  8
0
100
AcDbEllipse
 62
7
  6
BYLAYER
 10
28.8207562912
 20
52.1540278587
 30
0.0
 11
-7.2721819287
 21
11.913243154
 31
0.0
 40
0.5588218679
 41
-1.5721277649
 42
-1.528674026
  0
ELLIPSE
  5
33E
100
AcDbEntity
  8
0
100
AcDbEllipse
 62
7
  6
BYLAYER
 10
28.5177798055
 20
54.5591596583
 30
0.0
 11
7.4997432858
 21
-0.2597576143
 31
0.0
 40
0.238890333
 41
0.0082697421
 42
0.0482484292
  0
ELLIPSE
  5
33F
100
AcDbEntity
  8
0
100
AcDbEllipse
 62
7
  6
BYLAYER
 10
28.5177798055
 20
54.5591596583
 30
0.0
 11
-0.3613211689
 21
10.4534958208
 31
0.0
 40
0.7166302584
 41
-1.6189869744
 42
-1.5790082873
  0
ELLIPSE
  5
340
100
AcDbEntity
  8
0
100
AcDbEllipse
 62
7
  6
BYLAYER
 10
28.5177798055
 20
54.5591596583
 30
0.0
 11
-0.2456983949
 21
7.1083771582
 31
0.0
 40
0.7166302584
 41
-1.612108322
 42
-1.5790082873
  0
ENDSEC
  0
SECTION
  2
OBJECTS
  0
DICTIONARY
  5
C
100
AcDbDictionary
280
0
281
1
  3
ACAD_GROUP
350
D
  3
ACAD_MLINESTYLE
350
17
  3
ACAD_LAYOUT
350
1A
  3
ACAD_PLOTSETTINGS
350
19
  3
ACAD_PLOTSTYLENAME
350
E
  0
DICTIONARY
  5
D
102
{ACAD_REACTORS
330
C
102
}
100
AcDbDictionary
280
0
281
1
  0
ACDBDICTIONARYWDFLT
  5
E
102
{ACAD_REACTORS
330
C
102
}
100
AcDbDictionary
281
1
  3
Normal
350
F
100
AcDbDictionaryWithDefault
340
F
  0
DICTIONARY
  5
17
102
{ACAD_REACTORS
330
C
102
}
100
AcDbDictionary
280
0
281
1
  3
Standard
350
18
  0
DICTIONARY
  5
19
102
{ACAD_REACTORS
330
C
102
}
100
AcDbDictionary
281
1
  0
DICTIONARY
  5
1A
102
{ACAD_REACTORS
330
C
102
}
100
AcDbDictionary
281
1
  3
Model
350
341
  3
Layout1
350
342
  0
ACDBPLACEHOLDER
  5
F
102
{ACAD_REACTORS
330
E
102
}
  0
MLINESTYLE
  5
18
102
{ACAD_REACTORS
330
17
102
}
100
AcDbMlineStyle
  2
STANDARD
 70
0
  3

 62
256
 51
90.0
 52
90.0
 71
2
 49
0.5
 62
256
  6
BYLAYER
 49
-0.5
 62
256
  6
BYLAYER
  0
LAYOUT
  5
341
102
{ACAD_REACTORS
330
1A
102
}
100
AcDbPlotSettings
  1

  2
none_device
  4

  6

 40
0.0
 41
0.0
 42
0.0
 43
0.0
 44
210.0
 45
297.0
 46
0.0
 47
0.0
 48
0.0
 49
0.0
140
0.0
141
0.0
142
1.0
143
1.0
 70
1024
 72
1
 73
0
 74
0
  7

 75
0
147
1.0
148
0.0
149
0.0
100
AcDbLayout
  1
Model
 70
0
 71
0
 10
0.0
 20
0.0
 11
210.0
 21
297.0
 12
0.0
 22
0.0
 32
0.0
 14
0.0
 24
0.0
 34
0.0
 15
0.0
 25
0.0
 35
0.0
146
0.0
 13
0.0
 23
0.0
 33
0.0
 16
1.0
 26
0.0
 36
0.0
 17
0.0
 27
1.0
 37
0.0
 76
0
330
210
345
0
346
0
  0
LAYOUT
  5
342
102
{ACAD_REACTORS
330
1A
102
}
100
AcDbPlotSettings
  1

  2
none_device
  4

  6

 40
0.0
 41
0.0
 42
0.0
 43
0.0
 44
210.0
 45
297.0
 46
0.0
 47
0.0
 48
0.0
 49
0.0
140
0.0
141
0.0
142
1.0
143
1.0
 70
0
 72
1
 73
0
 74
0
  7

 75
0
147
1.0
148
0.0
149
0.0
100
AcDbLayout
  1
Layout1
 70
0
 71
1
 10
0.0
 20
0.0
 11
210.0
 21
297.0
 12
0.0
 22
0.0
 32
0.0
 14
0.0
 24
0.0
 34
0.0
 15
0.0
 25
0.0
 35
0.0
146
0.0
 13
0.0
 23
0.0
 33
0.0
 16
1.0
 26
0.0
 36
0.0
 17
0.0
 27
1.0
 37
0.0
 76
0
330
211
345
0
346
0
  0
ENDSEC
  0
EOF
