999
DXF file: C:\Users\sesa63760\OneDrive - Schneider Electric\Documents\7-Dev\_Creo\CAD\MCADUE0000019_3D-CAD\drw0001_1.dxf
999
Pro/ENGINEER 2019471 by Parametric Technology Corporation
  0
SECTION
  2
HEADER
  9
$ACADVER
  1
AC1024
  9
$DWGCODEPAGE
  3
ANSI_1252
  9
$EXTMAX
 10
1563.7500487325
 20
2211.589354636
 30
0.0
  9
$EXTMIN
 10
0.0
 20
0.0
 30
0.0
  9
$LIMMIN
 10
0.0
 20
0.0
  9
$LIMMAX
 10
1563.7500487325
 20
2211.589354636
  9
$VIEWCTR
 10
781.8750243663
 20
1105.794677318
  9
$VIEWSIZE
 40
2211.589354636
  9
$CLAYER
  8
0
  9
$LTSCALE
 40
144.1628616355
  9
$CELTYPE
  6
BYLAYER
  9
$DIMSCALE
 40
1.0
  9
$DIMASZ
 40
18.6160720087
  9
$DIMEXO
 40
1.0
  9
$DIMDLI
 40
99.6034316755
  9
$DIMEXE
 40
1.0
  9
$DIMCEN
 40
23.5902864495
  9
$DIMLFAC
 40
1.0
  9
$DIMBLK
  1
_FILLED
  9
$DIMALT
 70
0
  9
$DIMALTF
 40
0.0393700787
  9
$DIMTXT
 40
26.0625008122
  9
$DIMTOL
 70
1
  9
$DIMLIM
 70
0
  9
$DIMTFAC
 40
1.0
  9
$DIMTP
 40
0.01
  9
$DIMTM
 40
0.01
  9
$DIMGAP
 40
0.625
  9
$DIMDSEP
 70
46
  9
$AUNITS
 70
0
  9
$PDMODE
 70
3
  9
$PDSIZE
 40
0.3125
  9
$HANDSEED
  5
3BF
  9
$TILEMODE
 70
1
  9
$MEASUREMENT
 70
1
  9
$INSUNITS
 70
4
  0
ENDSEC
  0
SECTION
  2
CLASSES
  0
CLASS
  1
ACDBDICTIONARYWDFLT
  2
AcDbDictionaryWithDefault
  3
AutoCAD 2000
 90
0
 91
1
280
0
281
0
  0
CLASS
  1
ACDBPLACEHOLDER
  2
AcDbPlaceHolder
  3
AutoCAD 2000
 90
0
 91
1
280
0
281
0
  0
CLASS
  1
LAYOUT
  2
AcDbLayout
  3
AutoCAD 2000
 90
0
 91
0
280
0
281
0
  0
ENDSEC
  0
SECTION
  2
TABLES
  0
TABLE
  2
VPORT
  5
8
100
AcDbSymbolTable
 70
2
  0
VPORT
  5
1F4
100
AcDbSymbolTableRecord
100
AcDbViewportTableRecord
  2
*ACTIVE
 70
0
 10
0.0
 20
0.0
 11
1.0
 21
1.0
 12
781.8750243663
 22
1105.794677318
 13
0.0
 23
0.0
 14
1.0
 24
1.0
 15
0.0
 25
0.0
 16
0.0
 26
0.0
 36
1.0
 17
0.0
 27
0.0
 37
0.0
 40
2211.589354636
 41
0.7070707071
 42
50.0
 43
0.0
 44
0.0
 50
0.0
 51
0.0
 71
0
 72
100
 73
1
 74
1
 75
0
 76
0
 77
0
 78
0
  0
ENDTAB
  0
TABLE
  2
LTYPE
  5
5
100
AcDbSymbolTable
 70
6
  0
LTYPE
  5
14
100
AcDbSymbolTableRecord
100
AcDbLinetypeTableRecord
  2
BYBLOCK
 70
0
  3

 72
65
 73
0
 40
0.0
  0
LTYPE
  5
15
100
AcDbSymbolTableRecord
100
AcDbLinetypeTableRecord
  2
BYLAYER
 70
0
  3

 72
65
 73
0
 40
0.0
  0
LTYPE
  5
16
100
AcDbSymbolTableRecord
100
AcDbLinetypeTableRecord
  2
CONTINUOUS
 70
64
  3
Solid line
 72
65
 73
0
 40
0.0
  0
LTYPE
  5
1F5
100
AcDbSymbolTableRecord
100
AcDbLinetypeTableRecord
  2
CENTER
 70
64
  3
____ _ ____ _ ____ _ ____ _ ____ _ ____ _ ____
 72
65
 73
4
 40
0.6
 49
0.375
 74
0
 49
-0.075
 74
0
 49
0.075
 74
0
 49
-0.075
 74
0
  0
LTYPE
  5
1F6
100
AcDbSymbolTableRecord
100
AcDbLinetypeTableRecord
  2
HIDDEN
 70
64
  3
- - - - - - - - - - - - - - - - - - - -
 72
65
 73
2
 40
0.2
 49
0.1
 74
0
 49
-0.1
 74
0
  0
LTYPE
  5
1F7
100
AcDbSymbolTableRecord
100
AcDbLinetypeTableRecord
  2
PHANTOM
 70
64
  3
_____ _ _ _____ _ _ _____ _ _ _____
 72
65
 73
6
 40
0.8
 49
0.45
 74
0
 49
-0.05
 74
0
 49
0.1
 74
0
 49
-0.05
 74
0
 49
0.1
 74
0
 49
-0.05
 74
0
  0
LTYPE
  5
1F8
100
AcDbSymbolTableRecord
100
AcDbLinetypeTableRecord
  2
DOT
 70
64
  3
. . . . . . . . . . . . . . . . . . . .
 72
65
 73
2
 40
0.2
 49
0.1
 74
0
 49
-0.1
 74
0
  0
LTYPE
  5
1F9
100
AcDbSymbolTableRecord
100
AcDbLinetypeTableRecord
  2
DASHED
 70
64
  3
- - - - - - - - - - - - - - - - - - - -
 72
65
 73
2
 40
0.2
 49
0.1
 74
0
 49
-0.1
 74
0
  0
ENDTAB
  0
TABLE
  2
LAYER
  5
2
100
AcDbSymbolTable
 70
36
  0
LAYER
  5
10
100
AcDbSymbolTableRecord
100
AcDbLayerTableRecord
  2
0
 70
0
 62
7
  6
CONTINUOUS
370
-3
390
F
  0
LAYER
  5
1FA
100
AcDbSymbolTableRecord
100
AcDbLayerTableRecord
  2
DEFAULT_1
 70
0
 62
7
  6
CENTER
370
-3
390
F
  0
LAYER
  5
1FB
100
AcDbSymbolTableRecord
100
AcDbLayerTableRecord
  2
DEFAULT_2
 70
0
 62
8
  6
HIDDEN
370
-3
390
F
  0
LAYER
  5
1FC
100
AcDbSymbolTableRecord
100
AcDbLayerTableRecord
  2
DEFAULT_3
 70
0
 62
7
  6
PHANTOM
370
-3
390
F
  0
LAYER
  5
1FD
100
AcDbSymbolTableRecord
100
AcDbLayerTableRecord
  2
00_COMPONENTS
 70
0
 62
7
  6
CONTINUOUS
370
-3
390
F
  0
LAYER
  5
1FE
100
AcDbSymbolTableRecord
100
AcDbLayerTableRecord
  2
01_1_DEFAULT_DATUMS
 70
0
 62
7
  6
CONTINUOUS
370
-3
390
F
  0
LAYER
  5
1FF
100
AcDbSymbolTableRecord
100
AcDbLayerTableRecord
  2
01_PLANES
 70
0
 62
7
  6
CONTINUOUS
370
-3
390
F
  0
LAYER
  5
200
100
AcDbSymbolTableRecord
100
AcDbLayerTableRecord
  2
02_COORD_SYS
 70
0
 62
7
  6
CONTINUOUS
370
-3
390
F
  0
LAYER
  5
201
100
AcDbSymbolTableRecord
100
AcDbLayerTableRecord
  2
03_AXES
 70
0
 62
7
  6
CONTINUOUS
370
-3
390
F
  0
LAYER
  5
202
100
AcDbSymbolTableRecord
100
AcDbLayerTableRecord
  2
04_POINTS
 70
0
 62
7
  6
CONTINUOUS
370
-3
390
F
  0
LAYER
  5
203
100
AcDbSymbolTableRecord
100
AcDbLayerTableRecord
  2
05_CURVES
 70
0
 62
7
  6
CONTINUOUS
370
-3
390
F
  0
LAYER
  5
204
100
AcDbSymbolTableRecord
100
AcDbLayerTableRecord
  2
06_SURFS
 70
0
 62
7
  6
CONTINUOUS
370
-3
390
F
  0
LAYER
  5
205
100
AcDbSymbolTableRecord
100
AcDbLayerTableRecord
  2
07_COSMETICS
 70
0
 62
7
  6
CONTINUOUS
370
-3
390
F
  0
LAYER
  5
206
100
AcDbSymbolTableRecord
100
AcDbLayerTableRecord
  2
10_NOTES
 70
0
 62
7
  6
CONTINUOUS
370
-3
390
F
  0
LAYER
  5
207
100
AcDbSymbolTableRecord
100
AcDbLayerTableRecord
  2
11_NOTES_PUB
 70
0
 62
7
  6
CONTINUOUS
370
-3
390
F
  0
LAYER
  5
208
100
AcDbSymbolTableRecord
100
AcDbLayerTableRecord
  2
13_REF_GTOL
 70
0
 62
7
  6
CONTINUOUS
370
-3
390
F
  0
LAYER
  5
209
100
AcDbSymbolTableRecord
100
AcDbLayerTableRecord
  2
16_MISC
 70
0
 62
7
  6
CONTINUOUS
370
-3
390
F
  0
LAYER
  5
20A
100
AcDbSymbolTableRecord
100
AcDbLayerTableRecord
  2
17_NO_PRINT
 70
0
 62
7
  6
CONTINUOUS
370
-3
390
F
  0
LAYER
  5
20B
100
AcDbSymbolTableRecord
100
AcDbLayerTableRecord
  2
18_DATUM_CAMS_JOINTS
 70
0
 62
7
  6
CONTINUOUS
370
-3
390
F
  0
LAYER
  5
20C
100
AcDbSymbolTableRecord
100
AcDbLayerTableRecord
  2
19_DATUM_FUNCTIONAL
 70
0
 62
7
  6
CONTINUOUS
370
-3
390
F
  0
LAYER
  5
20D
100
AcDbSymbolTableRecord
100
AcDbLayerTableRecord
  2
20_DATUM_KINEMATIC_SCHEME
 70
0
 62
7
  6
CONTINUOUS
370
-3
390
F
  0
ENDTAB
  0
TABLE
  2
STYLE
  5
3
100
AcDbSymbolTable
 70
1
  0
STYLE
  5
11
100
AcDbSymbolTableRecord
100
AcDbTextStyleTableRecord
  2
STANDARD
 70
0
 40
0.0
 41
0.8
 50
0.0
 71
0
 42
0.2
  3
txt
  4

  0
STYLE
  5
20E
100
AcDbSymbolTableRecord
100
AcDbTextStyleTableRecord
  2
TEXTSTYLE_1
 70
0
 40
0.0
 41
0.8
 50
0.0
 71
0
 42
0.2
  3
gdt
  4

  0
ENDTAB
  0
TABLE
  2
VIEW
  5
6
100
AcDbSymbolTable
 70
0
  0
ENDTAB
  0
TABLE
  2
UCS
  5
7
100
AcDbSymbolTable
 70
0
  0
ENDTAB
  0
TABLE
  2
APPID
  5
9
100
AcDbSymbolTable
 70
1
  0
APPID
  5
20F
100
AcDbSymbolTableRecord
100
AcDbRegAppTableRecord
  2
ACAD
 70
0
  0
ENDTAB
  0
TABLE
  2
BLOCK_RECORD
  5
1
100
AcDbSymbolTable
 70
0
  0
BLOCK_RECORD
  5
210
100
AcDbSymbolTableRecord
100
AcDbBlockTableRecord
  2
*Model_Space
  0
BLOCK_RECORD
  5
211
100
AcDbSymbolTableRecord
100
AcDbBlockTableRecord
  2
*Paper_Space
  0
BLOCK_RECORD
  5
212
100
AcDbSymbolTableRecord
100
AcDbBlockTableRecord
  2
_FILLED
  0
ENDTAB
  0
TABLE
  2
DIMSTYLE
  5
A
100
AcDbSymbolTable
 70
1
100
AcDbDimStyleTable
 71
0
  0
DIMSTYLE
105
213
100
AcDbSymbolTableRecord
100
AcDbDimStyleTableRecord
  2
STANDARD
 70
0
  3

  4

 40
1.0
 41
18.6160720087
 42
1.0
 43
0.38
 44
1.0
 45
0.0
 46
0.0
 47
0.01
 48
0.01
140
26.0625008122
141
0.09
142
0.0
143
25.4
144
1.0
145
0.0
146
1.0
147
0.625
 71
1
 72
0
 73
0
 74
0
 75
0
 76
0
 77
1
 78
8
 79
2
170
0
171
1
172
0
173
0
174
0
175
0
176
0
177
0
178
0
270
2
179
2
271
2
272
2
273
2
274
2
275
0
280
0
281
0
282
0
283
1
284
8
285
0
286
0
287
3
288
0
340
11
278
46
341
212
342
212
343
212
344
212
  0
ENDTAB
  0
ENDSEC
  0
SECTION
  2
BLOCKS
  0
BLOCK
  5
20
100
AcDbEntity
  8
0
100
AcDbBlockBegin
  2
*Model_Space
 70
0
 10
0.0
 20
0.0
 30
0.0
  3
*Model_Space
  1

  0
ENDBLK
  5
21
100
AcDbEntity
  8
0
100
AcDbBlockEnd
  0
BLOCK
  5
1C
100
AcDbEntity
  8
0
100
AcDbBlockBegin
  2
*Paper_Space
 70
0
 10
0.0
 20
0.0
 30
0.0
  3
*Paper_Space
  1

  0
ENDBLK
  5
1D
100
AcDbEntity
  8
0
100
AcDbBlockEnd
  0
BLOCK
  5
214
100
AcDbEntity
  8
0
100
AcDbBlockBegin
  2
_FILLED
 70
64
 10
0.0
 20
0.0
  3
_FILLED
  1

  0
SOLID
  5
215
100
AcDbEntity
  8
0
  6
BYBLOCK
 62
0
100
AcDbTrace
 10
0.0
 20
0.0
 11
-1.0
 21
0.25
 12
-1.0
 22
-0.25
 13
-1.0
 23
-0.25
  0
ENDBLK
  5
216
100
AcDbEntity
  8
0
  6
BYBLOCK
 62
0
100
AcDbBlockEnd
  0
ENDSEC
  0
SECTION
  2
ENTITIES
  0
LINE
  5
217
100
AcDbEntity
  8
0
100
AcDbLine
 62
7
  6
CONTINUOUS
 10
1020.1827465092
 20
208.0844108957
 11
1026.9899590232
 21
209.0676230164
  0
LINE
  5
218
100
AcDbEntity
  8
0
100
AcDbLine
 62
7
  6
CONTINUOUS
 10
622.8832461302
 20
2003.0281070664
 11
620.2114301581
 21
2001.4855426036
  0
LINE
  5
219
100
AcDbEntity
  8
0
100
AcDbLine
 62
7
  6
CONTINUOUS
 10
630.4443826166
 20
1995.5776784008
 11
629.4544371918
 21
1995.0061365549
  0
LINE
  5
21A
100
AcDbEntity
  8
0
100
AcDbLine
 62
7
  6
CONTINUOUS
 10
977.6320667078
 20
230.4341630859
 11
983.2162158513
 21
230.3923247651
  0
LINE
  5
21B
100
AcDbEntity
  8
0
100
AcDbLine
 62
7
  6
CONTINUOUS
 10
977.4315669502
 20
229.9407630253
 11
983.7139758702
 21
229.0667717136
  0
LINE
  5
21C
100
AcDbEntity
  8
0
100
AcDbLine
 62
7
  6
CONTINUOUS
 10
983.2162158513
 20
230.3923247651
 11
983.8455844841
 21
230.3046853457
  0
LINE
  5
21D
100
AcDbEntity
  8
0
100
AcDbLine
 62
7
  6
CONTINUOUS
 10
622.3026493249
 20
2004.0340188918
 11
620.0915579914
 21
2001.9937079848
  0
LINE
  5
21E
100
AcDbEntity
  8
0
100
AcDbLine
 62
7
  6
CONTINUOUS
 10
622.3026493249
 20
2040.3373817695
 11
626.5617221569
 21
2045.7432543346
  0
LINE
  5
21F
100
AcDbEntity
  8
0
100
AcDbLine
 62
7
  6
CONTINUOUS
 10
623.2528176525
 20
2003.3912824775
 11
622.8832461302
 21
2003.0281070664
  0
LINE
  5
220
100
AcDbEntity
  8
0
100
AcDbLine
 62
7
  6
CONTINUOUS
 10
559.6331260699
 20
401.6427924187
 11
958.954410684
 21
171.099756834
  0
LINE
  5
221
100
AcDbEntity
  8
0
100
AcDbLine
 62
7
  6
CONTINUOUS
 10
956.81630284
 20
173.3216894486
 11
560.5117138389
 21
402.1230744105
  0
LINE
  5
222
100
AcDbEntity
  8
0
100
AcDbLine
 62
7
  6
CONTINUOUS
 10
1011.8033474243
 20
214.2186404726
 11
1012.3518171479
 21
213.9055662996
  0
LINE
  5
223
100
AcDbEntity
  8
0
100
AcDbLine
 62
7
  6
CONTINUOUS
 10
968.3267166529
 20
235.1973318759
 11
977.4315669502
 21
229.9407630253
  0
LINE
  5
224
100
AcDbEntity
  8
0
100
AcDbLine
 62
7
  6
CONTINUOUS
 10
968.3267166529
 20
235.8064879068
 11
977.6320667078
 21
230.4341630859
  0
LINE
  5
225
100
AcDbEntity
  8
0
100
AcDbLine
 62
7
  6
CONTINUOUS
 10
983.7139758702
 20
229.0667717136
 11
1011.7625705181
 21
212.8732743891
  0
LINE
  5
226
100
AcDbEntity
  8
0
100
AcDbLine
 62
7
  6
CONTINUOUS
 10
1011.8441243304
 20
212.8986077394
 11
1020.1827465092
 21
208.0844108915
  0
LINE
  5
227
100
AcDbEntity
  8
0
100
AcDbLine
 62
7
  6
CONTINUOUS
 10
983.2162158513
 20
230.3923247651
 11
968.3267166529
 21
238.988586662
  0
LINE
  5
228
100
AcDbEntity
  8
0
100
AcDbLine
 62
7
  6
CONTINUOUS
 10
983.7547527764
 20
230.4121377971
 11
1012.3493950003
 21
213.9041611702
  0
LINE
  5
229
100
AcDbEntity
  8
0
100
AcDbLine
 62
7
  6
CONTINUOUS
 10
968.4629103248
 20
241.3975783586
 11
969.8771297751
 21
240.5810968495
  0
LINE
  5
22A
100
AcDbEntity
  8
0
100
AcDbLine
 62
7
  6
CONTINUOUS
 10
969.8771297751
 20
242.9619386759
 11
968.4629103248
 21
243.7784201849
  0
LINE
  5
22B
100
AcDbEntity
  8
0
100
AcDbLine
 62
7
  6
CONTINUOUS
 10
968.3267166529
 20
247.5312166501
 11
1019.0117518012
 21
218.2688599662
  0
LINE
  5
22C
100
AcDbEntity
  8
0
100
AcDbLine
 62
7
  6
CONTINUOUS
 10
1004.545712522
 20
248.5167262212
 11
1013.5562256648
 21
243.3146217809
  0
LINE
  5
22D
100
AcDbEntity
  8
0
100
AcDbLine
 62
7
  6
CONTINUOUS
 10
968.6100916852
 20
239.2027985911
 11
983.7547527764
 21
230.4121377971
  0
LINE
  5
22E
100
AcDbEntity
  8
0
100
AcDbLine
 62
7
  6
CONTINUOUS
 10
1016.6487922453
 20
1773.046461518
 11
1020.1827465092
 21
1774.323034434
  0
LINE
  5
22F
100
AcDbEntity
  8
0
100
AcDbLine
 62
7
  6
CONTINUOUS
 10
1018.6979932113
 20
1774.806934381
 11
1018.9955446769
 21
1774.9142813406
  0
LINE
  5
230
100
AcDbEntity
  8
0
100
AcDbLine
 62
7
  6
CONTINUOUS
 10
1026.9899590232
 20
1814.5611340271
 11
1020.1827465092
 21
1810.6263973118
  0
LINE
  5
231
100
AcDbEntity
  8
0
100
AcDbLine
 62
7
  6
CONTINUOUS
 10
1004.545712522
 20
1778.4519868818
 11
1005.5356579468
 21
1779.0235287277
  0
LINE
  5
232
100
AcDbEntity
  8
0
100
AcDbLine
 62
7
  6
CONTINUOUS
 10
965.7357510754
 20
1744.2293521505
 11
967.8269702422
 21
1745.4367108924
  0
LINE
  5
233
100
AcDbEntity
  8
0
100
AcDbLine
 62
7
  6
CONTINUOUS
 10
1015.7686104053
 20
1773.1156645249
 11
1018.6979932113
 21
1774.806934381
  0
LINE
  5
234
100
AcDbEntity
  8
0
100
AcDbLine
 62
7
  6
CONTINUOUS
 10
965.7357510754
 20
1779.1915974819
 11
961.4766782433
 21
1776.7372495115
  0
LINE
  5
235
100
AcDbEntity
  8
0
100
AcDbLine
 62
7
  6
CONTINUOUS
 10
965.7357510754
 20
1742.8882346042
 11
967.9468424089
 21
1744.9285455112
  0
LINE
  5
236
100
AcDbEntity
  8
0
100
AcDbLine
 62
7
  6
CONTINUOUS
 10
559.6335924871
 20
401.6416008612
 11
559.6335924871
 21
2005.7675833973
  0
LINE
  5
237
100
AcDbEntity
  8
0
100
AcDbLine
 62
7
  6
CONTINUOUS
 10
560.5117138389
 20
402.1230744105
 11
560.5117138389
 21
2002.8408879996
  0
LINE
  5
238
100
AcDbEntity
  8
0
100
AcDbLine
 62
7
  6
CONTINUOUS
 10
569.0428557234
 20
1946.8802358451
 11
569.0428557234
 21
1938.6610693133
  0
LINE
  5
239
100
AcDbEntity
  8
0
100
AcDbLine
 62
7
  6
CONTINUOUS
 10
569.0428557234
 20
1416.1536647108
 11
569.0428557234
 21
1407.934498179
  0
LINE
  5
23A
100
AcDbEntity
  8
0
100
AcDbLine
 62
7
  6
CONTINUOUS
 10
569.0428557234
 20
987.4898957178
 11
569.0428557234
 21
979.270729186
  0
LINE
  5
23B
100
AcDbEntity
  8
0
100
AcDbLine
 62
7
  6
CONTINUOUS
 10
569.0428557234
 20
456.7633245836
 11
569.0428557234
 21
448.5441580518
  0
LINE
  5
23C
100
AcDbEntity
  8
0
100
AcDbLine
 62
7
  6
CONTINUOUS
 10
569.340407189
 20
1946.4369825811
 11
569.340407189
 21
1938.7596080487
  0
LINE
  5
23D
100
AcDbEntity
  8
0
100
AcDbLine
 62
7
  6
CONTINUOUS
 10
569.340407189
 20
1415.7104114469
 11
569.340407189
 21
1408.0330369145
  0
LINE
  5
23E
100
AcDbEntity
  8
0
100
AcDbLine
 62
7
  6
CONTINUOUS
 10
569.340407189
 20
987.0466424539
 11
569.340407189
 21
979.3692679215
  0
LINE
  5
23F
100
AcDbEntity
  8
0
100
AcDbLine
 62
7
  6
CONTINUOUS
 10
569.340407189
 20
456.3200713197
 11
569.340407189
 21
448.6426967873
  0
LINE
  5
240
100
AcDbEntity
  8
0
100
AcDbLine
 62
7
  6
CONTINUOUS
 10
619.7116837474
 20
1975.5894144768
 11
619.7116837474
 21
1977.7841942442
  0
LINE
  5
241
100
AcDbEntity
  8
0
100
AcDbLine
 62
7
  6
CONTINUOUS
 10
619.7116837474
 20
1981.7896609595
 11
619.7116837474
 21
2001.2288514408
  0
LINE
  5
242
100
AcDbEntity
  8
0
100
AcDbLine
 62
7
  6
CONTINUOUS
 10
620.4439241544
 20
1975.3125210659
 11
620.4439241544
 21
1977.7841942442
  0
LINE
  5
243
100
AcDbEntity
  8
0
100
AcDbLine
 62
7
  6
CONTINUOUS
 10
620.4439241544
 20
1981.3669113273
 11
620.4439241544
 21
2000.2082410561
  0
LINE
  5
244
100
AcDbEntity
  8
0
100
AcDbLine
 62
7
  6
CONTINUOUS
 10
622.3026493249
 20
2004.0340188918
 11
622.3026493249
 21
2040.3373817695
  0
LINE
  5
245
100
AcDbEntity
  8
0
100
AcDbLine
 62
7
  6
CONTINUOUS
 10
622.8832461302
 20
1979.9585999881
 11
622.8832461302
 21
1982.0331579547
  0
LINE
  5
246
100
AcDbEntity
  8
0
100
AcDbLine
 62
7
  6
CONTINUOUS
 10
622.8832461302
 20
1999.9430038297
 11
622.8832461302
 21
2003.0281070664
  0
LINE
  5
247
100
AcDbEntity
  8
0
100
AcDbLine
 62
7
  6
CONTINUOUS
 10
623.4233308873
 20
1982.2140925809
 11
623.4233308873
 21
1979.6467889624
  0
LINE
  5
248
100
AcDbEntity
  8
0
100
AcDbLine
 62
7
  6
CONTINUOUS
 10
623.8181013229
 20
1977.2910073905
 11
623.8181013229
 21
1978.1630976881
  0
LINE
  5
249
100
AcDbEntity
  8
0
100
AcDbLine
 62
7
  6
CONTINUOUS
 10
625.2323207731
 20
1977.3466161791
 11
625.2323207731
 21
1976.4745258814
  0
LINE
  5
24A
100
AcDbEntity
  8
0
100
AcDbLine
 62
7
  6
CONTINUOUS
 10
629.4544371918
 20
1995.0061365549
 11
629.4544371918
 21
1976.1648068869
  0
LINE
  5
24B
100
AcDbEntity
  8
0
100
AcDbLine
 62
7
  6
CONTINUOUS
 10
630.4443826166
 20
1995.5776784008
 11
630.4443826166
 21
1975.5932745592
  0
LINE
  5
24C
100
AcDbEntity
  8
0
100
AcDbLine
 62
7
  6
CONTINUOUS
 10
630.5351461814
 20
2034.1560673582
 11
630.5351461814
 21
1995.5776784008
  0
LINE
  5
24D
100
AcDbEntity
  8
0
100
AcDbLine
 62
7
  6
CONTINUOUS
 10
630.6412715037
 20
2034.1796097754
 11
630.6412715037
 21
2035.5231849258
  0
LINE
  5
24E
100
AcDbEntity
  8
0
100
AcDbLine
 62
7
  6
CONTINUOUS
 10
623.4641077935
 20
2038.3232534338
 11
623.4241384081
 21
2004.0327116733
  0
LINE
  5
24F
100
AcDbEntity
  8
0
100
AcDbLine
 62
7
  6
CONTINUOUS
 10
623.4241384081
 20
2004.0327116733
 11
623.4233308873
 21
1999.6311928039
  0
LINE
  5
250
100
AcDbEntity
  8
0
100
AcDbLine
 62
7
  6
CONTINUOUS
 10
658.6872896925
 20
2014.4276863023
 11
658.6898933059
 21
2014.8068316529
  0
LINE
  5
251
100
AcDbEntity
  8
0
100
AcDbLine
 62
7
  6
CONTINUOUS
 10
658.6898933059
 20
2014.8068316529
 11
658.6083123393
 21
2019.2608512827
  0
LINE
  5
252
100
AcDbEntity
  8
0
100
AcDbLine
 62
7
  6
CONTINUOUS
 10
680.3864083
 20
2009.9505397002
 11
680.3864083
 21
2012.3313815265
  0
LINE
  5
253
100
AcDbEntity
  8
0
100
AcDbLine
 62
7
  6
CONTINUOUS
 10
681.8006277503
 20
2011.5149000175
 11
681.8006277503
 21
2009.1340581911
  0
LINE
  5
254
100
AcDbEntity
  8
0
100
AcDbLine
 62
7
  6
CONTINUOUS
 10
911.8946033477
 20
1810.9737239989
 11
911.8946033477
 21
1811.8458142966
  0
LINE
  5
255
100
AcDbEntity
  8
0
100
AcDbLine
 62
7
  6
CONTINUOUS
 10
913.308822798
 20
1811.0293327875
 11
913.308822798
 21
1810.1572424898
  0
LINE
  5
256
100
AcDbEntity
  8
0
100
AcDbLine
 62
7
  6
CONTINUOUS
 10
929.3485070944
 20
1803.0248018505
 11
929.430088061
 21
1800.2246250089
  0
LINE
  5
257
100
AcDbEntity
  8
0
100
AcDbLine
 62
7
  6
CONTINUOUS
 10
956.81630284
 20
1774.0395030377
 11
956.81630284
 21
173.3216894486
  0
LINE
  5
258
100
AcDbEntity
  8
0
100
AcDbLine
 62
7
  6
CONTINUOUS
 10
961.4766782433
 20
171.2437385007
 11
961.4766782433
 21
1776.7372495115
  0
LINE
  5
259
100
AcDbEntity
  8
0
100
AcDbLine
 62
7
  6
CONTINUOUS
 10
965.7357510754
 20
176.6496110659
 11
965.7357510754
 21
212.9529739436
  0
LINE
  5
25A
100
AcDbEntity
  8
0
100
AcDbLine
 62
7
  6
CONTINUOUS
 10
965.7357510754
 20
1742.8882346042
 11
965.7357510754
 21
1779.1915974819
  0
LINE
  5
25B
100
AcDbEntity
  8
0
100
AcDbLine
 62
7
  6
CONTINUOUS
 10
967.9468424089
 20
1744.9285455112
 11
967.9468424089
 21
214.9932848506
  0
LINE
  5
25C
100
AcDbEntity
  8
0
100
AcDbLine
 62
7
  6
CONTINUOUS
 10
968.3267166529
 20
215.7581413946
 11
968.3267166529
 21
1745.6934020552
  0
LINE
  5
25D
100
AcDbEntity
  8
0
100
AcDbLine
 62
7
  6
CONTINUOUS
 10
968.4629103248
 20
241.3975783586
 11
968.4629103248
 21
243.7784201849
  0
LINE
  5
25E
100
AcDbEntity
  8
0
100
AcDbLine
 62
7
  6
CONTINUOUS
 10
968.4629103248
 20
1843.6332563086
 11
968.4629103248
 21
1846.014098135
  0
LINE
  5
25F
100
AcDbEntity
  8
0
100
AcDbLine
 62
7
  6
CONTINUOUS
 10
969.8771297751
 20
1845.1976166259
 11
969.8771297751
 21
1842.8167747996
  0
LINE
  5
260
100
AcDbEntity
  8
0
100
AcDbLine
 62
7
  6
CONTINUOUS
 10
969.8771297751
 20
242.9619386759
 11
969.8771297751
 21
240.5810968495
  0
LINE
  5
261
100
AcDbEntity
  8
0
100
AcDbLine
 62
7
  6
CONTINUOUS
 10
983.7139758702
 20
1831.5652551699
 11
983.7139758702
 21
1830.2434315036
  0
LINE
  5
262
100
AcDbEntity
  8
0
100
AcDbLine
 62
7
  6
CONTINUOUS
 10
983.7139758702
 20
230.3885953799
 11
983.7139758702
 21
229.0667717136
  0
LINE
  5
263
100
AcDbEntity
  8
0
100
AcDbLine
 62
7
  6
CONTINUOUS
 10
1019.0212880407
 20
210.0985392314
 11
1018.9817726693
 21
243.9539451038
  0
LINE
  5
264
100
AcDbEntity
  8
0
100
AcDbLine
 62
7
  6
CONTINUOUS
 10
1004.545712522
 20
1778.4519868818
 11
1004.545712522
 21
248.5167262212
  0
LINE
  5
265
100
AcDbEntity
  8
0
100
AcDbLine
 62
7
  6
CONTINUOUS
 10
1011.8441243304
 20
1815.4405941639
 11
1011.8441243304
 21
1814.0970190135
  0
LINE
  5
266
100
AcDbEntity
  8
0
100
AcDbLine
 62
7
  6
CONTINUOUS
 10
1011.8441243304
 20
214.2421828898
 11
1011.8441243304
 21
212.8986077394
  0
LINE
  5
267
100
AcDbEntity
  8
0
100
AcDbLine
 62
7
  6
CONTINUOUS
 10
1013.5562256648
 20
1773.2498824415
 11
1013.5562256648
 21
243.3146217809
  0
LINE
  5
268
100
AcDbEntity
  8
0
100
AcDbLine
 62
7
  6
CONTINUOUS
 10
1016.6487922453
 20
243.1112008574
 11
1016.6487922453
 21
1773.046461518
  0
LINE
  5
269
100
AcDbEntity
  8
0
100
AcDbLine
 62
7
  6
CONTINUOUS
 10
1020.1827465092
 20
244.3877737734
 11
1020.1827465092
 21
208.0844108957
  0
LINE
  5
26A
100
AcDbEntity
  8
0
100
AcDbLine
 62
7
  6
CONTINUOUS
 10
1020.1827465092
 20
1774.323034434
 11
1020.1827465092
 21
1810.626397316
  0
LINE
  5
26B
100
AcDbEntity
  8
0
100
AcDbLine
 62
7
  6
CONTINUOUS
 10
1026.9899590232
 20
1814.5611340271
 11
1026.9899590232
 21
209.0676230164
  0
LINE
  5
26C
100
AcDbEntity
  8
0
100
AcDbLine
 62
7
  6
CONTINUOUS
 10
1028.4048079132
 20
211.2194698708
 11
1028.4048079132
 21
1815.3454524069
  0
LINE
  5
26D
100
AcDbEntity
  8
0
100
AcDbLine
 62
7
  6
CONTINUOUS
 10
1018.9805111345
 20
1774.9700452064
 11
1019.0212880407
 21
1809.9533753551
  0
LINE
  5
26E
100
AcDbEntity
  8
0
100
AcDbLine
 62
7
  6
CONTINUOUS
 10
977.4315669502
 20
1830.7854036933
 11
977.6320667078
 21
1830.2889992096
  0
LINE
  5
26F
100
AcDbEntity
  8
0
100
AcDbLine
 62
7
  6
CONTINUOUS
 10
977.6320667078
 20
230.4341630859
 11
977.4315669502
 21
229.9407630253
  0
LINE
  5
270
100
AcDbEntity
  8
0
100
AcDbLine
 62
7
  6
CONTINUOUS
 10
967.8269702422
 20
1745.4367108924
 11
965.7357510754
 21
1746.6440495277
  0
LINE
  5
271
100
AcDbEntity
  8
0
100
AcDbLine
 62
7
  6
CONTINUOUS
 10
965.7357510754
 20
1747.7871236529
 11
967.5944762459
 21
1746.7140124398
  0
LINE
  5
272
100
AcDbEntity
  8
0
100
AcDbLine
 62
7
  6
CONTINUOUS
 10
961.4766782433
 20
171.2437385007
 11
965.7357510754
 21
176.6496110659
  0
LINE
  5
273
100
AcDbEntity
  8
0
100
AcDbLine
 62
7
  6
CONTINUOUS
 10
983.8455844841
 20
1830.3253694259
 11
983.2162158513
 21
1830.2471608888
  0
LINE
  5
274
100
AcDbEntity
  8
0
100
AcDbLine
 62
7
  6
CONTINUOUS
 10
983.7139758702
 20
1831.5652551699
 11
977.4315669502
 21
1830.7854036933
  0
LWPOLYLINE
  5
275
100
AcDbEntity
  8
0
100
AcDbPolyline
 62
7
  6
CONTINUOUS
 90
4
 70
0
 10
907.5291379316
 20
1811.5549622291
 10
907.6094450719
 20
1811.5592213678
 10
907.7979376697
 20
1811.5643803885
 10
907.9895203306
 20
1811.56488485
  0
LINE
  5
276
100
AcDbEntity
  8
0
100
AcDbLine
 62
7
  6
CONTINUOUS
 10
560.5117138389
 20
2002.8408879996
 11
956.81630284
 21
1774.0395030377
  0
LINE
  5
277
100
AcDbEntity
  8
0
100
AcDbLine
 62
7
  6
CONTINUOUS
 10
961.4816422688
 20
1776.7401100979
 11
561.0563753048
 21
2007.9205157703
  0
LINE
  5
278
100
AcDbEntity
  8
0
100
AcDbLine
 62
7
  6
CONTINUOUS
 10
618.1612706251
 20
1976.4058959858
 11
619.5754900754
 21
1975.5894144768
  0
LINE
  5
279
100
AcDbEntity
  8
0
100
AcDbLine
 62
7
  6
CONTINUOUS
 10
906.23777265
 20
1810.0886125943
 11
907.6519921003
 21
1809.2721310852
  0
LINE
  5
27A
100
AcDbEntity
  8
0
100
AcDbLine
 62
7
  6
CONTINUOUS
 10
567.855653891
 20
2008.9025819438
 11
576.1942760698
 21
2004.0883850959
  0
LINE
  5
27B
100
AcDbEntity
  8
0
100
AcDbLine
 62
7
  6
CONTINUOUS
 10
957.3971288966
 20
1784.005794334
 11
965.7357510754
 21
1779.1915974861
  0
LINE
  5
27C
100
AcDbEntity
  8
0
100
AcDbLine
 62
7
  6
CONTINUOUS
 10
576.2758298822
 20
2004.1137184463
 11
604.3244245301
 21
1987.9202211218
  0
LINE
  5
27D
100
AcDbEntity
  8
0
100
AcDbLine
 62
7
  6
CONTINUOUS
 10
929.430088061
 20
1800.2246250089
 11
957.4786827089
 21
1784.0311276844
  0
LINE
  5
27E
100
AcDbEntity
  8
0
100
AcDbLine
 62
7
  6
CONTINUOUS
 10
623.8181013229
 20
1977.2910073905
 11
625.2323207731
 21
1976.4745258814
  0
LINE
  5
27F
100
AcDbEntity
  8
0
100
AcDbLine
 62
7
  6
CONTINUOUS
 10
911.8946033477
 20
1810.9737239989
 11
913.308822798
 21
1810.1572424898
  0
LINE
  5
280
100
AcDbEntity
  8
0
100
AcDbLine
 62
7
  6
CONTINUOUS
 10
913.308822798
 20
1811.0293327875
 11
911.8946033477
 21
1811.8458142966
  0
LINE
  5
281
100
AcDbEntity
  8
0
100
AcDbLine
 62
7
  6
CONTINUOUS
 10
625.2323207731
 20
1977.3466161791
 11
623.8181013229
 21
1978.1630976881
  0
LINE
  5
282
100
AcDbEntity
  8
0
100
AcDbLine
 62
7
  6
CONTINUOUS
 10
610.6068334501
 20
1987.0462298101
 11
929.3485070944
 21
1803.0248018505
  0
LINE
  5
283
100
AcDbEntity
  8
0
100
AcDbLine
 62
7
  6
CONTINUOUS
 10
1013.5562256648
 20
1773.2498824415
 11
1004.545712522
 21
1778.4519868818
  0
LINE
  5
284
100
AcDbEntity
  8
0
100
AcDbLine
 62
7
  6
CONTINUOUS
 10
629.4544371918
 20
1995.0061365549
 11
620.4439241544
 21
2000.2082410561
  0
LINE
  5
285
100
AcDbEntity
  8
0
100
AcDbLine
 62
7
  6
CONTINUOUS
 10
620.2114301581
 20
2001.4855426036
 11
630.4443826166
 21
1995.5776784008
  0
LINE
  5
286
100
AcDbEntity
  8
0
100
AcDbLine
 62
7
  6
CONTINUOUS
 10
1005.5356579468
 20
1779.0235287277
 11
1015.7686104053
 21
1773.1156645249
  0
LINE
  5
287
100
AcDbEntity
  8
0
100
AcDbLine
 62
7
  6
CONTINUOUS
 10
622.3026493249
 20
2004.0340188918
 11
623.4641077935
 21
2003.3634657022
  0
LINE
  5
288
100
AcDbEntity
  8
0
100
AcDbLine
 62
7
  6
CONTINUOUS
 10
1019.0212880407
 20
1774.9935876236
 11
1020.1827465092
 21
1774.323034434
  0
LINE
  5
289
100
AcDbEntity
  8
0
100
AcDbLine
 62
7
  6
CONTINUOUS
 10
977.6320667078
 20
1830.2889992096
 11
658.6872896925
 21
2014.4276863023
  0
LINE
  5
28A
100
AcDbEntity
  8
0
100
AcDbLine
 62
7
  6
CONTINUOUS
 10
977.4315669502
 20
1830.7854036933
 11
658.6898933059
 21
2014.8068316529
  0
LINE
  5
28B
100
AcDbEntity
  8
0
100
AcDbLine
 62
7
  6
CONTINUOUS
 10
630.6004945975
 20
2034.1560673582
 11
623.4641077935
 21
2038.3232534338
  0
LINE
  5
28C
100
AcDbEntity
  8
0
100
AcDbLine
 62
7
  6
CONTINUOUS
 10
967.9468424089
 20
214.9932848506
 11
965.7357510754
 21
212.9529739436
  0
LINE
  5
28D
100
AcDbEntity
  8
0
100
AcDbLine
 62
7
  6
CONTINUOUS
 10
983.2162158513
 20
1830.2471608888
 11
977.6320667078
 21
1830.2889992096
  0
LINE
  5
28E
100
AcDbEntity
  8
0
100
AcDbLine
 62
7
  6
CONTINUOUS
 10
1019.0212880407
 20
1809.9533753551
 11
1011.8033474243
 21
1814.0734765963
  0
LINE
  5
28F
100
AcDbEntity
  8
0
100
AcDbLine
 62
7
  6
CONTINUOUS
 10
674.7295776022
 20
2007.5566767669
 11
676.1437970525
 21
2006.7401952578
  0
LINE
  5
290
100
AcDbEntity
  8
0
100
AcDbLine
 62
7
  6
CONTINUOUS
 10
962.8060796271
 20
1841.2393933753
 11
964.2202990774
 21
1840.4229118663
  0
LINE
  5
291
100
AcDbEntity
  8
0
100
AcDbLine
 62
7
  6
CONTINUOUS
 10
1011.8033474243
 20
1814.0734765963
 11
983.7547527764
 21
1830.2669739208
  0
LINE
  5
292
100
AcDbEntity
  8
0
100
AcDbLine
 62
7
  6
CONTINUOUS
 10
658.6490892455
 20
2017.9625700337
 11
630.6004945975
 21
2034.1560673582
  0
LINE
  5
293
100
AcDbEntity
  8
0
100
AcDbLine
 62
7
  6
CONTINUOUS
 10
1011.7625705181
 20
1815.3717578454
 11
983.7139758702
 21
1831.5652551699
  0
LINE
  5
294
100
AcDbEntity
  8
0
100
AcDbLine
 62
7
  6
CONTINUOUS
 10
658.6083123393
 20
2019.2608512828
 11
630.5597176914
 21
2035.4543486073
  0
LINE
  5
295
100
AcDbEntity
  8
0
100
AcDbLine
 62
7
  6
CONTINUOUS
 10
1020.1827465092
 20
1810.626397316
 11
1011.8441243304
 21
1815.4405941639
  0
LINE
  5
296
100
AcDbEntity
  8
0
100
AcDbLine
 62
7
  6
CONTINUOUS
 10
630.6412715037
 20
2035.5231849258
 11
622.3026493249
 21
2040.3373817737
  0
LINE
  5
297
100
AcDbEntity
  8
0
100
AcDbLine
 62
7
  6
CONTINUOUS
 10
680.3864083
 20
2009.9505397002
 11
681.8006277503
 21
2009.1340581911
  0
LINE
  5
298
100
AcDbEntity
  8
0
100
AcDbLine
 62
7
  6
CONTINUOUS
 10
968.4629103248
 20
1843.6332563086
 11
969.8771297751
 21
1842.8167747996
  0
LINE
  5
299
100
AcDbEntity
  8
0
100
AcDbLine
 62
7
  6
CONTINUOUS
 10
969.8771297751
 20
1845.1976166259
 11
968.4629103248
 21
1846.014098135
  0
LINE
  5
29A
100
AcDbEntity
  8
0
100
AcDbLine
 62
7
  6
CONTINUOUS
 10
681.8006277503
 20
2011.5149000175
 11
680.3864083
 21
2012.3313815265
  0
LINE
  5
29B
100
AcDbEntity
  8
0
100
AcDbLine
 62
7
  6
CONTINUOUS
 10
626.5567581315
 20
2045.7369536936
 11
1026.9820250955
 21
1814.5565480212
  0
LINE
  5
29C
100
AcDbEntity
  8
0
100
AcDbLine
 62
7
  6
CONTINUOUS
 10
1028.405313726
 20
1815.3441776721
 11
629.0840291119
 21
2045.8872132568
  0
LINE
  5
29D
100
AcDbEntity
  8
0
100
AcDbLine
 62
7
  6
CONTINUOUS
 10
604.3244245301
 20
1987.9202211218
 11
610.6068334501
 21
1987.0462298101
  0
LINE
  5
29E
100
AcDbEntity
  8
0
100
AcDbLine
 62
7
  6
CONTINUOUS
 10
1020.1827465092
 20
244.3877737734
 11
1016.6487922453
 21
243.1112008574
  0
LINE
  5
29F
100
AcDbEntity
  8
0
100
AcDbLine
 62
7
  6
CONTINUOUS
 10
561.048441377
 20
2007.919369819
 11
567.855653891
 21
2008.9025819396
  0
LWPOLYLINE
  5
2A0
100
AcDbEntity
  8
0
100
AcDbPolyline
 62
7
  6
CONTINUOUS
 90
4
 70
0
 10
619.4526359067
 20
1977.8722456207
 10
619.532943047
 20
1977.8765047594
 10
619.7214356448
 20
1977.88166378
 10
619.9130183057
 20
1977.8821682416
  0
ARC
  5
2A1
100
AcDbEntity
  8
0
100
AcDbCircle
 62
7
  6
CONTINUOUS
 10
631.7934243793
 20
1981.160681359
 40
9.446110452
100
AcDbArc
 50
205.9935753134
 51
215.7018974378
  0
ARC
  5
2A2
100
AcDbEntity
  8
0
100
AcDbCircle
 62
7
  6
CONTINUOUS
 10
631.6250959954
 20
1981.083540768
 40
9.2610022573
100
AcDbArc
 50
202.7360276031
 51
206.0210201541
  0
ARC
  5
2A3
100
AcDbEntity
  8
0
100
AcDbCircle
 62
7
  6
CONTINUOUS
 10
630.4446747886
 20
1980.332697381
 40
9.0050686627
100
AcDbArc
 50
216.2909675032
 51
220.2104948532
  0
ARC
  5
2A4
100
AcDbEntity
  8
0
100
AcDbCircle
 62
7
  6
CONTINUOUS
 10
629.6821727177
 20
1980.1477272876
 40
8.2403432712
100
AcDbArc
 50
195.8943896648
 51
198.8965681604
  0
ARC
  5
2A5
100
AcDbEntity
  8
0
100
AcDbCircle
 62
7
  6
CONTINUOUS
 10
629.3449150153
 20
1980.0516779867
 40
7.8896750151
100
AcDbArc
 50
193.326170301
 51
195.8942875535
  0
ARC
  5
2A6
100
AcDbEntity
  8
0
100
AcDbCircle
 62
7
  6
CONTINUOUS
 10
968.1456820987
 20
1839.8120154493
 40
3.467922982
100
AcDbArc
 50
55.1569152272
 51
60.0479458418
  0
ARC
  5
2A7
100
AcDbEntity
  8
0
100
AcDbCircle
 62
7
  6
CONTINUOUS
 10
680.069180074
 20
2006.1292988411
 40
3.4679229817
100
AcDbArc
 50
55.1569152269
 51
60.0479458419
  0
ARC
  5
2A8
100
AcDbEntity
  8
0
100
AcDbCircle
 62
7
  6
CONTINUOUS
 10
907.9692091211
 20
1807.9689810613
 40
3.4679031443
100
AcDbArc
 50
119.9524784472
 51
124.8429415669
  0
ARC
  5
2A9
100
AcDbEntity
  8
0
100
AcDbCircle
 62
7
  6
CONTINUOUS
 10
619.8927070961
 20
1974.286264453
 40
3.4679031441
100
AcDbArc
 50
119.952478447
 51
124.8429415669
  0
ARC
  5
2AA
100
AcDbEntity
  8
0
100
AcDbCircle
 62
7
  6
CONTINUOUS
 10
968.1456935392
 20
242.7007280002
 40
3.4679026957
100
AcDbArc
 50
299.9524782358
 51
304.8429521299
  0
ARC
  5
2AB
100
AcDbEntity
  8
0
100
AcDbCircle
 62
7
  6
CONTINUOUS
 10
634.5273842017
 20
1987.7260402288
 40
2.180321189
100
AcDbArc
 50
107.7103830727
 51
120.0051195258
  0
ARC
  5
2AC
100
AcDbEntity
  8
0
100
AcDbCircle
 62
7
  6
CONTINUOUS
 10
564.8776562361
 20
457.397079811
 40
2.1803211891
100
AcDbArc
 50
107.7103830728
 51
120.0051195257
  0
ARC
  5
2AD
100
AcDbEntity
  8
0
100
AcDbCircle
 62
7
  6
CONTINUOUS
 10
564.8776562361
 20
1416.7874199383
 40
2.180321189
100
AcDbArc
 50
107.7103830726
 51
120.0051195257
  0
ARC
  5
2AE
100
AcDbEntity
  8
0
100
AcDbCircle
 62
7
  6
CONTINUOUS
 10
564.8776562361
 20
988.1236509452
 40
2.1803211891
100
AcDbArc
 50
107.7103830728
 51
120.0051195257
  0
ARC
  5
2AF
100
AcDbEntity
  8
0
100
AcDbCircle
 62
7
  6
CONTINUOUS
 10
564.8776562361
 20
1947.5139910724
 40
2.1803211891
100
AcDbArc
 50
107.7103830729
 51
120.0051195255
  0
ARC
  5
2B0
100
AcDbEntity
  8
0
100
AcDbCircle
 62
7
  6
CONTINUOUS
 10
948.1311272658
 20
236.130590861
 40
2.1803211891
100
AcDbArc
 50
107.7103830727
 51
120.0051195257
  0
ARC
  5
2B1
100
AcDbEntity
  8
0
100
AcDbCircle
 62
7
  6
CONTINUOUS
 10
948.1311272658
 20
1195.5209309883
 40
2.1803211891
100
AcDbArc
 50
107.7103830727
 51
120.0051195257
  0
ARC
  5
2B2
100
AcDbEntity
  8
0
100
AcDbCircle
 62
7
  6
CONTINUOUS
 10
948.1311272658
 20
766.8571619952
 40
2.1803211891
100
AcDbArc
 50
107.7103830727
 51
120.0051195257
  0
ARC
  5
2B3
100
AcDbEntity
  8
0
100
AcDbCircle
 62
7
  6
CONTINUOUS
 10
948.1311272658
 20
1726.2475021224
 40
2.1803211891
100
AcDbArc
 50
107.7103830729
 51
120.0051195256
  0
ARC
  5
2B4
100
AcDbEntity
  8
0
100
AcDbCircle
 62
7
  6
CONTINUOUS
 10
624.5033270986
 20
1974.5799752315
 40
1.964541233
100
AcDbArc
 50
33.4559426981
 51
38.7148775291
  0
ARC
  5
2B5
100
AcDbEntity
  8
0
100
AcDbCircle
 62
7
  6
CONTINUOUS
 10
912.5798291236
 20
1808.2626918401
 40
1.9645412329
100
AcDbArc
 50
33.4559426979
 51
38.7148775293
  0
ARC
  5
2B6
100
AcDbEntity
  8
0
100
AcDbCircle
 62
7
  6
CONTINUOUS
 10
1006.801846723
 20
269.229732216
 40
1.850729111
100
AcDbArc
 50
106.5627635611
 51
119.9850195738
  0
ARC
  5
2B7
100
AcDbEntity
  8
0
100
AcDbCircle
 62
7
  6
CONTINUOUS
 10
1006.801846723
 20
1228.6200723433
 40
1.850729111
100
AcDbArc
 50
106.5627635611
 51
119.9850195738
  0
ARC
  5
2B8
100
AcDbEntity
  8
0
100
AcDbCircle
 62
7
  6
CONTINUOUS
 10
1006.801846723
 20
799.9563033502
 40
1.850729111
100
AcDbArc
 50
106.562763561
 51
119.9850195738
  0
ARC
  5
2B9
100
AcDbEntity
  8
0
100
AcDbCircle
 62
7
  6
CONTINUOUS
 10
1006.801846723
 20
1759.3466434775
 40
1.850729111
100
AcDbArc
 50
106.5627635611
 51
119.9850195737
  0
ARC
  5
2BA
100
AcDbEntity
  8
0
100
AcDbCircle
 62
7
  6
CONTINUOUS
 10
623.5483757017
 20
1980.6131324876
 40
1.8507290632
100
AcDbArc
 50
106.5627637597
 51
119.98501958
  0
SPLINE
  5
2BB
100
AcDbEntity
  8
0
100
AcDbSpline
 62
7
  6
CONTINUOUS
 70
0
 71
3
 72
8
 73
4
 74
0
 42
0.0000001
 43
0.0000001
 44
0.0000000001
 40
0.0
 40
0.0
 40
0.0
 40
0.0
 40
1.0
 40
1.0
 40
1.0
 40
1.0
 10
1026.9899590232
 20
209.0650095956
 30
0.0
 10
1027.1785643697
 20
209.09444113
 30
0.0
 10
1027.3643995446
 20
209.1623582612
 30
0.0
 10
1027.5283704902
 20
209.2600911674
 30
0.0
  0
SPLINE
  5
2BC
100
AcDbEntity
  8
0
100
AcDbSpline
 62
7
  6
CONTINUOUS
 70
0
 71
3
 72
9
 73
5
 74
0
 42
0.0000001
 43
0.0000001
 44
0.0000000001
 40
0.0
 40
0.0
 40
0.0
 40
0.0
 40
0.2407194189
 40
1.0
 40
1.0
 40
1.0
 40
1.0
 10
680.3864083
 20
2009.9505397002
 30
0.0
 10
679.9848453887
 20
2010.1823769102
 30
0.0
 10
678.1652249034
 20
2010.8384515788
 30
0.0
 10
675.9961641672
 20
2010.6817994295
 30
0.0
 10
674.7295540505
 20
2009.9505261028
 30
0.0
  0
SPLINE
  5
2BD
100
AcDbEntity
  8
0
100
AcDbSpline
 62
7
  6
CONTINUOUS
 70
0
 71
3
 72
8
 73
4
 74
0
 42
0.0000001
 43
0.0000001
 44
0.0000000001
 40
0.0
 40
0.0
 40
0.0
 40
0.0
 40
1.0
 40
1.0
 40
1.0
 40
1.0
 10
962.8060560754
 20
1843.6332427112
 30
0.0
 10
962.5070539518
 20
1843.4606147851
 30
0.0
 10
962.0950280051
 20
1843.2440256665
 30
0.0
 10
962.0751582854
 20
1842.8993404985
 30
0.0
  0
SPLINE
  5
2BE
100
AcDbEntity
  8
0
100
AcDbSpline
 62
7
  6
CONTINUOUS
 70
0
 71
3
 72
9
 73
5
 74
0
 42
0.0000001
 43
0.0000001
 44
0.0000000001
 40
0.0
 40
0.0
 40
0.0
 40
0.0
 40
0.2407194189
 40
1.0
 40
1.0
 40
1.0
 40
1.0
 10
968.4629103248
 20
1843.6332563086
 30
0.0
 10
968.0613474136
 20
1843.8650935187
 30
0.0
 10
966.2417269283
 20
1844.5211681872
 30
0.0
 10
964.0726661921
 20
1844.3645160379
 30
0.0
 10
962.8060560754
 20
1843.6332427112
 30
0.0
  0
SPLINE
  5
2BF
100
AcDbEntity
  8
0
100
AcDbSpline
 62
7
  6
CONTINUOUS
 70
0
 71
3
 72
8
 73
4
 74
0
 42
0.0000001
 43
0.0000001
 44
0.0000000001
 40
0.0
 40
0.0
 40
0.0
 40
0.0
 40
1.0
 40
1.0
 40
1.0
 40
1.0
 10
674.7295540505
 20
2009.9505261028
 30
0.0
 10
674.4305519269
 20
2009.7778981767
 30
0.0
 10
674.0185259802
 20
2009.5613090581
 30
0.0
 10
673.9986562605
 20
2009.2166238901
 30
0.0
  0
SPLINE
  5
2C0
100
AcDbEntity
  8
0
100
AcDbSpline
 62
7
  6
CONTINUOUS
 70
0
 71
3
 72
8
 73
4
 74
0
 42
0.0000001
 43
0.0000001
 44
0.0000000001
 40
0.0
 40
0.0
 40
0.0
 40
0.0
 40
1.0
 40
1.0
 40
1.0
 40
1.0
 10
969.8771533269
 20
239.6959990423
 30
0.0
 10
969.6213932058
 20
239.548336749
 30
0.0
 10
969.3542256124
 20
239.4076574577
 30
0.0
 10
969.0678714131
 20
239.3354171302
 30
0.0
  0
SPLINE
  5
2C1
100
AcDbEntity
  8
0
100
AcDbSpline
 62
7
  6
CONTINUOUS
 70
0
 71
3
 72
9
 73
5
 74
0
 42
0.0000001
 43
0.0000001
 44
0.0000000001
 40
0.0
 40
0.0
 40
0.0
 40
0.0
 40
0.482143142
 40
1.0
 40
1.0
 40
1.0
 40
1.0
 10
969.0678714131
 20
239.3354171302
 30
0.0
 10
968.995142009
 20
239.3170692381
 30
0.0
 10
968.8420710057
 20
239.2873250068
 30
0.0
 10
968.6865345816
 20
239.2755630523
 30
0.0
 10
968.6059853203
 20
239.2740149281
 30
0.0
  0
SPLINE
  5
2C2
100
AcDbEntity
  8
0
100
AcDbSpline
 62
7
  6
CONTINUOUS
 70
0
 71
3
 72
8
 73
4
 74
0
 42
0.0000001
 43
0.0000001
 44
0.0000000001
 40
0.0
 40
0.0
 40
0.0
 40
0.0
 40
1.0
 40
1.0
 40
1.0
 40
1.0
 10
622.8758901154
 20
1982.0256067069
 30
0.0
 10
622.580350039
 20
1981.5030660883
 30
0.0
 10
622.4741812785
 20
1980.8703245961
 30
0.0
 10
622.4741812785
 20
1980.2699974895
 30
0.0
  0
SPLINE
  5
2C3
100
AcDbEntity
  8
0
100
AcDbSpline
 62
7
  6
CONTINUOUS
 70
0
 71
3
 72
8
 73
4
 74
0
 42
0.0000001
 43
0.0000001
 44
0.0000000001
 40
0.0
 40
0.0
 40
0.0
 40
0.0
 40
1.0
 40
1.0
 40
1.0
 40
1.0
 10
623.0207966995
 20
1982.3870711736
 30
0.0
 10
623.4913859474
 20
1982.5275718416
 30
0.0
 10
624.0240007806
 20
1982.4802797312
 30
0.0
 10
624.4932346758
 20
1982.3353168756
 30
0.0
  0
SPLINE
  5
2C4
100
AcDbEntity
  8
0
100
AcDbSpline
 62
7
  6
CONTINUOUS
 70
0
 71
3
 72
8
 73
4
 74
0
 42
0.0000001
 43
0.0000001
 44
0.0000000001
 40
0.0
 40
0.0
 40
0.0
 40
0.0
 40
1.0
 40
1.0
 40
1.0
 40
1.0
 10
624.4932346758
 20
1982.3353168756
 30
0.0
 10
625.12792911
 20
1982.1392374394
 30
0.0
 10
625.7129378832
 20
1981.7710126737
 30
0.0
 10
626.2226258866
 20
1981.3449817952
 30
0.0
  0
SPLINE
  5
2C5
100
AcDbEntity
  8
0
100
AcDbSpline
 62
7
  6
CONTINUOUS
 70
0
 71
3
 72
8
 73
4
 74
0
 42
0.0000001
 43
0.0000001
 44
0.0000000001
 40
0.0
 40
0.0
 40
0.0
 40
0.0
 40
1.0
 40
1.0
 40
1.0
 40
1.0
 10
626.2226258866
 20
1981.3449817952
 30
0.0
 10
627.1314453367
 20
1980.5853305062
 30
0.0
 10
627.8668880501
 20
1979.5933755071
 30
0.0
 10
628.3959638029
 20
1978.5336105702
 30
0.0
  0
SPLINE
  5
2C6
100
AcDbEntity
  8
0
100
AcDbSpline
 62
7
  6
CONTINUOUS
 70
0
 71
3
 72
8
 73
4
 74
0
 42
0.0000001
 43
0.0000001
 44
0.0000000001
 40
0.0
 40
0.0
 40
0.0
 40
0.0
 40
1.0
 40
1.0
 40
1.0
 40
1.0
 10
628.3959638029
 20
1978.5336105702
 30
0.0
 10
628.5746327605
 20
1978.1757277991
 30
0.0
 10
628.731245339
 20
1977.8057239587
 30
0.0
 10
628.860733997
 20
1977.42725948
 30
0.0
  0
SPLINE
  5
2C7
100
AcDbEntity
  8
0
100
AcDbSpline
 62
7
  6
CONTINUOUS
 70
0
 71
3
 72
8
 73
4
 74
0
 42
0.0000001
 43
0.0000001
 44
0.0000000001
 40
0.0
 40
0.0
 40
0.0
 40
0.0
 40
1.0
 40
1.0
 40
1.0
 40
1.0
 10
628.860733997
 20
1977.42725948
 30
0.0
 10
628.9785828815
 20
1977.0828152844
 30
0.0
 10
629.0745192837
 20
1976.7298278762
 30
0.0
 10
629.1437264245
 20
1976.3724197969
 30
0.0
  0
SPLINE
  5
2C8
100
AcDbEntity
  8
0
100
AcDbSpline
 62
7
  6
CONTINUOUS
 70
0
 71
3
 72
8
 73
4
 74
0
 42
0.0000001
 43
0.0000001
 44
0.0000000001
 40
0.0
 40
0.0
 40
0.0
 40
0.0
 40
1.0
 40
1.0
 40
1.0
 40
1.0
 10
633.6164606801
 20
1989.3083771656
 30
0.0
 10
633.2745460455
 20
1988.6940104241
 30
0.0
 10
633.1514433325
 20
1987.9540708995
 30
0.0
 10
633.1514433325
 20
1987.2509691214
 30
0.0
  0
SPLINE
  5
2C9
100
AcDbEntity
  8
0
100
AcDbSpline
 62
7
  6
CONTINUOUS
 70
0
 71
3
 72
8
 73
4
 74
0
 42
0.0000001
 43
0.0000001
 44
0.0000000001
 40
0.0
 40
0.0
 40
0.0
 40
0.0
 40
1.0
 40
1.0
 40
1.0
 40
1.0
 10
633.8641180766
 20
1989.8030280802
 30
0.0
 10
634.4304365452
 20
1989.9843414822
 30
0.0
 10
635.0792462494
 20
1989.9304402876
 30
0.0
 10
635.6473741007
 20
1989.7548786112
 30
0.0
  0
SPLINE
  5
2CA
100
AcDbEntity
  8
0
100
AcDbSpline
 62
7
  6
CONTINUOUS
 70
0
 71
3
 72
8
 73
4
 74
0
 42
0.0000001
 43
0.0000001
 44
0.0000000001
 40
0.0
 40
0.0
 40
0.0
 40
0.0
 40
1.0
 40
1.0
 40
1.0
 40
1.0
 10
635.6473741007
 20
1989.7548786112
 30
0.0
 10
636.3973689756
 20
1989.5231167689
 30
0.0
 10
637.0886336123
 20
1989.0879383151
 30
0.0
 10
637.6908974267
 20
1988.5844662087
 30
0.0
  0
SPLINE
  5
2CB
100
AcDbEntity
  8
0
100
AcDbSpline
 62
7
  6
CONTINUOUS
 70
0
 71
3
 72
9
 73
5
 74
0
 42
0.0000001
 43
0.0000001
 44
0.0000000001
 40
0.0
 40
0.0
 40
0.0
 40
0.0
 40
0.766016472
 40
1.0
 40
1.0
 40
1.0
 40
1.0
 10
637.6908974267
 20
1988.5844662087
 30
0.0
 10
639.3020247191
 20
1987.2376184783
 30
0.0
 10
640.8604791176
 20
1984.6983533323
 30
0.0
 10
641.2832140036
 20
1981.9729088506
 30
0.0
 10
641.2832140036
 20
1981.3314730818
 30
0.0
  0
SPLINE
  5
2CC
100
AcDbEntity
  8
0
100
AcDbSpline
 62
7
  6
CONTINUOUS
 70
0
 71
3
 72
9
 73
5
 74
0
 42
0.0000001
 43
0.0000001
 44
0.0000000001
 40
0.0
 40
0.0
 40
0.0
 40
0.0
 40
0.2754912953
 40
1.0
 40
1.0
 40
1.0
 40
1.0
 10
641.2832140036
 20
1981.3314730818
 30
0.0
 10
641.2832140036
 20
1981.1276328706
 30
0.0
 10
641.2454936431
 20
1980.3904246556
 30
0.0
 10
641.0450054457
 20
1979.6454020049
 30
0.0
 10
640.7675258995
 20
1979.1867283183
 30
0.0
  0
SPLINE
  5
2CD
100
AcDbEntity
  8
0
100
AcDbSpline
 62
7
  6
CONTINUOUS
 70
0
 71
3
 72
9
 73
5
 74
0
 42
0.0000001
 43
0.0000001
 44
0.0000000001
 40
0.0
 40
0.0
 40
0.0
 40
0.0
 40
0.5054081805
 40
1.0
 40
1.0
 40
1.0
 40
1.0
 10
640.7675258995
 20
1979.1867283183
 30
0.0
 10
640.7341761697
 20
1979.1316012153
 30
0.0
 10
640.6643282099
 20
1979.0248100817
 30
0.0
 10
640.5867739654
 20
1978.9234615587
 30
0.0
 10
640.5465558053
 20
1978.8749031285
 30
0.0
  0
SPLINE
  5
2CE
100
AcDbEntity
  8
0
100
AcDbSpline
 62
7
  6
CONTINUOUS
 70
0
 71
3
 72
8
 73
4
 74
0
 42
0.0000001
 43
0.0000001
 44
0.0000000001
 40
0.0
 40
0.0
 40
0.0
 40
0.0
 40
1.0
 40
1.0
 40
1.0
 40
1.0
 10
640.5465558053
 20
1978.8749031285
 30
0.0
 10
640.3763292778
 20
1978.6693757518
 30
0.0
 10
640.1680033709
 20
1978.4894538173
 30
0.0
 10
639.9369466856
 20
1978.3559196216
 30
0.0
  0
SPLINE
  5
2CF
100
AcDbEntity
  8
0
100
AcDbSpline
 62
7
  6
CONTINUOUS
 70
0
 71
3
 72
8
 73
4
 74
0
 42
0.0000001
 43
0.0000001
 44
0.0000000001
 40
0.0
 40
0.0
 40
0.0
 40
0.0
 40
1.0
 40
1.0
 40
1.0
 40
1.0
 10
1016.6487922453
 20
243.1112008574
 30
0.0
 10
1015.6770149291
 20
242.7606159878
 30
0.0
 10
1014.4509070222
 20
242.7980889438
 30
0.0
 10
1013.5562256648
 20
243.3146217809
 30
0.0
  0
SPLINE
  5
2D0
100
AcDbEntity
  8
0
100
AcDbSpline
 62
7
  6
CONTINUOUS
 70
0
 71
3
 72
8
 73
4
 74
0
 42
0.0000001
 43
0.0000001
 44
0.0000000001
 40
0.0
 40
0.0
 40
0.0
 40
0.0
 40
1.0
 40
1.0
 40
1.0
 40
1.0
 10
1005.7276523082
 20
1759.0035085395
 30
0.0
 10
1005.7276523082
 20
1758.2565690722
 30
0.0
 10
1005.8839848872
 20
1757.5052602943
 30
0.0
 10
1006.124547205
 20
1756.798119333
 30
0.0
  0
SPLINE
  5
2D1
100
AcDbEntity
  8
0
100
AcDbSpline
 62
7
  6
CONTINUOUS
 70
0
 71
3
 72
8
 73
4
 74
0
 42
0.0000001
 43
0.0000001
 44
0.0000000001
 40
0.0
 40
0.0
 40
0.0
 40
0.0
 40
1.0
 40
1.0
 40
1.0
 40
1.0
 10
1006.124547205
 20
1756.798119333
 30
0.0
 10
1006.628988868
 20
1755.315296231
 30
0.0
 10
1007.5407317484
 20
1753.9036693318
 30
0.0
 10
1008.7366511012
 20
1752.8922333998
 30
0.0
  0
SPLINE
  5
2D2
100
AcDbEntity
  8
0
100
AcDbSpline
 62
7
  6
CONTINUOUS
 70
0
 71
3
 72
9
 73
5
 74
0
 42
0.0000001
 43
0.0000001
 44
0.0000000001
 40
0.0
 40
0.0
 40
0.0
 40
0.0
 40
0.2876638638
 40
1.0
 40
1.0
 40
1.0
 40
1.0
 10
1008.7366511012
 20
1752.8922333998
 30
0.0
 10
1008.9525319492
 20
1752.7096544942
 30
0.0
 10
1009.7341007108
 20
1752.1246444137
 30
0.0
 10
1010.7164754732
 20
1751.7214876584
 30
0.0
 10
1011.4163890614
 20
1751.7390206265
 30
0.0
  0
SPLINE
  5
2D3
100
AcDbEntity
  8
0
100
AcDbSpline
 62
7
  6
CONTINUOUS
 70
0
 71
3
 72
8
 73
4
 74
0
 42
0.0000001
 43
0.0000001
 44
0.0000000001
 40
0.0
 40
0.0
 40
0.0
 40
0.0
 40
1.0
 40
1.0
 40
1.0
 40
1.0
 10
1006.1293611451
 20
270.6422064954
 30
0.0
 10
1005.8338210687
 20
270.1196658768
 30
0.0
 10
1005.7276523082
 20
269.4869243846
 30
0.0
 10
1005.7276523082
 20
268.886597278
 30
0.0
  0
SPLINE
  5
2D4
100
AcDbEntity
  8
0
100
AcDbSpline
 62
7
  6
CONTINUOUS
 70
0
 71
3
 72
8
 73
4
 74
0
 42
0.0000001
 43
0.0000001
 44
0.0000000001
 40
0.0
 40
0.0
 40
0.0
 40
0.0
 40
1.0
 40
1.0
 40
1.0
 40
1.0
 10
1005.7276523082
 20
799.6131684123
 30
0.0
 10
1005.7276523082
 20
798.8662289449
 30
0.0
 10
1005.8839848872
 20
798.1149201671
 30
0.0
 10
1006.124547205
 20
797.4077792058
 30
0.0
  0
SPLINE
  5
2D5
100
AcDbEntity
  8
0
100
AcDbSpline
 62
7
  6
CONTINUOUS
 70
0
 71
3
 72
8
 73
4
 74
0
 42
0.0000001
 43
0.0000001
 44
0.0000000001
 40
0.0
 40
0.0
 40
0.0
 40
0.0
 40
1.0
 40
1.0
 40
1.0
 40
1.0
 10
1006.124547205
 20
797.4077792058
 30
0.0
 10
1006.628988868
 20
795.9249561038
 30
0.0
 10
1007.5407317484
 20
794.5133292046
 30
0.0
 10
1008.7366511012
 20
793.5018932726
 30
0.0
  0
SPLINE
  5
2D6
100
AcDbEntity
  8
0
100
AcDbSpline
 62
7
  6
CONTINUOUS
 70
0
 71
3
 72
9
 73
5
 74
0
 42
0.0000001
 43
0.0000001
 44
0.0000000001
 40
0.0
 40
0.0
 40
0.0
 40
0.0
 40
0.2876638638
 40
1.0
 40
1.0
 40
1.0
 40
1.0
 10
1008.7366511012
 20
793.5018932726
 30
0.0
 10
1008.9525319492
 20
793.319314367
 30
0.0
 10
1009.7341007108
 20
792.7343042864
 30
0.0
 10
1010.7164754732
 20
792.3311475311
 30
0.0
 10
1011.4163890614
 20
792.3486804992
 30
0.0
  0
SPLINE
  5
2D7
100
AcDbEntity
  8
0
100
AcDbSpline
 62
7
  6
CONTINUOUS
 70
0
 71
3
 72
8
 73
4
 74
0
 42
0.0000001
 43
0.0000001
 44
0.0000000001
 40
0.0
 40
0.0
 40
0.0
 40
0.0
 40
1.0
 40
1.0
 40
1.0
 40
1.0
 10
1006.2742677133
 20
271.0036709497
 30
0.0
 10
1006.7448569634
 20
271.1441716166
 30
0.0
 10
1007.2774717969
 20
271.0968795099
 30
0.0
 10
1007.7467056951
 20
270.9519166582
 30
0.0
  0
SPLINE
  5
2D8
100
AcDbEntity
  8
0
100
AcDbSpline
 62
7
  6
CONTINUOUS
 70
0
 71
3
 72
8
 73
4
 74
0
 42
0.0000001
 43
0.0000001
 44
0.0000000001
 40
0.0
 40
0.0
 40
0.0
 40
0.0
 40
1.0
 40
1.0
 40
1.0
 40
1.0
 10
1007.7467056951
 20
270.9519166582
 30
0.0
 10
1008.381400135
 20
270.7558372268
 30
0.0
 10
1008.9664089157
 20
270.3876124655
 30
0.0
 10
1009.4760969262
 20
269.9615815895
 30
0.0
  0
SPLINE
  5
2D9
100
AcDbEntity
  8
0
100
AcDbSpline
 62
7
  6
CONTINUOUS
 70
0
 71
3
 72
8
 73
4
 74
0
 42
0.0000001
 43
0.0000001
 44
0.0000000001
 40
0.0
 40
0.0
 40
0.0
 40
0.0
 40
1.0
 40
1.0
 40
1.0
 40
1.0
 10
1009.4760969262
 20
269.9615815895
 30
0.0
 10
1010.6840661966
 20
268.9518811532
 30
0.0
 10
1011.6045471675
 20
267.5334678159
 30
0.0
 10
1012.1142050674
 20
266.043859292
 30
0.0
  0
SPLINE
  5
2DA
100
AcDbEntity
  8
0
100
AcDbSpline
 62
7
  6
CONTINUOUS
 70
0
 71
3
 72
8
 73
4
 74
0
 42
0.0000001
 43
0.0000001
 44
0.0000000001
 40
0.0
 40
0.0
 40
0.0
 40
0.0
 40
1.0
 40
1.0
 40
1.0
 40
1.0
 10
1012.1142050674
 20
266.043859292
 30
0.0
 10
1012.3575891357
 20
265.3325056905
 30
0.0
 10
1012.5159139066
 20
264.5762447424
 30
0.0
 10
1012.5159139066
 20
263.8244071594
 30
0.0
  0
SPLINE
  5
2DB
100
AcDbEntity
  8
0
100
AcDbSpline
 62
7
  6
CONTINUOUS
 70
0
 71
3
 72
8
 73
4
 74
0
 42
0.0000001
 43
0.0000001
 44
0.0000000001
 40
0.0
 40
0.0
 40
0.0
 40
0.0
 40
1.0
 40
1.0
 40
1.0
 40
1.0
 10
1005.7276523082
 20
1228.2769374053
 30
0.0
 10
1005.7276523082
 20
1227.5299979379
 30
0.0
 10
1005.8839848872
 20
1226.7786891601
 30
0.0
 10
1006.124547205
 20
1226.0715481988
 30
0.0
  0
SPLINE
  5
2DC
100
AcDbEntity
  8
0
100
AcDbSpline
 62
7
  6
CONTINUOUS
 70
0
 71
3
 72
8
 73
4
 74
0
 42
0.0000001
 43
0.0000001
 44
0.0000000001
 40
0.0
 40
0.0
 40
0.0
 40
0.0
 40
1.0
 40
1.0
 40
1.0
 40
1.0
 10
1006.124547205
 20
1226.0715481988
 30
0.0
 10
1006.628988868
 20
1224.5887250968
 30
0.0
 10
1007.5407317484
 20
1223.1770981976
 30
0.0
 10
1008.7366511012
 20
1222.1656622656
 30
0.0
  0
SPLINE
  5
2DD
100
AcDbEntity
  8
0
100
AcDbSpline
 62
7
  6
CONTINUOUS
 70
0
 71
3
 72
9
 73
5
 74
0
 42
0.0000001
 43
0.0000001
 44
0.0000000001
 40
0.0
 40
0.0
 40
0.0
 40
0.0
 40
0.2876638638
 40
1.0
 40
1.0
 40
1.0
 40
1.0
 10
1008.7366511012
 20
1222.1656622656
 30
0.0
 10
1008.9525319492
 20
1221.98308336
 30
0.0
 10
1009.7341007108
 20
1221.3980732795
 30
0.0
 10
1010.7164754732
 20
1220.9949165242
 30
0.0
 10
1011.4163890614
 20
1221.0124494922
 30
0.0
  0
SPLINE
  5
2DE
100
AcDbEntity
  8
0
100
AcDbSpline
 62
7
  6
CONTINUOUS
 70
0
 71
3
 72
8
 73
4
 74
0
 42
0.0000001
 43
0.0000001
 44
0.0000000001
 40
0.0
 40
0.0
 40
0.0
 40
0.0
 40
1.0
 40
1.0
 40
1.0
 40
1.0
 10
1005.7276523082
 20
268.886597278
 30
0.0
 10
1005.7276523082
 20
268.1396578107
 30
0.0
 10
1005.8839848872
 20
267.3883490328
 30
0.0
 10
1006.124547205
 20
266.6812080716
 30
0.0
  0
SPLINE
  5
2DF
100
AcDbEntity
  8
0
100
AcDbSpline
 62
7
  6
CONTINUOUS
 70
0
 71
3
 72
8
 73
4
 74
0
 42
0.0000001
 43
0.0000001
 44
0.0000000001
 40
0.0
 40
0.0
 40
0.0
 40
0.0
 40
1.0
 40
1.0
 40
1.0
 40
1.0
 10
1006.124547205
 20
266.6812080716
 30
0.0
 10
1006.628988868
 20
265.1983849696
 30
0.0
 10
1007.5407317484
 20
263.7867580703
 30
0.0
 10
1008.7366511012
 20
262.7753221383
 30
0.0
  0
SPLINE
  5
2E0
100
AcDbEntity
  8
0
100
AcDbSpline
 62
7
  6
CONTINUOUS
 70
0
 71
3
 72
9
 73
5
 74
0
 42
0.0000001
 43
0.0000001
 44
0.0000000001
 40
0.0
 40
0.0
 40
0.0
 40
0.0
 40
0.2876638638
 40
1.0
 40
1.0
 40
1.0
 40
1.0
 10
1008.7366511012
 20
262.7753221383
 30
0.0
 10
1008.9525319492
 20
262.5927432327
 30
0.0
 10
1009.7341007108
 20
262.0077331522
 30
0.0
 10
1010.7164754732
 20
261.6045763969
 30
0.0
 10
1011.4163890614
 20
261.622109365
 30
0.0
  0
SPLINE
  5
2E1
100
AcDbEntity
  8
0
100
AcDbSpline
 62
7
  6
CONTINUOUS
 70
0
 71
3
 72
8
 73
4
 74
0
 42
0.0000001
 43
0.0000001
 44
0.0000000001
 40
0.0
 40
0.0
 40
0.0
 40
0.0
 40
1.0
 40
1.0
 40
1.0
 40
1.0
 10
1012.5159139066
 20
1753.9413184209
 30
0.0
 10
1012.5159139066
 20
1753.344111884
 30
0.0
 10
1012.4109225665
 20
1752.7152202756
 30
0.0
 10
1012.1190190075
 20
1752.1942135963
 30
0.0
  0
SPLINE
  5
2E2
100
AcDbEntity
  8
0
100
AcDbSpline
 62
7
  6
CONTINUOUS
 70
0
 71
3
 72
9
 73
5
 74
0
 42
0.0000001
 43
0.0000001
 44
0.0000000001
 40
0.0
 40
0.0
 40
0.0
 40
0.0
 40
0.5057412546
 40
1.0
 40
1.0
 40
1.0
 40
1.0
 10
1012.1190190075
 20
1752.1942135963
 30
0.0
 10
1012.092223531
 20
1752.1463874504
 30
0.0
 10
1012.0359708566
 20
1752.0536105753
 30
0.0
 10
1011.973150445
 20
1751.9651360926
 30
0.0
 10
1011.9405032914
 20
1751.9226557196
 30
0.0
  0
SPLINE
  5
2E3
100
AcDbEntity
  8
0
100
AcDbSpline
 62
7
  6
CONTINUOUS
 70
0
 71
3
 72
8
 73
4
 74
0
 42
0.0000001
 43
0.0000001
 44
0.0000000001
 40
0.0
 40
0.0
 40
0.0
 40
0.0
 40
1.0
 40
1.0
 40
1.0
 40
1.0
 10
1011.9405032914
 20
1751.9226557196
 30
0.0
 10
1011.7875707648
 20
1751.7236603998
 30
0.0
 10
1011.5940388941
 20
1751.5491593269
 30
0.0
 10
1011.3767195332
 20
1751.4236213231
 30
0.0
  0
SPLINE
  5
2E4
100
AcDbEntity
  8
0
100
AcDbSpline
 62
7
  6
CONTINUOUS
 70
0
 71
3
 72
8
 73
4
 74
0
 42
0.0000001
 43
0.0000001
 44
0.0000000001
 40
0.0
 40
0.0
 40
0.0
 40
0.0
 40
1.0
 40
1.0
 40
1.0
 40
1.0
 10
1012.5159139066
 20
794.5509782936
 30
0.0
 10
1012.5159139066
 20
793.9537717567
 30
0.0
 10
1012.4109225665
 20
793.3248801484
 30
0.0
 10
1012.1190190075
 20
792.803873469
 30
0.0
  0
SPLINE
  5
2E5
100
AcDbEntity
  8
0
100
AcDbSpline
 62
7
  6
CONTINUOUS
 70
0
 71
3
 72
9
 73
5
 74
0
 42
0.0000001
 43
0.0000001
 44
0.0000000001
 40
0.0
 40
0.0
 40
0.0
 40
0.0
 40
0.5057412546
 40
1.0
 40
1.0
 40
1.0
 40
1.0
 10
1012.1190190075
 20
792.803873469
 30
0.0
 10
1012.092223531
 20
792.7560473232
 30
0.0
 10
1012.0359708566
 20
792.663270448
 30
0.0
 10
1011.973150445
 20
792.5747959653
 30
0.0
 10
1011.9405032914
 20
792.5323155924
 30
0.0
  0
SPLINE
  5
2E6
100
AcDbEntity
  8
0
100
AcDbSpline
 62
7
  6
CONTINUOUS
 70
0
 71
3
 72
8
 73
4
 74
0
 42
0.0000001
 43
0.0000001
 44
0.0000000001
 40
0.0
 40
0.0
 40
0.0
 40
0.0
 40
1.0
 40
1.0
 40
1.0
 40
1.0
 10
1011.9405032914
 20
792.5323155924
 30
0.0
 10
1011.7875707648
 20
792.3333202726
 30
0.0
 10
1011.5940388941
 20
792.1588191996
 30
0.0
 10
1011.3767195332
 20
792.0332811958
 30
0.0
  0
SPLINE
  5
2E7
100
AcDbEntity
  8
0
100
AcDbSpline
 62
7
  6
CONTINUOUS
 70
0
 71
3
 72
8
 73
4
 74
0
 42
0.0000001
 43
0.0000001
 44
0.0000000001
 40
0.0
 40
0.0
 40
0.0
 40
0.0
 40
1.0
 40
1.0
 40
1.0
 40
1.0
 10
1012.5159139066
 20
1223.2147472866
 30
0.0
 10
1012.5159139066
 20
1222.6175407498
 30
0.0
 10
1012.4109225665
 20
1221.9886491414
 30
0.0
 10
1012.1190190075
 20
1221.4676424621
 30
0.0
  0
SPLINE
  5
2E8
100
AcDbEntity
  8
0
100
AcDbSpline
 62
7
  6
CONTINUOUS
 70
0
 71
3
 72
9
 73
5
 74
0
 42
0.0000001
 43
0.0000001
 44
0.0000000001
 40
0.0
 40
0.0
 40
0.0
 40
0.0
 40
0.5057412546
 40
1.0
 40
1.0
 40
1.0
 40
1.0
 10
1012.1190190075
 20
1221.4676424621
 30
0.0
 10
1012.092223531
 20
1221.4198163162
 30
0.0
 10
1012.0359708566
 20
1221.327039441
 30
0.0
 10
1011.973150445
 20
1221.2385649583
 30
0.0
 10
1011.9405032914
 20
1221.1960845854
 30
0.0
  0
SPLINE
  5
2E9
100
AcDbEntity
  8
0
100
AcDbSpline
 62
7
  6
CONTINUOUS
 70
0
 71
3
 72
8
 73
4
 74
0
 42
0.0000001
 43
0.0000001
 44
0.0000000001
 40
0.0
 40
0.0
 40
0.0
 40
0.0
 40
1.0
 40
1.0
 40
1.0
 40
1.0
 10
1011.9405032914
 20
1221.1960845854
 30
0.0
 10
1011.7875707648
 20
1220.9970892656
 30
0.0
 10
1011.5940388941
 20
1220.8225881927
 30
0.0
 10
1011.3767195332
 20
1220.6970501889
 30
0.0
  0
SPLINE
  5
2EA
100
AcDbEntity
  8
0
100
AcDbSpline
 62
7
  6
CONTINUOUS
 70
0
 71
3
 72
8
 73
4
 74
0
 42
0.0000001
 43
0.0000001
 44
0.0000000001
 40
0.0
 40
0.0
 40
0.0
 40
0.0
 40
1.0
 40
1.0
 40
1.0
 40
1.0
 10
1012.5159139066
 20
263.8244071594
 30
0.0
 10
1012.5159139066
 20
263.2272006225
 30
0.0
 10
1012.4109225665
 20
262.5983090141
 30
0.0
 10
1012.1190190075
 20
262.0773023348
 30
0.0
  0
SPLINE
  5
2EB
100
AcDbEntity
  8
0
100
AcDbSpline
 62
7
  6
CONTINUOUS
 70
0
 71
3
 72
9
 73
5
 74
0
 42
0.0000001
 43
0.0000001
 44
0.0000000001
 40
0.0
 40
0.0
 40
0.0
 40
0.0
 40
0.5057412546
 40
1.0
 40
1.0
 40
1.0
 40
1.0
 10
1012.1190190075
 20
262.0773023348
 30
0.0
 10
1012.092223531
 20
262.0294761889
 30
0.0
 10
1012.0359708566
 20
261.9366993138
 30
0.0
 10
1011.973150445
 20
261.8482248311
 30
0.0
 10
1011.9405032914
 20
261.8057444581
 30
0.0
  0
SPLINE
  5
2EC
100
AcDbEntity
  8
0
100
AcDbSpline
 62
7
  6
CONTINUOUS
 70
0
 71
3
 72
8
 73
4
 74
0
 42
0.0000001
 43
0.0000001
 44
0.0000000001
 40
0.0
 40
0.0
 40
0.0
 40
0.0
 40
1.0
 40
1.0
 40
1.0
 40
1.0
 10
1011.9405032914
 20
261.8057444581
 30
0.0
 10
1011.7875707648
 20
261.6067491384
 30
0.0
 10
1011.5940388941
 20
261.4322480654
 30
0.0
 10
1011.3767195332
 20
261.3067100616
 30
0.0
  0
SPLINE
  5
2ED
100
AcDbEntity
  8
0
100
AcDbSpline
 62
7
  6
CONTINUOUS
 70
0
 71
3
 72
8
 73
4
 74
0
 42
0.0000001
 43
0.0000001
 44
0.0000000001
 40
0.0
 40
0.0
 40
0.0
 40
0.0
 40
1.0
 40
1.0
 40
1.0
 40
1.0
 10
1006.1293611451
 20
1230.0325466227
 30
0.0
 10
1005.8338210687
 20
1229.5100060041
 30
0.0
 10
1005.7276523082
 20
1228.8772645118
 30
0.0
 10
1005.7276523082
 20
1228.2769374053
 30
0.0
  0
SPLINE
  5
2EE
100
AcDbEntity
  8
0
100
AcDbSpline
 62
7
  6
CONTINUOUS
 70
0
 71
3
 72
8
 73
4
 74
0
 42
0.0000001
 43
0.0000001
 44
0.0000000001
 40
0.0
 40
0.0
 40
0.0
 40
0.0
 40
1.0
 40
1.0
 40
1.0
 40
1.0
 10
1006.2742677133
 20
1230.394011077
 30
0.0
 10
1006.7448569634
 20
1230.5345117439
 30
0.0
 10
1007.2774717969
 20
1230.4872196371
 30
0.0
 10
1007.7467056951
 20
1230.3422567854
 30
0.0
  0
SPLINE
  5
2EF
100
AcDbEntity
  8
0
100
AcDbSpline
 62
7
  6
CONTINUOUS
 70
0
 71
3
 72
8
 73
4
 74
0
 42
0.0000001
 43
0.0000001
 44
0.0000000001
 40
0.0
 40
0.0
 40
0.0
 40
0.0
 40
1.0
 40
1.0
 40
1.0
 40
1.0
 10
1007.7467056951
 20
1230.3422567854
 30
0.0
 10
1008.381400135
 20
1230.1461773541
 30
0.0
 10
1008.9664089157
 20
1229.7779525928
 30
0.0
 10
1009.4760969262
 20
1229.3519217167
 30
0.0
  0
SPLINE
  5
2F0
100
AcDbEntity
  8
0
100
AcDbSpline
 62
7
  6
CONTINUOUS
 70
0
 71
3
 72
8
 73
4
 74
0
 42
0.0000001
 43
0.0000001
 44
0.0000000001
 40
0.0
 40
0.0
 40
0.0
 40
0.0
 40
1.0
 40
1.0
 40
1.0
 40
1.0
 10
1009.4760969262
 20
1229.3519217167
 30
0.0
 10
1010.6840661966
 20
1228.3422212805
 30
0.0
 10
1011.6045471675
 20
1226.9238079432
 30
0.0
 10
1012.1142050674
 20
1225.4341994193
 30
0.0
  0
SPLINE
  5
2F1
100
AcDbEntity
  8
0
100
AcDbSpline
 62
7
  6
CONTINUOUS
 70
0
 71
3
 72
8
 73
4
 74
0
 42
0.0000001
 43
0.0000001
 44
0.0000000001
 40
0.0
 40
0.0
 40
0.0
 40
0.0
 40
1.0
 40
1.0
 40
1.0
 40
1.0
 10
1012.1142050674
 20
1225.4341994193
 30
0.0
 10
1012.3575891357
 20
1224.7228458177
 30
0.0
 10
1012.5159139066
 20
1223.9665848696
 30
0.0
 10
1012.5159139066
 20
1223.2147472866
 30
0.0
  0
SPLINE
  5
2F2
100
AcDbEntity
  8
0
100
AcDbSpline
 62
7
  6
CONTINUOUS
 70
0
 71
3
 72
9
 73
5
 74
0
 42
0.0000001
 43
0.0000001
 44
0.0000000001
 40
0.0
 40
0.0
 40
0.0
 40
0.0
 40
0.2337992879
 40
1.0
 40
1.0
 40
1.0
 40
1.0
 10
633.1514433325
 20
1987.2509691214
 30
0.0
 10
633.1514433325
 20
1986.6135312938
 30
0.0
 10
633.5694488337
 20
1983.9025220893
 30
0.0
 10
635.1129293523
 20
1981.3769010656
 30
0.0
 10
636.7080298565
 20
1980.0279939327
 30
0.0
  0
SPLINE
  5
2F3
100
AcDbEntity
  8
0
100
AcDbSpline
 62
7
  6
CONTINUOUS
 70
0
 71
3
 72
9
 73
5
 74
0
 42
0.0000001
 43
0.0000001
 44
0.0000000001
 40
0.0
 40
0.0
 40
0.0
 40
0.0
 40
0.2896639687
 40
1.0
 40
1.0
 40
1.0
 40
1.0
 10
636.7080298565
 20
1980.0279939327
 30
0.0
 10
636.9731677988
 20
1979.8037783045
 30
0.0
 10
637.926519435
 20
1979.0927200002
 30
0.0
 10
639.1429258223
 20
1978.6131390192
 30
0.0
 10
639.9924684653
 20
1978.6710072129
 30
0.0
  0
SPLINE
  5
2F4
100
AcDbEntity
  8
0
100
AcDbSpline
 62
7
  6
CONTINUOUS
 70
0
 71
3
 72
8
 73
4
 74
0
 42
0.0000001
 43
0.0000001
 44
0.0000000001
 40
0.0
 40
0.0
 40
0.0
 40
0.0
 40
1.0
 40
1.0
 40
1.0
 40
1.0
 10
1006.1293611451
 20
801.3687776296
 30
0.0
 10
1005.8338210687
 20
800.846237011
 30
0.0
 10
1005.7276523082
 20
800.2134955188
 30
0.0
 10
1005.7276523082
 20
799.6131684123
 30
0.0
  0
SPLINE
  5
2F5
100
AcDbEntity
  8
0
100
AcDbSpline
 62
7
  6
CONTINUOUS
 70
0
 71
3
 72
8
 73
4
 74
0
 42
0.0000001
 43
0.0000001
 44
0.0000000001
 40
0.0
 40
0.0
 40
0.0
 40
0.0
 40
1.0
 40
1.0
 40
1.0
 40
1.0
 10
1006.2742677133
 20
801.7302420839
 30
0.0
 10
1006.7448569634
 20
801.8707427508
 30
0.0
 10
1007.2774717969
 20
801.8234506441
 30
0.0
 10
1007.7467056951
 20
801.6784877924
 30
0.0
  0
SPLINE
  5
2F6
100
AcDbEntity
  8
0
100
AcDbSpline
 62
7
  6
CONTINUOUS
 70
0
 71
3
 72
8
 73
4
 74
0
 42
0.0000001
 43
0.0000001
 44
0.0000000001
 40
0.0
 40
0.0
 40
0.0
 40
0.0
 40
1.0
 40
1.0
 40
1.0
 40
1.0
 10
1007.7467056951
 20
801.6784877924
 30
0.0
 10
1008.381400135
 20
801.4824083611
 30
0.0
 10
1008.9664089157
 20
801.1141835998
 30
0.0
 10
1009.4760969262
 20
800.6881527237
 30
0.0
  0
SPLINE
  5
2F7
100
AcDbEntity
  8
0
100
AcDbSpline
 62
7
  6
CONTINUOUS
 70
0
 71
3
 72
8
 73
4
 74
0
 42
0.0000001
 43
0.0000001
 44
0.0000000001
 40
0.0
 40
0.0
 40
0.0
 40
0.0
 40
1.0
 40
1.0
 40
1.0
 40
1.0
 10
1009.4760969262
 20
800.6881527237
 30
0.0
 10
1010.6840661966
 20
799.6784522874
 30
0.0
 10
1011.6045471675
 20
798.2600389502
 30
0.0
 10
1012.1142050674
 20
796.7704304263
 30
0.0
  0
SPLINE
  5
2F8
100
AcDbEntity
  8
0
100
AcDbSpline
 62
7
  6
CONTINUOUS
 70
0
 71
3
 72
8
 73
4
 74
0
 42
0.0000001
 43
0.0000001
 44
0.0000000001
 40
0.0
 40
0.0
 40
0.0
 40
0.0
 40
1.0
 40
1.0
 40
1.0
 40
1.0
 10
1012.1142050674
 20
796.7704304263
 30
0.0
 10
1012.3575891357
 20
796.0590768247
 30
0.0
 10
1012.5159139066
 20
795.3028158766
 30
0.0
 10
1012.5159139066
 20
794.5509782936
 30
0.0
  0
SPLINE
  5
2F9
100
AcDbEntity
  8
0
100
AcDbSpline
 62
7
  6
CONTINUOUS
 70
0
 71
3
 72
8
 73
4
 74
0
 42
0.0000001
 43
0.0000001
 44
0.0000000001
 40
0.0
 40
0.0
 40
0.0
 40
0.0
 40
1.0
 40
1.0
 40
1.0
 40
1.0
 10
1006.1293611451
 20
1760.7591177569
 30
0.0
 10
1005.8338210687
 20
1760.2365771383
 30
0.0
 10
1005.7276523082
 20
1759.6038356461
 30
0.0
 10
1005.7276523082
 20
1759.0035085395
 30
0.0
  0
SPLINE
  5
2FA
100
AcDbEntity
  8
0
100
AcDbSpline
 62
7
  6
CONTINUOUS
 70
0
 71
3
 72
8
 73
4
 74
0
 42
0.0000001
 43
0.0000001
 44
0.0000000001
 40
0.0
 40
0.0
 40
0.0
 40
0.0
 40
1.0
 40
1.0
 40
1.0
 40
1.0
 10
1006.2742677133
 20
1761.1205822112
 30
0.0
 10
1006.7448569634
 20
1761.2610828781
 30
0.0
 10
1007.2774717969
 20
1761.2137907714
 30
0.0
 10
1007.7467056951
 20
1761.0688279197
 30
0.0
  0
SPLINE
  5
2FB
100
AcDbEntity
  8
0
100
AcDbSpline
 62
7
  6
CONTINUOUS
 70
0
 71
3
 72
8
 73
4
 74
0
 42
0.0000001
 43
0.0000001
 44
0.0000000001
 40
0.0
 40
0.0
 40
0.0
 40
0.0
 40
1.0
 40
1.0
 40
1.0
 40
1.0
 10
1007.7467056951
 20
1761.0688279197
 30
0.0
 10
1008.381400135
 20
1760.8727484883
 30
0.0
 10
1008.9664089157
 20
1760.504523727
 30
0.0
 10
1009.4760969262
 20
1760.078492851
 30
0.0
  0
SPLINE
  5
2FC
100
AcDbEntity
  8
0
100
AcDbSpline
 62
7
  6
CONTINUOUS
 70
0
 71
3
 72
8
 73
4
 74
0
 42
0.0000001
 43
0.0000001
 44
0.0000000001
 40
0.0
 40
0.0
 40
0.0
 40
0.0
 40
1.0
 40
1.0
 40
1.0
 40
1.0
 10
1009.4760969262
 20
1760.078492851
 30
0.0
 10
1010.6840661966
 20
1759.0687924147
 30
0.0
 10
1011.6045471675
 20
1757.6503790774
 30
0.0
 10
1012.1142050674
 20
1756.1607705535
 30
0.0
  0
SPLINE
  5
2FD
100
AcDbEntity
  8
0
100
AcDbSpline
 62
7
  6
CONTINUOUS
 70
0
 71
3
 72
8
 73
4
 74
0
 42
0.0000001
 43
0.0000001
 44
0.0000000001
 40
0.0
 40
0.0
 40
0.0
 40
0.0
 40
1.0
 40
1.0
 40
1.0
 40
1.0
 10
1012.1142050674
 20
1756.1607705535
 30
0.0
 10
1012.3575891357
 20
1755.4494169519
 30
0.0
 10
1012.5159139066
 20
1754.6931560038
 30
0.0
 10
1012.5159139066
 20
1753.9413184209
 30
0.0
  0
SPLINE
  5
2FE
100
AcDbEntity
  8
0
100
AcDbSpline
 62
7
  6
CONTINUOUS
 70
0
 71
3
 72
8
 73
4
 74
0
 42
0.0000001
 43
0.0000001
 44
0.0000000001
 40
0.0
 40
0.0
 40
0.0
 40
0.0
 40
1.0
 40
1.0
 40
1.0
 40
1.0
 10
626.5617221569
 20
2045.7458677554
 30
0.0
 10
626.6779296041
 20
2045.8918751483
 30
0.0
 10
626.825666426
 20
2046.0170686784
 30
0.0
 10
626.9885757996
 20
2046.1080789279
 30
0.0
  0
SPLINE
  5
2FF
100
AcDbEntity
  8
0
100
AcDbSpline
 62
7
  6
CONTINUOUS
 70
0
 71
3
 72
8
 73
4
 74
0
 42
0.0000001
 43
0.0000001
 44
0.0000000001
 40
0.0
 40
0.0
 40
0.0
 40
0.0
 40
1.0
 40
1.0
 40
1.0
 40
1.0
 10
971.0486276545
 20
241.3289620604
 30
0.0
 10
971.0486276305
 20
240.9166498495
 30
0.0
 10
970.8264522668
 20
240.4976327286
 30
0.0
 10
970.5392973028
 20
240.201755413
 30
0.0
  0
SPLINE
  5
300
100
AcDbEntity
  8
0
100
AcDbSpline
 62
7
  6
CONTINUOUS
 70
0
 71
3
 72
8
 73
4
 74
0
 42
0.0000001
 43
0.0000001
 44
0.0000000001
 40
0.0
 40
0.0
 40
0.0
 40
0.0
 40
1.0
 40
1.0
 40
1.0
 40
1.0
 10
970.5392973028
 20
240.201755413
 30
0.0
 10
970.4141649277
 20
240.0728221334
 30
0.0
 10
970.2743764032
 20
239.9573288691
 30
0.0
 10
970.1270068725
 20
239.854546948
 30
0.0
  0
SPLINE
  5
301
100
AcDbEntity
  8
0
100
AcDbSpline
 62
7
  6
CONTINUOUS
 70
0
 71
3
 72
8
 73
4
 74
0
 42
0.0000001
 43
0.0000001
 44
0.0000000001
 40
0.0
 40
0.0
 40
0.0
 40
0.0
 40
1.0
 40
1.0
 40
1.0
 40
1.0
 10
620.0915579914
 20
2001.9937079848
 30
0.0
 10
619.8824630451
 20
2001.8005149345
 30
0.0
 10
619.7116702149
 20
2001.5135364793
 30
0.0
 10
619.7115628528
 20
2001.2288537792
 30
0.0
  0
SPLINE
  5
302
100
AcDbEntity
  8
0
100
AcDbSpline
 62
7
  6
CONTINUOUS
 70
0
 71
3
 72
8
 73
4
 74
0
 42
0.0000001
 43
0.0000001
 44
0.0000000001
 40
0.0
 40
0.0
 40
0.0
 40
0.0
 40
1.0
 40
1.0
 40
1.0
 40
1.0
 10
970.6512179738
 20
1842.1870891786
 30
0.0
 10
970.5003491045
 20
1842.3671789548
 30
0.0
 10
970.3197094354
 20
1842.5238133908
 30
0.0
 10
970.1270136113
 20
1842.6582085641
 30
0.0
  0
SPLINE
  5
303
100
AcDbEntity
  8
0
100
AcDbSpline
 62
7
  6
CONTINUOUS
 70
0
 71
3
 72
8
 73
4
 74
0
 42
0.0000001
 43
0.0000001
 44
0.0000000001
 40
0.0
 40
0.0
 40
0.0
 40
0.0
 40
1.0
 40
1.0
 40
1.0
 40
1.0
 10
682.5747159489
 20
2008.5043725702
 30
0.0
 10
682.4238470796
 20
2008.6844623464
 30
0.0
 10
682.2432074105
 20
2008.8410967823
 30
0.0
 10
682.0505115864
 20
2008.9754919556
 30
0.0
  0
SPLINE
  5
304
100
AcDbEntity
  8
0
100
AcDbSpline
 62
7
  6
CONTINUOUS
 70
0
 71
3
 72
8
 73
4
 74
0
 42
0.0000001
 43
0.0000001
 44
0.0000000001
 40
0.0
 40
0.0
 40
0.0
 40
0.0
 40
1.0
 40
1.0
 40
1.0
 40
1.0
 10
629.0844384337
 20
2045.8873474005
 30
0.0
 10
628.4755706884
 20
2046.237725483
 30
0.0
 10
627.6144566653
 20
2046.4270740281
 30
0.0
 10
626.9885757996
 20
2046.1080789279
 30
0.0
  0
SPLINE
  5
305
100
AcDbEntity
  8
0
100
AcDbSpline
 62
7
  6
CONTINUOUS
 70
0
 71
3
 72
8
 73
4
 74
0
 42
0.0000001
 43
0.0000001
 44
0.0000000001
 40
0.0
 40
0.0
 40
0.0
 40
0.0
 40
1.0
 40
1.0
 40
1.0
 40
1.0
 10
624.122576237
 20
1975.6482325883
 30
0.0
 10
624.3772750902
 20
1975.294261947
 30
0.0
 10
624.6576035985
 20
1974.9570374246
 30
0.0
 10
624.9622314434
 20
1974.644998009
 30
0.0
  0
SPLINE
  5
306
100
AcDbEntity
  8
0
100
AcDbSpline
 62
7
  6
CONTINUOUS
 70
0
 71
3
 72
8
 73
4
 74
0
 42
0.0000001
 43
0.0000001
 44
0.0000000001
 40
0.0
 40
0.0
 40
0.0
 40
0.0
 40
1.0
 40
1.0
 40
1.0
 40
1.0
 10
1028.4048112073
 20
211.2196645368
 30
0.0
 10
1028.4047624786
 20
210.5041168756
 30
0.0
 10
1028.1296815444
 20
209.6479487107
 30
0.0
 10
1027.5283704902
 20
209.2600911674
 30
0.0
  0
SPLINE
  5
307
100
AcDbEntity
  8
0
100
AcDbSpline
 62
7
  6
CONTINUOUS
 70
0
 71
3
 72
9
 73
5
 74
0
 42
0.0000001
 43
0.0000001
 44
0.0000000001
 40
0.0
 40
0.0
 40
0.0
 40
0.0
 40
0.7214706705
 40
1.0
 40
1.0
 40
1.0
 40
1.0
 10
639.9369466856
 20
1978.3559196216
 30
0.0
 10
639.4686792744
 20
1978.085294636
 30
0.0
 10
638.6535376087
 20
1977.982412691
 30
0.0
 10
637.9261168068
 20
1978.1535515879
 30
0.0
 10
637.7266274796
 20
1978.2151973612
 30
0.0
  0
SPLINE
  5
308
100
AcDbEntity
  8
0
100
AcDbSpline
 62
7
  6
CONTINUOUS
 70
0
 71
3
 72
9
 73
5
 74
0
 42
0.0000001
 43
0.0000001
 44
0.0000000001
 40
0.0
 40
0.0
 40
0.0
 40
0.0
 40
0.2168614737
 40
1.0
 40
1.0
 40
1.0
 40
1.0
 10
637.7266274796
 20
1978.2151973612
 30
0.0
 10
637.1779898876
 20
1978.3847361985
 30
0.0
 10
634.8195572882
 20
1979.6715397885
 30
0.0
 10
633.2212378404
 20
1982.0802147136
 30
0.0
 10
632.5558049243
 20
1984.0442512121
 30
0.0
  0
SPLINE
  5
309
100
AcDbEntity
  8
0
100
AcDbSpline
 62
7
  6
CONTINUOUS
 70
0
 71
3
 72
8
 73
4
 74
0
 42
0.0000001
 43
0.0000001
 44
0.0000000001
 40
0.0
 40
0.0
 40
0.0
 40
0.0
 40
1.0
 40
1.0
 40
1.0
 40
1.0
 10
632.5558049243
 20
1984.0442512121
 30
0.0
 10
632.2738808002
 20
1984.876355029
 30
0.0
 10
632.0907875767
 20
1985.7600370285
 30
0.0
 10
632.0907875767
 20
1986.6386028906
 30
0.0
  0
SPLINE
  5
30A
100
AcDbEntity
  8
0
100
AcDbSpline
 62
7
  6
CONTINUOUS
 70
0
 71
3
 72
8
 73
4
 74
0
 42
0.0000001
 43
0.0000001
 44
0.0000000001
 40
0.0
 40
0.0
 40
0.0
 40
0.0
 40
1.0
 40
1.0
 40
1.0
 40
1.0
 10
632.0907875767
 20
1986.6386028906
 30
0.0
 10
632.0907875767
 20
1987.3381773524
 30
0.0
 10
632.2125767912
 20
1988.0737948215
 30
0.0
 10
632.5504443154
 20
1988.6863713178
 30
0.0
  0
SPLINE
  5
30B
100
AcDbEntity
  8
0
100
AcDbSpline
 62
7
  6
CONTINUOUS
 70
0
 71
3
 72
8
 73
4
 74
0
 42
0.0000001
 43
0.0000001
 44
0.0000000001
 40
0.0
 40
0.0
 40
0.0
 40
0.0
 40
1.0
 40
1.0
 40
1.0
 40
1.0
 10
632.5504443154
 20
1988.6863713178
 30
0.0
 10
632.757039424
 20
1989.0609421146
 30
0.0
 10
633.0666903227
 20
1989.4001121859
 30
0.0
 10
633.4370548947
 20
1989.6141563508
 30
0.0
  0
SPLINE
  5
30C
100
AcDbEntity
  8
0
100
AcDbSpline
 62
7
  6
CONTINUOUS
 70
0
 71
3
 72
9
 73
5
 74
0
 42
0.0000001
 43
0.0000001
 44
0.0000000001
 40
0.0
 40
0.0
 40
0.0
 40
0.0
 40
0.2099658222
 40
1.0
 40
1.0
 40
1.0
 40
1.0
 10
1011.3767195332
 20
261.3067100616
 30
0.0
 10
1011.1434457128
 20
261.1719557091
 30
0.0
 10
1009.8686579867
 20
260.7936422102
 30
0.0
 10
1008.5552689317
 20
261.5277903487
 30
0.0
 10
1007.777523865
 20
262.1778810027
 30
0.0
  0
SPLINE
  5
30D
100
AcDbEntity
  8
0
100
AcDbSpline
 62
7
  6
CONTINUOUS
 70
0
 71
3
 72
8
 73
4
 74
0
 42
0.0000001
 43
0.0000001
 44
0.0000000001
 40
0.0
 40
0.0
 40
0.0
 40
0.0
 40
1.0
 40
1.0
 40
1.0
 40
1.0
 10
1007.777523865
 20
262.1778810027
 30
0.0
 10
1006.5695545945
 20
263.187581439
 30
0.0
 10
1005.6490736237
 20
264.6059947763
 30
0.0
 10
1005.1394157237
 20
266.0956033002
 30
0.0
  0
SPLINE
  5
30E
100
AcDbEntity
  8
0
100
AcDbSpline
 62
7
  6
CONTINUOUS
 70
0
 71
3
 72
8
 73
4
 74
0
 42
0.0000001
 43
0.0000001
 44
0.0000000001
 40
0.0
 40
0.0
 40
0.0
 40
0.0
 40
1.0
 40
1.0
 40
1.0
 40
1.0
 10
1005.1394157237
 20
266.0956033002
 30
0.0
 10
1004.8960316554
 20
266.8069569018
 30
0.0
 10
1004.7377068846
 20
267.5632178499
 30
0.0
 10
1004.7377068846
 20
268.3150554329
 30
0.0
  0
SPLINE
  5
30F
100
AcDbEntity
  8
0
100
AcDbSpline
 62
7
  6
CONTINUOUS
 70
0
 71
3
 72
8
 73
4
 74
0
 42
0.0000001
 43
0.0000001
 44
0.0000000001
 40
0.0
 40
0.0
 40
0.0
 40
0.0
 40
1.0
 40
1.0
 40
1.0
 40
1.0
 10
1013.5562256648
 20
1773.2498824415
 30
0.0
 10
1014.4509070222
 20
1772.7333496045
 30
0.0
 10
1015.6770149291
 20
1772.6958766484
 30
0.0
 10
1016.6487922453
 20
1773.046461518
 30
0.0
  0
SPLINE
  5
310
100
AcDbEntity
  8
0
100
AcDbSpline
 62
7
  6
CONTINUOUS
 70
0
 71
3
 72
8
 73
4
 74
0
 42
0.0000001
 43
0.0000001
 44
0.0000000001
 40
0.0
 40
0.0
 40
0.0
 40
0.0
 40
1.0
 40
1.0
 40
1.0
 40
1.0
 10
1004.7377068846
 20
1758.4319666943
 30
0.0
 10
1004.7377068846
 20
1759.0291732312
 30
0.0
 10
1004.8426982247
 20
1759.6580648396
 30
0.0
 10
1005.1346017837
 20
1760.1790715189
 30
0.0
  0
SPLINE
  5
311
100
AcDbEntity
  8
0
100
AcDbSpline
 62
7
  6
CONTINUOUS
 70
0
 71
3
 72
8
 73
4
 74
0
 42
0.0000001
 43
0.0000001
 44
0.0000000001
 40
0.0
 40
0.0
 40
0.0
 40
0.0
 40
1.0
 40
1.0
 40
1.0
 40
1.0
 10
1005.1346017837
 20
1760.1790715189
 30
0.0
 10
1005.3089278655
 20
1760.4902189859
 30
0.0
 10
1005.5680717552
 20
1760.7712634916
 30
0.0
 10
1005.876901258
 20
1760.9496637921
 30
0.0
  0
SPLINE
  5
312
100
AcDbEntity
  8
0
100
AcDbSpline
 62
7
  6
CONTINUOUS
 70
0
 71
3
 72
8
 73
4
 74
0
 42
0.0000001
 43
0.0000001
 44
0.0000000001
 40
0.0
 40
0.0
 40
0.0
 40
0.0
 40
1.0
 40
1.0
 40
1.0
 40
1.0
 10
1004.7377068846
 20
799.0416265671
 30
0.0
 10
1004.7377068846
 20
799.6388331039
 30
0.0
 10
1004.8426982247
 20
800.2677247123
 30
0.0
 10
1005.1346017837
 20
800.7887313916
 30
0.0
  0
SPLINE
  5
313
100
AcDbEntity
  8
0
100
AcDbSpline
 62
7
  6
CONTINUOUS
 70
0
 71
3
 72
8
 73
4
 74
0
 42
0.0000001
 43
0.0000001
 44
0.0000000001
 40
0.0
 40
0.0
 40
0.0
 40
0.0
 40
1.0
 40
1.0
 40
1.0
 40
1.0
 10
1005.1346017837
 20
800.7887313916
 30
0.0
 10
1005.3089278655
 20
801.0998788586
 30
0.0
 10
1005.5680717552
 20
801.3809233643
 30
0.0
 10
1005.876901258
 20
801.5593236649
 30
0.0
  0
SPLINE
  5
314
100
AcDbEntity
  8
0
100
AcDbSpline
 62
7
  6
CONTINUOUS
 70
0
 71
3
 72
8
 73
4
 74
0
 42
0.0000001
 43
0.0000001
 44
0.0000000001
 40
0.0
 40
0.0
 40
0.0
 40
0.0
 40
1.0
 40
1.0
 40
1.0
 40
1.0
 10
1012.3493950003
 20
213.9041611702
 30
0.0
 10
1014.5693508721
 20
212.6286186526
 30
0.0
 10
1016.8039776878
 20
211.378675
 30
0.0
 10
1019.0212880407
 20
210.0985392314
 30
0.0
  0
SPLINE
  5
315
100
AcDbEntity
  8
0
100
AcDbSpline
 62
7
  6
CONTINUOUS
 70
0
 71
3
 72
8
 73
4
 74
0
 42
0.0000001
 43
0.0000001
 44
0.0000000001
 40
0.0
 40
0.0
 40
0.0
 40
0.0
 40
1.0
 40
1.0
 40
1.0
 40
1.0
 10
1004.7377068846
 20
1227.7053955601
 30
0.0
 10
1004.7377068846
 20
1228.302602097
 30
0.0
 10
1004.8426982247
 20
1228.9314937053
 30
0.0
 10
1005.1346017837
 20
1229.4525003847
 30
0.0
  0
SPLINE
  5
316
100
AcDbEntity
  8
0
100
AcDbSpline
 62
7
  6
CONTINUOUS
 70
0
 71
3
 72
8
 73
4
 74
0
 42
0.0000001
 43
0.0000001
 44
0.0000000001
 40
0.0
 40
0.0
 40
0.0
 40
0.0
 40
1.0
 40
1.0
 40
1.0
 40
1.0
 10
1005.1346017837
 20
1229.4525003847
 30
0.0
 10
1005.3089278655
 20
1229.7636478516
 30
0.0
 10
1005.5680717552
 20
1230.0446923573
 30
0.0
 10
1005.876901258
 20
1230.2230926579
 30
0.0
  0
SPLINE
  5
317
100
AcDbEntity
  8
0
100
AcDbSpline
 62
7
  6
CONTINUOUS
 70
0
 71
3
 72
8
 73
4
 74
0
 42
0.0000001
 43
0.0000001
 44
0.0000000001
 40
0.0
 40
0.0
 40
0.0
 40
0.0
 40
1.0
 40
1.0
 40
1.0
 40
1.0
 10
1004.7377068846
 20
268.3150554329
 30
0.0
 10
1004.7377068846
 20
268.9122619697
 30
0.0
 10
1004.8426982247
 20
269.5411535781
 30
0.0
 10
1005.1346017837
 20
270.0621602574
 30
0.0
  0
SPLINE
  5
318
100
AcDbEntity
  8
0
100
AcDbSpline
 62
7
  6
CONTINUOUS
 70
0
 71
3
 72
8
 73
4
 74
0
 42
0.0000001
 43
0.0000001
 44
0.0000000001
 40
0.0
 40
0.0
 40
0.0
 40
0.0
 40
1.0
 40
1.0
 40
1.0
 40
1.0
 10
1005.1346017837
 20
270.0621602574
 30
0.0
 10
1005.3089278655
 20
270.3733077244
 30
0.0
 10
1005.5680717552
 20
270.6543522301
 30
0.0
 10
1005.876901258
 20
270.8327525306
 30
0.0
  0
SPLINE
  5
319
100
AcDbEntity
  8
0
100
AcDbSpline
 62
7
  6
CONTINUOUS
 70
0
 71
3
 72
9
 73
5
 74
0
 42
0.0000001
 43
0.0000001
 44
0.0000000001
 40
0.0
 40
0.0
 40
0.0
 40
0.0
 40
0.510330154
 40
1.0
 40
1.0
 40
1.0
 40
1.0
 10
969.8771297751
 20
242.9619386759
 30
0.0
 10
969.953823943
 20
242.9176602791
 30
0.0
 10
970.1010373987
 20
242.825438776
 30
0.0
 10
970.2405844892
 20
242.7219143026
 30
0.0
 10
970.3065583543
 20
242.668361766
 30
0.0
  0
SPLINE
  5
31A
100
AcDbEntity
  8
0
100
AcDbSpline
 62
7
  6
CONTINUOUS
 70
0
 71
3
 72
8
 73
4
 74
0
 42
0.0000001
 43
0.0000001
 44
0.0000000001
 40
0.0
 40
0.0
 40
0.0
 40
0.0
 40
1.0
 40
1.0
 40
1.0
 40
1.0
 10
970.3065583543
 20
242.668361766
 30
0.0
 10
970.7028446755
 20
242.3466868468
 30
0.0
 10
971.0486276843
 20
241.8393713099
 30
0.0
 10
971.0486276545
 20
241.3289620604
 30
0.0
  0
SPLINE
  5
31B
100
AcDbEntity
  8
0
100
AcDbSpline
 62
7
  6
CONTINUOUS
 70
0
 71
3
 72
9
 73
5
 74
0
 42
0.0000001
 43
0.0000001
 44
0.0000000001
 40
0.0
 40
0.0
 40
0.0
 40
0.0
 40
0.2099658222
 40
1.0
 40
1.0
 40
1.0
 40
1.0
 10
1011.3767195332
 20
1220.6970501889
 30
0.0
 10
1011.1434457128
 20
1220.5622958364
 30
0.0
 10
1009.8686579867
 20
1220.1839823375
 30
0.0
 10
1008.5552689317
 20
1220.9181304759
 30
0.0
 10
1007.777523865
 20
1221.56822113
 30
0.0
  0
SPLINE
  5
31C
100
AcDbEntity
  8
0
100
AcDbSpline
 62
7
  6
CONTINUOUS
 70
0
 71
3
 72
8
 73
4
 74
0
 42
0.0000001
 43
0.0000001
 44
0.0000000001
 40
0.0
 40
0.0
 40
0.0
 40
0.0
 40
1.0
 40
1.0
 40
1.0
 40
1.0
 10
1007.777523865
 20
1221.56822113
 30
0.0
 10
1006.5695545945
 20
1222.5779215663
 30
0.0
 10
1005.6490736237
 20
1223.9963349036
 30
0.0
 10
1005.1394157237
 20
1225.4859434274
 30
0.0
  0
SPLINE
  5
31D
100
AcDbEntity
  8
0
100
AcDbSpline
 62
7
  6
CONTINUOUS
 70
0
 71
3
 72
8
 73
4
 74
0
 42
0.0000001
 43
0.0000001
 44
0.0000000001
 40
0.0
 40
0.0
 40
0.0
 40
0.0
 40
1.0
 40
1.0
 40
1.0
 40
1.0
 10
1005.1394157237
 20
1225.4859434274
 30
0.0
 10
1004.8960316554
 20
1226.197297029
 30
0.0
 10
1004.7377068846
 20
1226.9535579771
 30
0.0
 10
1004.7377068846
 20
1227.7053955601
 30
0.0
  0
SPLINE
  5
31E
100
AcDbEntity
  8
0
100
AcDbSpline
 62
7
  6
CONTINUOUS
 70
0
 71
3
 72
9
 73
5
 74
0
 42
0.0000001
 43
0.0000001
 44
0.0000000001
 40
0.0
 40
0.0
 40
0.0
 40
0.0
 40
0.2099658222
 40
1.0
 40
1.0
 40
1.0
 40
1.0
 10
1011.3767195332
 20
792.0332811958
 30
0.0
 10
1011.1434457128
 20
791.8985268433
 30
0.0
 10
1009.8686579867
 20
791.5202133444
 30
0.0
 10
1008.5552689317
 20
792.2543614829
 30
0.0
 10
1007.777523865
 20
792.904452137
 30
0.0
  0
SPLINE
  5
31F
100
AcDbEntity
  8
0
100
AcDbSpline
 62
7
  6
CONTINUOUS
 70
0
 71
3
 72
8
 73
4
 74
0
 42
0.0000001
 43
0.0000001
 44
0.0000000001
 40
0.0
 40
0.0
 40
0.0
 40
0.0
 40
1.0
 40
1.0
 40
1.0
 40
1.0
 10
1007.777523865
 20
792.904452137
 30
0.0
 10
1006.5695545945
 20
793.9141525733
 30
0.0
 10
1005.6490736237
 20
795.3325659105
 30
0.0
 10
1005.1394157237
 20
796.8221744344
 30
0.0
  0
SPLINE
  5
320
100
AcDbEntity
  8
0
100
AcDbSpline
 62
7
  6
CONTINUOUS
 70
0
 71
3
 72
8
 73
4
 74
0
 42
0.0000001
 43
0.0000001
 44
0.0000000001
 40
0.0
 40
0.0
 40
0.0
 40
0.0
 40
1.0
 40
1.0
 40
1.0
 40
1.0
 10
1005.1394157237
 20
796.8221744344
 30
0.0
 10
1004.8960316554
 20
797.533528036
 30
0.0
 10
1004.7377068846
 20
798.2897889841
 30
0.0
 10
1004.7377068846
 20
799.0416265671
 30
0.0
  0
SPLINE
  5
321
100
AcDbEntity
  8
0
100
AcDbSpline
 62
7
  6
CONTINUOUS
 70
0
 71
3
 72
8
 73
4
 74
0
 42
0.0000001
 43
0.0000001
 44
0.0000000001
 40
0.0
 40
0.0
 40
0.0
 40
0.0
 40
1.0
 40
1.0
 40
1.0
 40
1.0
 10
1027.5283704902
 20
1814.8615521376
 30
0.0
 10
1027.349321595
 20
1814.7615254524
 30
0.0
 10
1027.1688816312
 20
1814.6639997524
 30
0.0
 10
1026.9899590232
 20
1814.5637473461
 30
0.0
  0
SPLINE
  5
322
100
AcDbEntity
  8
0
100
AcDbSpline
 62
7
  6
CONTINUOUS
 70
0
 71
3
 72
8
 73
4
 74
0
 42
0.0000001
 43
0.0000001
 44
0.0000000001
 40
0.0
 40
0.0
 40
0.0
 40
0.0
 40
1.0
 40
1.0
 40
1.0
 40
1.0
 10
623.186394926
 20
1975.0027222352
 30
0.0
 10
622.6343768979
 20
1975.7540636021
 30
0.0
 10
622.1877573577
 20
1976.5968771873
 30
0.0
 10
621.8859447348
 20
1977.4790035352
 30
0.0
  0
SPLINE
  5
323
100
AcDbEntity
  8
0
100
AcDbSpline
 62
7
  6
CONTINUOUS
 70
0
 71
3
 72
9
 73
5
 74
0
 42
0.0000001
 43
0.0000001
 44
0.0000000001
 40
0.0
 40
0.0
 40
0.0
 40
0.0
 40
0.2099658222
 40
1.0
 40
1.0
 40
1.0
 40
1.0
 10
1011.3767195332
 20
1751.4236213231
 30
0.0
 10
1011.1434457128
 20
1751.2888669706
 30
0.0
 10
1009.8686579867
 20
1750.9105534717
 30
0.0
 10
1008.5552689317
 20
1751.6447016102
 30
0.0
 10
1007.777523865
 20
1752.2947922642
 30
0.0
  0
SPLINE
  5
324
100
AcDbEntity
  8
0
100
AcDbSpline
 62
7
  6
CONTINUOUS
 70
0
 71
3
 72
8
 73
4
 74
0
 42
0.0000001
 43
0.0000001
 44
0.0000000001
 40
0.0
 40
0.0
 40
0.0
 40
0.0
 40
1.0
 40
1.0
 40
1.0
 40
1.0
 10
1007.777523865
 20
1752.2947922642
 30
0.0
 10
1006.5695545945
 20
1753.3044927005
 30
0.0
 10
1005.6490736237
 20
1754.7229060378
 30
0.0
 10
1005.1394157237
 20
1756.2125145617
 30
0.0
  0
SPLINE
  5
325
100
AcDbEntity
  8
0
100
AcDbSpline
 62
7
  6
CONTINUOUS
 70
0
 71
3
 72
8
 73
4
 74
0
 42
0.0000001
 43
0.0000001
 44
0.0000000001
 40
0.0
 40
0.0
 40
0.0
 40
0.0
 40
1.0
 40
1.0
 40
1.0
 40
1.0
 10
1005.1394157237
 20
1756.2125145617
 30
0.0
 10
1004.8960316554
 20
1756.9238681633
 30
0.0
 10
1004.7377068846
 20
1757.6801291114
 30
0.0
 10
1004.7377068846
 20
1758.4319666943
 30
0.0
  0
SPLINE
  5
326
100
AcDbEntity
  8
0
100
AcDbSpline
 62
7
  6
CONTINUOUS
 70
0
 71
3
 72
9
 73
5
 74
0
 42
0.0000001
 43
0.0000001
 44
0.0000000001
 40
0.0
 40
0.0
 40
0.0
 40
0.0
 40
0.7672157733
 40
1.0
 40
1.0
 40
1.0
 40
1.0
 10
1027.5283704902
 20
1814.8615521376
 30
0.0
 10
1027.7564473741
 20
1814.9777244443
 30
0.0
 10
1028.0498988257
 20
1815.0617772204
 30
0.0
 10
1028.3298437099
 20
1815.3654498862
 30
0.0
 10
1028.404734921
 20
1815.344891704
 30
0.0
  0
SPLINE
  5
327
100
AcDbEntity
  8
0
100
AcDbSpline
 62
7
  6
CONTINUOUS
 70
0
 71
3
 72
8
 73
4
 74
0
 42
0.0000001
 43
0.0000001
 44
0.0000000001
 40
0.0
 40
0.0
 40
0.0
 40
0.0
 40
1.0
 40
1.0
 40
1.0
 40
1.0
 10
621.6028496272
 20
1980.7256673596
 30
0.0
 10
621.6650735769
 20
1980.9752982319
 30
0.0
 10
621.7553823942
 20
1981.2211173325
 30
0.0
 10
621.8811307949
 20
1981.4455604925
 30
0.0
  0
SPLINE
  5
328
100
AcDbEntity
  8
0
100
AcDbSpline
 62
7
  6
CONTINUOUS
 70
0
 71
3
 72
8
 73
4
 74
0
 42
0.0000001
 43
0.0000001
 44
0.0000000001
 40
0.0
 40
0.0
 40
0.0
 40
0.0
 40
1.0
 40
1.0
 40
1.0
 40
1.0
 10
621.8811307949
 20
1981.4455604925
 30
0.0
 10
622.055456874
 20
1981.7567079572
 30
0.0
 10
622.3146007605
 20
1982.0377524617
 30
0.0
 10
622.6234302604
 20
1982.2161527607
 30
0.0
  0
SPLINE
  5
329
100
AcDbEntity
  8
0
100
AcDbSpline
 62
7
  6
CONTINUOUS
 70
0
 71
3
 72
8
 73
4
 74
0
 42
0.0000001
 43
0.0000001
 44
0.0000000001
 40
0.0
 40
0.0
 40
0.0
 40
0.0
 40
1.0
 40
1.0
 40
1.0
 40
1.0
 10
619.7115628528
 20
2001.2288537792
 30
0.0
 10
619.7114049381
 20
2000.8101251238
 30
0.0
 10
620.0812924248
 20
2000.4176018465
 30
0.0
 10
620.4439241544
 20
2000.2082410561
 30
0.0
  0
SPLINE
  5
32A
100
AcDbEntity
  8
0
100
AcDbSpline
 62
7
  6
CONTINUOUS
 70
0
 71
3
 72
8
 73
4
 74
0
 42
0.0000001
 43
0.0000001
 44
0.0000000001
 40
0.0
 40
0.0
 40
0.0
 40
0.0
 40
1.0
 40
1.0
 40
1.0
 40
1.0
 10
564.214390111
 20
459.4740676624
 30
0.0
 10
564.7807085797
 20
459.6553810644
 30
0.0
 10
565.4295182838
 20
459.6014798698
 30
0.0
 10
565.9976461352
 20
459.4259181934
 30
0.0
  0
SPLINE
  5
32B
100
AcDbEntity
  8
0
100
AcDbSpline
 62
7
  6
CONTINUOUS
 70
0
 71
3
 72
8
 73
4
 74
0
 42
0.0000001
 43
0.0000001
 44
0.0000000001
 40
0.0
 40
0.0
 40
0.0
 40
0.0
 40
1.0
 40
1.0
 40
1.0
 40
1.0
 10
565.9976461352
 20
459.4259181934
 30
0.0
 10
566.7476410101
 20
459.194156351
 30
0.0
 10
567.4389056467
 20
458.7589778972
 30
0.0
 10
568.0411694611
 20
458.2555057909
 30
0.0
  0
SPLINE
  5
32C
100
AcDbEntity
  8
0
100
AcDbSpline
 62
7
  6
CONTINUOUS
 70
0
 71
3
 72
9
 73
5
 74
0
 42
0.0000001
 43
0.0000001
 44
0.0000000001
 40
0.0
 40
0.0
 40
0.0
 40
0.0
 40
0.766016472
 40
1.0
 40
1.0
 40
1.0
 40
1.0
 10
568.0411694611
 20
458.2555057909
 30
0.0
 10
569.6522967535
 20
456.9086580605
 30
0.0
 10
571.2107511521
 20
454.3693929144
 30
0.0
 10
571.6334860381
 20
451.6439484328
 30
0.0
 10
571.6334860381
 20
451.002512664
 30
0.0
  0
SPLINE
  5
32D
100
AcDbEntity
  8
0
100
AcDbSpline
 62
7
  6
CONTINUOUS
 70
0
 71
3
 72
8
 73
4
 74
0
 42
0.0000001
 43
0.0000001
 44
0.0000000001
 40
0.0
 40
0.0
 40
0.0
 40
0.0
 40
1.0
 40
1.0
 40
1.0
 40
1.0
 10
560.5100299101
 20
2007.726901668
 30
0.0
 10
560.6740008457
 20
2007.8246345682
 30
0.0
 10
560.859836042
 20
2007.8925516053
 30
0.0
 10
561.048441377
 20
2007.921983138
 30
0.0
  0
SPLINE
  5
32E
100
AcDbEntity
  8
0
100
AcDbSpline
 62
7
  6
CONTINUOUS
 70
0
 71
3
 72
8
 73
4
 74
0
 42
0.0000001
 43
0.0000001
 44
0.0000000001
 40
0.0
 40
0.0
 40
0.0
 40
0.0
 40
1.0
 40
1.0
 40
1.0
 40
1.0
 10
560.5100299101
 20
2007.726901668
 30
0.0
 10
560.1291147377
 20
2007.4810827296
 30
0.0
 10
559.8517044445
 20
2007.0470653637
 30
0.0
 10
559.7357022484
 20
2006.6088110887
 30
0.0
  0
SPLINE
  5
32F
100
AcDbEntity
  8
0
100
AcDbSpline
 62
7
  6
CONTINUOUS
 70
0
 71
3
 72
8
 73
4
 74
0
 42
0.0000001
 43
0.0000001
 44
0.0000000001
 40
0.0
 40
0.0
 40
0.0
 40
0.0
 40
1.0
 40
1.0
 40
1.0
 40
1.0
 10
559.7357022484
 20
2006.6088110887
 30
0.0
 10
559.6634070092
 20
2006.3356809348
 30
0.0
 10
559.6336128551
 20
2006.0499108728
 30
0.0
 10
559.6335995226
 20
2005.7673747115
 30
0.0
  0
SPLINE
  5
330
100
AcDbEntity
  8
0
100
AcDbSpline
 62
7
  6
CONTINUOUS
 70
0
 71
3
 72
8
 73
4
 74
0
 42
0.0000001
 43
0.0000001
 44
0.0000000001
 40
0.0
 40
0.0
 40
0.0
 40
0.0
 40
1.0
 40
1.0
 40
1.0
 40
1.0
 10
563.9667327145
 20
458.9794167478
 30
0.0
 10
563.6248180799
 20
458.3650500063
 30
0.0
 10
563.501715367
 20
457.6251104817
 30
0.0
 10
563.501715367
 20
456.9220087036
 30
0.0
  0
SPLINE
  5
331
100
AcDbEntity
  8
0
100
AcDbSpline
 62
7
  6
CONTINUOUS
 70
0
 71
3
 72
8
 73
4
 74
0
 42
0.0000001
 43
0.0000001
 44
0.0000000001
 40
0.0
 40
0.0
 40
0.0
 40
0.0
 40
1.0
 40
1.0
 40
1.0
 40
1.0
 10
564.214390111
 20
1418.8644077896
 30
0.0
 10
564.7807085797
 20
1419.0457211917
 30
0.0
 10
565.4295182838
 20
1418.991819997
 30
0.0
 10
565.9976461352
 20
1418.8162583206
 30
0.0
  0
SPLINE
  5
332
100
AcDbEntity
  8
0
100
AcDbSpline
 62
7
  6
CONTINUOUS
 70
0
 71
3
 72
8
 73
4
 74
0
 42
0.0000001
 43
0.0000001
 44
0.0000000001
 40
0.0
 40
0.0
 40
0.0
 40
0.0
 40
1.0
 40
1.0
 40
1.0
 40
1.0
 10
565.9976461352
 20
1418.8162583206
 30
0.0
 10
566.7476410101
 20
1418.5844964783
 30
0.0
 10
567.4389056467
 20
1418.1493180245
 30
0.0
 10
568.0411694611
 20
1417.6458459181
 30
0.0
  0
SPLINE
  5
333
100
AcDbEntity
  8
0
100
AcDbSpline
 62
7
  6
CONTINUOUS
 70
0
 71
3
 72
9
 73
5
 74
0
 42
0.0000001
 43
0.0000001
 44
0.0000000001
 40
0.0
 40
0.0
 40
0.0
 40
0.0
 40
0.766016472
 40
1.0
 40
1.0
 40
1.0
 40
1.0
 10
568.0411694611
 20
1417.6458459181
 30
0.0
 10
569.6522967535
 20
1416.2989981877
 30
0.0
 10
571.2107511521
 20
1413.7597330417
 30
0.0
 10
571.6334860381
 20
1411.03428856
 30
0.0
 10
571.6334860381
 20
1410.3928527912
 30
0.0
  0
SPLINE
  5
334
100
AcDbEntity
  8
0
100
AcDbSpline
 62
7
  6
CONTINUOUS
 70
0
 71
3
 72
8
 73
4
 74
0
 42
0.0000001
 43
0.0000001
 44
0.0000000001
 40
0.0
 40
0.0
 40
0.0
 40
0.0
 40
1.0
 40
1.0
 40
1.0
 40
1.0
 10
563.9667327145
 20
1418.3697568751
 30
0.0
 10
563.6248180799
 20
1417.7553901335
 30
0.0
 10
563.501715367
 20
1417.015450609
 30
0.0
 10
563.501715367
 20
1416.3123488308
 30
0.0
  0
SPLINE
  5
335
100
AcDbEntity
  8
0
100
AcDbSpline
 62
7
  6
CONTINUOUS
 70
0
 71
3
 72
8
 73
4
 74
0
 42
0.0000001
 43
0.0000001
 44
0.0000000001
 40
0.0
 40
0.0
 40
0.0
 40
0.0
 40
1.0
 40
1.0
 40
1.0
 40
1.0
 10
564.214390111
 20
990.2006387966
 30
0.0
 10
564.7807085797
 20
990.3819521986
 30
0.0
 10
565.4295182838
 20
990.328051004
 30
0.0
 10
565.9976461352
 20
990.1524893276
 30
0.0
  0
SPLINE
  5
336
100
AcDbEntity
  8
0
100
AcDbSpline
 62
7
  6
CONTINUOUS
 70
0
 71
3
 72
8
 73
4
 74
0
 42
0.0000001
 43
0.0000001
 44
0.0000000001
 40
0.0
 40
0.0
 40
0.0
 40
0.0
 40
1.0
 40
1.0
 40
1.0
 40
1.0
 10
565.9976461352
 20
990.1524893276
 30
0.0
 10
566.7476410101
 20
989.9207274853
 30
0.0
 10
567.4389056467
 20
989.4855490315
 30
0.0
 10
568.0411694611
 20
988.9820769251
 30
0.0
  0
SPLINE
  5
337
100
AcDbEntity
  8
0
100
AcDbSpline
 62
7
  6
CONTINUOUS
 70
0
 71
3
 72
9
 73
5
 74
0
 42
0.0000001
 43
0.0000001
 44
0.0000000001
 40
0.0
 40
0.0
 40
0.0
 40
0.0
 40
0.766016472
 40
1.0
 40
1.0
 40
1.0
 40
1.0
 10
568.0411694611
 20
988.9820769251
 30
0.0
 10
569.6522967535
 20
987.6352291947
 30
0.0
 10
571.2107511521
 20
985.0959640487
 30
0.0
 10
571.6334860381
 20
982.370519567
 30
0.0
 10
571.6334860381
 20
981.7290837982
 30
0.0
  0
SPLINE
  5
338
100
AcDbEntity
  8
0
100
AcDbSpline
 62
7
  6
CONTINUOUS
 70
0
 71
3
 72
8
 73
4
 74
0
 42
0.0000001
 43
0.0000001
 44
0.0000000001
 40
0.0
 40
0.0
 40
0.0
 40
0.0
 40
1.0
 40
1.0
 40
1.0
 40
1.0
 10
563.9667327145
 20
989.705987882
 30
0.0
 10
563.6248180799
 20
989.0916211405
 30
0.0
 10
563.501715367
 20
988.3516816159
 30
0.0
 10
563.501715367
 20
987.6485798378
 30
0.0
  0
SPLINE
  5
339
100
AcDbEntity
  8
0
100
AcDbSpline
 62
7
  6
CONTINUOUS
 70
0
 71
3
 72
9
 73
5
 74
0
 42
0.0000001
 43
0.0000001
 44
0.0000000001
 40
0.0
 40
0.0
 40
0.0
 40
0.0
 40
0.5077497469
 40
1.0
 40
1.0
 40
1.0
 40
1.0
 10
905.9878960561
 20
1810.815162847
 30
0.0
 10
905.9386801048
 20
1810.7808375154
 30
0.0
 10
905.8435938338
 20
1810.7105445744
 30
0.0
 10
905.752831988
 20
1810.6347302938
 30
0.0
 10
905.7094075284
 20
1810.5960224568
 30
0.0
  0
SPLINE
  5
33A
100
AcDbEntity
  8
0
100
AcDbSpline
 62
7
  6
CONTINUOUS
 70
0
 71
3
 72
8
 73
4
 74
0
 42
0.0000001
 43
0.0000001
 44
0.0000000001
 40
0.0
 40
0.0
 40
0.0
 40
0.0
 40
1.0
 40
1.0
 40
1.0
 40
1.0
 10
907.50481074
 20
1811.4669108527
 30
0.0
 10
907.2037796324
 20
1811.3909678917
 30
0.0
 10
906.8912251721
 20
1811.324219389
 30
0.0
 10
906.6223562235
 20
1811.1689887557
 30
0.0
  0
SPLINE
  5
33B
100
AcDbEntity
  8
0
100
AcDbSpline
 62
7
  6
CONTINUOUS
 70
0
 71
3
 72
9
 73
5
 74
0
 42
0.0000001
 43
0.0000001
 44
0.0000000001
 40
0.0
 40
0.0
 40
0.0
 40
0.0
 40
0.5157995104
 40
1.0
 40
1.0
 40
1.0
 40
1.0
 10
906.6223562235
 20
1811.1689887557
 30
0.0
 10
906.5710036337
 20
1811.1393405012
 30
0.0
 10
906.4752534819
 20
1811.0745895472
 30
0.0
 10
906.3952814035
 20
1810.9899705997
 30
0.0
 10
906.3633420218
 20
1810.9443814511
 30
0.0
  0
SPLINE
  5
33C
100
AcDbEntity
  8
0
100
AcDbSpline
 62
7
  6
CONTINUOUS
 70
0
 71
3
 72
8
 73
4
 74
0
 42
0.0000001
 43
0.0000001
 44
0.0000000001
 40
0.0
 40
0.0
 40
0.0
 40
0.0
 40
1.0
 40
1.0
 40
1.0
 40
1.0
 10
564.214390111
 20
1949.5909789239
 30
0.0
 10
564.7807085797
 20
1949.7722923259
 30
0.0
 10
565.4295182838
 20
1949.7183911312
 30
0.0
 10
565.9976461352
 20
1949.5428294549
 30
0.0
  0
SPLINE
  5
33D
100
AcDbEntity
  8
0
100
AcDbSpline
 62
7
  6
CONTINUOUS
 70
0
 71
3
 72
8
 73
4
 74
0
 42
0.0000001
 43
0.0000001
 44
0.0000000001
 40
0.0
 40
0.0
 40
0.0
 40
0.0
 40
1.0
 40
1.0
 40
1.0
 40
1.0
 10
565.9976461352
 20
1949.5428294549
 30
0.0
 10
566.7476410101
 20
1949.3110676125
 30
0.0
 10
567.4389056467
 20
1948.8758891587
 30
0.0
 10
568.0411694611
 20
1948.3724170524
 30
0.0
  0
SPLINE
  5
33E
100
AcDbEntity
  8
0
100
AcDbSpline
 62
7
  6
CONTINUOUS
 70
0
 71
3
 72
9
 73
5
 74
0
 42
0.0000001
 43
0.0000001
 44
0.0000000001
 40
0.0
 40
0.0
 40
0.0
 40
0.0
 40
0.766016472
 40
1.0
 40
1.0
 40
1.0
 40
1.0
 10
568.0411694611
 20
1948.3724170524
 30
0.0
 10
569.6522967535
 20
1947.025569322
 30
0.0
 10
571.2107511521
 20
1944.4863041759
 30
0.0
 10
571.6334860381
 20
1941.7608596943
 30
0.0
 10
571.6334860381
 20
1941.1194239255
 30
0.0
  0
SPLINE
  5
33F
100
AcDbEntity
  8
0
100
AcDbSpline
 62
7
  6
CONTINUOUS
 70
0
 71
3
 72
8
 73
4
 74
0
 42
0.0000001
 43
0.0000001
 44
0.0000000001
 40
0.0
 40
0.0
 40
0.0
 40
0.0
 40
1.0
 40
1.0
 40
1.0
 40
1.0
 10
563.9667327145
 20
1949.0963280093
 30
0.0
 10
563.6248180799
 20
1948.4819612678
 30
0.0
 10
563.501715367
 20
1947.7420217432
 30
0.0
 10
563.501715367
 20
1947.038919965
 30
0.0
  0
SPLINE
  5
340
100
AcDbEntity
  8
0
100
AcDbSpline
 62
7
  6
CONTINUOUS
 70
0
 71
3
 72
8
 73
4
 74
0
 42
0.0000001
 43
0.0000001
 44
0.0000000001
 40
0.0
 40
0.0
 40
0.0
 40
0.0
 40
1.0
 40
1.0
 40
1.0
 40
1.0
 10
617.9113940313
 20
1977.1324462385
 30
0.0
 10
617.764024314
 20
1977.0296642286
 30
0.0
 10
617.6242356145
 20
1976.9141708482
 30
0.0
 10
617.4991030974
 20
1976.7852374224
 30
0.0
  0
SPLINE
  5
341
100
AcDbEntity
  8
0
100
AcDbSpline
 62
7
  6
CONTINUOUS
 70
0
 71
3
 72
8
 73
4
 74
0
 42
0.0000001
 43
0.0000001
 44
0.0000000001
 40
0.0
 40
0.0
 40
0.0
 40
0.0
 40
1.0
 40
1.0
 40
1.0
 40
1.0
 10
619.4283087151
 20
1977.7841942442
 30
0.0
 10
619.1272776075
 20
1977.7082512832
 30
0.0
 10
618.8147231472
 20
1977.6415027806
 30
0.0
 10
618.5458541986
 20
1977.4862721473
 30
0.0
  0
SPLINE
  5
342
100
AcDbEntity
  8
0
100
AcDbSpline
 62
7
  6
CONTINUOUS
 70
0
 71
3
 72
9
 73
5
 74
0
 42
0.0000001
 43
0.0000001
 44
0.0000000001
 40
0.0
 40
0.0
 40
0.0
 40
0.0
 40
0.5157995104
 40
1.0
 40
1.0
 40
1.0
 40
1.0
 10
618.5458541986
 20
1977.4862721473
 30
0.0
 10
618.4945016088
 20
1977.4566238927
 30
0.0
 10
618.398751457
 20
1977.3918729387
 30
0.0
 10
618.3187793786
 20
1977.3072539912
 30
0.0
 10
618.286839997
 20
1977.2616648427
 30
0.0
  0
SPLINE
  5
343
100
AcDbEntity
  8
0
100
AcDbSpline
 62
7
  6
CONTINUOUS
 70
0
 71
3
 72
8
 73
4
 74
0
 42
0.0000001
 43
0.0000001
 44
0.0000000001
 40
0.0
 40
0.0
 40
0.0
 40
0.0
 40
1.0
 40
1.0
 40
1.0
 40
1.0
 10
947.4678611407
 20
238.2075787124
 30
0.0
 10
948.0341796093
 20
238.3888921144
 30
0.0
 10
948.6829893135
 20
238.3349909198
 30
0.0
 10
949.2511171648
 20
238.1594292434
 30
0.0
  0
SPLINE
  5
344
100
AcDbEntity
  8
0
100
AcDbSpline
 62
7
  6
CONTINUOUS
 70
0
 71
3
 72
8
 73
4
 74
0
 42
0.0000001
 43
0.0000001
 44
0.0000000001
 40
0.0
 40
0.0
 40
0.0
 40
0.0
 40
1.0
 40
1.0
 40
1.0
 40
1.0
 10
949.2511171648
 20
238.1594292434
 30
0.0
 10
950.0011120397
 20
237.927667401
 30
0.0
 10
950.6923766764
 20
237.4924889472
 30
0.0
 10
951.2946404908
 20
236.9890168409
 30
0.0
  0
SPLINE
  5
345
100
AcDbEntity
  8
0
100
AcDbSpline
 62
7
  6
CONTINUOUS
 70
0
 71
3
 72
9
 73
5
 74
0
 42
0.0000001
 43
0.0000001
 44
0.0000000001
 40
0.0
 40
0.0
 40
0.0
 40
0.0
 40
0.766016472
 40
1.0
 40
1.0
 40
1.0
 40
1.0
 10
951.2946404908
 20
236.9890168409
 30
0.0
 10
952.9057677832
 20
235.6421691105
 30
0.0
 10
954.4642221817
 20
233.1029039644
 30
0.0
 10
954.8869570677
 20
230.3774594828
 30
0.0
 10
954.8869570677
 20
229.736023714
 30
0.0
  0
SPLINE
  5
346
100
AcDbEntity
  8
0
100
AcDbSpline
 62
7
  6
CONTINUOUS
 70
0
 71
3
 72
8
 73
4
 74
0
 42
0.0000001
 43
0.0000001
 44
0.0000000001
 40
0.0
 40
0.0
 40
0.0
 40
0.0
 40
1.0
 40
1.0
 40
1.0
 40
1.0
 10
947.2202037442
 20
237.7129277978
 30
0.0
 10
946.8782891096
 20
237.0985610563
 30
0.0
 10
946.7551863966
 20
236.3586215317
 30
0.0
 10
946.7551863966
 20
235.6555197536
 30
0.0
  0
SPLINE
  5
347
100
AcDbEntity
  8
0
100
AcDbSpline
 62
7
  6
CONTINUOUS
 70
0
 71
3
 72
8
 73
4
 74
0
 42
0.0000001
 43
0.0000001
 44
0.0000000001
 40
0.0
 40
0.0
 40
0.0
 40
0.0
 40
1.0
 40
1.0
 40
1.0
 40
1.0
 10
947.4678611407
 20
1197.5979188396
 30
0.0
 10
948.0341796093
 20
1197.7792322417
 30
0.0
 10
948.6829893135
 20
1197.725331047
 30
0.0
 10
949.2511171648
 20
1197.5497693706
 30
0.0
  0
SPLINE
  5
348
100
AcDbEntity
  8
0
100
AcDbSpline
 62
7
  6
CONTINUOUS
 70
0
 71
3
 72
8
 73
4
 74
0
 42
0.0000001
 43
0.0000001
 44
0.0000000001
 40
0.0
 40
0.0
 40
0.0
 40
0.0
 40
1.0
 40
1.0
 40
1.0
 40
1.0
 10
949.2511171648
 20
1197.5497693706
 30
0.0
 10
950.0011120397
 20
1197.3180075283
 30
0.0
 10
950.6923766764
 20
1196.8828290745
 30
0.0
 10
951.2946404908
 20
1196.3793569681
 30
0.0
  0
SPLINE
  5
349
100
AcDbEntity
  8
0
100
AcDbSpline
 62
7
  6
CONTINUOUS
 70
0
 71
3
 72
9
 73
5
 74
0
 42
0.0000001
 43
0.0000001
 44
0.0000000001
 40
0.0
 40
0.0
 40
0.0
 40
0.0
 40
0.766016472
 40
1.0
 40
1.0
 40
1.0
 40
1.0
 10
951.2946404908
 20
1196.3793569681
 30
0.0
 10
952.9057677832
 20
1195.0325092377
 30
0.0
 10
954.4642221817
 20
1192.4932440917
 30
0.0
 10
954.8869570677
 20
1189.76779961
 30
0.0
 10
954.8869570677
 20
1189.1263638412
 30
0.0
  0
SPLINE
  5
34A
100
AcDbEntity
  8
0
100
AcDbSpline
 62
7
  6
CONTINUOUS
 70
0
 71
3
 72
8
 73
4
 74
0
 42
0.0000001
 43
0.0000001
 44
0.0000000001
 40
0.0
 40
0.0
 40
0.0
 40
0.0
 40
1.0
 40
1.0
 40
1.0
 40
1.0
 10
947.2202037442
 20
1197.1032679251
 30
0.0
 10
946.8782891096
 20
1196.4889011835
 30
0.0
 10
946.7551863966
 20
1195.748961659
 30
0.0
 10
946.7551863966
 20
1195.0458598808
 30
0.0
  0
SPLINE
  5
34B
100
AcDbEntity
  8
0
100
AcDbSpline
 62
7
  6
CONTINUOUS
 70
0
 71
3
 72
8
 73
4
 74
0
 42
0.0000001
 43
0.0000001
 44
0.0000000001
 40
0.0
 40
0.0
 40
0.0
 40
0.0
 40
1.0
 40
1.0
 40
1.0
 40
1.0
 10
947.4678611407
 20
768.9341498466
 30
0.0
 10
948.0341796093
 20
769.1154632486
 30
0.0
 10
948.6829893135
 20
769.061562054
 30
0.0
 10
949.2511171648
 20
768.8860003776
 30
0.0
  0
SPLINE
  5
34C
100
AcDbEntity
  8
0
100
AcDbSpline
 62
7
  6
CONTINUOUS
 70
0
 71
3
 72
8
 73
4
 74
0
 42
0.0000001
 43
0.0000001
 44
0.0000000001
 40
0.0
 40
0.0
 40
0.0
 40
0.0
 40
1.0
 40
1.0
 40
1.0
 40
1.0
 10
949.2511171648
 20
768.8860003776
 30
0.0
 10
950.0011120397
 20
768.6542385353
 30
0.0
 10
950.6923766764
 20
768.2190600815
 30
0.0
 10
951.2946404908
 20
767.7155879751
 30
0.0
  0
SPLINE
  5
34D
100
AcDbEntity
  8
0
100
AcDbSpline
 62
7
  6
CONTINUOUS
 70
0
 71
3
 72
9
 73
5
 74
0
 42
0.0000001
 43
0.0000001
 44
0.0000000001
 40
0.0
 40
0.0
 40
0.0
 40
0.0
 40
0.766016472
 40
1.0
 40
1.0
 40
1.0
 40
1.0
 10
951.2946404908
 20
767.7155879751
 30
0.0
 10
952.9057677832
 20
766.3687402447
 30
0.0
 10
954.4642221817
 20
763.8294750987
 30
0.0
 10
954.8869570677
 20
761.104030617
 30
0.0
 10
954.8869570677
 20
760.4625948482
 30
0.0
  0
SPLINE
  5
34E
100
AcDbEntity
  8
0
100
AcDbSpline
 62
7
  6
CONTINUOUS
 70
0
 71
3
 72
8
 73
4
 74
0
 42
0.0000001
 43
0.0000001
 44
0.0000000001
 40
0.0
 40
0.0
 40
0.0
 40
0.0
 40
1.0
 40
1.0
 40
1.0
 40
1.0
 10
947.2202037442
 20
768.439498932
 30
0.0
 10
946.8782891096
 20
767.8251321905
 30
0.0
 10
946.7551863966
 20
767.0851926659
 30
0.0
 10
946.7551863966
 20
766.3820908878
 30
0.0
  0
SPLINE
  5
34F
100
AcDbEntity
  8
0
100
AcDbSpline
 62
7
  6
CONTINUOUS
 70
0
 71
3
 72
8
 73
4
 74
0
 42
0.0000001
 43
0.0000001
 44
0.0000000001
 40
0.0
 40
0.0
 40
0.0
 40
0.0
 40
1.0
 40
1.0
 40
1.0
 40
1.0
 10
623.8181013229
 20
1977.2910073905
 30
0.0
 10
623.459295174
 20
1977.4981595307
 30
0.0
 10
623.0653526626
 20
1977.6482591972
 30
0.0
 10
622.6650413521
 20
1977.7550520639
 30
0.0
  0
SPLINE
  5
350
100
AcDbEntity
  8
0
100
AcDbSpline
 62
7
  6
CONTINUOUS
 70
0
 71
3
 72
8
 73
4
 74
0
 42
0.0000001
 43
0.0000001
 44
0.0000000001
 40
0.0
 40
0.0
 40
0.0
 40
0.0
 40
1.0
 40
1.0
 40
1.0
 40
1.0
 10
622.6650413521
 20
1977.7550520639
 30
0.0
 10
621.7777532071
 20
1977.9917579528
 30
0.0
 10
620.8196112335
 20
1978.0284528725
 30
0.0
 10
619.9130183057
 20
1977.8821682416
 30
0.0
  0
SPLINE
  5
351
100
AcDbEntity
  8
0
100
AcDbSpline
 62
7
  6
CONTINUOUS
 70
0
 71
3
 72
8
 73
4
 74
0
 42
0.0000001
 43
0.0000001
 44
0.0000000001
 40
0.0
 40
0.0
 40
0.0
 40
0.0
 40
1.0
 40
1.0
 40
1.0
 40
1.0
 10
911.8946033477
 20
1810.9737239989
 30
0.0
 10
911.5357971988
 20
1811.1808761391
 30
0.0
 10
911.1418546875
 20
1811.3309758057
 30
0.0
 10
910.741543377
 20
1811.4377686724
 30
0.0
  0
SPLINE
  5
352
100
AcDbEntity
  8
0
100
AcDbSpline
 62
7
  6
CONTINUOUS
 70
0
 71
3
 72
8
 73
4
 74
0
 42
0.0000001
 43
0.0000001
 44
0.0000000001
 40
0.0
 40
0.0
 40
0.0
 40
0.0
 40
1.0
 40
1.0
 40
1.0
 40
1.0
 10
910.741543377
 20
1811.4377686724
 30
0.0
 10
909.854255232
 20
1811.6744745613
 30
0.0
 10
908.8961132584
 20
1811.711169481
 30
0.0
 10
907.9895203306
 20
1811.56488485
 30
0.0
  0
SPLINE
  5
353
100
AcDbEntity
  8
0
100
AcDbSpline
 62
7
  6
CONTINUOUS
 70
0
 71
3
 72
8
 73
4
 74
0
 42
0.0000001
 43
0.0000001
 44
0.0000000001
 40
0.0
 40
0.0
 40
0.0
 40
0.0
 40
1.0
 40
1.0
 40
1.0
 40
1.0
 10
968.3268375475
 20
1745.6933997167
 30
0.0
 10
968.3269954622
 20
1746.1121283722
 30
0.0
 10
967.9571079755
 20
1746.5046516495
 30
0.0
 10
967.5944762459
 20
1746.7140124398
 30
0.0
  0
SPLINE
  5
354
100
AcDbEntity
  8
0
100
AcDbSpline
 62
7
  6
CONTINUOUS
 70
0
 71
3
 72
8
 73
4
 74
0
 42
0.0000001
 43
0.0000001
 44
0.0000000001
 40
0.0
 40
0.0
 40
0.0
 40
0.0
 40
1.0
 40
1.0
 40
1.0
 40
1.0
 10
968.3268375226
 20
215.7581390746
 30
0.0
 10
968.3267298024
 20
215.4734563729
 30
0.0
 10
968.1559373565
 20
215.1864779021
 30
0.0
 10
967.9468424089
 20
214.9932848506
 30
0.0
  0
SPLINE
  5
355
100
AcDbEntity
  8
0
100
AcDbSpline
 62
7
  6
CONTINUOUS
 70
0
 71
3
 72
8
 73
4
 74
0
 42
0.0000001
 43
0.0000001
 44
0.0000000001
 40
0.0
 40
0.0
 40
0.0
 40
0.0
 40
1.0
 40
1.0
 40
1.0
 40
1.0
 10
947.4678611407
 20
1728.3244899739
 30
0.0
 10
948.0341796093
 20
1728.5058033759
 30
0.0
 10
948.6829893135
 20
1728.4519021812
 30
0.0
 10
949.2511171648
 20
1728.2763405049
 30
0.0
  0
SPLINE
  5
356
100
AcDbEntity
  8
0
100
AcDbSpline
 62
7
  6
CONTINUOUS
 70
0
 71
3
 72
8
 73
4
 74
0
 42
0.0000001
 43
0.0000001
 44
0.0000000001
 40
0.0
 40
0.0
 40
0.0
 40
0.0
 40
1.0
 40
1.0
 40
1.0
 40
1.0
 10
949.2511171648
 20
1728.2763405049
 30
0.0
 10
950.0011120397
 20
1728.0445786625
 30
0.0
 10
950.6923766764
 20
1727.6094002087
 30
0.0
 10
951.2946404908
 20
1727.1059281024
 30
0.0
  0
SPLINE
  5
357
100
AcDbEntity
  8
0
100
AcDbSpline
 62
7
  6
CONTINUOUS
 70
0
 71
3
 72
9
 73
5
 74
0
 42
0.0000001
 43
0.0000001
 44
0.0000000001
 40
0.0
 40
0.0
 40
0.0
 40
0.0
 40
0.766016472
 40
1.0
 40
1.0
 40
1.0
 40
1.0
 10
951.2946404908
 20
1727.1059281024
 30
0.0
 10
952.9057677832
 20
1725.7590803719
 30
0.0
 10
954.4642221817
 20
1723.2198152259
 30
0.0
 10
954.8869570677
 20
1720.4943707443
 30
0.0
 10
954.8869570677
 20
1719.8529349755
 30
0.0
  0
SPLINE
  5
358
100
AcDbEntity
  8
0
100
AcDbSpline
 62
7
  6
CONTINUOUS
 70
0
 71
3
 72
8
 73
4
 74
0
 42
0.0000001
 43
0.0000001
 44
0.0000000001
 40
0.0
 40
0.0
 40
0.0
 40
0.0
 40
1.0
 40
1.0
 40
1.0
 40
1.0
 10
947.2202037442
 20
1727.8298390593
 30
0.0
 10
946.8782891096
 20
1727.2154723178
 30
0.0
 10
946.7551863966
 20
1726.4755327932
 30
0.0
 10
946.7551863966
 20
1725.772431015
 30
0.0
  0
SPLINE
  5
359
100
AcDbEntity
  8
0
100
AcDbSpline
 62
7
  6
CONTINUOUS
 70
0
 71
3
 72
8
 73
4
 74
0
 42
0.0000001
 43
0.0000001
 44
0.0000000001
 40
0.0
 40
0.0
 40
0.0
 40
0.0
 40
1.0
 40
1.0
 40
1.0
 40
1.0
 10
626.0361958151
 20
1975.8086882795
 30
0.0
 10
625.8188013687
 20
1976.0803522237
 30
0.0
 10
625.53364661
 20
1976.3005592641
 30
0.0
 10
625.2323207731
 20
1976.4745258814
 30
0.0
  0
SPLINE
  5
35A
100
AcDbEntity
  8
0
100
AcDbSpline
 62
7
  6
CONTINUOUS
 70
0
 71
3
 72
8
 73
4
 74
0
 42
0.0000001
 43
0.0000001
 44
0.0000000001
 40
0.0
 40
0.0
 40
0.0
 40
0.0
 40
1.0
 40
1.0
 40
1.0
 40
1.0
 10
914.11269784
 20
1809.491404888
 30
0.0
 10
913.8953033935
 20
1809.7630688321
 30
0.0
 10
913.6101486349
 20
1809.9832758725
 30
0.0
 10
913.308822798
 20
1810.1572424898
 30
0.0
  0
SPLINE
  5
35B
100
AcDbEntity
  8
0
100
AcDbSpline
 62
7
  6
CONTINUOUS
 70
0
 71
3
 72
9
 73
5
 74
0
 42
0.0000001
 43
0.0000001
 44
0.0000000001
 40
0.0
 40
0.0
 40
0.0
 40
0.0
 40
0.2337992879
 40
1.0
 40
1.0
 40
1.0
 40
1.0
 10
946.7551863966
 20
1725.772431015
 30
0.0
 10
946.7551863966
 20
1725.1349931875
 30
0.0
 10
947.1731918978
 20
1722.423983983
 30
0.0
 10
948.7166724164
 20
1719.8983629593
 30
0.0
 10
950.3117729206
 20
1718.5494558263
 30
0.0
  0
SPLINE
  5
35C
100
AcDbEntity
  8
0
100
AcDbSpline
 62
7
  6
CONTINUOUS
 70
0
 71
3
 72
9
 73
5
 74
0
 42
0.0000001
 43
0.0000001
 44
0.0000000001
 40
0.0
 40
0.0
 40
0.0
 40
0.0
 40
0.2896639687
 40
1.0
 40
1.0
 40
1.0
 40
1.0
 10
950.3117729206
 20
1718.5494558263
 30
0.0
 10
950.5769108629
 20
1718.3252401982
 30
0.0
 10
951.5302624991
 20
1717.6141818938
 30
0.0
 10
952.7466688864
 20
1717.1346009129
 30
0.0
 10
953.5962115294
 20
1717.1924691065
 30
0.0
  0
SPLINE
  5
35D
100
AcDbEntity
  8
0
100
AcDbSpline
 62
7
  6
CONTINUOUS
 70
0
 71
3
 72
9
 73
5
 74
0
 42
0.0000001
 43
0.0000001
 44
0.0000000001
 40
0.0
 40
0.0
 40
0.0
 40
0.0
 40
0.2337992879
 40
1.0
 40
1.0
 40
1.0
 40
1.0
 10
946.7551863966
 20
766.3820908878
 30
0.0
 10
946.7551863966
 20
765.7446530602
 30
0.0
 10
947.1731918978
 20
763.0336438557
 30
0.0
 10
948.7166724164
 20
760.508022832
 30
0.0
 10
950.3117729206
 20
759.1591156991
 30
0.0
  0
SPLINE
  5
35E
100
AcDbEntity
  8
0
100
AcDbSpline
 62
7
  6
CONTINUOUS
 70
0
 71
3
 72
9
 73
5
 74
0
 42
0.0000001
 43
0.0000001
 44
0.0000000001
 40
0.0
 40
0.0
 40
0.0
 40
0.0
 40
0.2896639687
 40
1.0
 40
1.0
 40
1.0
 40
1.0
 10
950.3117729206
 20
759.1591156991
 30
0.0
 10
950.5769108629
 20
758.9349000709
 30
0.0
 10
951.5302624991
 20
758.2238417666
 30
0.0
 10
952.7466688864
 20
757.7442607856
 30
0.0
 10
953.5962115294
 20
757.8021289793
 30
0.0
  0
SPLINE
  5
35F
100
AcDbEntity
  8
0
100
AcDbSpline
 62
7
  6
CONTINUOUS
 70
0
 71
3
 72
9
 73
5
 74
0
 42
0.0000001
 43
0.0000001
 44
0.0000000001
 40
0.0
 40
0.0
 40
0.0
 40
0.0
 40
0.2337992879
 40
1.0
 40
1.0
 40
1.0
 40
1.0
 10
946.7551863966
 20
1195.0458598808
 30
0.0
 10
946.7551863966
 20
1194.4084220533
 30
0.0
 10
947.1731918978
 20
1191.6974128487
 30
0.0
 10
948.7166724164
 20
1189.1717918251
 30
0.0
 10
950.3117729206
 20
1187.8228846921
 30
0.0
  0
SPLINE
  5
360
100
AcDbEntity
  8
0
100
AcDbSpline
 62
7
  6
CONTINUOUS
 70
0
 71
3
 72
9
 73
5
 74
0
 42
0.0000001
 43
0.0000001
 44
0.0000000001
 40
0.0
 40
0.0
 40
0.0
 40
0.0
 40
0.2896639687
 40
1.0
 40
1.0
 40
1.0
 40
1.0
 10
950.3117729206
 20
1187.8228846921
 30
0.0
 10
950.5769108629
 20
1187.5986690639
 30
0.0
 10
951.5302624991
 20
1186.8876107596
 30
0.0
 10
952.7466688864
 20
1186.4080297786
 30
0.0
 10
953.5962115294
 20
1186.4658979723
 30
0.0
  0
SPLINE
  5
361
100
AcDbEntity
  8
0
100
AcDbSpline
 62
7
  6
CONTINUOUS
 70
0
 71
3
 72
9
 73
5
 74
0
 42
0.0000001
 43
0.0000001
 44
0.0000000001
 40
0.0
 40
0.0
 40
0.0
 40
0.0
 40
0.2337992879
 40
1.0
 40
1.0
 40
1.0
 40
1.0
 10
946.7551863966
 20
235.6555197536
 30
0.0
 10
946.7551863966
 20
235.018081926
 30
0.0
 10
947.1731918978
 20
232.3070727215
 30
0.0
 10
948.7166724164
 20
229.7814516978
 30
0.0
 10
950.3117729206
 20
228.4325445648
 30
0.0
  0
SPLINE
  5
362
100
AcDbEntity
  8
0
100
AcDbSpline
 62
7
  6
CONTINUOUS
 70
0
 71
3
 72
9
 73
5
 74
0
 42
0.0000001
 43
0.0000001
 44
0.0000000001
 40
0.0
 40
0.0
 40
0.0
 40
0.0
 40
0.2896639687
 40
1.0
 40
1.0
 40
1.0
 40
1.0
 10
950.3117729206
 20
228.4325445648
 30
0.0
 10
950.5769108629
 20
228.2083289367
 30
0.0
 10
951.5302624991
 20
227.4972706323
 30
0.0
 10
952.7466688864
 20
227.0176896514
 30
0.0
 10
953.5962115294
 20
227.075557845
 30
0.0
  0
SPLINE
  5
363
100
AcDbEntity
  8
0
100
AcDbSpline
 62
7
  6
CONTINUOUS
 70
0
 71
3
 72
9
 73
5
 74
0
 42
0.0000001
 43
0.0000001
 44
0.0000000001
 40
0.0
 40
0.0
 40
0.0
 40
0.0
 40
0.2337992879
 40
1.0
 40
1.0
 40
1.0
 40
1.0
 10
563.501715367
 20
1947.038919965
 30
0.0
 10
563.501715367
 20
1946.4014821375
 30
0.0
 10
563.9197208681
 20
1943.690472933
 30
0.0
 10
565.4632013868
 20
1941.1648519093
 30
0.0
 10
567.058301891
 20
1939.8159447763
 30
0.0
  0
SPLINE
  5
364
100
AcDbEntity
  8
0
100
AcDbSpline
 62
7
  6
CONTINUOUS
 70
0
 71
3
 72
9
 73
5
 74
0
 42
0.0000001
 43
0.0000001
 44
0.0000000001
 40
0.0
 40
0.0
 40
0.0
 40
0.0
 40
0.2896639687
 40
1.0
 40
1.0
 40
1.0
 40
1.0
 10
567.058301891
 20
1939.8159447763
 30
0.0
 10
567.3234398332
 20
1939.5917291482
 30
0.0
 10
568.2767914694
 20
1938.8806708438
 30
0.0
 10
569.4931978568
 20
1938.4010898629
 30
0.0
 10
570.3427404997
 20
1938.4589580565
 30
0.0
  0
SPLINE
  5
365
100
AcDbEntity
  8
0
100
AcDbSpline
 62
7
  6
CONTINUOUS
 70
0
 71
3
 72
9
 73
5
 74
0
 42
0.0000001
 43
0.0000001
 44
0.0000000001
 40
0.0
 40
0.0
 40
0.0
 40
0.0
 40
0.2337992879
 40
1.0
 40
1.0
 40
1.0
 40
1.0
 10
563.501715367
 20
987.6485798378
 30
0.0
 10
563.501715367
 20
987.0111420102
 30
0.0
 10
563.9197208681
 20
984.3001328057
 30
0.0
 10
565.4632013868
 20
981.774511782
 30
0.0
 10
567.058301891
 20
980.4256046491
 30
0.0
  0
SPLINE
  5
366
100
AcDbEntity
  8
0
100
AcDbSpline
 62
7
  6
CONTINUOUS
 70
0
 71
3
 72
9
 73
5
 74
0
 42
0.0000001
 43
0.0000001
 44
0.0000000001
 40
0.0
 40
0.0
 40
0.0
 40
0.0
 40
0.2896639687
 40
1.0
 40
1.0
 40
1.0
 40
1.0
 10
567.058301891
 20
980.4256046491
 30
0.0
 10
567.3234398332
 20
980.2013890209
 30
0.0
 10
568.2767914694
 20
979.4903307166
 30
0.0
 10
569.4931978568
 20
979.0107497356
 30
0.0
 10
570.3427404997
 20
979.0686179293
 30
0.0
  0
SPLINE
  5
367
100
AcDbEntity
  8
0
100
AcDbSpline
 62
7
  6
CONTINUOUS
 70
0
 71
3
 72
9
 73
5
 74
0
 42
0.0000001
 43
0.0000001
 44
0.0000000001
 40
0.0
 40
0.0
 40
0.0
 40
0.0
 40
0.2337992879
 40
1.0
 40
1.0
 40
1.0
 40
1.0
 10
563.501715367
 20
1416.3123488308
 30
0.0
 10
563.501715367
 20
1415.6749110033
 30
0.0
 10
563.9197208681
 20
1412.9639017987
 30
0.0
 10
565.4632013868
 20
1410.4382807751
 30
0.0
 10
567.058301891
 20
1409.0893736421
 30
0.0
  0
SPLINE
  5
368
100
AcDbEntity
  8
0
100
AcDbSpline
 62
7
  6
CONTINUOUS
 70
0
 71
3
 72
9
 73
5
 74
0
 42
0.0000001
 43
0.0000001
 44
0.0000000001
 40
0.0
 40
0.0
 40
0.0
 40
0.0
 40
0.2896639687
 40
1.0
 40
1.0
 40
1.0
 40
1.0
 10
567.058301891
 20
1409.0893736421
 30
0.0
 10
567.3234398332
 20
1408.8651580139
 30
0.0
 10
568.2767914694
 20
1408.1540997096
 30
0.0
 10
569.4931978568
 20
1407.6745187286
 30
0.0
 10
570.3427404997
 20
1407.7323869223
 30
0.0
  0
SPLINE
  5
369
100
AcDbEntity
  8
0
100
AcDbSpline
 62
7
  6
CONTINUOUS
 70
0
 71
3
 72
9
 73
5
 74
0
 42
0.0000001
 43
0.0000001
 44
0.0000000001
 40
0.0
 40
0.0
 40
0.0
 40
0.0
 40
0.2337992879
 40
1.0
 40
1.0
 40
1.0
 40
1.0
 10
563.501715367
 20
456.9220087036
 30
0.0
 10
563.501715367
 20
456.284570876
 30
0.0
 10
563.9197208681
 20
453.5735616715
 30
0.0
 10
565.4632013868
 20
451.0479406478
 30
0.0
 10
567.058301891
 20
449.6990335148
 30
0.0
  0
SPLINE
  5
36A
100
AcDbEntity
  8
0
100
AcDbSpline
 62
7
  6
CONTINUOUS
 70
0
 71
3
 72
9
 73
5
 74
0
 42
0.0000001
 43
0.0000001
 44
0.0000000001
 40
0.0
 40
0.0
 40
0.0
 40
0.0
 40
0.2896639687
 40
1.0
 40
1.0
 40
1.0
 40
1.0
 10
567.058301891
 20
449.6990335148
 30
0.0
 10
567.3234398332
 20
449.4748178867
 30
0.0
 10
568.2767914694
 20
448.7637595823
 30
0.0
 10
569.4931978568
 20
448.2841786014
 30
0.0
 10
570.3427404997
 20
448.342046795
 30
0.0
  0
SPLINE
  5
36B
100
AcDbEntity
  8
0
100
AcDbSpline
 62
7
  6
CONTINUOUS
 70
0
 71
3
 72
9
 73
5
 74
0
 42
0.0000001
 43
0.0000001
 44
0.0000000001
 40
0.0
 40
0.0
 40
0.0
 40
0.0
 40
0.2754912953
 40
1.0
 40
1.0
 40
1.0
 40
1.0
 10
954.8869570677
 20
1719.8529349755
 30
0.0
 10
954.8869570677
 20
1719.6490947643
 30
0.0
 10
954.8492367072
 20
1718.9118865493
 30
0.0
 10
954.6487485098
 20
1718.1668638986
 30
0.0
 10
954.3712689636
 20
1717.708190212
 30
0.0
  0
SPLINE
  5
36C
100
AcDbEntity
  8
0
100
AcDbSpline
 62
7
  6
CONTINUOUS
 70
0
 71
3
 72
9
 73
5
 74
0
 42
0.0000001
 43
0.0000001
 44
0.0000000001
 40
0.0
 40
0.0
 40
0.0
 40
0.0
 40
0.5054081805
 40
1.0
 40
1.0
 40
1.0
 40
1.0
 10
954.3712689636
 20
1717.708190212
 30
0.0
 10
954.3379192338
 20
1717.6530631089
 30
0.0
 10
954.268071274
 20
1717.5462719753
 30
0.0
 10
954.1905170295
 20
1717.4449234524
 30
0.0
 10
954.1502988694
 20
1717.3963650222
 30
0.0
  0
SPLINE
  5
36D
100
AcDbEntity
  8
0
100
AcDbSpline
 62
7
  6
CONTINUOUS
 70
0
 71
3
 72
8
 73
4
 74
0
 42
0.0000001
 43
0.0000001
 44
0.0000000001
 40
0.0
 40
0.0
 40
0.0
 40
0.0
 40
1.0
 40
1.0
 40
1.0
 40
1.0
 10
954.1502988694
 20
1717.3963650222
 30
0.0
 10
953.9800723419
 20
1717.1908376455
 30
0.0
 10
953.771746435
 20
1717.010915711
 30
0.0
 10
953.5406897497
 20
1716.8773815153
 30
0.0
  0
SPLINE
  5
36E
100
AcDbEntity
  8
0
100
AcDbSpline
 62
7
  6
CONTINUOUS
 70
0
 71
3
 72
9
 73
5
 74
0
 42
0.0000001
 43
0.0000001
 44
0.0000000001
 40
0.0
 40
0.0
 40
0.0
 40
0.0
 40
0.2754912953
 40
1.0
 40
1.0
 40
1.0
 40
1.0
 10
954.8869570677
 20
760.4625948482
 30
0.0
 10
954.8869570677
 20
760.258754637
 30
0.0
 10
954.8492367072
 20
759.521546422
 30
0.0
 10
954.6487485098
 20
758.7765237713
 30
0.0
 10
954.3712689636
 20
758.3178500847
 30
0.0
  0
SPLINE
  5
36F
100
AcDbEntity
  8
0
100
AcDbSpline
 62
7
  6
CONTINUOUS
 70
0
 71
3
 72
9
 73
5
 74
0
 42
0.0000001
 43
0.0000001
 44
0.0000000001
 40
0.0
 40
0.0
 40
0.0
 40
0.0
 40
0.5054081805
 40
1.0
 40
1.0
 40
1.0
 40
1.0
 10
954.3712689636
 20
758.3178500847
 30
0.0
 10
954.3379192338
 20
758.2627229816
 30
0.0
 10
954.268071274
 20
758.1559318481
 30
0.0
 10
954.1905170295
 20
758.0545833251
 30
0.0
 10
954.1502988694
 20
758.0060248949
 30
0.0
  0
SPLINE
  5
370
100
AcDbEntity
  8
0
100
AcDbSpline
 62
7
  6
CONTINUOUS
 70
0
 71
3
 72
8
 73
4
 74
0
 42
0.0000001
 43
0.0000001
 44
0.0000000001
 40
0.0
 40
0.0
 40
0.0
 40
0.0
 40
1.0
 40
1.0
 40
1.0
 40
1.0
 10
954.1502988694
 20
758.0060248949
 30
0.0
 10
953.9800723419
 20
757.8004975182
 30
0.0
 10
953.771746435
 20
757.6205755837
 30
0.0
 10
953.5406897497
 20
757.487041388
 30
0.0
  0
SPLINE
  5
371
100
AcDbEntity
  8
0
100
AcDbSpline
 62
7
  6
CONTINUOUS
 70
0
 71
3
 72
9
 73
5
 74
0
 42
0.0000001
 43
0.0000001
 44
0.0000000001
 40
0.0
 40
0.0
 40
0.0
 40
0.0
 40
0.2754912953
 40
1.0
 40
1.0
 40
1.0
 40
1.0
 10
954.8869570677
 20
1189.1263638412
 30
0.0
 10
954.8869570677
 20
1188.9225236301
 30
0.0
 10
954.8492367072
 20
1188.1853154151
 30
0.0
 10
954.6487485098
 20
1187.4402927643
 30
0.0
 10
954.3712689636
 20
1186.9816190777
 30
0.0
  0
SPLINE
  5
372
100
AcDbEntity
  8
0
100
AcDbSpline
 62
7
  6
CONTINUOUS
 70
0
 71
3
 72
9
 73
5
 74
0
 42
0.0000001
 43
0.0000001
 44
0.0000000001
 40
0.0
 40
0.0
 40
0.0
 40
0.0
 40
0.5054081805
 40
1.0
 40
1.0
 40
1.0
 40
1.0
 10
954.3712689636
 20
1186.9816190777
 30
0.0
 10
954.3379192338
 20
1186.9264919747
 30
0.0
 10
954.268071274
 20
1186.8197008411
 30
0.0
 10
954.1905170295
 20
1186.7183523182
 30
0.0
 10
954.1502988694
 20
1186.6697938879
 30
0.0
  0
SPLINE
  5
373
100
AcDbEntity
  8
0
100
AcDbSpline
 62
7
  6
CONTINUOUS
 70
0
 71
3
 72
8
 73
4
 74
0
 42
0.0000001
 43
0.0000001
 44
0.0000000001
 40
0.0
 40
0.0
 40
0.0
 40
0.0
 40
1.0
 40
1.0
 40
1.0
 40
1.0
 10
954.1502988694
 20
1186.6697938879
 30
0.0
 10
953.9800723419
 20
1186.4642665112
 30
0.0
 10
953.771746435
 20
1186.2843445767
 30
0.0
 10
953.5406897497
 20
1186.1508103811
 30
0.0
  0
SPLINE
  5
374
100
AcDbEntity
  8
0
100
AcDbSpline
 62
7
  6
CONTINUOUS
 70
0
 71
3
 72
9
 73
5
 74
0
 42
0.0000001
 43
0.0000001
 44
0.0000000001
 40
0.0
 40
0.0
 40
0.0
 40
0.0
 40
0.2754912953
 40
1.0
 40
1.0
 40
1.0
 40
1.0
 10
954.8869570677
 20
229.736023714
 30
0.0
 10
954.8869570677
 20
229.5321835028
 30
0.0
 10
954.8492367072
 20
228.7949752878
 30
0.0
 10
954.6487485098
 20
228.0499526371
 30
0.0
 10
954.3712689636
 20
227.5912789505
 30
0.0
  0
SPLINE
  5
375
100
AcDbEntity
  8
0
100
AcDbSpline
 62
7
  6
CONTINUOUS
 70
0
 71
3
 72
9
 73
5
 74
0
 42
0.0000001
 43
0.0000001
 44
0.0000000001
 40
0.0
 40
0.0
 40
0.0
 40
0.0
 40
0.5054081805
 40
1.0
 40
1.0
 40
1.0
 40
1.0
 10
954.3712689636
 20
227.5912789505
 30
0.0
 10
954.3379192338
 20
227.5361518474
 30
0.0
 10
954.268071274
 20
227.4293607138
 30
0.0
 10
954.1905170295
 20
227.3280121909
 30
0.0
 10
954.1502988694
 20
227.2794537607
 30
0.0
  0
SPLINE
  5
376
100
AcDbEntity
  8
0
100
AcDbSpline
 62
7
  6
CONTINUOUS
 70
0
 71
3
 72
8
 73
4
 74
0
 42
0.0000001
 43
0.0000001
 44
0.0000000001
 40
0.0
 40
0.0
 40
0.0
 40
0.0
 40
1.0
 40
1.0
 40
1.0
 40
1.0
 10
954.1502988694
 20
227.2794537607
 30
0.0
 10
953.9800723419
 20
227.073926384
 30
0.0
 10
953.771746435
 20
226.8940044495
 30
0.0
 10
953.5406897497
 20
226.7604702538
 30
0.0
  0
SPLINE
  5
377
100
AcDbEntity
  8
0
100
AcDbSpline
 62
7
  6
CONTINUOUS
 70
0
 71
3
 72
9
 73
5
 74
0
 42
0.0000001
 43
0.0000001
 44
0.0000000001
 40
0.0
 40
0.0
 40
0.0
 40
0.0
 40
0.2754912953
 40
1.0
 40
1.0
 40
1.0
 40
1.0
 10
571.6334860381
 20
1941.1194239255
 30
0.0
 10
571.6334860381
 20
1940.9155837143
 30
0.0
 10
571.5957656775
 20
1940.1783754993
 30
0.0
 10
571.3952774801
 20
1939.4333528486
 30
0.0
 10
571.117797934
 20
1938.974679162
 30
0.0
  0
SPLINE
  5
378
100
AcDbEntity
  8
0
100
AcDbSpline
 62
7
  6
CONTINUOUS
 70
0
 71
3
 72
9
 73
5
 74
0
 42
0.0000001
 43
0.0000001
 44
0.0000000001
 40
0.0
 40
0.0
 40
0.0
 40
0.0
 40
0.5054081805
 40
1.0
 40
1.0
 40
1.0
 40
1.0
 10
571.117797934
 20
1938.974679162
 30
0.0
 10
571.0844482041
 20
1938.9195520589
 30
0.0
 10
571.0146002444
 20
1938.8127609253
 30
0.0
 10
570.9370459999
 20
1938.7114124024
 30
0.0
 10
570.8968278397
 20
1938.6628539722
 30
0.0
  0
SPLINE
  5
379
100
AcDbEntity
  8
0
100
AcDbSpline
 62
7
  6
CONTINUOUS
 70
0
 71
3
 72
8
 73
4
 74
0
 42
0.0000001
 43
0.0000001
 44
0.0000000001
 40
0.0
 40
0.0
 40
0.0
 40
0.0
 40
1.0
 40
1.0
 40
1.0
 40
1.0
 10
570.8968278397
 20
1938.6628539722
 30
0.0
 10
570.7266013122
 20
1938.4573265955
 30
0.0
 10
570.5182754054
 20
1938.277404661
 30
0.0
 10
570.2872187201
 20
1938.1438704653
 30
0.0
  0
SPLINE
  5
37A
100
AcDbEntity
  8
0
100
AcDbSpline
 62
7
  6
CONTINUOUS
 70
0
 71
3
 72
9
 73
5
 74
0
 42
0.0000001
 43
0.0000001
 44
0.0000000001
 40
0.0
 40
0.0
 40
0.0
 40
0.0
 40
0.2754912953
 40
1.0
 40
1.0
 40
1.0
 40
1.0
 10
571.6334860381
 20
981.7290837982
 30
0.0
 10
571.6334860381
 20
981.525243587
 30
0.0
 10
571.5957656775
 20
980.788035372
 30
0.0
 10
571.3952774801
 20
980.0430127213
 30
0.0
 10
571.117797934
 20
979.5843390347
 30
0.0
  0
SPLINE
  5
37B
100
AcDbEntity
  8
0
100
AcDbSpline
 62
7
  6
CONTINUOUS
 70
0
 71
3
 72
9
 73
5
 74
0
 42
0.0000001
 43
0.0000001
 44
0.0000000001
 40
0.0
 40
0.0
 40
0.0
 40
0.0
 40
0.5054081805
 40
1.0
 40
1.0
 40
1.0
 40
1.0
 10
571.117797934
 20
979.5843390347
 30
0.0
 10
571.0844482041
 20
979.5292119317
 30
0.0
 10
571.0146002444
 20
979.4224207981
 30
0.0
 10
570.9370459999
 20
979.3210722751
 30
0.0
 10
570.8968278397
 20
979.2725138449
 30
0.0
  0
SPLINE
  5
37C
100
AcDbEntity
  8
0
100
AcDbSpline
 62
7
  6
CONTINUOUS
 70
0
 71
3
 72
8
 73
4
 74
0
 42
0.0000001
 43
0.0000001
 44
0.0000000001
 40
0.0
 40
0.0
 40
0.0
 40
0.0
 40
1.0
 40
1.0
 40
1.0
 40
1.0
 10
570.8968278397
 20
979.2725138449
 30
0.0
 10
570.7266013122
 20
979.0669864682
 30
0.0
 10
570.5182754054
 20
978.8870645337
 30
0.0
 10
570.2872187201
 20
978.753530338
 30
0.0
  0
SPLINE
  5
37D
100
AcDbEntity
  8
0
100
AcDbSpline
 62
7
  6
CONTINUOUS
 70
0
 71
3
 72
9
 73
5
 74
0
 42
0.0000001
 43
0.0000001
 44
0.0000000001
 40
0.0
 40
0.0
 40
0.0
 40
0.0
 40
0.2754912953
 40
1.0
 40
1.0
 40
1.0
 40
1.0
 10
571.6334860381
 20
1410.3928527912
 30
0.0
 10
571.6334860381
 20
1410.1890125801
 30
0.0
 10
571.5957656775
 20
1409.4518043651
 30
0.0
 10
571.3952774801
 20
1408.7067817144
 30
0.0
 10
571.117797934
 20
1408.2481080278
 30
0.0
  0
SPLINE
  5
37E
100
AcDbEntity
  8
0
100
AcDbSpline
 62
7
  6
CONTINUOUS
 70
0
 71
3
 72
9
 73
5
 74
0
 42
0.0000001
 43
0.0000001
 44
0.0000000001
 40
0.0
 40
0.0
 40
0.0
 40
0.0
 40
0.5054081805
 40
1.0
 40
1.0
 40
1.0
 40
1.0
 10
571.117797934
 20
1408.2481080278
 30
0.0
 10
571.0844482041
 20
1408.1929809247
 30
0.0
 10
571.0146002444
 20
1408.0861897911
 30
0.0
 10
570.9370459999
 20
1407.9848412682
 30
0.0
 10
570.8968278397
 20
1407.936282838
 30
0.0
  0
SPLINE
  5
37F
100
AcDbEntity
  8
0
100
AcDbSpline
 62
7
  6
CONTINUOUS
 70
0
 71
3
 72
8
 73
4
 74
0
 42
0.0000001
 43
0.0000001
 44
0.0000000001
 40
0.0
 40
0.0
 40
0.0
 40
0.0
 40
1.0
 40
1.0
 40
1.0
 40
1.0
 10
570.8968278397
 20
1407.936282838
 30
0.0
 10
570.7266013122
 20
1407.7307554612
 30
0.0
 10
570.5182754054
 20
1407.5508335267
 30
0.0
 10
570.2872187201
 20
1407.4172993311
 30
0.0
  0
SPLINE
  5
380
100
AcDbEntity
  8
0
100
AcDbSpline
 62
7
  6
CONTINUOUS
 70
0
 71
3
 72
9
 73
5
 74
0
 42
0.0000001
 43
0.0000001
 44
0.0000000001
 40
0.0
 40
0.0
 40
0.0
 40
0.0
 40
0.2754912953
 40
1.0
 40
1.0
 40
1.0
 40
1.0
 10
571.6334860381
 20
451.002512664
 30
0.0
 10
571.6334860381
 20
450.7986724528
 30
0.0
 10
571.5957656775
 20
450.0614642378
 30
0.0
 10
571.3952774801
 20
449.3164415871
 30
0.0
 10
571.117797934
 20
448.8577679005
 30
0.0
  0
SPLINE
  5
381
100
AcDbEntity
  8
0
100
AcDbSpline
 62
7
  6
CONTINUOUS
 70
0
 71
3
 72
9
 73
5
 74
0
 42
0.0000001
 43
0.0000001
 44
0.0000000001
 40
0.0
 40
0.0
 40
0.0
 40
0.0
 40
0.5054081805
 40
1.0
 40
1.0
 40
1.0
 40
1.0
 10
571.117797934
 20
448.8577679005
 30
0.0
 10
571.0844482041
 20
448.8026407974
 30
0.0
 10
571.0146002444
 20
448.6958496638
 30
0.0
 10
570.9370459999
 20
448.5945011409
 30
0.0
 10
570.8968278397
 20
448.5459427107
 30
0.0
  0
SPLINE
  5
382
100
AcDbEntity
  8
0
100
AcDbSpline
 62
7
  6
CONTINUOUS
 70
0
 71
3
 72
8
 73
4
 74
0
 42
0.0000001
 43
0.0000001
 44
0.0000000001
 40
0.0
 40
0.0
 40
0.0
 40
0.0
 40
1.0
 40
1.0
 40
1.0
 40
1.0
 10
570.8968278397
 20
448.5459427107
 30
0.0
 10
570.7266013122
 20
448.340415334
 30
0.0
 10
570.5182754054
 20
448.1604933995
 30
0.0
 10
570.2872187201
 20
448.0269592038
 30
0.0
  0
SPLINE
  5
383
100
AcDbEntity
  8
0
100
AcDbSpline
 62
7
  6
CONTINUOUS
 70
0
 71
3
 72
8
 73
4
 74
0
 42
0.0000001
 43
0.0000001
 44
0.0000000001
 40
0.0
 40
0.0
 40
0.0
 40
0.0
 40
1.0
 40
1.0
 40
1.0
 40
1.0
 10
961.0498246007
 20
170.8789139075
 30
0.0
 10
960.6503767571
 20
170.6754527913
 30
0.0
 10
960.1406090905
 20
170.654882435
 30
0.0
 10
959.7089436774
 20
170.7757955304
 30
0.0
  0
SPLINE
  5
384
100
AcDbEntity
  8
0
100
AcDbSpline
 62
7
  6
CONTINUOUS
 70
0
 71
3
 72
8
 73
4
 74
0
 42
0.0000001
 43
0.0000001
 44
0.0000000001
 40
0.0
 40
0.0
 40
0.0
 40
0.0
 40
1.0
 40
1.0
 40
1.0
 40
1.0
 10
959.7089436774
 20
170.7757955304
 30
0.0
 10
959.4452644541
 20
170.8496542879
 30
0.0
 10
959.1913296197
 20
170.9630722622
 30
0.0
 10
958.9539797028
 20
171.0996257892
 30
0.0
  0
SPLINE
  5
385
100
AcDbEntity
  8
0
100
AcDbSpline
 62
7
  6
CONTINUOUS
 70
0
 71
3
 72
8
 73
4
 74
0
 42
0.0000001
 43
0.0000001
 44
0.0000000001
 40
0.0
 40
0.0
 40
0.0
 40
0.0
 40
1.0
 40
1.0
 40
1.0
 40
1.0
 10
961.0498246007
 20
170.8789139075
 30
0.0
 10
961.2127339934
 20
170.9699241677
 30
0.0
 10
961.3604707825
 20
171.0951177718
 30
0.0
 10
961.4766782433
 20
171.2411251818
 30
0.0
  0
SPLINE
  5
386
100
AcDbEntity
  8
0
100
AcDbSpline
 62
7
  6
CONTINUOUS
 70
0
 71
3
 72
8
 73
4
 74
0
 42
0.0000001
 43
0.0000001
 44
0.0000000001
 40
0.0
 40
0.0
 40
0.0
 40
0.0
 40
1.0
 40
1.0
 40
1.0
 40
1.0
 10
559.6335995226
 20
2005.7673747115
 30
0.0
 10
559.6335514379
 20
2004.748379819
 30
0.0
 10
559.9373919786
 20
2003.6809507044
 30
0.0
 10
560.5117138389
 20
2002.8392233173
 30
0.0
  0
SPLINE
  5
387
100
AcDbEntity
  8
0
100
AcDbSpline
 62
7
  6
CONTINUOUS
 70
0
 71
3
 72
9
 73
5
 74
0
 42
0.0000001
 43
0.0000001
 44
0.0000000001
 40
0.0
 40
0.0
 40
0.0
 40
0.0
 40
0.7214706705
 40
1.0
 40
1.0
 40
1.0
 40
1.0
 10
570.2872187201
 20
1938.1438704653
 30
0.0
 10
569.8189513088
 20
1937.8732454797
 30
0.0
 10
569.0038096431
 20
1937.7703635346
 30
0.0
 10
568.2763888412
 20
1937.9415024316
 30
0.0
 10
568.0768995141
 20
1938.0031482048
 30
0.0
  0
SPLINE
  5
388
100
AcDbEntity
  8
0
100
AcDbSpline
 62
7
  6
CONTINUOUS
 70
0
 71
3
 72
9
 73
5
 74
0
 42
0.0000001
 43
0.0000001
 44
0.0000000001
 40
0.0
 40
0.0
 40
0.0
 40
0.0
 40
0.2168614737
 40
1.0
 40
1.0
 40
1.0
 40
1.0
 10
568.0768995141
 20
1938.0031482048
 30
0.0
 10
567.5282619221
 20
1938.1726870422
 30
0.0
 10
565.1698293226
 20
1939.4594906322
 30
0.0
 10
563.5715098749
 20
1941.8681655573
 30
0.0
 10
562.9060769587
 20
1943.8322020557
 30
0.0
  0
SPLINE
  5
389
100
AcDbEntity
  8
0
100
AcDbSpline
 62
7
  6
CONTINUOUS
 70
0
 71
3
 72
8
 73
4
 74
0
 42
0.0000001
 43
0.0000001
 44
0.0000000001
 40
0.0
 40
0.0
 40
0.0
 40
0.0
 40
1.0
 40
1.0
 40
1.0
 40
1.0
 10
562.9060769587
 20
1943.8322020557
 30
0.0
 10
562.6241528346
 20
1944.6643058727
 30
0.0
 10
562.4410596112
 20
1945.5479878722
 30
0.0
 10
562.4410596112
 20
1946.4265537342
 30
0.0
  0
SPLINE
  5
38A
100
AcDbEntity
  8
0
100
AcDbSpline
 62
7
  6
CONTINUOUS
 70
0
 71
3
 72
8
 73
4
 74
0
 42
0.0000001
 43
0.0000001
 44
0.0000000001
 40
0.0
 40
0.0
 40
0.0
 40
0.0
 40
1.0
 40
1.0
 40
1.0
 40
1.0
 10
958.9539797028
 20
171.0996257892
 30
0.0
 10
958.0627580862
 20
171.6123685642
 30
0.0
 10
957.3949415162
 20
172.4734374259
 30
0.0
 10
956.81630284
 20
173.3233541309
 30
0.0
  0
SPLINE
  5
38B
100
AcDbEntity
  8
0
100
AcDbSpline
 62
7
  6
CONTINUOUS
 70
0
 71
3
 72
9
 73
5
 74
0
 42
0.0000001
 43
0.0000001
 44
0.0000000001
 40
0.0
 40
0.0
 40
0.0
 40
0.0
 40
0.7214706705
 40
1.0
 40
1.0
 40
1.0
 40
1.0
 10
570.2872187201
 20
448.0269592038
 30
0.0
 10
569.8189513088
 20
447.7563342182
 30
0.0
 10
569.0038096431
 20
447.6534522732
 30
0.0
 10
568.2763888412
 20
447.8245911701
 30
0.0
 10
568.0768995141
 20
447.8862369434
 30
0.0
  0
SPLINE
  5
38C
100
AcDbEntity
  8
0
100
AcDbSpline
 62
7
  6
CONTINUOUS
 70
0
 71
3
 72
9
 73
5
 74
0
 42
0.0000001
 43
0.0000001
 44
0.0000000001
 40
0.0
 40
0.0
 40
0.0
 40
0.0
 40
0.2168614737
 40
1.0
 40
1.0
 40
1.0
 40
1.0
 10
568.0768995141
 20
447.8862369434
 30
0.0
 10
567.5282619221
 20
448.0557757807
 30
0.0
 10
565.1698293226
 20
449.3425793707
 30
0.0
 10
563.5715098749
 20
451.7512542958
 30
0.0
 10
562.9060769587
 20
453.7152907942
 30
0.0
  0
SPLINE
  5
38D
100
AcDbEntity
  8
0
100
AcDbSpline
 62
7
  6
CONTINUOUS
 70
0
 71
3
 72
8
 73
4
 74
0
 42
0.0000001
 43
0.0000001
 44
0.0000000001
 40
0.0
 40
0.0
 40
0.0
 40
0.0
 40
1.0
 40
1.0
 40
1.0
 40
1.0
 10
562.9060769587
 20
453.7152907942
 30
0.0
 10
562.6241528346
 20
454.5473946112
 30
0.0
 10
562.4410596112
 20
455.4310766107
 30
0.0
 10
562.4410596112
 20
456.3096424728
 30
0.0
  0
SPLINE
  5
38E
100
AcDbEntity
  8
0
100
AcDbSpline
 62
7
  6
CONTINUOUS
 70
0
 71
3
 72
9
 73
5
 74
0
 42
0.0000001
 43
0.0000001
 44
0.0000000001
 40
0.0
 40
0.0
 40
0.0
 40
0.0
 40
0.7214706705
 40
1.0
 40
1.0
 40
1.0
 40
1.0
 10
953.5406897497
 20
1716.8773815153
 30
0.0
 10
953.0724223385
 20
1716.6067565297
 30
0.0
 10
952.2572806728
 20
1716.5038745846
 30
0.0
 10
951.5298598709
 20
1716.6750134816
 30
0.0
 10
951.3303705437
 20
1716.7366592548
 30
0.0
  0
SPLINE
  5
38F
100
AcDbEntity
  8
0
100
AcDbSpline
 62
7
  6
CONTINUOUS
 70
0
 71
3
 72
9
 73
5
 74
0
 42
0.0000001
 43
0.0000001
 44
0.0000000001
 40
0.0
 40
0.0
 40
0.0
 40
0.0
 40
0.2168614737
 40
1.0
 40
1.0
 40
1.0
 40
1.0
 10
951.3303705437
 20
1716.7366592548
 30
0.0
 10
950.7817329517
 20
1716.9061980922
 30
0.0
 10
948.4233003523
 20
1718.1930016821
 30
0.0
 10
946.8249809046
 20
1720.6016766073
 30
0.0
 10
946.1595479884
 20
1722.5657131057
 30
0.0
  0
SPLINE
  5
390
100
AcDbEntity
  8
0
100
AcDbSpline
 62
7
  6
CONTINUOUS
 70
0
 71
3
 72
8
 73
4
 74
0
 42
0.0000001
 43
0.0000001
 44
0.0000000001
 40
0.0
 40
0.0
 40
0.0
 40
0.0
 40
1.0
 40
1.0
 40
1.0
 40
1.0
 10
946.1595479884
 20
1722.5657131057
 30
0.0
 10
945.8776238643
 20
1723.3978169227
 30
0.0
 10
945.6945306408
 20
1724.2814989222
 30
0.0
 10
945.6945306408
 20
1725.1600647842
 30
0.0
  0
SPLINE
  5
391
100
AcDbEntity
  8
0
100
AcDbSpline
 62
7
  6
CONTINUOUS
 70
0
 71
3
 72
8
 73
4
 74
0
 42
0.0000001
 43
0.0000001
 44
0.0000000001
 40
0.0
 40
0.0
 40
0.0
 40
0.0
 40
1.0
 40
1.0
 40
1.0
 40
1.0
 10
945.6945306408
 20
1725.1600647842
 30
0.0
 10
945.6945306408
 20
1725.8596392461
 30
0.0
 10
945.8163198554
 20
1726.5952567152
 30
0.0
 10
946.1541873796
 20
1727.2078332115
 30
0.0
  0
SPLINE
  5
392
100
AcDbEntity
  8
0
100
AcDbSpline
 62
7
  6
CONTINUOUS
 70
0
 71
3
 72
8
 73
4
 74
0
 42
0.0000001
 43
0.0000001
 44
0.0000000001
 40
0.0
 40
0.0
 40
0.0
 40
0.0
 40
1.0
 40
1.0
 40
1.0
 40
1.0
 10
946.1541873796
 20
1727.2078332115
 30
0.0
 10
946.3607824881
 20
1727.5824040083
 30
0.0
 10
946.6704333868
 20
1727.9215740795
 30
0.0
 10
947.0407979588
 20
1728.1356182444
 30
0.0
  0
SPLINE
  5
393
100
AcDbEntity
  8
0
100
AcDbSpline
 62
7
  6
CONTINUOUS
 70
0
 71
3
 72
8
 73
4
 74
0
 42
0.0000001
 43
0.0000001
 44
0.0000000001
 40
0.0
 40
0.0
 40
0.0
 40
0.0
 40
1.0
 40
1.0
 40
1.0
 40
1.0
 10
945.6945306408
 20
765.769724657
 30
0.0
 10
945.6945306408
 20
766.4692991188
 30
0.0
 10
945.8163198554
 20
767.2049165879
 30
0.0
 10
946.1541873796
 20
767.8174930842
 30
0.0
  0
SPLINE
  5
394
100
AcDbEntity
  8
0
100
AcDbSpline
 62
7
  6
CONTINUOUS
 70
0
 71
3
 72
8
 73
4
 74
0
 42
0.0000001
 43
0.0000001
 44
0.0000000001
 40
0.0
 40
0.0
 40
0.0
 40
0.0
 40
1.0
 40
1.0
 40
1.0
 40
1.0
 10
946.1541873796
 20
767.8174930842
 30
0.0
 10
946.3607824881
 20
768.192063881
 30
0.0
 10
946.6704333868
 20
768.5312339523
 30
0.0
 10
947.0407979588
 20
768.7452781172
 30
0.0
  0
SPLINE
  5
395
100
AcDbEntity
  8
0
100
AcDbSpline
 62
7
  6
CONTINUOUS
 70
0
 71
3
 72
8
 73
4
 74
0
 42
0.0000001
 43
0.0000001
 44
0.0000000001
 40
0.0
 40
0.0
 40
0.0
 40
0.0
 40
1.0
 40
1.0
 40
1.0
 40
1.0
 10
945.6945306408
 20
1194.43349365
 30
0.0
 10
945.6945306408
 20
1195.1330681118
 30
0.0
 10
945.8163198554
 20
1195.868685581
 30
0.0
 10
946.1541873796
 20
1196.4812620772
 30
0.0
  0
SPLINE
  5
396
100
AcDbEntity
  8
0
100
AcDbSpline
 62
7
  6
CONTINUOUS
 70
0
 71
3
 72
8
 73
4
 74
0
 42
0.0000001
 43
0.0000001
 44
0.0000000001
 40
0.0
 40
0.0
 40
0.0
 40
0.0
 40
1.0
 40
1.0
 40
1.0
 40
1.0
 10
946.1541873796
 20
1196.4812620772
 30
0.0
 10
946.3607824881
 20
1196.8558328741
 30
0.0
 10
946.6704333868
 20
1197.1950029453
 30
0.0
 10
947.0407979588
 20
1197.4090471102
 30
0.0
  0
SPLINE
  5
397
100
AcDbEntity
  8
0
100
AcDbSpline
 62
7
  6
CONTINUOUS
 70
0
 71
3
 72
8
 73
4
 74
0
 42
0.0000001
 43
0.0000001
 44
0.0000000001
 40
0.0
 40
0.0
 40
0.0
 40
0.0
 40
1.0
 40
1.0
 40
1.0
 40
1.0
 10
945.6945306408
 20
235.0431535227
 30
0.0
 10
945.6945306408
 20
235.7427279846
 30
0.0
 10
945.8163198554
 20
236.4783454537
 30
0.0
 10
946.1541873796
 20
237.09092195
 30
0.0
  0
SPLINE
  5
398
100
AcDbEntity
  8
0
100
AcDbSpline
 62
7
  6
CONTINUOUS
 70
0
 71
3
 72
8
 73
4
 74
0
 42
0.0000001
 43
0.0000001
 44
0.0000000001
 40
0.0
 40
0.0
 40
0.0
 40
0.0
 40
1.0
 40
1.0
 40
1.0
 40
1.0
 10
946.1541873796
 20
237.09092195
 30
0.0
 10
946.3607824881
 20
237.4654927468
 30
0.0
 10
946.6704333868
 20
237.8046628181
 30
0.0
 10
947.0407979588
 20
238.0187069829
 30
0.0
  0
SPLINE
  5
399
100
AcDbEntity
  8
0
100
AcDbSpline
 62
7
  6
CONTINUOUS
 70
0
 71
3
 72
8
 73
4
 74
0
 42
0.0000001
 43
0.0000001
 44
0.0000000001
 40
0.0
 40
0.0
 40
0.0
 40
0.0
 40
1.0
 40
1.0
 40
1.0
 40
1.0
 10
562.4410596112
 20
1946.4265537342
 30
0.0
 10
562.4410596112
 20
1947.1261281961
 30
0.0
 10
562.5628488257
 20
1947.8617456652
 30
0.0
 10
562.9007163499
 20
1948.4743221615
 30
0.0
  0
SPLINE
  5
39A
100
AcDbEntity
  8
0
100
AcDbSpline
 62
7
  6
CONTINUOUS
 70
0
 71
3
 72
8
 73
4
 74
0
 42
0.0000001
 43
0.0000001
 44
0.0000000001
 40
0.0
 40
0.0
 40
0.0
 40
0.0
 40
1.0
 40
1.0
 40
1.0
 40
1.0
 10
562.9007163499
 20
1948.4743221615
 30
0.0
 10
563.1073114585
 20
1948.8488929583
 30
0.0
 10
563.4169623571
 20
1949.1880630296
 30
0.0
 10
563.7873269292
 20
1949.4021071944
 30
0.0
  0
SPLINE
  5
39B
100
AcDbEntity
  8
0
100
AcDbSpline
 62
7
  6
CONTINUOUS
 70
0
 71
3
 72
8
 73
4
 74
0
 42
0.0000001
 43
0.0000001
 44
0.0000000001
 40
0.0
 40
0.0
 40
0.0
 40
0.0
 40
1.0
 40
1.0
 40
1.0
 40
1.0
 10
562.4410596112
 20
987.036213607
 30
0.0
 10
562.4410596112
 20
987.7357880688
 30
0.0
 10
562.5628488257
 20
988.471405538
 30
0.0
 10
562.9007163499
 20
989.0839820342
 30
0.0
  0
SPLINE
  5
39C
100
AcDbEntity
  8
0
100
AcDbSpline
 62
7
  6
CONTINUOUS
 70
0
 71
3
 72
8
 73
4
 74
0
 42
0.0000001
 43
0.0000001
 44
0.0000000001
 40
0.0
 40
0.0
 40
0.0
 40
0.0
 40
1.0
 40
1.0
 40
1.0
 40
1.0
 10
562.9007163499
 20
989.0839820342
 30
0.0
 10
563.1073114585
 20
989.458552831
 30
0.0
 10
563.4169623571
 20
989.7977229023
 30
0.0
 10
563.7873269292
 20
990.0117670672
 30
0.0
  0
SPLINE
  5
39D
100
AcDbEntity
  8
0
100
AcDbSpline
 62
7
  6
CONTINUOUS
 70
0
 71
3
 72
8
 73
4
 74
0
 42
0.0000001
 43
0.0000001
 44
0.0000000001
 40
0.0
 40
0.0
 40
0.0
 40
0.0
 40
1.0
 40
1.0
 40
1.0
 40
1.0
 10
562.4410596112
 20
1415.6999826
 30
0.0
 10
562.4410596112
 20
1416.3995570619
 30
0.0
 10
562.5628488257
 20
1417.135174531
 30
0.0
 10
562.9007163499
 20
1417.7477510272
 30
0.0
  0
SPLINE
  5
39E
100
AcDbEntity
  8
0
100
AcDbSpline
 62
7
  6
CONTINUOUS
 70
0
 71
3
 72
8
 73
4
 74
0
 42
0.0000001
 43
0.0000001
 44
0.0000000001
 40
0.0
 40
0.0
 40
0.0
 40
0.0
 40
1.0
 40
1.0
 40
1.0
 40
1.0
 10
562.9007163499
 20
1417.7477510272
 30
0.0
 10
563.1073114585
 20
1418.1223218241
 30
0.0
 10
563.4169623571
 20
1418.4614918953
 30
0.0
 10
563.7873269292
 20
1418.6755360602
 30
0.0
  0
SPLINE
  5
39F
100
AcDbEntity
  8
0
100
AcDbSpline
 62
7
  6
CONTINUOUS
 70
0
 71
3
 72
9
 73
5
 74
0
 42
0.0000001
 43
0.0000001
 44
0.0000000001
 40
0.0
 40
0.0
 40
0.0
 40
0.0
 40
0.7214706705
 40
1.0
 40
1.0
 40
1.0
 40
1.0
 10
953.5406897497
 20
226.7604702538
 30
0.0
 10
953.0724223385
 20
226.4898452682
 30
0.0
 10
952.2572806728
 20
226.3869633232
 30
0.0
 10
951.5298598709
 20
226.5581022201
 30
0.0
 10
951.3303705437
 20
226.6197479933
 30
0.0
  0
SPLINE
  5
3A0
100
AcDbEntity
  8
0
100
AcDbSpline
 62
7
  6
CONTINUOUS
 70
0
 71
3
 72
9
 73
5
 74
0
 42
0.0000001
 43
0.0000001
 44
0.0000000001
 40
0.0
 40
0.0
 40
0.0
 40
0.0
 40
0.2168614737
 40
1.0
 40
1.0
 40
1.0
 40
1.0
 10
951.3303705437
 20
226.6197479933
 30
0.0
 10
950.7817329517
 20
226.7892868307
 30
0.0
 10
948.4233003523
 20
228.0760904207
 30
0.0
 10
946.8249809046
 20
230.4847653458
 30
0.0
 10
946.1595479884
 20
232.4488018442
 30
0.0
  0
SPLINE
  5
3A1
100
AcDbEntity
  8
0
100
AcDbSpline
 62
7
  6
CONTINUOUS
 70
0
 71
3
 72
8
 73
4
 74
0
 42
0.0000001
 43
0.0000001
 44
0.0000000001
 40
0.0
 40
0.0
 40
0.0
 40
0.0
 40
1.0
 40
1.0
 40
1.0
 40
1.0
 10
946.1595479884
 20
232.4488018442
 30
0.0
 10
945.8776238643
 20
233.2809056612
 30
0.0
 10
945.6945306408
 20
234.1645876607
 30
0.0
 10
945.6945306408
 20
235.0431535227
 30
0.0
  0
SPLINE
  5
3A2
100
AcDbEntity
  8
0
100
AcDbSpline
 62
7
  6
CONTINUOUS
 70
0
 71
3
 72
8
 73
4
 74
0
 42
0.0000001
 43
0.0000001
 44
0.0000000001
 40
0.0
 40
0.0
 40
0.0
 40
0.0
 40
1.0
 40
1.0
 40
1.0
 40
1.0
 10
562.4410596112
 20
456.3096424728
 30
0.0
 10
562.4410596112
 20
457.0092169346
 30
0.0
 10
562.5628488257
 20
457.7448344037
 30
0.0
 10
562.9007163499
 20
458.3574109
 30
0.0
  0
SPLINE
  5
3A3
100
AcDbEntity
  8
0
100
AcDbSpline
 62
7
  6
CONTINUOUS
 70
0
 71
3
 72
8
 73
4
 74
0
 42
0.0000001
 43
0.0000001
 44
0.0000000001
 40
0.0
 40
0.0
 40
0.0
 40
0.0
 40
1.0
 40
1.0
 40
1.0
 40
1.0
 10
562.9007163499
 20
458.3574109
 30
0.0
 10
563.1073114585
 20
458.7319816968
 30
0.0
 10
563.4169623571
 20
459.0711517681
 30
0.0
 10
563.7873269292
 20
459.2851959329
 30
0.0
  0
SPLINE
  5
3A4
100
AcDbEntity
  8
0
100
AcDbSpline
 62
7
  6
CONTINUOUS
 70
0
 71
3
 72
9
 73
5
 74
0
 42
0.0000001
 43
0.0000001
 44
0.0000000001
 40
0.0
 40
0.0
 40
0.0
 40
0.0
 40
0.441166212
 40
1.0
 40
1.0
 40
1.0
 40
1.0
 10
956.81630284
 20
1774.0378342779
 30
0.0
 10
957.5016113177
 20
1774.2546159264
 30
0.0
 10
958.823072585
 20
1775.2783085722
 30
0.0
 10
960.2846934482
 20
1775.9868501254
 30
0.0
 10
961.0498246007
 20
1776.4803748777
 30
0.0
  0
SPLINE
  5
3A5
100
AcDbEntity
  8
0
100
AcDbSpline
 62
7
  6
CONTINUOUS
 70
0
 71
3
 72
9
 73
5
 74
0
 42
0.0000001
 43
0.0000001
 44
0.0000000001
 40
0.0
 40
0.0
 40
0.0
 40
0.0
 40
0.4619920696
 40
1.0
 40
1.0
 40
1.0
 40
1.0
 10
961.4766782433
 20
1776.7398629323
 30
0.0
 10
961.4108532899
 20
1776.7000516097
 30
0.0
 10
961.2690624044
 20
1776.612746354
 30
0.0
 10
961.1267775392
 20
1776.5262417493
 30
0.0
 10
961.0498246007
 20
1776.4803748777
 30
0.0
  0
SPLINE
  5
3A6
100
AcDbEntity
  8
0
100
AcDbSpline
 62
7
  6
CONTINUOUS
 70
0
 71
3
 72
9
 73
5
 74
0
 42
0.0000001
 43
0.0000001
 44
0.0000000001
 40
0.0
 40
0.0
 40
0.0
 40
0.0
 40
0.7214706705
 40
1.0
 40
1.0
 40
1.0
 40
1.0
 10
570.2872187201
 20
978.753530338
 30
0.0
 10
569.8189513088
 20
978.4829053524
 30
0.0
 10
569.0038096431
 20
978.3800234074
 30
0.0
 10
568.2763888412
 20
978.5511623043
 30
0.0
 10
568.0768995141
 20
978.6128080776
 30
0.0
  0
SPLINE
  5
3A7
100
AcDbEntity
  8
0
100
AcDbSpline
 62
7
  6
CONTINUOUS
 70
0
 71
3
 72
9
 73
5
 74
0
 42
0.0000001
 43
0.0000001
 44
0.0000000001
 40
0.0
 40
0.0
 40
0.0
 40
0.0
 40
0.2168614737
 40
1.0
 40
1.0
 40
1.0
 40
1.0
 10
568.0768995141
 20
978.6128080776
 30
0.0
 10
567.5282619221
 20
978.7823469149
 30
0.0
 10
565.1698293226
 20
980.0691505049
 30
0.0
 10
563.5715098749
 20
982.47782543
 30
0.0
 10
562.9060769587
 20
984.4418619285
 30
0.0
  0
SPLINE
  5
3A8
100
AcDbEntity
  8
0
100
AcDbSpline
 62
7
  6
CONTINUOUS
 70
0
 71
3
 72
8
 73
4
 74
0
 42
0.0000001
 43
0.0000001
 44
0.0000000001
 40
0.0
 40
0.0
 40
0.0
 40
0.0
 40
1.0
 40
1.0
 40
1.0
 40
1.0
 10
562.9060769587
 20
984.4418619285
 30
0.0
 10
562.6241528346
 20
985.2739657454
 30
0.0
 10
562.4410596112
 20
986.1576477449
 30
0.0
 10
562.4410596112
 20
987.036213607
 30
0.0
  0
SPLINE
  5
3A9
100
AcDbEntity
  8
0
100
AcDbSpline
 62
7
  6
CONTINUOUS
 70
0
 71
3
 72
9
 73
5
 74
0
 42
0.0000001
 43
0.0000001
 44
0.0000000001
 40
0.0
 40
0.0
 40
0.0
 40
0.0
 40
0.7214706705
 40
1.0
 40
1.0
 40
1.0
 40
1.0
 10
953.5406897497
 20
1186.1508103811
 30
0.0
 10
953.0724223385
 20
1185.8801853955
 30
0.0
 10
952.2572806728
 20
1185.7773034504
 30
0.0
 10
951.5298598709
 20
1185.9484423474
 30
0.0
 10
951.3303705437
 20
1186.0100881206
 30
0.0
  0
SPLINE
  5
3AA
100
AcDbEntity
  8
0
100
AcDbSpline
 62
7
  6
CONTINUOUS
 70
0
 71
3
 72
9
 73
5
 74
0
 42
0.0000001
 43
0.0000001
 44
0.0000000001
 40
0.0
 40
0.0
 40
0.0
 40
0.0
 40
0.2168614737
 40
1.0
 40
1.0
 40
1.0
 40
1.0
 10
951.3303705437
 20
1186.0100881206
 30
0.0
 10
950.7817329517
 20
1186.1796269579
 30
0.0
 10
948.4233003523
 20
1187.4664305479
 30
0.0
 10
946.8249809046
 20
1189.875105473
 30
0.0
 10
946.1595479884
 20
1191.8391419715
 30
0.0
  0
SPLINE
  5
3AB
100
AcDbEntity
  8
0
100
AcDbSpline
 62
7
  6
CONTINUOUS
 70
0
 71
3
 72
8
 73
4
 74
0
 42
0.0000001
 43
0.0000001
 44
0.0000000001
 40
0.0
 40
0.0
 40
0.0
 40
0.0
 40
1.0
 40
1.0
 40
1.0
 40
1.0
 10
946.1595479884
 20
1191.8391419715
 30
0.0
 10
945.8776238643
 20
1192.6712457884
 30
0.0
 10
945.6945306408
 20
1193.554927788
 30
0.0
 10
945.6945306408
 20
1194.43349365
 30
0.0
  0
SPLINE
  5
3AC
100
AcDbEntity
  8
0
100
AcDbSpline
 62
7
  6
CONTINUOUS
 70
0
 71
3
 72
8
 73
4
 74
0
 42
0.0000001
 43
0.0000001
 44
0.0000000001
 40
0.0
 40
0.0
 40
0.0
 40
0.0
 40
1.0
 40
1.0
 40
1.0
 40
1.0
 10
967.9468424089
 20
1744.9285455112
 30
0.0
 10
968.1559373552
 20
1745.1217385614
 30
0.0
 10
968.3267301854
 20
1745.4087170167
 30
0.0
 10
968.3268375475
 20
1745.6933997167
 30
0.0
  0
SPLINE
  5
3AD
100
AcDbEntity
  8
0
100
AcDbSpline
 62
7
  6
CONTINUOUS
 70
0
 71
3
 72
9
 73
5
 74
0
 42
0.0000001
 43
0.0000001
 44
0.0000000001
 40
0.0
 40
0.0
 40
0.0
 40
0.0
 40
0.7214706705
 40
1.0
 40
1.0
 40
1.0
 40
1.0
 10
570.2872187201
 20
1407.4172993311
 30
0.0
 10
569.8189513088
 20
1407.1466743455
 30
0.0
 10
569.0038096431
 20
1407.0437924004
 30
0.0
 10
568.2763888412
 20
1407.2149312974
 30
0.0
 10
568.0768995141
 20
1407.2765770706
 30
0.0
  0
SPLINE
  5
3AE
100
AcDbEntity
  8
0
100
AcDbSpline
 62
7
  6
CONTINUOUS
 70
0
 71
3
 72
9
 73
5
 74
0
 42
0.0000001
 43
0.0000001
 44
0.0000000001
 40
0.0
 40
0.0
 40
0.0
 40
0.0
 40
0.2168614737
 40
1.0
 40
1.0
 40
1.0
 40
1.0
 10
568.0768995141
 20
1407.2765770706
 30
0.0
 10
567.5282619221
 20
1407.4461159079
 30
0.0
 10
565.1698293226
 20
1408.7329194979
 30
0.0
 10
563.5715098749
 20
1411.141594423
 30
0.0
 10
562.9060769587
 20
1413.1056309215
 30
0.0
  0
SPLINE
  5
3AF
100
AcDbEntity
  8
0
100
AcDbSpline
 62
7
  6
CONTINUOUS
 70
0
 71
3
 72
8
 73
4
 74
0
 42
0.0000001
 43
0.0000001
 44
0.0000000001
 40
0.0
 40
0.0
 40
0.0
 40
0.0
 40
1.0
 40
1.0
 40
1.0
 40
1.0
 10
562.9060769587
 20
1413.1056309215
 30
0.0
 10
562.6241528346
 20
1413.9377347384
 30
0.0
 10
562.4410596112
 20
1414.821416738
 30
0.0
 10
562.4410596112
 20
1415.6999826
 30
0.0
  0
SPLINE
  5
3B0
100
AcDbEntity
  8
0
100
AcDbSpline
 62
7
  6
CONTINUOUS
 70
0
 71
3
 72
9
 73
5
 74
0
 42
0.0000001
 43
0.0000001
 44
0.0000000001
 40
0.0
 40
0.0
 40
0.0
 40
0.0
 40
0.7214706705
 40
1.0
 40
1.0
 40
1.0
 40
1.0
 10
953.5406897497
 20
757.487041388
 30
0.0
 10
953.0724223385
 20
757.2164164024
 30
0.0
 10
952.2572806728
 20
757.1135344574
 30
0.0
 10
951.5298598709
 20
757.2846733543
 30
0.0
 10
951.3303705437
 20
757.3463191276
 30
0.0
  0
SPLINE
  5
3B1
100
AcDbEntity
  8
0
100
AcDbSpline
 62
7
  6
CONTINUOUS
 70
0
 71
3
 72
9
 73
5
 74
0
 42
0.0000001
 43
0.0000001
 44
0.0000000001
 40
0.0
 40
0.0
 40
0.0
 40
0.0
 40
0.2168614737
 40
1.0
 40
1.0
 40
1.0
 40
1.0
 10
951.3303705437
 20
757.3463191276
 30
0.0
 10
950.7817329517
 20
757.5158579649
 30
0.0
 10
948.4233003523
 20
758.8026615549
 30
0.0
 10
946.8249809046
 20
761.21133648
 30
0.0
 10
946.1595479884
 20
763.1753729785
 30
0.0
  0
SPLINE
  5
3B2
100
AcDbEntity
  8
0
100
AcDbSpline
 62
7
  6
CONTINUOUS
 70
0
 71
3
 72
8
 73
4
 74
0
 42
0.0000001
 43
0.0000001
 44
0.0000000001
 40
0.0
 40
0.0
 40
0.0
 40
0.0
 40
1.0
 40
1.0
 40
1.0
 40
1.0
 10
946.1595479884
 20
763.1753729785
 30
0.0
 10
945.8776238643
 20
764.0074767954
 30
0.0
 10
945.6945306408
 20
764.8911587949
 30
0.0
 10
945.6945306408
 20
765.769724657
 30
0.0
  0
SPLINE
  5
3B3
100
AcDbEntity
  8
0
100
AcDbSpline
 62
7
  6
CONTINUOUS
 70
0
 71
3
 72
9
 73
5
 74
0
 42
0.0000001
 43
0.0000001
 44
0.0000000001
 40
0.0
 40
0.0
 40
0.0
 40
0.0
 40
0.7189458041
 40
1.0
 40
1.0
 40
1.0
 40
1.0
 10
560.5117138389
 20
402.1247431704
 30
0.0
 10
560.2826807901
 20
402.0521997629
 30
0.0
 10
560.1012600934
 20
401.8087487887
 30
0.0
 10
559.6323088183
 20
401.7361027063
 30
0.0
 10
559.633589193
 20
401.6421927223
 30
0.0
  0
ELLIPSE
  5
3B4
100
AcDbEntity
  8
0
100
AcDbEllipse
 62
7
  6
CONTINUOUS
 10
967.0487144263
 20
239.7024959984
 30
0.0
 11
3.9897363519
 21
-0.659194334
 31
0.0
 40
0.4344138212
 41
0.6352989396
 42
0.857054404
  0
ELLIPSE
  5
3B5
100
AcDbEntity
  8
0
100
AcDbEllipse
 62
7
  6
CONTINUOUS
 10
965.634494976
 20
1843.6267457551
 30
0.0
 11
3.9374589769
 21
1.02581769
 31
0.0
 40
0.6868360053
 41
6.8915217137
 42
10.0331143673
  0
ELLIPSE
  5
3B6
100
AcDbEntity
  8
0
100
AcDbEllipse
 62
7
  6
CONTINUOUS
 10
967.0487144263
 20
1842.8102642461
 30
0.0
 11
3.9374589769
 21
1.02581769
 31
0.0
 40
0.6868360053
 41
3.7499290601
 42
6.8915217137
  0
ELLIPSE
  5
3B7
100
AcDbEntity
  8
0
100
AcDbEllipse
 62
7
  6
CONTINUOUS
 10
678.9722124014
 20
2009.1275476377
 30
0.0
 11
3.9374589769
 21
1.02581769
 31
0.0
 40
0.6868360053
 41
3.7499290601
 42
6.8915217137
  0
ELLIPSE
  5
3B8
100
AcDbEntity
  8
0
100
AcDbEllipse
 62
7
  6
CONTINUOUS
 10
677.5579929511
 20
2009.9440291467
 30
0.0
 11
3.9374589769
 21
1.02581769
 31
0.0
 40
0.6868360053
 41
6.8915217137
 42
10.0331143673
  0
ELLIPSE
  5
3B9
100
AcDbEntity
  8
0
100
AcDbEllipse
 62
7
  6
CONTINUOUS
 10
622.4039054243
 20
1976.4680153279
 30
0.0
 11
3.9897363519
 21
-0.659194334
 31
0.0
 40
0.4344138212
 41
3.9986470576
 42
7.1402397112
  0
ELLIPSE
  5
3BA
100
AcDbEntity
  8
0
100
AcDbEllipse
 62
7
  6
CONTINUOUS
 10
909.0661879989
 20
1810.9672134454
 30
0.0
 11
3.9897363519
 21
-0.659194334
 31
0.0
 40
0.4344138212
 41
7.1402397112
 42
10.2818323648
  0
ELLIPSE
  5
3BB
100
AcDbEntity
  8
0
100
AcDbEllipse
 62
7
  6
CONTINUOUS
 10
910.4804074492
 20
1810.1507319364
 30
0.0
 11
3.9897363519
 21
-0.659194334
 31
0.0
 40
0.4344138212
 41
3.9986470576
 42
7.1402397112
  0
ELLIPSE
  5
3BC
100
AcDbEntity
  8
0
100
AcDbEllipse
 62
7
  6
CONTINUOUS
 10
620.989685974
 20
1977.284496837
 30
0.0
 11
3.9897363519
 21
-0.659194334
 31
0.0
 40
0.4344138212
 41
7.1402397112
 42
10.2818323648
  0
ENDSEC
  0
SECTION
  2
OBJECTS
  0
DICTIONARY
  5
C
100
AcDbDictionary
280
0
281
1
  3
ACAD_GROUP
350
D
  3
ACAD_MLINESTYLE
350
17
  3
ACAD_LAYOUT
350
1A
  3
ACAD_PLOTSETTINGS
350
19
  3
ACAD_PLOTSTYLENAME
350
E
  0
DICTIONARY
  5
D
102
{ACAD_REACTORS
330
C
102
}
100
AcDbDictionary
280
0
281
1
  0
ACDBDICTIONARYWDFLT
  5
E
102
{ACAD_REACTORS
330
C
102
}
100
AcDbDictionary
281
1
  3
Normal
350
F
100
AcDbDictionaryWithDefault
340
F
  0
DICTIONARY
  5
17
102
{ACAD_REACTORS
330
C
102
}
100
AcDbDictionary
280
0
281
1
  3
Standard
350
18
  0
DICTIONARY
  5
19
102
{ACAD_REACTORS
330
C
102
}
100
AcDbDictionary
281
1
  0
DICTIONARY
  5
1A
102
{ACAD_REACTORS
330
C
102
}
100
AcDbDictionary
281
1
  3
Model
350
3BD
  3
Layout1
350
3BE
  0
ACDBPLACEHOLDER
  5
F
102
{ACAD_REACTORS
330
E
102
}
  0
MLINESTYLE
  5
18
102
{ACAD_REACTORS
330
17
102
}
100
AcDbMlineStyle
  2
STANDARD
 70
0
  3

 62
256
 51
90.0
 52
90.0
 71
2
 49
0.5
 62
256
  6
BYLAYER
 49
-0.5
 62
256
  6
BYLAYER
  0
LAYOUT
  5
3BD
102
{ACAD_REACTORS
330
1A
102
}
100
AcDbPlotSettings
  1

  2
none_device
  4

  6

 40
0.0
 41
0.0
 42
0.0
 43
0.0
 44
210.0
 45
297.0
 46
0.0
 47
0.0
 48
0.0
 49
0.0
140
0.0
141
0.0
142
1.0
143
1.0
 70
1024
 72
1
 73
0
 74
0
  7

 75
0
147
1.0
148
0.0
149
0.0
100
AcDbLayout
  1
Model
 70
0
 71
0
 10
0.0
 20
0.0
 11
210.0
 21
297.0
 12
0.0
 22
0.0
 32
0.0
 14
0.0
 24
0.0
 34
0.0
 15
0.0
 25
0.0
 35
0.0
146
0.0
 13
0.0
 23
0.0
 33
0.0
 16
1.0
 26
0.0
 36
0.0
 17
0.0
 27
1.0
 37
0.0
 76
0
330
210
345
0
346
0
  0
LAYOUT
  5
3BE
102
{ACAD_REACTORS
330
1A
102
}
100
AcDbPlotSettings
  1

  2
none_device
  4

  6

 40
0.0
 41
0.0
 42
0.0
 43
0.0
 44
210.0
 45
297.0
 46
0.0
 47
0.0
 48
0.0
 49
0.0
140
0.0
141
0.0
142
1.0
143
1.0
 70
0
 72
1
 73
0
 74
0
  7

 75
0
147
1.0
148
0.0
149
0.0
100
AcDbLayout
  1
Layout1
 70
0
 71
1
 10
0.0
 20
0.0
 11
210.0
 21
297.0
 12
0.0
 22
0.0
 32
0.0
 14
0.0
 24
0.0
 34
0.0
 15
0.0
 25
0.0
 35
0.0
146
0.0
 13
0.0
 23
0.0
 33
0.0
 16
1.0
 26
0.0
 36
0.0
 17
0.0
 27
1.0
 37
0.0
 76
0
330
211
345
0
346
0
  0
ENDSEC
  0
EOF
