999
DXF file: C:\Users\sesa63760\Dev\_Creo\CAD\MCADID0002381_3D-CAD\drw0001_7.dxf
999
Pro/ENGINEER 2019471 by Parametric Technology Corporation
  0
SECTION
  2
HEADER
  9
$ACADVER
  1
AC1024
  9
$DWGCODEPAGE
  3
ANSI_1252
  9
$EXTMAX
 10
38.2776905426
 20
54.1355909102
 30
0.0
  9
$EXTMIN
 10
0.0
 20
0.0
 30
0.0
  9
$LIMMIN
 10
0.0
 20
0.0
  9
$LIMMAX
 10
38.2776905426
 20
54.1355909102
  9
$VIEWCTR
 10
19.1388452713
 20
27.0677954551
  9
$VIEWSIZE
 40
54.1355909102
  9
$CLAYER
  8
0
  9
$LTSCALE
 40
3.5288385186
  9
$CELTYPE
  6
BYLAYER
  9
$DIMSCALE
 40
1.0
  9
$DIMASZ
 40
0.4556867922
  9
$DIMEXO
 40
1.0
  9
$DIMDLI
 40
2.4381066128
  9
$DIMEXE
 40
1.0
  9
$DIMCEN
 40
0.577446303
  9
$DIMLFAC
 40
1.0
  9
$DIMBLK
  1
_FILLED
  9
$DIMALT
 70
0
  9
$DIMALTF
 40
0.0393700787
  9
$DIMTXT
 40
0.637961509
  9
$DIMTOL
 70
1
  9
$DIMLIM
 70
0
  9
$DIMTFAC
 40
1.0
  9
$DIMTP
 40
0.01
  9
$DIMTM
 40
0.01
  9
$DIMGAP
 40
0.625
  9
$DIMDSEP
 70
46
  9
$AUNITS
 70
0
  9
$PDMODE
 70
3
  9
$PDSIZE
 40
0.3125
  9
$HANDSEED
  5
31A
  9
$TILEMODE
 70
1
  9
$MEASUREMENT
 70
1
  9
$INSUNITS
 70
4
  0
ENDSEC
  0
SECTION
  2
CLASSES
  0
CLASS
  1
ACDBDICTIONARYWDFLT
  2
AcDbDictionaryWithDefault
  3
AutoCAD 2000
 90
0
 91
1
280
0
281
0
  0
CLASS
  1
ACDBPLACEHOLDER
  2
AcDbPlaceHolder
  3
AutoCAD 2000
 90
0
 91
1
280
0
281
0
  0
CLASS
  1
LAYOUT
  2
AcDbLayout
  3
AutoCAD 2000
 90
0
 91
0
280
0
281
0
  0
ENDSEC
  0
SECTION
  2
TABLES
  0
TABLE
  2
VPORT
  5
8
100
AcDbSymbolTable
 70
2
  0
VPORT
  5
1F4
100
AcDbSymbolTableRecord
100
AcDbViewportTableRecord
  2
*ACTIVE
 70
0
 10
0.0
 20
0.0
 11
1.0
 21
1.0
 12
19.1388452713
 22
27.0677954551
 13
0.0
 23
0.0
 14
1.0
 24
1.0
 15
0.0
 25
0.0
 16
0.0
 26
0.0
 36
1.0
 17
0.0
 27
0.0
 37
0.0
 40
54.1355909102
 41
0.7070707071
 42
50.0
 43
0.0
 44
0.0
 50
0.0
 51
0.0
 71
0
 72
100
 73
1
 74
1
 75
0
 76
0
 77
0
 78
0
  0
ENDTAB
  0
TABLE
  2
LTYPE
  5
5
100
AcDbSymbolTable
 70
6
  0
LTYPE
  5
14
100
AcDbSymbolTableRecord
100
AcDbLinetypeTableRecord
  2
BYBLOCK
 70
0
  3

 72
65
 73
0
 40
0.0
  0
LTYPE
  5
15
100
AcDbSymbolTableRecord
100
AcDbLinetypeTableRecord
  2
BYLAYER
 70
0
  3

 72
65
 73
0
 40
0.0
  0
LTYPE
  5
16
100
AcDbSymbolTableRecord
100
AcDbLinetypeTableRecord
  2
CONTINUOUS
 70
64
  3
Solid line
 72
65
 73
0
 40
0.0
  0
LTYPE
  5
1F5
100
AcDbSymbolTableRecord
100
AcDbLinetypeTableRecord
  2
CENTER
 70
64
  3
____ _ ____ _ ____ _ ____ _ ____ _ ____ _ ____
 72
65
 73
4
 40
0.6
 49
0.375
 74
0
 49
-0.075
 74
0
 49
0.075
 74
0
 49
-0.075
 74
0
  0
LTYPE
  5
1F6
100
AcDbSymbolTableRecord
100
AcDbLinetypeTableRecord
  2
HIDDEN
 70
64
  3
- - - - - - - - - - - - - - - - - - - -
 72
65
 73
2
 40
0.2
 49
0.1
 74
0
 49
-0.1
 74
0
  0
LTYPE
  5
1F7
100
AcDbSymbolTableRecord
100
AcDbLinetypeTableRecord
  2
PHANTOM
 70
64
  3
_____ _ _ _____ _ _ _____ _ _ _____
 72
65
 73
6
 40
0.8
 49
0.45
 74
0
 49
-0.05
 74
0
 49
0.1
 74
0
 49
-0.05
 74
0
 49
0.1
 74
0
 49
-0.05
 74
0
  0
LTYPE
  5
1F8
100
AcDbSymbolTableRecord
100
AcDbLinetypeTableRecord
  2
DOT
 70
64
  3
. . . . . . . . . . . . . . . . . . . .
 72
65
 73
2
 40
0.2
 49
0.1
 74
0
 49
-0.1
 74
0
  0
LTYPE
  5
1F9
100
AcDbSymbolTableRecord
100
AcDbLinetypeTableRecord
  2
DASHED
 70
64
  3
- - - - - - - - - - - - - - - - - - - -
 72
65
 73
2
 40
0.2
 49
0.1
 74
0
 49
-0.1
 74
0
  0
ENDTAB
  0
TABLE
  2
LAYER
  5
2
100
AcDbSymbolTable
 70
36
  0
LAYER
  5
10
100
AcDbSymbolTableRecord
100
AcDbLayerTableRecord
  2
0
 70
0
 62
7
  6
CONTINUOUS
370
-3
390
F
  0
LAYER
  5
1FA
100
AcDbSymbolTableRecord
100
AcDbLayerTableRecord
  2
DEFAULT_1
 70
0
 62
7
  6
CENTER
370
-3
390
F
  0
LAYER
  5
1FB
100
AcDbSymbolTableRecord
100
AcDbLayerTableRecord
  2
DEFAULT_2
 70
0
 62
8
  6
HIDDEN
370
-3
390
F
  0
LAYER
  5
1FC
100
AcDbSymbolTableRecord
100
AcDbLayerTableRecord
  2
DEFAULT_3
 70
0
 62
7
  6
PHANTOM
370
-3
390
F
  0
LAYER
  5
1FD
100
AcDbSymbolTableRecord
100
AcDbLayerTableRecord
  2
00_COMPONENTS
 70
0
 62
7
  6
CONTINUOUS
370
-3
390
F
  0
LAYER
  5
1FE
100
AcDbSymbolTableRecord
100
AcDbLayerTableRecord
  2
01_1_DEFAULT_DATUMS
 70
0
 62
7
  6
CONTINUOUS
370
-3
390
F
  0
LAYER
  5
1FF
100
AcDbSymbolTableRecord
100
AcDbLayerTableRecord
  2
01_PLANES
 70
0
 62
7
  6
CONTINUOUS
370
-3
390
F
  0
LAYER
  5
200
100
AcDbSymbolTableRecord
100
AcDbLayerTableRecord
  2
02_COORD_SYS
 70
0
 62
7
  6
CONTINUOUS
370
-3
390
F
  0
LAYER
  5
201
100
AcDbSymbolTableRecord
100
AcDbLayerTableRecord
  2
03_AXES
 70
0
 62
7
  6
CONTINUOUS
370
-3
390
F
  0
LAYER
  5
202
100
AcDbSymbolTableRecord
100
AcDbLayerTableRecord
  2
04_POINTS
 70
0
 62
7
  6
CONTINUOUS
370
-3
390
F
  0
LAYER
  5
203
100
AcDbSymbolTableRecord
100
AcDbLayerTableRecord
  2
05_CURVES
 70
0
 62
7
  6
CONTINUOUS
370
-3
390
F
  0
LAYER
  5
204
100
AcDbSymbolTableRecord
100
AcDbLayerTableRecord
  2
06_SURFS
 70
0
 62
7
  6
CONTINUOUS
370
-3
390
F
  0
LAYER
  5
205
100
AcDbSymbolTableRecord
100
AcDbLayerTableRecord
  2
07_COSMETICS
 70
0
 62
7
  6
CONTINUOUS
370
-3
390
F
  0
LAYER
  5
206
100
AcDbSymbolTableRecord
100
AcDbLayerTableRecord
  2
10_NOTES
 70
0
 62
7
  6
CONTINUOUS
370
-3
390
F
  0
LAYER
  5
207
100
AcDbSymbolTableRecord
100
AcDbLayerTableRecord
  2
11_NOTES_PUB
 70
0
 62
7
  6
CONTINUOUS
370
-3
390
F
  0
LAYER
  5
208
100
AcDbSymbolTableRecord
100
AcDbLayerTableRecord
  2
13_REF_GTOL
 70
0
 62
7
  6
CONTINUOUS
370
-3
390
F
  0
LAYER
  5
209
100
AcDbSymbolTableRecord
100
AcDbLayerTableRecord
  2
16_MISC
 70
0
 62
7
  6
CONTINUOUS
370
-3
390
F
  0
LAYER
  5
20A
100
AcDbSymbolTableRecord
100
AcDbLayerTableRecord
  2
17_NO_PRINT
 70
0
 62
7
  6
CONTINUOUS
370
-3
390
F
  0
LAYER
  5
20B
100
AcDbSymbolTableRecord
100
AcDbLayerTableRecord
  2
18_DATUM_CAMS_JOINTS
 70
0
 62
7
  6
CONTINUOUS
370
-3
390
F
  0
LAYER
  5
20C
100
AcDbSymbolTableRecord
100
AcDbLayerTableRecord
  2
19_DATUM_FUNCTIONAL
 70
0
 62
7
  6
CONTINUOUS
370
-3
390
F
  0
LAYER
  5
20D
100
AcDbSymbolTableRecord
100
AcDbLayerTableRecord
  2
20_DATUM_KINEMATIC_SCHEME
 70
0
 62
7
  6
CONTINUOUS
370
-3
390
F
  0
ENDTAB
  0
TABLE
  2
STYLE
  5
3
100
AcDbSymbolTable
 70
1
  0
STYLE
  5
11
100
AcDbSymbolTableRecord
100
AcDbTextStyleTableRecord
  2
STANDARD
 70
0
 40
0.0
 41
0.8
 50
0.0
 71
0
 42
0.2
  3
txt
  4

  0
STYLE
  5
20E
100
AcDbSymbolTableRecord
100
AcDbTextStyleTableRecord
  2
TEXTSTYLE_1
 70
0
 40
0.0
 41
0.8
 50
0.0
 71
0
 42
0.2
  3
gdt
  4

  0
ENDTAB
  0
TABLE
  2
VIEW
  5
6
100
AcDbSymbolTable
 70
0
  0
ENDTAB
  0
TABLE
  2
UCS
  5
7
100
AcDbSymbolTable
 70
0
  0
ENDTAB
  0
TABLE
  2
APPID
  5
9
100
AcDbSymbolTable
 70
1
  0
APPID
  5
20F
100
AcDbSymbolTableRecord
100
AcDbRegAppTableRecord
  2
ACAD
 70
0
  0
ENDTAB
  0
TABLE
  2
BLOCK_RECORD
  5
1
100
AcDbSymbolTable
 70
0
  0
BLOCK_RECORD
  5
210
100
AcDbSymbolTableRecord
100
AcDbBlockTableRecord
  2
*Model_Space
  0
BLOCK_RECORD
  5
211
100
AcDbSymbolTableRecord
100
AcDbBlockTableRecord
  2
*Paper_Space
  0
BLOCK_RECORD
  5
212
100
AcDbSymbolTableRecord
100
AcDbBlockTableRecord
  2
_FILLED
  0
ENDTAB
  0
TABLE
  2
DIMSTYLE
  5
A
100
AcDbSymbolTable
 70
1
100
AcDbDimStyleTable
 71
0
  0
DIMSTYLE
105
213
100
AcDbSymbolTableRecord
100
AcDbDimStyleTableRecord
  2
STANDARD
 70
0
  3

  4

 40
1.0
 41
0.4556867922
 42
1.0
 43
0.38
 44
1.0
 45
0.0
 46
0.0
 47
0.01
 48
0.01
140
0.637961509
141
0.09
142
0.0
143
25.4
144
1.0
145
0.0
146
1.0
147
0.625
 71
1
 72
0
 73
0
 74
0
 75
0
 76
0
 77
1
 78
8
 79
2
170
0
171
1
172
0
173
0
174
0
175
0
176
0
177
0
178
0
270
2
179
2
271
2
272
2
273
2
274
2
275
0
280
0
281
0
282
0
283
1
284
8
285
0
286
0
287
3
288
0
340
11
278
46
341
212
342
212
343
212
344
212
  0
ENDTAB
  0
ENDSEC
  0
SECTION
  2
BLOCKS
  0
BLOCK
  5
20
100
AcDbEntity
  8
0
100
AcDbBlockBegin
  2
*Model_Space
 70
0
 10
0.0
 20
0.0
 30
0.0
  3
*Model_Space
  1

  0
ENDBLK
  5
21
100
AcDbEntity
  8
0
100
AcDbBlockEnd
  0
BLOCK
  5
1C
100
AcDbEntity
  8
0
100
AcDbBlockBegin
  2
*Paper_Space
 70
0
 10
0.0
 20
0.0
 30
0.0
  3
*Paper_Space
  1

  0
ENDBLK
  5
1D
100
AcDbEntity
  8
0
100
AcDbBlockEnd
  0
BLOCK
  5
214
100
AcDbEntity
  8
0
100
AcDbBlockBegin
  2
_FILLED
 70
64
 10
0.0
 20
0.0
  3
_FILLED
  1

  0
SOLID
  5
215
100
AcDbEntity
  8
0
  6
BYBLOCK
 62
0
100
AcDbTrace
 10
0.0
 20
0.0
 11
-1.0
 21
0.25
 12
-1.0
 22
-0.25
 13
-1.0
 23
-0.25
  0
ENDBLK
  5
216
100
AcDbEntity
  8
0
  6
BYBLOCK
 62
0
100
AcDbBlockEnd
  0
ENDSEC
  0
SECTION
  2
ENTITIES
  0
LINE
  5
217
100
AcDbEntity
  8
0
100
AcDbLine
 62
7
  6
CONTINUOUS
 10
8.8106494588
 20
5.8533047976
 11
8.7821063281
 21
5.8634682803
  0
LINE
  5
218
100
AcDbEntity
  8
0
100
AcDbLine
 62
7
  6
CONTINUOUS
 10
8.81045872
 20
5.8523320398
 11
8.7821063281
 21
5.8634682803
  0
LINE
  5
219
100
AcDbEntity
  8
0
100
AcDbLine
 62
7
  6
CONTINUOUS
 10
20.5069895077
 20
4.025209938
 11
20.4308470791
 21
4.0247356738
  0
LINE
  5
21A
100
AcDbEntity
  8
0
100
AcDbLine
 62
7
  6
CONTINUOUS
 10
19.222241928
 20
4.0088167075
 11
19.187971481
 21
4.0088167075
  0
LINE
  5
21B
100
AcDbEntity
  8
0
100
AcDbLine
 62
7
  6
CONTINUOUS
 10
20.4685243222
 20
4.0249002023
 11
20.0536348419
 21
4.0227106326
  0
LINE
  5
21C
100
AcDbEntity
  8
0
100
AcDbLine
 62
7
  6
CONTINUOUS
 10
20.4592020397
 20
4.0255750317
 11
20.5081139193
 21
4.025266053
  0
LINE
  5
21D
100
AcDbEntity
  8
0
100
AcDbLine
 62
7
  6
CONTINUOUS
 10
17.4373397818
 20
4.039271179
 11
17.5080504038
 21
4.036855679
  0
LINE
  5
21E
100
AcDbEntity
  8
0
100
AcDbLine
 62
7
  6
CONTINUOUS
 10
17.428931802
 20
4.0396250918
 11
17.4373461573
 21
4.0393188842
  0
LINE
  5
21F
100
AcDbEntity
  8
0
100
AcDbLine
 62
7
  6
CONTINUOUS
 10
17.4771963301
 20
4.0380371091
 11
17.5080505995
 21
4.036867384
  0
LINE
  5
220
100
AcDbEntity
  8
0
100
AcDbLine
 62
7
  6
CONTINUOUS
 10
10.5454242913
 20
5.8511567815
 11
10.5109096611
 21
5.8636157137
  0
LINE
  5
221
100
AcDbEntity
  8
0
100
AcDbLine
 62
7
  6
CONTINUOUS
 10
10.5452244565
 20
5.8501373261
 11
10.5109096611
 21
5.8636157137
  0
LINE
  5
222
100
AcDbEntity
  8
0
100
AcDbLine
 62
7
  6
CONTINUOUS
 10
5.6575580807
 20
5.8631622523
 11
5.6934672922
 21
5.8631622523
  0
LINE
  5
223
100
AcDbEntity
  8
0
100
AcDbLine
 62
7
  6
CONTINUOUS
 10
5.7837830229
 20
5.8631622523
 11
8.7825232752
 21
5.8631622523
  0
LINE
  5
224
100
AcDbEntity
  8
0
100
AcDbLine
 62
7
  6
CONTINUOUS
 10
8.8146685677
 20
5.8631622523
 11
10.5117251923
 21
5.8631622523
  0
LINE
  5
225
100
AcDbEntity
  8
0
100
AcDbLine
 62
7
  6
CONTINUOUS
 10
10.5502913759
 20
5.8631622523
 11
17.3600736814
 21
5.8631622523
  0
LINE
  5
226
100
AcDbEntity
  8
0
100
AcDbLine
 62
7
  6
CONTINUOUS
 10
18.2193704191
 20
5.8631622523
 11
20.1908421599
 21
5.8631622523
  0
LINE
  5
227
100
AcDbEntity
  8
0
100
AcDbLine
 62
7
  6
CONTINUOUS
 10
21.0501389031
 20
5.8631622523
 11
27.3907801531
 21
5.8631622523
  0
LINE
  5
228
100
AcDbEntity
  8
0
100
AcDbLine
 62
7
  6
CONTINUOUS
 10
28.0622578059
 20
5.8631622523
 11
29.4562986844
 21
5.8631622523
  0
LINE
  5
229
100
AcDbEntity
  8
0
100
AcDbLine
 62
7
  6
CONTINUOUS
 10
30.0000505734
 20
5.8631622523
 11
32.6264302925
 21
5.8631622523
  0
LINE
  5
22A
100
AcDbEntity
  8
0
100
AcDbLine
 62
7
  6
CONTINUOUS
 10
32.7167460457
 20
5.8631622523
 11
32.7526553282
 21
5.8631622523
  0
LINE
  5
22B
100
AcDbEntity
  8
0
100
AcDbLine
 62
7
  6
CONTINUOUS
 10
33.1170086776
 20
6.3313702452
 11
33.0987986372
 21
6.3313702452
  0
LINE
  5
22C
100
AcDbEntity
  8
0
100
AcDbLine
 62
7
  6
CONTINUOUS
 10
32.9431331887
 20
6.3313702452
 11
30.4697849184
 21
6.3313702452
  0
LINE
  5
22D
100
AcDbEntity
  8
0
100
AcDbLine
 62
7
  6
CONTINUOUS
 10
29.5325909918
 20
6.3313702452
 11
28.5262699798
 21
6.3313702452
  0
LINE
  5
22E
100
AcDbEntity
  8
0
100
AcDbLine
 62
7
  6
CONTINUOUS
 10
27.3689318648
 20
6.3313702452
 11
21.3977409261
 21
6.3313702452
  0
LINE
  5
22F
100
AcDbEntity
  8
0
100
AcDbLine
 62
7
  6
CONTINUOUS
 10
19.9166831161
 20
6.3313702452
 11
18.4935302928
 21
6.3313702452
  0
LINE
  5
230
100
AcDbEntity
  8
0
100
AcDbLine
 62
7
  6
CONTINUOUS
 10
17.0124724828
 20
6.3313702452
 11
10.2915793893
 21
6.3313702452
  0
LINE
  5
231
100
AcDbEntity
  8
0
100
AcDbLine
 62
7
  6
CONTINUOUS
 10
10.2530986772
 20
6.3313702452
 11
8.5560424447
 21
6.3313702452
  0
LINE
  5
232
100
AcDbEntity
  8
0
100
AcDbLine
 62
7
  6
CONTINUOUS
 10
8.5238124329
 20
6.3313702452
 11
5.4670802202
 21
6.3313702452
  0
LINE
  5
233
100
AcDbEntity
  8
0
100
AcDbLine
 62
7
  6
CONTINUOUS
 10
5.3114147717
 20
6.3313702452
 11
5.2932047313
 21
6.3313702452
  0
LINE
  5
234
100
AcDbEntity
  8
0
100
AcDbLine
 62
7
  6
CONTINUOUS
 10
32.5472084079
 20
5.8291316864
 11
32.5517828542
 21
5.8277637997
  0
LINE
  5
235
100
AcDbEntity
  8
0
100
AcDbLine
 62
7
  6
CONTINUOUS
 10
5.2932047313
 20
6.3313702452
 11
4.955106697
 21
19.242820363
  0
LINE
  5
236
100
AcDbEntity
  8
0
100
AcDbLine
 62
7
  6
CONTINUOUS
 10
4.9551067007
 20
29.0928199354
 11
4.9551067007
 21
20.4067441133
  0
LINE
  5
237
100
AcDbEntity
  8
0
100
AcDbLine
 62
7
  6
CONTINUOUS
 10
5.0551065271
 20
19.242820363
 11
5.0551065271
 21
20.0428199354
  0
LINE
  5
238
100
AcDbEntity
  8
0
100
AcDbLine
 62
7
  6
CONTINUOUS
 10
6.6051067045
 20
31.5428199354
 11
6.6051067045
 21
30.2928199354
  0
LINE
  5
239
100
AcDbEntity
  8
0
100
AcDbLine
 62
7
  6
CONTINUOUS
 10
8.3301067045
 20
34.2418199354
 11
8.3301067045
 21
31.5428199354
  0
LINE
  5
23A
100
AcDbEntity
  8
0
100
AcDbLine
 62
7
  6
CONTINUOUS
 10
8.6808492997
 20
34.9028199354
 11
8.6808492997
 21
43.1028199354
  0
LINE
  5
23B
100
AcDbEntity
  8
0
100
AcDbLine
 62
7
  6
CONTINUOUS
 10
8.7051067045
 20
34.9028199354
 11
8.7051067045
 21
34.4918199354
  0
LINE
  5
23C
100
AcDbEntity
  8
0
100
AcDbLine
 62
7
  6
CONTINUOUS
 10
8.8786230571
 20
46.6918449902
 11
8.8786230571
 21
45.7918199354
  0
LINE
  5
23D
100
AcDbEntity
  8
0
100
AcDbLine
 62
7
  6
CONTINUOUS
 10
9.0070676773
 20
34.9028199354
 11
9.0070676773
 21
43.1028199354
  0
LINE
  5
23E
100
AcDbEntity
  8
0
100
AcDbLine
 62
7
  6
CONTINUOUS
 10
9.3051067045
 20
38.2868374816
 11
9.3051067045
 21
39.29920959
  0
LINE
  5
23F
100
AcDbEntity
  8
0
100
AcDbLine
 62
7
  6
CONTINUOUS
 10
9.3786118863
 20
45.7918199354
 11
9.3786118863
 21
46.0900888742
  0
LINE
  5
240
100
AcDbEntity
  8
0
100
AcDbLine
 62
7
  6
CONTINUOUS
 10
8.3228284261
 20
17.1428208174
 11
8.3551211876
 21
17.1428208174
  0
LINE
  5
241
100
AcDbEntity
  8
0
100
AcDbLine
 62
7
  6
CONTINUOUS
 10
10.052177448
 20
17.1428211279
 11
10.0905953395
 21
17.1428211279
  0
LINE
  5
242
100
AcDbEntity
  8
0
100
AcDbLine
 62
7
  6
CONTINUOUS
 10
5.0118353756
 20
18.1328199354
 11
5.1377476793
 21
18.1328199354
  0
LINE
  5
243
100
AcDbEntity
  8
0
100
AcDbLine
 62
7
  6
CONTINUOUS
 10
17.120488459
 20
18.1328199354
 11
18.3195308162
 21
18.1328199354
  0
LINE
  5
244
100
AcDbEntity
  8
0
100
AcDbLine
 62
7
  6
CONTINUOUS
 10
20.0906825927
 20
18.1328199354
 11
21.2897249499
 21
18.1328199354
  0
LINE
  5
245
100
AcDbEntity
  8
0
100
AcDbLine
 62
7
  6
CONTINUOUS
 10
27.6784000138
 20
18.1328199354
 11
28.6149925856
 21
18.1328199354
  0
LINE
  5
246
100
AcDbEntity
  8
0
100
AcDbLine
 62
7
  6
CONTINUOUS
 10
29.867788625
 20
18.1328199354
 11
30.6262080444
 21
18.1328199354
  0
LINE
  5
247
100
AcDbEntity
  8
0
100
AcDbLine
 62
7
  6
CONTINUOUS
 10
33.2724657296
 20
18.1328199354
 11
33.3983780333
 21
18.1328199354
  0
LINE
  5
248
100
AcDbEntity
  8
0
100
AcDbLine
 62
7
  6
CONTINUOUS
 10
6.1772016243
 20
20.0428199354
 11
4.9551067045
 21
20.4067441122
  0
LINE
  5
249
100
AcDbEntity
  8
0
100
AcDbLine
 62
7
  6
CONTINUOUS
 10
10.5051067045
 20
49.1918199354
 11
10.5051067045
 21
43.1028199354
  0
LINE
  5
24A
100
AcDbEntity
  8
0
100
AcDbLine
 62
7
  6
CONTINUOUS
 10
10.9291436664
 20
32.3274704114
 11
10.9291085877
 21
31.5428199354
  0
LINE
  5
24B
100
AcDbEntity
  8
0
100
AcDbLine
 62
7
  6
CONTINUOUS
 10
9.5663573979
 20
18.7928199354
 11
9.5542949121
 21
18.7473294754
  0
LINE
  5
24C
100
AcDbEntity
  8
0
100
AcDbLine
 62
7
  6
CONTINUOUS
 10
8.7227731655
 20
18.7428199621
 11
9.6082987497
 21
18.7428199621
  0
LINE
  5
24D
100
AcDbEntity
  8
0
100
AcDbLine
 62
7
  6
CONTINUOUS
 10
9.593428088
 20
18.7928199354
 11
8.7007057857
 21
18.7928199354
  0
LINE
  5
24E
100
AcDbEntity
  8
0
100
AcDbLine
 62
7
  6
CONTINUOUS
 10
4.955106697
 20
19.242820363
 11
33.4551067119
 21
19.242820363
  0
LINE
  5
24F
100
AcDbEntity
  8
0
100
AcDbLine
 62
7
  6
CONTINUOUS
 10
5.0551065271
 20
20.0428199354
 11
33.3551068818
 21
20.0428199354
  0
LINE
  5
250
100
AcDbEntity
  8
0
100
AcDbLine
 62
7
  6
CONTINUOUS
 10
12.2045434838
 20
43.1028199354
 11
12.2045434838
 21
34.9028199354
  0
LINE
  5
251
100
AcDbEntity
  8
0
100
AcDbLine
 62
7
  6
CONTINUOUS
 10
12.2051067044
 20
48.9918199354
 11
12.2051067044
 21
45.7918199354
  0
LINE
  5
252
100
AcDbEntity
  8
0
100
AcDbLine
 62
7
  6
CONTINUOUS
 10
12.3437205658
 20
45.7918199354
 11
12.3437205658
 21
47.5918199354
  0
LINE
  5
253
100
AcDbEntity
  8
0
100
AcDbLine
 62
7
  6
CONTINUOUS
 10
12.3560501007
 20
34.9028199354
 11
12.3560501007
 21
43.1028199354
  0
LINE
  5
254
100
AcDbEntity
  8
0
100
AcDbLine
 62
7
  6
CONTINUOUS
 10
17.2051067045
 20
36.0928199354
 11
18.9316917081
 21
39.916287501
  0
LINE
  5
255
100
AcDbEntity
  8
0
100
AcDbLine
 62
7
  6
CONTINUOUS
 10
33.4551067082
 20
20.4067441122
 11
4.9551067007
 21
20.4067441122
  0
LINE
  5
256
100
AcDbEntity
  8
0
100
AcDbLine
 62
7
  6
CONTINUOUS
 10
14.3617842075
 20
31.5428199354
 11
14.3617357941
 21
32.3274704114
  0
LINE
  5
257
100
AcDbEntity
  8
0
100
AcDbLine
 62
7
  6
CONTINUOUS
 10
14.8473549906
 20
34.9028199354
 11
14.8473549906
 21
43.1028199354
  0
LINE
  5
258
100
AcDbEntity
  8
0
100
AcDbLine
 62
7
  6
CONTINUOUS
 10
14.9051067045
 20
48.8918199354
 11
14.9051067045
 21
49.1918199354
  0
LINE
  5
259
100
AcDbEntity
  8
0
100
AcDbLine
 62
7
  6
CONTINUOUS
 10
16.3345666856
 20
36.0928199354
 11
16.3345666856
 21
34.9028199354
  0
LINE
  5
25A
100
AcDbEntity
  8
0
100
AcDbLine
 62
7
  6
CONTINUOUS
 10
16.3345666856
 20
45.7918199354
 11
16.3345666856
 21
47.5918199354
  0
LINE
  5
25B
100
AcDbEntity
  8
0
100
AcDbLine
 62
7
  6
CONTINUOUS
 10
16.9551067045
 20
31.5428199354
 11
16.9551067045
 21
33.7928199354
  0
LINE
  5
25C
100
AcDbEntity
  8
0
100
AcDbLine
 62
7
  6
CONTINUOUS
 10
18.3282534061
 20
17.6757118292
 11
18.3194236091
 21
18.1328199354
  0
LINE
  5
25D
100
AcDbEntity
  8
0
100
AcDbLine
 62
7
  6
CONTINUOUS
 10
20.0907897998
 20
18.1328199354
 11
20.0819600028
 21
17.6757118292
  0
LINE
  5
25E
100
AcDbEntity
  8
0
100
AcDbLine
 62
7
  6
CONTINUOUS
 10
4.9551087562
 20
29.0928199354
 11
4.9938435619
 21
29.0928199354
  0
LINE
  5
25F
100
AcDbEntity
  8
0
100
AcDbLine
 62
7
  6
CONTINUOUS
 10
33.416369847
 20
29.0928199354
 11
33.4551046528
 21
29.0928199354
  0
LINE
  5
260
100
AcDbEntity
  8
0
100
AcDbLine
 62
7
  6
CONTINUOUS
 10
21.4551067045
 20
33.7928199354
 11
21.4551067045
 21
31.5428199354
  0
LINE
  5
261
100
AcDbEntity
  8
0
100
AcDbLine
 62
7
  6
CONTINUOUS
 10
22.0756467233
 20
47.5918199354
 11
22.0756467233
 21
45.7918199354
  0
LINE
  5
262
100
AcDbEntity
  8
0
100
AcDbLine
 62
7
  6
CONTINUOUS
 10
22.0756467233
 20
34.9028199354
 11
22.0756467233
 21
36.0928199354
  0
LINE
  5
263
100
AcDbEntity
  8
0
100
AcDbLine
 62
7
  6
CONTINUOUS
 10
5.0019917231
 20
30.2928197305
 11
33.4082216872
 21
30.2928197305
  0
LINE
  5
264
100
AcDbEntity
  8
0
100
AcDbLine
 62
7
  6
CONTINUOUS
 10
29.448567274
 20
5.8888567707
 11
29.4562946968
 21
5.8631313615
  0
LINE
  5
265
100
AcDbEntity
  8
0
100
AcDbLine
 62
7
  6
CONTINUOUS
 10
23.5051067045
 20
49.1918199354
 11
23.5051067045
 21
48.8918199354
  0
LINE
  5
266
100
AcDbEntity
  8
0
100
AcDbLine
 62
7
  6
CONTINUOUS
 10
23.5628584184
 20
43.1028199354
 11
23.5628584184
 21
34.9028199354
  0
LINE
  5
267
100
AcDbEntity
  8
0
100
AcDbLine
 62
7
  6
CONTINUOUS
 10
24.0484776148
 20
32.3274704114
 11
24.0484292015
 21
31.5428199354
  0
LINE
  5
268
100
AcDbEntity
  8
0
100
AcDbLine
 62
7
  6
CONTINUOUS
 10
6.6051067045
 20
31.5428199354
 11
31.8051067045
 21
31.5428199354
  0
LINE
  5
269
100
AcDbEntity
  8
0
100
AcDbLine
 62
7
  6
CONTINUOUS
 10
10.9291787461
 20
32.3274704114
 11
14.3616873711
 21
32.3274704114
  0
LINE
  5
26A
100
AcDbEntity
  8
0
100
AcDbLine
 62
7
  6
CONTINUOUS
 10
24.0485260378
 20
32.3274704113
 11
27.4810346628
 21
32.3274704113
  0
LINE
  5
26B
100
AcDbEntity
  8
0
100
AcDbLine
 62
7
  6
CONTINUOUS
 10
27.4405095577
 20
32.5265226255
 11
24.1041715926
 21
32.5265226255
  0
LINE
  5
26C
100
AcDbEntity
  8
0
100
AcDbLine
 62
7
  6
CONTINUOUS
 10
14.3060418148
 20
32.5265226255
 11
10.9697038511
 21
32.5265226255
  0
LINE
  5
26D
100
AcDbEntity
  8
0
100
AcDbLine
 62
7
  6
CONTINUOUS
 10
19.4785217008
 20
39.916287501
 11
21.2051067045
 21
36.0928199354
  0
LINE
  5
26E
100
AcDbEntity
  8
0
100
AcDbLine
 62
7
  6
CONTINUOUS
 10
26.0541633082
 20
34.9028199354
 11
26.0541633082
 21
43.1028199354
  0
LINE
  5
26F
100
AcDbEntity
  8
0
100
AcDbLine
 62
7
  6
CONTINUOUS
 10
26.0664928431
 20
45.7918199354
 11
26.0664928431
 21
47.5918199354
  0
LINE
  5
270
100
AcDbEntity
  8
0
100
AcDbLine
 62
7
  6
CONTINUOUS
 10
26.2051067044
 20
45.7918199354
 11
26.2051067044
 21
48.9918199354
  0
LINE
  5
271
100
AcDbEntity
  8
0
100
AcDbLine
 62
7
  6
CONTINUOUS
 10
26.2056699252
 20
34.9028199354
 11
26.2056699252
 21
43.1028199354
  0
LINE
  5
272
100
AcDbEntity
  8
0
100
AcDbLine
 62
7
  6
CONTINUOUS
 10
21.4551067045
 20
33.7928199354
 11
16.9551067045
 21
33.7928199354
  0
LINE
  5
273
100
AcDbEntity
  8
0
100
AcDbLine
 62
7
  6
CONTINUOUS
 10
26.0322858869
 20
34.1518199349
 11
25.76695878
 21
34.1518199349
  0
LINE
  5
274
100
AcDbEntity
  8
0
100
AcDbLine
 62
7
  6
CONTINUOUS
 10
12.6432534244
 20
34.1518199349
 11
12.3779263462
 21
34.1518199349
  0
LINE
  5
275
100
AcDbEntity
  8
0
100
AcDbLine
 62
7
  6
CONTINUOUS
 10
8.3301067045
 20
34.2418199354
 11
30.0801067045
 21
34.2418199354
  0
LINE
  5
276
100
AcDbEntity
  8
0
100
AcDbLine
 62
7
  6
CONTINUOUS
 10
8.5801067045
 20
34.4918199354
 11
29.8301067045
 21
34.4918199354
  0
LINE
  5
277
100
AcDbEntity
  8
0
100
AcDbLine
 62
7
  6
CONTINUOUS
 10
27.4811048212
 20
31.5428199354
 11
27.4810697425
 21
32.3274704114
  0
LINE
  5
278
100
AcDbEntity
  8
0
100
AcDbLine
 62
7
  6
CONTINUOUS
 10
27.9051067045
 20
43.1028199354
 11
27.9051067045
 21
49.1918199354
  0
LINE
  5
279
100
AcDbEntity
  8
0
100
AcDbLine
 62
7
  6
CONTINUOUS
 10
26.2056699252
 20
34.9028199354
 11
22.0756467233
 21
34.9028199354
  0
LINE
  5
27A
100
AcDbEntity
  8
0
100
AcDbLine
 62
7
  6
CONTINUOUS
 10
16.3345666856
 20
34.9028199354
 11
12.2045434838
 21
34.9028199354
  0
LINE
  5
27B
100
AcDbEntity
  8
0
100
AcDbLine
 62
7
  6
CONTINUOUS
 10
8.6808492997
 20
34.9028199354
 11
9.0070676773
 21
34.9028199354
  0
LINE
  5
27C
100
AcDbEntity
  8
0
100
AcDbLine
 62
7
  6
CONTINUOUS
 10
29.4031457316
 20
34.9028199354
 11
29.7293641092
 21
34.9028199354
  0
LINE
  5
27D
100
AcDbEntity
  8
0
100
AcDbLine
 62
7
  6
CONTINUOUS
 10
16.3345666856
 20
36.0928199354
 11
17.2051067045
 21
36.0928199354
  0
LINE
  5
27E
100
AcDbEntity
  8
0
100
AcDbLine
 62
7
  6
CONTINUOUS
 10
21.2051067045
 20
36.0928199354
 11
22.0756467233
 21
36.0928199354
  0
LINE
  5
27F
100
AcDbEntity
  8
0
100
AcDbLine
 62
7
  6
CONTINUOUS
 10
29.0316015017
 20
46.0900888743
 11
29.0316015017
 21
45.7918199354
  0
LINE
  5
280
100
AcDbEntity
  8
0
100
AcDbLine
 62
7
  6
CONTINUOUS
 10
29.1051067045
 20
39.3844967803
 11
29.1051067045
 21
38.1994736233
  0
LINE
  5
281
100
AcDbEntity
  8
0
100
AcDbLine
 62
7
  6
CONTINUOUS
 10
29.4031457316
 20
34.9028199354
 11
29.4031457316
 21
43.1028199354
  0
LINE
  5
282
100
AcDbEntity
  8
0
100
AcDbLine
 62
7
  6
CONTINUOUS
 10
29.5316134333
 20
45.7918199354
 11
29.5316134333
 21
46.6917931305
  0
LINE
  5
283
100
AcDbEntity
  8
0
100
AcDbLine
 62
7
  6
CONTINUOUS
 10
29.7051067045
 20
34.4918199354
 11
29.7051067045
 21
34.9028199354
  0
LINE
  5
284
100
AcDbEntity
  8
0
100
AcDbLine
 62
7
  6
CONTINUOUS
 10
29.7293641092
 20
43.1028199354
 11
29.7293641092
 21
34.9028199354
  0
LINE
  5
285
100
AcDbEntity
  8
0
100
AcDbLine
 62
7
  6
CONTINUOUS
 10
30.0801067045
 20
31.5428199354
 11
30.0801067045
 21
34.2418199354
  0
LINE
  5
286
100
AcDbEntity
  8
0
100
AcDbLine
 62
7
  6
CONTINUOUS
 10
32.2330117847
 20
20.0428199354
 11
33.4551067045
 21
20.4067441122
  0
LINE
  5
287
100
AcDbEntity
  8
0
100
AcDbLine
 62
7
  6
CONTINUOUS
 10
31.8051067045
 20
30.2928199354
 11
31.8051067045
 21
31.5428199354
  0
LINE
  5
288
100
AcDbEntity
  8
0
100
AcDbLine
 62
7
  6
CONTINUOUS
 10
33.3551068818
 20
20.0428199354
 11
33.3551068818
 21
19.242820363
  0
LINE
  5
289
100
AcDbEntity
  8
0
100
AcDbLine
 62
7
  6
CONTINUOUS
 10
33.4551067082
 20
29.0928199354
 11
33.4551067082
 21
20.4067441133
  0
LINE
  5
28A
100
AcDbEntity
  8
0
100
AcDbLine
 62
7
  6
CONTINUOUS
 10
33.4551067119
 20
19.242820363
 11
33.1170086776
 21
6.3313702452
  0
LINE
  5
28B
100
AcDbEntity
  8
0
100
AcDbLine
 62
7
  6
CONTINUOUS
 10
8.6808492997
 20
43.1028199354
 11
29.7293641092
 21
43.1028199354
  0
LINE
  5
28C
100
AcDbEntity
  8
0
100
AcDbLine
 62
7
  6
CONTINUOUS
 10
5.8584305547
 20
5.8277637997
 11
5.8630049939
 21
5.8291320629
  0
LINE
  5
28D
100
AcDbEntity
  8
0
100
AcDbLine
 62
7
  6
CONTINUOUS
 10
29.5316134333
 20
45.7918199354
 11
27.9051067045
 21
45.7918199354
  0
LINE
  5
28E
100
AcDbEntity
  8
0
100
AcDbLine
 62
7
  6
CONTINUOUS
 10
26.2051067044
 20
45.7918199354
 11
12.2051067044
 21
45.7918199354
  0
LINE
  5
28F
100
AcDbEntity
  8
0
100
AcDbLine
 62
7
  6
CONTINUOUS
 10
10.5051067045
 20
45.7918199354
 11
8.8786230571
 21
45.7918199354
  0
LINE
  5
290
100
AcDbEntity
  8
0
100
AcDbLine
 62
7
  6
CONTINUOUS
 10
9.3786118863
 20
46.0900888742
 11
10.5051067045
 21
46.0900888742
  0
LINE
  5
291
100
AcDbEntity
  8
0
100
AcDbLine
 62
7
  6
CONTINUOUS
 10
27.9051067045
 20
46.0900888743
 11
29.0316015017
 21
46.0900888743
  0
LINE
  5
292
100
AcDbEntity
  8
0
100
AcDbLine
 62
7
  6
CONTINUOUS
 10
29.3080418055
 20
46.2751693553
 11
27.9051067045
 21
46.2751693553
  0
LINE
  5
293
100
AcDbEntity
  8
0
100
AcDbLine
 62
7
  6
CONTINUOUS
 10
10.5051067045
 20
46.2751693553
 11
9.1022309068
 21
46.2751693553
  0
LINE
  5
294
100
AcDbEntity
  8
0
100
AcDbLine
 62
7
  6
CONTINUOUS
 10
12.3437205658
 20
47.5918199354
 11
16.3345666856
 21
47.5918199354
  0
LINE
  5
295
100
AcDbEntity
  8
0
100
AcDbLine
 62
7
  6
CONTINUOUS
 10
22.0756467233
 20
47.5918199354
 11
26.0664928431
 21
47.5918199354
  0
LINE
  5
296
100
AcDbEntity
  8
0
100
AcDbLine
 62
7
  6
CONTINUOUS
 10
14.9051067045
 20
48.8918199354
 11
23.5051067045
 21
48.8918199354
  0
LINE
  5
297
100
AcDbEntity
  8
0
100
AcDbLine
 62
7
  6
CONTINUOUS
 10
10.5051067045
 20
48.9918199354
 11
12.2051067044
 21
48.9918199354
  0
LINE
  5
298
100
AcDbEntity
  8
0
100
AcDbLine
 62
7
  6
CONTINUOUS
 10
26.2051067044
 20
48.9918199354
 11
27.9051067045
 21
48.9918199354
  0
LINE
  5
299
100
AcDbEntity
  8
0
100
AcDbLine
 62
7
  6
CONTINUOUS
 10
10.1188325628
 20
49.1918199354
 11
14.9051067045
 21
49.1918199354
  0
LINE
  5
29A
100
AcDbEntity
  8
0
100
AcDbLine
 62
7
  6
CONTINUOUS
 10
23.5051067045
 20
49.1918199354
 11
28.2862733916
 21
49.1918199354
  0
LINE
  5
29B
100
AcDbEntity
  8
0
100
AcDbLine
 62
7
  6
CONTINUOUS
 10
11.1670490367
 20
50.3918199354
 11
13.4665185502
 21
50.3918199354
  0
LINE
  5
29C
100
AcDbEntity
  8
0
100
AcDbLine
 62
7
  6
CONTINUOUS
 10
24.9436939523
 20
50.3918199354
 11
27.2431643722
 21
50.3918199354
  0
ARC
  5
29D
100
AcDbEntity
  8
0
100
AcDbCircle
 62
7
  6
CONTINUOUS
 10
-2269.1566130935
 20
42.7595900478
 40
2299.9147728504
100
AcDbArc
 50
359.0924901766
 51
359.386482911
  0
ARC
  5
29E
100
AcDbEntity
  8
0
100
AcDbCircle
 62
7
  6
CONTINUOUS
 10
2137.2535555608
 20
-47.4589491387
 40
2108.4067069604
100
AcDbArc
 50
178.217261265
 51
178.5380589578
  0
ARC
  5
29F
100
AcDbEntity
  8
0
100
AcDbCircle
 62
7
  6
CONTINUOUS
 10
1862.32370643
 20
-35.7651628717
 40
1835.4373049151
100
AcDbArc
 50
178.3172559337
 51
178.6857414622
  0
ARC
  5
2A0
100
AcDbEntity
  8
0
100
AcDbCircle
 62
7
  6
CONTINUOUS
 10
-1804.4866172277
 20
26.0734608352
 40
1833.1189476613
100
AcDbArc
 50
359.3829723581
 51
359.7518073401
  0
ARC
  5
2A1
100
AcDbEntity
  8
0
100
AcDbCircle
 62
7
  6
CONTINUOUS
 10
1426.1351185382
 20
-8.4170432752
 40
1406.2954315396
100
AcDbArc
 50
178.9368585618
 51
179.3990514827
  0
ARC
  5
2A2
100
AcDbEntity
  8
0
100
AcDbCircle
 62
7
  6
CONTINUOUS
 10
1413.4719659856
 20
-0.4886962481
 40
1396.4758502448
100
AcDbArc
 50
179.2359580952
 51
179.7201266438
  0
ARC
  5
2A3
100
AcDbEntity
  8
0
100
AcDbCircle
 62
7
  6
CONTINUOUS
 10
-1315.4091145397
 20
-7.3772242143
 40
1333.972520807
100
AcDbArc
 50
0.5888678558
 51
1.0761181018
  0
ARC
  5
2A4
100
AcDbEntity
  8
0
100
AcDbCircle
 62
7
  6
CONTINUOUS
 10
-1300.3153238313
 20
0.1809723617
 40
1321.7268254413
100
AcDbArc
 50
0.2666725571
 51
0.7782217909
  0
ARC
  5
2A5
100
AcDbEntity
  8
0
100
AcDbCircle
 62
7
  6
CONTINUOUS
 10
19.2231237447
 20
54.292546943
 40
50.2837302355
100
AcDbArc
 50
270.0
 51
271.0471649562
  0
ARC
  5
2A6
100
AcDbEntity
  8
0
100
AcDbCircle
 62
7
  6
CONTINUOUS
 10
19.1870896642
 20
54.292546943
 40
50.2837302355
100
AcDbArc
 50
268.086463604
 51
270.0
  0
ARC
  5
2A7
100
AcDbEntity
  8
0
100
AcDbCircle
 62
7
  6
CONTINUOUS
 10
19.1870896642
 20
54.292546943
 40
50.2837302355
100
AcDbArc
 50
254.3914348435
 51
266.0347224364
  0
ARC
  5
2A8
100
AcDbEntity
  8
0
100
AcDbCircle
 62
7
  6
CONTINUOUS
 10
19.1870896642
 20
54.292546943
 40
50.2837302355
100
AcDbArc
 50
267.9962438184
 51
268.0058454688
  0
ARC
  5
2A9
100
AcDbEntity
  8
0
100
AcDbCircle
 62
7
  6
CONTINUOUS
 10
19.2231237447
 20
54.292546943
 40
50.2837302355
100
AcDbArc
 50
271.463059404
 51
285.6085651565
  0
ARC
  5
2AA
100
AcDbEntity
  8
0
100
AcDbCircle
 62
7
  6
CONTINUOUS
 10
20.1401694574
 20
30.0307656587
 40
26.00875628
100
AcDbArc
 50
264.2195290344
 51
267.9396698227
  0
ARC
  5
2AB
100
AcDbEntity
  8
0
100
AcDbCircle
 62
7
  6
CONTINUOUS
 10
20.1033047587
 20
30.0180705399
 40
25.9971981076
100
AcDbArc
 50
264.2967526473
 51
268.0200498651
  0
ARC
  5
2AC
100
AcDbEntity
  8
0
100
AcDbCircle
 62
7
  6
CONTINUOUS
 10
10.9527914934
 20
6.344329976
 40
0.6998128375
100
AcDbArc
 50
181.0545630436
 51
189.4252404297
  0
ARC
  5
2AD
100
AcDbEntity
  8
0
100
AcDbCircle
 62
7
  6
CONTINUOUS
 10
9.2205734014
 20
6.344377985
 40
0.696882374
100
AcDbArc
 50
181.0653047949
 51
181.7081987969
  0
ARC
  5
2AE
100
AcDbEntity
  8
0
100
AcDbCircle
 62
7
  6
CONTINUOUS
 10
20.6955366716
 20
18.1331979115
 40
0.6045701846
100
AcDbArc
 50
115.3008209551
 51
180.0363594008
  0
ARC
  5
2AF
100
AcDbEntity
  8
0
100
AcDbCircle
 62
7
  6
CONTINUOUS
 10
17.7147717752
 20
18.1333256276
 40
0.604415391
100
AcDbArc
 50
359.9515263188
 51
64.6490933062
  0
ARC
  5
2B0
100
AcDbEntity
  8
0
100
AcDbCircle
 62
7
  6
CONTINUOUS
 10
5.793033832
 20
6.3444592209
 40
0.5000004512
100
AcDbArc
 50
181.5000561385
 51
254.2791199244
  0
ARC
  5
2B1
100
AcDbEntity
  8
0
100
AcDbCircle
 62
7
  6
CONTINUOUS
 10
32.6171795769
 20
6.3444592209
 40
0.5000004512
100
AcDbArc
 50
285.7208800756
 51
358.4999438615
  0
ARC
  5
2B2
100
AcDbEntity
  8
0
100
AcDbCircle
 62
7
  6
CONTINUOUS
 10
32.6049849043
 20
6.3454487706
 40
0.494174024
100
AcDbArc
 50
353.1082916161
 51
358.5197448532
  0
ARC
  5
2B3
100
AcDbEntity
  8
0
100
AcDbCircle
 62
7
  6
CONTINUOUS
 10
5.8047859666
 20
6.3454185394
 40
0.4937308198
100
AcDbArc
 50
181.4809729354
 51
186.9377401526
  0
ARC
  5
2B4
100
AcDbEntity
  8
0
100
AcDbCircle
 62
7
  6
CONTINUOUS
 10
11.3862045767
 20
32.3381026568
 40
0.4571465538
100
AcDbArc
 50
155.6401969083
 51
180.013780289
  0
ARC
  5
2B5
100
AcDbEntity
  8
0
100
AcDbCircle
 62
7
  6
CONTINUOUS
 10
27.0240089867
 20
32.3381026825
 40
0.4571463994
100
AcDbArc
 50
359.9862164803
 51
24.3598380327
  0
ARC
  5
2B6
100
AcDbEntity
  8
0
100
AcDbCircle
 62
7
  6
CONTINUOUS
 10
19.2051067045
 20
39.7912982639
 40
0.3006294557
100
AcDbArc
 50
24.567088894
 51
155.432911106
  0
ARC
  5
2B7
100
AcDbEntity
  8
0
100
AcDbCircle
 62
7
  6
CONTINUOUS
 10
8.5801067045
 20
34.2418199354
 40
0.25
100
AcDbArc
 50
90.0
 51
180.0
  0
ARC
  5
2B8
100
AcDbEntity
  8
0
100
AcDbCircle
 62
7
  6
CONTINUOUS
 10
29.8301067045
 20
34.2418199354
 40
0.25
100
AcDbArc
 50
0.0
 51
90.0
  0
SPLINE
  5
2B9
100
AcDbEntity
  8
0
100
AcDbSpline
 62
7
  6
CONTINUOUS
 70
0
 71
3
 72
20
 73
16
 74
0
 42
0.0000001
 43
0.0000001
 44
0.0000000001
 40
0.0
 40
0.0
 40
0.0
 40
0.0
 40
0.0115129845
 40
0.0196043665
 40
0.0296149541
 40
0.0557823585
 40
0.0903524843
 40
0.1332068704
 40
0.1840381927
 40
0.2424181952
 40
0.3078184481
 40
0.4572048134
 40
0.6266580252
 40
0.8098543586
 40
1.0
 40
1.0
 40
1.0
 40
1.0
 10
33.3636229533
 20
18.7373673996
 30
0.0
 10
33.3612512486
 20
18.7372747211
 30
0.0
 10
33.3574788386
 20
18.7348697626
 30
0.0
 10
33.3535893334
 20
18.7302496869
 30
0.0
 10
33.348631241
 20
18.7225233042
 30
0.0
 10
33.3426415394
 20
18.7091868735
 30
0.0
 10
33.3356669713
 20
18.6889841626
 30
0.0
 10
33.3285965121
 20
18.6634931292
 30
0.0
 10
33.3215071391
 20
18.6329487556
 30
0.0
 10
33.3145235327
 20
18.5976292954
 30
0.0
 10
33.3050683172
 20
18.5421075962
 30
0.0
 10
33.2944674029
 20
18.4635813458
 30
0.0
 10
33.2841878724
 20
18.3605772479
 30
0.0
 10
33.27647928
 20
18.2489235047
 30
0.0
 10
33.2734742706
 20
18.1720017627
 30
0.0
 10
33.2724657296
 20
18.1328143473
 30
0.0
  0
SPLINE
  5
2BA
100
AcDbEntity
  8
0
100
AcDbSpline
 62
7
  6
CONTINUOUS
 70
0
 71
3
 72
16
 73
12
 74
0
 42
0.0000001
 43
0.0000001
 44
0.0000000001
 40
0.0
 40
0.0
 40
0.0
 40
0.0
 40
0.095794774
 40
0.1984407032
 40
0.310637632
 40
0.4332086603
 40
0.5654811063
 40
0.7057193124
 40
0.8514797836
 40
0.925590073
 40
1.0
 40
1.0
 40
1.0
 40
1.0
 10
30.2567413529
 20
18.7370508048
 30
0.0
 10
30.2318693078
 20
18.7357636326
 30
0.0
 10
30.180527477
 20
18.724900457
 30
0.0
 10
30.1084376659
 20
18.6866882051
 30
0.0
 10
30.0419996669
 20
18.6283840826
 30
0.0
 10
29.9834958495
 20
18.5523584977
 30
0.0
 10
29.934952571
 20
18.4613717263
 30
0.0
 10
29.8981484025
 20
18.3586694217
 30
0.0
 10
29.8786908213
 20
18.2668068899
 30
0.0
 10
29.8697896358
 20
18.1907686799
 30
0.0
 10
29.868153823
 20
18.1521564621
 30
0.0
 10
29.867788625
 20
18.1328143473
 30
0.0
  0
SPLINE
  5
2BB
100
AcDbEntity
  8
0
100
AcDbSpline
 62
7
  6
CONTINUOUS
 70
0
 71
3
 72
16
 73
12
 74
0
 42
0.0000001
 43
0.0000001
 44
0.0000000001
 40
0.0
 40
0.0
 40
0.0
 40
0.0
 40
0.1088609435
 40
0.2216072304
 40
0.3395718034
 40
0.4632070006
 40
0.5921902796
 40
0.7255874158
 40
0.8620283281
 40
0.930942512
 40
1.0
 40
1.0
 40
1.0
 40
1.0
 10
28.1414978616
 20
18.7366418877
 30
0.0
 10
28.1113867833
 20
18.7347389585
 30
0.0
 10
28.0503523581
 20
18.7232002843
 30
0.0
 10
27.9637239579
 20
18.684563888
 30
0.0
 10
27.8839588946
 20
18.6261003128
 30
0.0
 10
27.8139890915
 20
18.5501117231
 30
0.0
 10
27.7563071358
 20
18.4593885883
 30
0.0
 10
27.7129556191
 20
18.3571898185
 30
0.0
 10
27.6903283872
 20
18.2656675817
 30
0.0
 10
27.6803186814
 20
18.1902037702
 30
0.0
 10
27.6786811156
 20
18.1519517799
 30
0.0
 10
27.6784000138
 20
18.1328143473
 30
0.0
  0
SPLINE
  5
2BC
100
AcDbEntity
  8
0
100
AcDbSpline
 62
7
  6
CONTINUOUS
 70
0
 71
3
 72
16
 73
12
 74
0
 42
0.0000001
 43
0.0000001
 44
0.0000000001
 40
0.0
 40
0.0
 40
0.0
 40
0.0
 40
0.009997819
 40
0.025864249
 40
0.0785572681
 40
0.1604281121
 40
0.2715484025
 40
0.4116896531
 40
0.5803585181
 40
0.7767460685
 40
1.0
 40
1.0
 40
1.0
 40
1.0
 10
5.8629980552
 20
5.8291243711
 30
0.0
 10
5.8629928098
 20
5.8294129565
 30
0.0
 10
5.8626060059
 20
5.8301145663
 30
0.0
 10
5.8609498031
 20
5.831643623
 30
0.0
 10
5.8571930759
 20
5.833914399
 30
0.0
 10
5.8508694192
 20
5.8370883456
 30
0.0
 10
5.8420681565
 20
5.8409928162
 30
0.0
 10
5.8308579179
 20
5.8456017401
 30
0.0
 10
5.8172636454
 20
5.8508902169
 30
0.0
 10
5.8013538095
 20
5.8568350364
 30
0.0
 10
5.7899623794
 20
5.8609597291
 30
0.0
 10
5.7838939479
 20
5.8631312361
 30
0.0
  0
SPLINE
  5
2BD
100
AcDbEntity
  8
0
100
AcDbSpline
 62
7
  6
CONTINUOUS
 70
0
 71
3
 72
12
 73
8
 74
0
 42
0.0000001
 43
0.0000001
 44
0.0000000001
 40
0.0
 40
0.0
 40
0.0
 40
0.0
 40
0.1270238283
 40
0.2533386988
 40
0.5040716382
 40
0.7527699093
 40
1.0
 40
1.0
 40
1.0
 40
1.0
 10
10.5498693537
 20
5.8634708131
 30
0.0
 10
10.833506366
 20
5.7518885559
 30
0.0
 10
11.4028204052
 20
5.538390637
 30
0.0
 10
12.5491727267
 20
5.1520591021
 30
0.0
 10
13.9955191991
 20
4.7441691905
 30
0.0
 10
15.7504602407
 20
4.3769506989
 30
0.0
 10
16.9304793406
 20
4.214553705
 30
0.0
 10
17.5206519894
 20
4.1543738972
 30
0.0
  0
SPLINE
  5
2BE
100
AcDbEntity
  8
0
100
AcDbSpline
 62
7
  6
CONTINUOUS
 70
0
 71
3
 72
12
 73
8
 74
0
 42
0.0000001
 43
0.0000001
 44
0.0000000001
 40
0.0
 40
0.0
 40
0.0
 40
0.0
 40
0.2155508549
 40
0.3329884122
 40
0.4568373818
 40
0.7211457861
 40
1.0
 40
1.0
 40
1.0
 40
1.0
 10
8.8142652793
 20
5.8634594701
 30
0.0
 10
8.7766897276
 20
5.8783585132
 30
0.0
 10
8.7233784308
 20
5.9144968356
 30
0.0
 10
8.66658542
 20
5.9788504044
 30
0.0
 10
8.6150483187
 20
6.0588620379
 30
0.0
 10
8.5701349068
 20
6.177138339
 30
0.0
 10
8.5570132564
 20
6.2791374287
 30
0.0
 10
8.556041502
 20
6.3314210516
 30
0.0
  0
SPLINE
  5
2BF
100
AcDbEntity
  8
0
100
AcDbSpline
 62
7
  6
CONTINUOUS
 70
0
 71
3
 72
12
 73
8
 74
0
 42
0.0000001
 43
0.0000001
 44
0.0000000001
 40
0.0
 40
0.0
 40
0.0
 40
0.0
 40
0.1272960156
 40
0.2537347993
 40
0.5043890202
 40
0.7528488206
 40
1.0
 40
1.0
 40
1.0
 40
1.0
 10
8.8142652793
 20
5.8634594701
 30
0.0
 10
9.1635403737
 20
5.7260090762
 30
0.0
 10
9.8652915623
 20
5.4658384494
 30
0.0
 10
11.2803320753
 20
5.0070033364
 30
0.0
 10
13.0692005473
 20
4.5475824766
 30
0.0
 10
15.2417926214
 20
4.1830489112
 30
0.0
 10
16.7006636068
 20
4.0662478706
 30
0.0
 10
17.428931802
 20
4.0396250918
 30
0.0
  0
LINE
  5
2C0
100
AcDbEntity
  8
0
100
AcDbLine
 62
7
  6
CONTINUOUS
 10
17.4373461573
 20
4.0393188842
 11
17.4771940662
 21
4.0379064841
  0
LINE
  5
2C1
100
AcDbEntity
  8
0
100
AcDbLine
 62
7
  6
CONTINUOUS
 10
8.3551212245
 20
17.1428208174
 11
8.556041502
 21
6.3314210516
  0
SPLINE
  5
2C2
100
AcDbEntity
  8
0
100
AcDbSpline
 62
7
  6
CONTINUOUS
 70
0
 71
3
 72
11
 73
7
 74
0
 42
0.0000001
 43
0.0000001
 44
0.0000000001
 40
0.0
 40
0.0
 40
0.0
 40
0.0
 40
0.2500263233
 40
0.5000323266
 40
0.7500193248
 40
1.0
 40
1.0
 40
1.0
 40
1.0
 10
19.2051021454
 20
4.0386617953
 30
0.0
 10
19.2831531734
 20
4.0359441991
 30
0.0
 10
19.4393002678
 20
4.032128032
 30
0.0
 10
19.67351824
 20
4.026769633
 30
0.0
 10
19.907772182
 20
4.0245778189
 30
0.0
 10
20.0639392924
 20
4.0230755501
 30
0.0
 10
20.1420231895
 20
4.0232379356
 30
0.0
  0
SPLINE
  5
2C3
100
AcDbEntity
  8
0
100
AcDbSpline
 62
7
  6
CONTINUOUS
 70
0
 71
3
 72
10
 73
6
 74
0
 42
0.0000001
 43
0.0000001
 44
0.0000000001
 40
0.0
 40
0.0
 40
0.0
 40
0.0
 40
0.2499916647
 40
0.624991444
 40
1.0
 40
1.0
 40
1.0
 40
1.0
 10
33.2723648712
 20
18.1328199354
 30
0.0
 10
33.2443060828
 20
17.1495240848
 30
0.0
 10
33.1743923383
 20
14.6912293661
 30
0.0
 10
33.0650975089
 20
10.7578317073
 30
0.0
 10
32.9837612168
 20
7.8077332254
 30
0.0
 10
32.9434031672
 20
6.3326581989
 30
0.0
  0
SPLINE
  5
2C4
100
AcDbEntity
  8
0
100
AcDbSpline
 62
7
  6
CONTINUOUS
 70
0
 71
3
 72
11
 73
7
 74
0
 42
0.0000001
 43
0.0000001
 44
0.0000000001
 40
0.0
 40
0.0
 40
0.0
 40
0.0
 40
0.3032756628
 40
0.5883328177
 40
0.8277424466
 40
1.0
 40
1.0
 40
1.0
 40
1.0
 10
32.9434031672
 20
6.3326581989
 30
0.0
 10
32.9417495096
 20
6.2722189033
 30
0.0
 10
32.9188762564
 20
6.1545236834
 30
0.0
 10
32.8354526777
 20
6.0089761298
 30
0.0
 10
32.7323202208
 20
5.9130009734
 30
0.0
 10
32.658625812
 20
5.8747788891
 30
0.0
 10
32.6263196199
 20
5.8631312828
 30
0.0
  0
SPLINE
  5
2C5
100
AcDbEntity
  8
0
100
AcDbSpline
 62
7
  6
CONTINUOUS
 70
0
 71
3
 72
16
 73
12
 74
0
 42
0.0000001
 43
0.0000001
 44
0.0000000001
 40
0.0
 40
0.0
 40
0.0
 40
0.0
 40
0.2232548087
 40
0.4196437517
 40
0.5883136298
 40
0.7284546176
 40
0.8395735062
 40
0.9214426722
 40
0.9741348488
 40
0.9900014884
 40
1.0
 40
1.0
 40
1.0
 40
1.0
 10
32.6263196199
 20
5.8631312828
 30
0.0
 10
32.620251162
 20
5.860959767
 30
0.0
 10
32.608859699
 20
5.8568349576
 30
0.0
 10
32.5929498696
 20
5.8508898303
 30
0.0
 10
32.5793556208
 20
5.845601109
 30
0.0
 10
32.5681453702
 20
5.8409922584
 30
0.0
 10
32.5593440643
 20
5.8370881211
 30
0.0
 10
32.5530203505
 20
5.8339145376
 30
0.0
 10
32.5492635781
 20
5.8316439577
 30
0.0
 10
32.5476073708
 20
5.8301148801
 30
0.0
 10
32.5472205886
 20
5.8294132312
 30
0.0
 10
32.5472153437
 20
5.8291246256
 30
0.0
  0
SPLINE
  5
2C6
100
AcDbEntity
  8
0
100
AcDbSpline
 62
7
  6
CONTINUOUS
 70
0
 71
3
 72
15
 73
11
 74
0
 42
0.0000001
 43
0.0000001
 44
0.0000000001
 40
0.0
 40
0.0
 40
0.0
 40
0.0
 40
0.168374134
 40
0.3329201698
 40
0.4887821739
 40
0.6314493949
 40
0.7566195296
 40
0.8605462076
 40
0.9413679462
 40
1.0
 40
1.0
 40
1.0
 40
1.0
 10
29.5329991452
 20
6.3326581065
 30
0.0
 10
29.5323428362
 20
6.3072413563
 30
0.0
 10
29.5292685915
 20
6.2570175674
 30
0.0
 10
29.519969419
 20
6.1837466906
 30
0.0
 10
29.5067268374
 20
6.1150442353
 30
0.0
 10
29.4913891999
 20
6.0529039625
 30
0.0
 10
29.4758098923
 20
5.9989714026
 30
0.0
 10
29.4622236525
 20
5.9541683651
 30
0.0
 10
29.4524236075
 20
5.9187915556
 30
0.0
 10
29.4487385028
 20
5.8978896125
 30
0.0
 10
29.4485842287
 20
5.889037263
 30
0.0
  0
SPLINE
  5
2C7
100
AcDbEntity
  8
0
100
AcDbSpline
 62
7
  6
CONTINUOUS
 70
0
 71
3
 72
12
 73
8
 74
0
 42
0.0000001
 43
0.0000001
 44
0.0000000001
 40
0.0
 40
0.0
 40
0.0
 40
0.0
 40
0.287697155
 40
0.5602523277
 40
0.8019217007
 40
0.9069933707
 40
1.0
 40
1.0
 40
1.0
 40
1.0
 10
27.3693587106
 20
6.3326581065
 30
0.0
 10
27.3685643275
 20
6.2982393775
 30
0.0
 10
27.3653278409
 20
6.2312423275
 30
0.0
 10
27.3566683456
 20
6.1356562892
 30
0.0
 10
27.3484286794
 20
6.0620034493
 30
0.0
 10
27.3437098717
 20
6.0095902813
 30
0.0
 10
27.3424232438
 20
5.9859086171
 30
0.0
 10
27.3422130018
 20
5.9747807659
 30
0.0
  0
SPLINE
  5
2C8
100
AcDbEntity
  8
0
100
AcDbSpline
 62
7
  6
CONTINUOUS
 70
0
 71
3
 72
12
 73
8
 74
0
 42
0.0000001
 43
0.0000001
 44
0.0000000001
 40
0.0
 40
0.0
 40
0.0
 40
0.0
 40
0.2155499196
 40
0.3329846524
 40
0.4568307536
 40
0.7211380401
 40
1.0
 40
1.0
 40
1.0
 40
1.0
 10
10.5498693537
 20
5.8634708131
 30
0.0
 10
10.5122901749
 20
5.8783662815
 30
0.0
 10
10.4589708906
 20
5.9144967542
 30
0.0
 10
10.4021638458
 20
5.9788427525
 30
0.0
 10
10.3506108874
 20
6.0588489143
 30
0.0
 10
10.3056782959
 20
6.1771269437
 30
0.0
 10
10.2925505876
 20
6.2791331084
 30
0.0
 10
10.2915784428
 20
6.331421062
 30
0.0
  0
SPLINE
  5
2C9
100
AcDbEntity
  8
0
100
AcDbSpline
 62
7
  6
CONTINUOUS
 70
0
 71
3
 72
20
 73
16
 74
0
 42
0.0000001
 43
0.0000001
 44
0.0000000001
 40
0.0
 40
0.0
 40
0.0
 40
0.0
 40
0.1902131697
 40
0.3734485321
 40
0.5429306217
 40
0.6923004456
 40
0.7576790336
 40
0.8160306684
 40
0.8668323693
 40
0.9096637819
 40
0.9442150894
 40
0.9703784565
 40
0.9803881548
 40
0.9884817816
 40
1.0
 40
1.0
 40
1.0
 40
1.0
 10
5.1377476793
 20
18.1328143473
 30
0.0
 10
5.1367388067
 20
18.1720146495
 30
0.0
 10
5.1337461787
 20
18.2489569845
 30
0.0
 10
5.1260139594
 20
18.3606341977
 30
0.0
 10
5.1157406495
 20
18.4636466931
 30
0.0
 10
5.1051352675
 20
18.5421683905
 30
0.0
 10
5.0956815664
 20
18.5976749018
 30
0.0
 10
5.0887000309
 20
18.6329770785
 30
0.0
 10
5.0816136719
 20
18.6635041442
 30
0.0
 10
5.0745477242
 20
18.6889804311
 30
0.0
 10
5.0675761673
 20
18.7091735688
 30
0.0
 10
5.0615911475
 20
18.7225061002
 30
0.0
 10
5.0566357642
 20
18.7302333376
 30
0.0
 10
5.0527478051
 20
18.7348558735
 30
0.0
 10
5.0489799962
 20
18.7372689294
 30
0.0
 10
5.0466074833
 20
18.7373668178
 30
0.0
  0
SPLINE
  5
2CA
100
AcDbEntity
  8
0
100
AcDbSpline
 62
7
  6
CONTINUOUS
 70
0
 71
3
 72
11
 73
7
 74
0
 42
0.0000001
 43
0.0000001
 44
0.0000000001
 40
0.0
 40
0.0
 40
0.0
 40
0.0
 40
0.1722702276
 40
0.411680066
 40
0.6967634765
 40
1.0
 40
1.0
 40
1.0
 40
1.0
 10
5.7838939479
 20
5.8631312361
 30
0.0
 10
5.7515836477
 20
5.8747803256
 30
0.0
 10
5.6778803489
 20
5.912998299
 30
0.0
 10
5.5747256857
 20
6.0089772209
 30
0.0
 10
5.4913334841
 20
6.1545526296
 30
0.0
 10
5.4684630648
 20
6.2722481884
 30
0.0
 10
5.4668095319
 20
6.3326829231
 30
0.0
  0
SPLINE
  5
2CB
100
AcDbEntity
  8
0
100
AcDbSpline
 62
7
  6
CONTINUOUS
 70
0
 71
3
 72
10
 73
6
 74
0
 42
0.0000001
 43
0.0000001
 44
0.0000000001
 40
0.0
 40
0.0
 40
0.0
 40
0.0
 40
0.2500064459
 40
0.6250096825
 40
1.0
 40
1.0
 40
1.0
 40
1.0
 10
5.4668095319
 20
6.3326829231
 30
0.0
 10
5.4399041398
 20
7.3160671315
 30
0.0
 10
5.3722116504
 20
9.7744905566
 30
0.0
 10
5.2635065411
 20
13.7078962441
 30
0.0
 10
5.1799369488
 20
16.6578681569
 30
0.0
 10
5.1378485377
 20
18.1328199354
 30
0.0
  0
LINE
  5
2CC
100
AcDbEntity
  8
0
100
AcDbLine
 62
7
  6
CONTINUOUS
 10
10.090595361
 20
17.1428208174
 11
10.2915784428
 21
6.331421062
  0
SPLINE
  5
2CD
100
AcDbEntity
  8
0
100
AcDbSpline
 62
7
  6
CONTINUOUS
 70
0
 71
3
 72
31
 73
27
 74
0
 42
0.0000001
 43
0.0000001
 44
0.0000000001
 40
0.0
 40
0.0
 40
0.0
 40
0.0
 40
0.0120617163
 40
0.0265770638
 40
0.0439323074
 40
0.064288555
 40
0.0876616181
 40
0.1139961912
 40
0.1750920845
 40
0.2095416036
 40
0.246330272
 40
0.3258554176
 40
0.4113582553
 40
0.499999961
 40
0.5886399495
 40
0.6741393623
 40
0.7536652404
 40
0.7904556909
 40
0.8249072679
 40
0.8860076171
 40
0.91234292
 40
0.9357154439
 40
0.9560708159
 40
0.9734247602
 40
0.9879387512
 40
1.0
 40
1.0
 40
1.0
 40
1.0
 10
9.0070676773
 20
37.5468263559
 30
0.0
 10
9.0172544593
 20
37.5501613715
 30
0.0
 10
9.0383878829
 20
37.5615084643
 30
0.0
 10
9.0679016546
 20
37.5873364746
 30
0.0
 10
9.0978166347
 20
37.623005947
 30
0.0
 10
9.1278298494
 20
37.6683350471
 30
0.0
 10
9.1576749306
 20
37.7230490701
 30
0.0
 10
9.198786939
 20
37.8125868766
 30
0.0
 10
9.2351743918
 20
37.9148397556
 30
0.0
 10
9.2675723192
 20
38.0279035782
 30
0.0
 10
9.2990838437
 20
38.1581625666
 30
0.0
 10
9.3308447419
 20
38.3348634558
 30
0.0
 10
9.3544275993
 20
38.5592422273
 30
0.0
 10
9.3625079485
 20
38.7928193848
 30
0.0
 10
9.3544286136
 20
39.0263934997
 30
0.0
 10
9.3308472553
 20
39.2507685497
 30
0.0
 10
9.2990848494
 20
39.4274683274
 30
0.0
 10
9.2675731112
 20
39.5577314417
 30
0.0
 10
9.2351717335
 20
39.6708019921
 30
0.0
 10
9.1987810975
 20
39.7730604327
 30
0.0
 10
9.1576697868
 20
39.8626030758
 30
0.0
 10
9.127826494
 20
39.9173173732
 30
0.0
 10
9.09781565
 20
39.9626452017
 30
0.0
 10
9.0679015563
 20
39.9983114829
 30
0.0
 10
9.0383869925
 20
40.0241346664
 30
0.0
 10
9.0172540645
 20
40.0354786285
 30
0.0
 10
9.0070676773
 20
40.0388135148
 30
0.0
  0
SPLINE
  5
2CE
100
AcDbEntity
  8
0
100
AcDbSpline
 62
7
  6
CONTINUOUS
 70
0
 71
3
 72
19
 73
15
 74
0
 42
0.0000001
 43
0.0000001
 44
0.0000000001
 40
0.0
 40
0.0
 40
0.0
 40
0.0
 40
0.0241286672
 40
0.0531559482
 40
0.0878606002
 40
0.1285614198
 40
0.1752959432
 40
0.2279695376
 40
0.3501614961
 40
0.419079809
 40
0.4926454438
 40
0.6516830101
 40
0.8227567165
 40
1.0
 40
1.0
 40
1.0
 40
1.0
 10
29.4031457316
 20
40.0388135148
 30
0.0
 10
29.3929567487
 20
40.0354777786
 30
0.0
 10
29.3718208651
 20
40.024133973
 30
0.0
 10
29.3423078749
 20
39.9983065837
 30
0.0
 10
29.3124087462
 20
39.9626357305
 30
0.0
 10
29.2824135662
 20
39.9173106406
 30
0.0
 10
29.2525756496
 20
39.8626027086
 30
0.0
 10
29.2114441916
 20
39.7730783143
 30
0.0
 10
29.1749896229
 20
39.6708375053
 30
0.0
 10
29.1425924068
 20
39.5577694019
 30
0.0
 10
29.11108967
 20
39.4275100386
 30
0.0
 10
29.0795100129
 20
39.250753833
 30
0.0
 10
29.0558682138
 20
39.0263961669
 30
0.0
 10
29.0502831884
 20
38.8715746919
 30
0.0
 10
29.0502831884
 20
38.7928199354
 30
0.0
  0
SPLINE
  5
2CF
100
AcDbEntity
  8
0
100
AcDbSpline
 62
7
  6
CONTINUOUS
 70
0
 71
3
 72
18
 73
14
 74
0
 42
0.0000001
 43
0.0000001
 44
0.0000000001
 40
0.0
 40
0.0
 40
0.0
 40
0.0
 40
0.1772562302
 40
0.3483455936
 40
0.5073886043
 40
0.6498423162
 40
0.7720341818
 40
0.8247067474
 40
0.8714381165
 40
0.9121358942
 40
0.9468402375
 40
0.9758693921
 40
1.0
 40
1.0
 40
1.0
 40
1.0
 10
29.0502831884
 20
38.7928199354
 30
0.0
 10
29.0502831884
 20
38.7140617407
 30
0.0
 10
29.0558649118
 20
38.5592330822
 30
0.0
 10
29.0795134364
 20
38.3348624335
 30
0.0
 10
29.1164964272
 20
38.1279574312
 30
0.0
 10
29.1640127507
 20
37.9456052894
 30
0.0
 10
29.2114532391
 20
37.8125488677
 30
0.0
 10
29.2525831634
 20
37.7230266633
 30
0.0
 10
29.2824136225
 20
37.6683209324
 30
0.0
 10
29.312402861
 20
37.6229970657
 30
0.0
 10
29.3423019389
 20
37.5873284856
 30
0.0
 10
29.3718187812
 20
37.561504672
 30
0.0
 10
29.3929562286
 20
37.5501622624
 30
0.0
 10
29.4031457316
 20
37.5468263559
 30
0.0
  0
SPLINE
  5
2D0
100
AcDbEntity
  8
0
100
AcDbSpline
 62
7
  6
CONTINUOUS
 70
0
 71
3
 72
15
 73
11
 74
0
 42
0.0000001
 43
0.0000001
 44
0.0000000001
 40
0.0
 40
0.0
 40
0.0
 40
0.0
 40
0.11575806
 40
0.2347351965
 40
0.3572665955
 40
0.48265129
 40
0.6101207854
 40
0.7390803011
 40
0.8691406588
 40
1.0
 40
1.0
 40
1.0
 40
1.0
 10
12.3779263462
 20
34.1518199349
 30
0.0
 10
12.2938282379
 20
34.1365849712
 30
0.0
 10
12.1282265235
 20
34.0753127265
 30
0.0
 10
11.9111674329
 20
33.9225251157
 30
0.0
 10
11.7180554154
 20
33.7313659468
 30
0.0
 10
11.5438525698
 20
33.5153171184
 30
0.0
 10
11.3844195554
 20
33.2825865374
 30
0.0
 10
11.2366589762
 20
33.0383358992
 30
0.0
 10
11.0985081371
 20
32.7857174826
 30
0.0
 10
11.0119581376
 20
32.613572199
 30
0.0
 10
10.9697562913
 20
32.5266598027
 30
0.0
  0
SPLINE
  5
2D1
100
AcDbEntity
  8
0
100
AcDbSpline
 62
7
  6
CONTINUOUS
 70
0
 71
3
 72
9
 73
5
 74
0
 42
0.0000001
 43
0.0000001
 44
0.0000000001
 40
0.0
 40
0.0
 40
0.0
 40
0.0
 40
0.526517022
 40
1.0
 40
1.0
 40
1.0
 40
1.0
 10
17.8023145144
 20
5.8277637997
 30
0.0
 10
17.8758265036
 20
5.8277637997
 30
0.0
 10
18.0154997558
 20
5.833155901
 30
0.0
 10
18.1542968586
 20
5.8507471282
 30
0.0
 10
18.2192339452
 20
5.8631311567
 30
0.0
  0
SPLINE
  5
2D2
100
AcDbEntity
  8
0
100
AcDbSpline
 62
7
  6
CONTINUOUS
 70
0
 71
3
 72
16
 73
12
 74
0
 42
0.0000001
 43
0.0000001
 44
0.0000000001
 40
0.0
 40
0.0
 40
0.0
 40
0.0
 40
0.1173830089
 40
0.2275915292
 40
0.3350313409
 40
0.3900778073
 40
0.4471847879
 40
0.5695746025
 40
0.7042742947
 40
0.8493389676
 40
1.0
 40
1.0
 40
1.0
 40
1.0
 10
18.2192339452
 20
5.8631311567
 30
0.0
 10
18.2424273415
 20
5.8675879998
 30
0.0
 10
18.2870195284
 20
5.8787934001
 30
0.0
 10
18.3487367642
 20
5.9072503538
 30
0.0
 10
18.3915653265
 20
5.9427149603
 30
0.0
 10
18.4192012882
 20
5.9773333928
 30
0.0
 10
18.4436610449
 20
6.0178287516
 30
0.0
 10
18.4667455292
 20
6.0771685228
 30
0.0
 10
18.4834881217
 20
6.1565468466
 30
0.0
 10
18.4921760814
 20
6.2428283547
 30
0.0
 10
18.4934764806
 20
6.3023714867
 30
0.0
 10
18.4931475212
 20
6.3326830438
 30
0.0
  0
SPLINE
  5
2D3
100
AcDbEntity
  8
0
100
AcDbSpline
 62
7
  6
CONTINUOUS
 70
0
 71
3
 72
9
 73
5
 74
0
 42
0.0000001
 43
0.0000001
 44
0.0000000001
 40
0.0
 40
0.0
 40
0.0
 40
0.0
 40
0.5043750706
 40
1.0
 40
1.0
 40
1.0
 40
1.0
 10
14.3618539762
 20
32.3379927078
 30
0.0
 10
14.3618539762
 20
32.3714002022
 30
0.0
 10
14.3515962417
 20
32.4379959502
 30
0.0
 10
14.3232432673
 20
32.498754659
 30
0.0
 10
14.3059527045
 20
32.5266600188
 30
0.0
  0
SPLINE
  5
2D4
100
AcDbEntity
  8
0
100
AcDbSpline
 62
7
  6
CONTINUOUS
 70
0
 71
3
 72
16
 73
12
 74
0
 42
0.0000001
 43
0.0000001
 44
0.0000000001
 40
0.0
 40
0.0
 40
0.0
 40
0.0
 40
0.1400787
 40
0.2759935528
 40
0.4045315125
 40
0.5253141545
 40
0.5836019343
 40
0.641093165
 40
0.756182493
 40
0.8751881452
 40
1.0
 40
1.0
 40
1.0
 40
1.0
 10
17.0128061585
 20
6.3326581989
 30
0.0
 10
17.0126459775
 20
6.3023172439
 30
0.0
 10
17.0153908823
 20
6.2424635854
 30
0.0
 10
17.029562162
 20
6.1557605852
 30
0.0
 10
17.0549312789
 20
6.0758665655
 30
0.0
 10
17.0873138849
 20
6.0169799109
 30
0.0
 10
17.1195751929
 20
5.9770193481
 30
0.0
 10
17.155665127
 20
5.9422337905
 30
0.0
 10
17.208950858
 20
5.9071706715
 30
0.0
 10
17.2818471009
 20
5.8789897232
 30
0.0
 10
17.3335811368
 20
5.8676416976
 30
0.0
 10
17.360236768
 20
5.8631312828
 30
0.0
  0
SPLINE
  5
2D5
100
AcDbEntity
  8
0
100
AcDbSpline
 62
7
  6
CONTINUOUS
 70
0
 71
3
 72
9
 73
5
 74
0
 42
0.0000001
 43
0.0000001
 44
0.0000000001
 40
0.0
 40
0.0
 40
0.0
 40
0.0
 40
0.488633107
 40
1.0
 40
1.0
 40
1.0
 40
1.0
 10
17.360236768
 20
5.8631312828
 30
0.0
 10
17.431533332
 20
5.8511582278
 30
0.0
 10
17.5786544224
 20
5.8336512283
 30
0.0
 10
17.726656064
 20
5.8277637997
 30
0.0
 10
17.8023145144
 20
5.8277637997
 30
0.0
  0
LINE
  5
2D6
100
AcDbEntity
  8
0
100
AcDbLine
 62
7
  6
CONTINUOUS
 10
10.9290580361
 20
32.3379927078
 11
10.9291436664
 21
32.3274704114
  0
LINE
  5
2D7
100
AcDbEntity
  8
0
100
AcDbLine
 62
7
  6
CONTINUOUS
 10
14.3617357941
 20
32.3274704114
 11
14.3618539762
 21
32.3379927078
  0
SPLINE
  5
2D8
100
AcDbEntity
  8
0
100
AcDbSpline
 62
7
  6
CONTINUOUS
 70
0
 71
3
 72
12
 73
8
 74
0
 42
0.0000001
 43
0.0000001
 44
0.0000000001
 40
0.0
 40
0.0
 40
0.0
 40
0.0
 40
0.2789791449
 40
0.5430665632
 40
0.6668329892
 40
0.7842497381
 40
1.0
 40
1.0
 40
1.0
 40
1.0
 10
8.5240007186
 20
6.3236044254
 30
0.0
 10
8.5255386419
 20
6.2720300686
 30
0.0
 10
8.5394432891
 20
6.1715976586
 30
0.0
 10
8.5846687658
 20
6.0553595351
 30
0.0
 10
8.6359723065
 20
5.9768343949
 30
0.0
 10
8.6923340728
 20
5.9136521125
 30
0.0
 10
8.7450110682
 20
5.8781719351
 30
0.0
 10
8.7821063281
 20
5.8634682803
 30
0.0
  0
SPLINE
  5
2D9
100
AcDbEntity
  8
0
100
AcDbSpline
 62
7
  6
CONTINUOUS
 70
0
 71
3
 72
11
 73
7
 74
0
 42
0.0000001
 43
0.0000001
 44
0.0000000001
 40
0.0
 40
0.0
 40
0.0
 40
0.0
 40
0.2499868477
 40
0.4999842774
 40
0.749989272
 40
1.0
 40
1.0
 40
1.0
 40
1.0
 10
5.0118353756
 20
18.1328199354
 30
0.0
 10
5.0364337861
 20
17.1495160406
 30
0.0
 10
5.0860835678
 20
15.1828779583
 30
0.0
 10
5.1605860014
 20
12.2328709871
 30
0.0
 10
5.2354997445
 20
9.2827803978
 30
0.0
 10
5.2859821797
 20
7.3160397593
 30
0.0
 10
5.3112200713
 20
6.3326580783
 30
0.0
  0
SPLINE
  5
2DA
100
AcDbEntity
  8
0
100
AcDbSpline
 62
7
  6
CONTINUOUS
 70
0
 71
3
 72
13
 73
9
 74
0
 42
0.0000001
 43
0.0000001
 44
0.0000000001
 40
0.0
 40
0.0
 40
0.0
 40
0.0
 40
0.1422285057
 40
0.283278585
 40
0.4217511703
 40
0.5558437713
 40
0.7999395087
 40
1.0
 40
1.0
 40
1.0
 40
1.0
 10
5.314670247
 20
6.2857804322
 30
0.0
 10
5.3181176327
 20
6.2574174776
 30
0.0
 10
5.329844949
 20
6.201382863
 30
0.0
 10
5.3615989292
 20
6.122393682
 30
0.0
 10
5.4055246507
 20
6.0513703478
 30
0.0
 10
5.4742808161
 20
5.973097743
 30
0.0
 10
5.5702410507
 20
5.9044186086
 30
0.0
 10
5.6546538305
 20
5.8730141249
 30
0.0
 10
5.6936090931
 20
5.8631313619
 30
0.0
  0
SPLINE
  5
2DB
100
AcDbEntity
  8
0
100
AcDbSpline
 62
7
  6
CONTINUOUS
 70
0
 71
3
 72
9
 73
5
 74
0
 42
0.0000001
 43
0.0000001
 44
0.0000000001
 40
0.0
 40
0.0
 40
0.0
 40
0.0
 40
0.590429069
 40
1.0
 40
1.0
 40
1.0
 40
1.0
 10
5.6936090931
 20
5.8631313619
 30
0.0
 10
5.7201747095
 20
5.8564424091
 30
0.0
 10
5.7652386342
 20
5.8454080638
 30
0.0
 10
5.8105321372
 20
5.835264495
 30
0.0
 10
5.8292096367
 20
5.8317606722
 30
0.0
  0
SPLINE
  5
2DC
100
AcDbEntity
  8
0
100
AcDbSpline
 62
7
  6
CONTINUOUS
 70
0
 71
3
 72
9
 73
5
 74
0
 42
0.0000001
 43
0.0000001
 44
0.0000000001
 40
0.0
 40
0.0
 40
0.0
 40
0.0
 40
0.6165360574
 40
1.0
 40
1.0
 40
1.0
 40
1.0
 10
5.8292096367
 20
5.8317606722
 30
0.0
 10
5.8351710173
 20
5.8306423414
 30
0.0
 10
5.8448557774
 20
5.8289892443
 30
0.0
 10
5.8546581055
 20
5.8277637997
 30
0.0
 10
5.8584305547
 20
5.8277637997
 30
0.0
  0
LINE
  5
2DD
100
AcDbEntity
  8
0
100
AcDbLine
 62
7
  6
CONTINUOUS
 10
24.0483594327
 20
32.3379927078
 11
24.0484776148
 21
32.3274704114
  0
SPLINE
  5
2DE
100
AcDbEntity
  8
0
100
AcDbSpline
 62
7
  6
CONTINUOUS
 70
0
 71
3
 72
9
 73
5
 74
0
 42
0.0000001
 43
0.0000001
 44
0.0000000001
 40
0.0
 40
0.0
 40
0.0
 40
0.0
 40
0.4956275394
 40
1.0
 40
1.0
 40
1.0
 40
1.0
 10
24.104260566
 20
32.5266598027
 30
0.0
 10
24.0869699339
 20
32.4987543319
 30
0.0
 10
24.0586171011
 20
32.4379956356
 30
0.0
 10
24.0483594327
 20
32.3713999866
 30
0.0
 10
24.0483594327
 20
32.3379927078
 30
0.0
  0
SPLINE
  5
2DF
100
AcDbEntity
  8
0
100
AcDbSpline
 62
7
  6
CONTINUOUS
 70
0
 71
3
 72
12
 73
8
 74
0
 42
0.0000001
 43
0.0000001
 44
0.0000000001
 40
0.0
 40
0.0
 40
0.0
 40
0.0
 40
0.2471706493
 40
0.4956346786
 40
0.7462811737
 40
0.8727127277
 40
1.0
 40
1.0
 40
1.0
 40
1.0
 10
17.4373397493
 20
4.0392693141
 30
0.0
 10
16.708154484
 20
4.0646755136
 30
0.0
 10
15.2473804735
 20
4.1791452233
 30
0.0
 10
13.0717386108
 20
4.5407239368
 30
0.0
 10
11.2802412432
 20
4.9981140041
 30
0.0
 10
9.8630810196
 20
5.4555817546
 30
0.0
 10
9.1602636945
 20
5.7151521717
 30
0.0
 10
8.81045872
 20
5.8523320398
 30
0.0
  0
SPLINE
  5
2E0
100
AcDbEntity
  8
0
100
AcDbSpline
 62
7
  6
CONTINUOUS
 70
0
 71
3
 72
11
 73
7
 74
0
 42
0.0000001
 43
0.0000001
 44
0.0000000001
 40
0.0
 40
0.0
 40
0.0
 40
0.0
 40
0.2499828182
 40
0.4999714018
 40
0.7499775848
 40
1.0
 40
1.0
 40
1.0
 40
1.0
 10
20.0536348419
 20
4.0219716783
 30
0.0
 10
19.9829168029
 20
4.0219716783
 30
0.0
 10
19.8414855745
 20
4.0236871333
 30
0.0
 10
19.6293318303
 20
4.0257742127
 30
0.0
 10
19.4172122245
 20
4.0306582707
 30
0.0
 10
19.2757919149
 20
4.033875777
 30
0.0
 10
19.2051021151
 20
4.0362374891
 30
0.0
  0
SPLINE
  5
2E1
100
AcDbEntity
  8
0
100
AcDbSpline
 62
7
  6
CONTINUOUS
 70
0
 71
3
 72
12
 73
8
 74
0
 42
0.0000001
 43
0.0000001
 44
0.0000000001
 40
0.0
 40
0.0
 40
0.0
 40
0.0
 40
0.2472446853
 40
0.4959471186
 40
0.7466748289
 40
0.8729838645
 40
1.0
 40
1.0
 40
1.0
 40
1.0
 10
17.5198136044
 20
4.1496623698
 30
0.0
 10
16.9293860516
 20
4.2090488845
 30
0.0
 10
15.7488260069
 20
4.3698890326
 30
0.0
 10
13.9929600111
 20
4.7348920694
 30
0.0
 10
12.5457728904
 20
5.1410368574
 30
0.0
 10
11.3987207835
 20
5.5260331878
 30
0.0
 10
10.8290414787
 20
5.7388690709
 30
0.0
 10
10.5452244565
 20
5.8501373261
 30
0.0
  0
SPLINE
  5
2E2
100
AcDbEntity
  8
0
100
AcDbSpline
 62
7
  6
CONTINUOUS
 70
0
 71
3
 72
9
 73
5
 74
0
 42
0.0000001
 43
0.0000001
 44
0.0000000001
 40
0.0
 40
0.0
 40
0.0
 40
0.0
 40
0.2645105672
 40
1.0
 40
1.0
 40
1.0
 40
1.0
 10
10.3248363216
 20
6.0428199354
 30
0.0
 10
10.332405033
 20
6.0286647214
 30
0.0
 10
10.3635262846
 20
5.9765963368
 30
0.0
 10
10.4050270186
 20
5.930214822
 30
0.0
 10
10.4407023881
 20
5.9033942076
 30
0.0
  0
SPLINE
  5
2E3
100
AcDbEntity
  8
0
100
AcDbSpline
 62
7
  6
CONTINUOUS
 70
0
 71
3
 72
9
 73
5
 74
0
 42
0.0000001
 43
0.0000001
 44
0.0000000001
 40
0.0
 40
0.0
 40
0.0
 40
0.0
 40
0.2566904211
 40
1.0
 40
1.0
 40
1.0
 40
1.0
 10
10.4407023881
 20
5.9033942076
 30
0.0
 10
10.4462302182
 20
5.8992384048
 30
0.0
 10
10.4682575286
 20
5.8837211812
 30
0.0
 10
10.4922934399
 20
5.8709972123
 30
0.0
 10
10.5109096611
 20
5.8636157137
 30
0.0
  0
LINE
  5
2E4
100
AcDbEntity
  8
0
100
AcDbLine
 62
7
  6
CONTINUOUS
 10
10.2530971889
 20
6.33145023
 11
10.052177448
 21
17.1428211279
  0
SPLINE
  5
2E5
100
AcDbEntity
  8
0
100
AcDbSpline
 62
7
  6
CONTINUOUS
 70
0
 71
3
 72
9
 73
5
 74
0
 42
0.0000001
 43
0.0000001
 44
0.0000000001
 40
0.0
 40
0.0
 40
0.0
 40
0.0
 40
0.2580224678
 40
1.0
 40
1.0
 40
1.0
 40
1.0
 10
10.2624260479
 20
6.2297282341
 30
0.0
 10
10.2652274707
 20
6.2129768991
 30
0.0
 10
10.278555836
 20
6.1485158166
 30
0.0
 10
10.3016380731
 20
6.0858893692
 30
0.0
 10
10.3246670513
 20
6.0428199354
 30
0.0
  0
LINE
  5
2E6
100
AcDbEntity
  8
0
100
AcDbLine
 62
7
  6
CONTINUOUS
 10
8.5238114809
 20
6.3314215445
 11
8.3228284081
 21
17.1428208174
  0
SPLINE
  5
2E7
100
AcDbEntity
  8
0
100
AcDbSpline
 62
7
  6
CONTINUOUS
 70
0
 71
3
 72
13
 73
9
 74
0
 42
0.0000001
 43
0.0000001
 44
0.0000000001
 40
0.0
 40
0.0
 40
0.0
 40
0.0
 40
0.3230020768
 40
0.4572910634
 40
0.5768312087
 40
0.6857157346
 40
0.789230941
 40
1.0
 40
1.0
 40
1.0
 40
1.0
 10
27.3422130018
 20
5.9747807659
 30
0.0
 10
27.3419484604
 20
5.9607789186
 30
0.0
 10
27.3423954314
 20
5.9408459453
 30
0.0
 10
27.3468745935
 20
5.9161860558
 30
0.0
 10
27.3518120327
 20
5.9011843509
 30
0.0
 10
27.3587415708
 20
5.8884651072
 30
0.0
 10
27.3706391997
 20
5.8743471526
 30
0.0
 10
27.3824866555
 20
5.8668878923
 30
0.0
 10
27.390817118
 20
5.8631313615
 30
0.0
  0
SPLINE
  5
2E8
100
AcDbEntity
  8
0
100
AcDbSpline
 62
7
  6
CONTINUOUS
 70
0
 71
3
 72
11
 73
7
 74
0
 42
0.0000001
 43
0.0000001
 44
0.0000000001
 40
0.0
 40
0.0
 40
0.0
 40
0.0
 40
0.24999358
 40
0.5000014989
 40
0.7500071615
 40
1.0
 40
1.0
 40
1.0
 40
1.0
 10
19.2051067045
 20
47.9918199354
 30
0.0
 10
19.4473085511
 20
47.9918199354
 30
0.0
 10
19.9319047325
 20
47.9744810806
 30
0.0
 10
20.6549532875
 20
47.8968704797
 30
0.0
 10
21.3709740844
 20
47.7701566055
 30
0.0
 10
21.842018874
 20
47.6556902298
 30
0.0
 10
22.0756467233
 20
47.5918199354
 30
0.0
  0
SPLINE
  5
2E9
100
AcDbEntity
  8
0
100
AcDbSpline
 62
7
  6
CONTINUOUS
 70
0
 71
3
 72
11
 73
7
 74
0
 42
0.0000001
 43
0.0000001
 44
0.0000000001
 40
0.0
 40
0.0
 40
0.0
 40
0.0
 40
0.2499928716
 40
0.499998569
 40
0.7500064527
 40
1.0
 40
1.0
 40
1.0
 40
1.0
 10
16.3345666856
 20
47.5918199354
 30
0.0
 10
16.5681945659
 20
47.6556902382
 30
0.0
 10
17.0392394239
 20
47.7701566143
 30
0.0
 10
17.7552602534
 20
47.8968704756
 30
0.0
 10
18.4783087708
 20
47.9744811431
 30
0.0
 10
18.9629048895
 20
47.9918199354
 30
0.0
 10
19.2051067045
 20
47.9918199354
 30
0.0
  0
SPLINE
  5
2EA
100
AcDbEntity
  8
0
100
AcDbSpline
 62
7
  6
CONTINUOUS
 70
0
 71
3
 72
21
 73
17
 74
0
 42
0.0000001
 43
0.0000001
 44
0.0000000001
 40
0.0
 40
0.0
 40
0.0
 40
0.0
 40
0.1929806807
 40
0.3784673527
 40
0.5494210123
 40
0.6992737629
 40
0.7644798583
 40
0.8223754586
 40
0.8724393293
 40
0.9142638175
 40
0.9475674007
 40
0.9723030085
 40
0.9815821698
 40
0.9889939286
 40
0.9948961127
 40
1.0
 40
1.0
 40
1.0
 40
1.0
 10
33.3984131631
 20
18.1328143473
 30
0.0
 10
33.399445276
 20
18.1721990586
 30
0.0
 10
33.4010401978
 20
18.2494513303
 30
0.0
 10
33.4018428044
 20
18.3616203774
 30
0.0
 10
33.4009546924
 20
18.4649837694
 30
0.0
 10
33.3985661268
 20
18.5437667463
 30
0.0
 10
33.395399358
 20
18.599405197
 30
0.0
 10
33.3925976329
 20
18.6346515263
 30
0.0
 10
33.3892576696
 20
18.6650518077
 30
0.0
 10
33.3854066339
 20
18.690335802
 30
0.0
 10
33.3810502475
 20
18.7102574529
 30
0.0
 10
33.3767759014
 20
18.7233918263
 30
0.0
 10
33.3728228049
 20
18.7308972638
 30
0.0
 10
33.3700039162
 20
18.7345855754
 30
0.0
 10
33.3669561243
 20
18.7369134512
 30
0.0
 10
33.3646641497
 20
18.7374080862
 30
0.0
 10
33.3636229533
 20
18.7373673996
 30
0.0
  0
SPLINE
  5
2EB
100
AcDbEntity
  8
0
100
AcDbSpline
 62
7
  6
CONTINUOUS
 70
0
 71
3
 72
11
 73
7
 74
0
 42
0.0000001
 43
0.0000001
 44
0.0000000001
 40
0.0
 40
0.0
 40
0.0
 40
0.0
 40
0.1316153364
 40
0.3433832865
 40
0.6337459571
 40
1.0
 40
1.0
 40
1.0
 40
1.0
 10
32.5517828542
 20
5.8277637997
 30
0.0
 10
32.5555693651
 20
5.8277637997
 30
0.0
 10
32.5654119879
 20
5.8289947431
 30
0.0
 10
32.583364337
 20
5.832078292
 30
0.0
 10
32.607839397
 20
5.8371520336
 30
0.0
 10
32.6262665541
 20
5.8412997091
 30
0.0
 10
32.6365324099
 20
5.8436744998
 30
0.0
  0
SPLINE
  5
2EC
100
AcDbEntity
  8
0
100
AcDbSpline
 62
7
  6
CONTINUOUS
 70
0
 71
3
 72
9
 73
5
 74
0
 42
0.0000001
 43
0.0000001
 44
0.0000000001
 40
0.0
 40
0.0
 40
0.0
 40
0.0
 40
0.2226763153
 40
1.0
 40
1.0
 40
1.0
 40
1.0
 10
32.6365324099
 20
5.8436744998
 30
0.0
 10
32.6424913486
 20
5.8450529754
 30
0.0
 10
32.6692307895
 20
5.8513346719
 30
0.0
 10
32.6958986509
 20
5.8579179268
 30
0.0
 10
32.7166033458
 20
5.8631311567
 30
0.0
  0
SPLINE
  5
2ED
100
AcDbEntity
  8
0
100
AcDbSpline
 62
7
  6
CONTINUOUS
 70
0
 71
3
 72
13
 73
9
 74
0
 42
0.0000001
 43
0.0000001
 44
0.0000000001
 40
0.0
 40
0.0
 40
0.0
 40
0.0
 40
0.2000768053
 40
0.4441778713
 40
0.5782905043
 40
0.7167714134
 40
0.8578046153
 40
1.0
 40
1.0
 40
1.0
 40
1.0
 10
32.7166033458
 20
5.8631311567
 30
0.0
 10
32.7555864512
 20
5.873020978
 30
0.0
 10
32.8400544069
 20
5.9044499293
 30
0.0
 10
32.9360863726
 20
5.9731816813
 30
0.0
 10
33.0048385706
 20
6.0515566691
 30
0.0
 10
33.048752037
 20
6.122651988
 30
0.0
 10
33.0804692334
 20
6.2017054875
 30
0.0
 10
33.092162096
 20
6.2577742375
 30
0.0
 10
33.0955883813
 20
6.2861512631
 30
0.0
  0
SPLINE
  5
2EE
100
AcDbEntity
  8
0
100
AcDbSpline
 62
7
  6
CONTINUOUS
 70
0
 71
3
 72
11
 73
7
 74
0
 42
0.0000001
 43
0.0000001
 44
0.0000000001
 40
0.0
 40
0.0
 40
0.0
 40
0.0
 40
0.250010728
 40
0.5000157226
 40
0.7500131523
 40
1.0
 40
1.0
 40
1.0
 40
1.0
 10
33.0989940158
 20
6.3326830438
 30
0.0
 10
33.1242318532
 20
7.3160626441
 30
0.0
 10
33.174714148
 20
9.2827991222
 30
0.0
 10
33.2496277132
 20
12.2328834701
 30
0.0
 10
33.3241300034
 20
15.1828841995
 30
0.0
 10
33.3737796749
 20
17.149518121
 30
0.0
 10
33.3983780333
 20
18.1328199354
 30
0.0
  0
LINE
  5
2EF
100
AcDbEntity
  8
0
100
AcDbLine
 62
7
  6
CONTINUOUS
 10
27.4810697425
 20
32.3274704114
 11
27.4811553729
 21
32.3379927078
  0
SPLINE
  5
2F0
100
AcDbEntity
  8
0
100
AcDbSpline
 62
7
  6
CONTINUOUS
 70
0
 71
3
 72
20
 73
16
 74
0
 42
0.0000001
 43
0.0000001
 44
0.0000000001
 40
0.0
 40
0.0
 40
0.0
 40
0.0
 40
0.1251518682
 40
0.2500654758
 40
0.3747729084
 40
0.4372073824
 40
0.4996313302
 40
0.6242656772
 40
0.7490720994
 40
0.81169361
 40
0.8743817396
 40
0.9057639633
 40
0.9371650183
 40
0.9685744642
 40
1.0
 40
1.0
 40
1.0
 40
1.0
 10
17.9735690248
 20
18.6795587955
 30
0.0
 10
17.928056668
 20
18.7011241966
 30
0.0
 10
17.8312284702
 20
18.7328749486
 30
0.0
 10
17.6792122734
 20
18.7426163473
 30
0.0
 10
17.5544303672
 20
18.7186392883
 30
0.0
 10
17.4609746886
 20
18.6812399208
 30
0.0
 10
17.3730141471
 20
18.632341974
 30
0.0
 10
17.2757467856
 20
18.5507854368
 30
0.0
 10
17.2020175455
 20
18.4473700351
 30
0.0
 10
17.1598592415
 20
18.3557422176
 30
0.0
 10
17.1407586463
 20
18.2954499749
 30
0.0
 10
17.130141814
 20
18.2460631406
 30
0.0
 10
17.1243444752
 20
18.2085777718
 30
0.0
 10
17.1211521527
 20
18.170758296
 30
0.0
 10
17.1207312264
 20
18.1454603246
 30
0.0
 10
17.1207939954
 20
18.1328143473
 30
0.0
  0
SPLINE
  5
2F1
100
AcDbEntity
  8
0
100
AcDbSpline
 62
7
  6
CONTINUOUS
 70
0
 71
3
 72
15
 73
11
 74
0
 42
0.0000001
 43
0.0000001
 44
0.0000000001
 40
0.0
 40
0.0
 40
0.0
 40
0.0
 40
0.1534566595
 40
0.3026292264
 40
0.4440906608
 40
0.5752140962
 40
0.6947012318
 40
0.8030981587
 40
0.9032146168
 40
1.0
 40
1.0
 40
1.0
 40
1.0
 10
30.6260633152
 20
18.1328143473
 30
0.0
 10
30.6269340573
 20
18.1729257286
 30
0.0
 10
30.624307264
 20
18.2522299762
 30
0.0
 10
30.6056643604
 20
18.3671452026
 30
0.0
 10
30.5737992448
 20
18.4730900433
 30
0.0
 10
30.5293138599
 20
18.565976373
 30
0.0
 10
30.4735343355
 20
18.6422706097
 30
0.0
 10
30.4078431732
 20
18.698833902
 30
0.0
 10
30.3342482467
 20
18.7326667082
 30
0.0
 10
30.2820118136
 20
18.7383585957
 30
0.0
 10
30.2567413529
 20
18.7370508048
 30
0.0
  0
SPLINE
  5
2F2
100
AcDbEntity
  8
0
100
AcDbSpline
 62
7
  6
CONTINUOUS
 70
0
 71
3
 72
10
 73
6
 74
0
 42
0.0000001
 43
0.0000001
 44
0.0000000001
 40
0.0
 40
0.0
 40
0.0
 40
0.0
 40
0.2110053169
 40
0.4511702858
 40
1.0
 40
1.0
 40
1.0
 40
1.0
 10
29.6345557865
 20
5.8277638003
 30
0.0
 10
29.6603912561
 20
5.8277638003
 30
0.0
 10
29.7156355594
 20
5.8296054701
 30
0.0
 10
29.8377138116
 20
5.8393194386
 30
0.0
 10
29.9335194002
 20
5.8524086279
 30
0.0
 10
29.999857058
 20
5.8631312359
 30
0.0
  0
SPLINE
  5
2F3
100
AcDbEntity
  8
0
100
AcDbSpline
 62
7
  6
CONTINUOUS
 70
0
 71
3
 72
14
 73
10
 74
0
 42
0.0000001
 43
0.0000001
 44
0.0000000001
 40
0.0
 40
0.0
 40
0.0
 40
0.0
 40
0.2448030909
 40
0.3706366802
 40
0.4967349398
 40
0.6225924321
 40
0.7481994046
 40
0.8740690069
 40
1.0
 40
1.0
 40
1.0
 40
1.0
 10
29.999857058
 20
5.8631312359
 30
0.0
 10
30.0583709466
 20
5.8726610056
 30
0.0
 10
30.1464452265
 20
5.8949038644
 30
0.0
 10
30.2543709391
 20
5.9491685596
 30
0.0
 10
30.3278968757
 20
6.0045611691
 30
0.0
 10
30.3890498241
 20
6.0734092182
 30
0.0
 10
30.4344418541
 20
6.1535055492
 30
0.0
 10
30.4624354438
 20
6.241138161
 30
0.0
 10
30.4692641822
 20
6.3021894101
 30
0.0
 10
30.4697403009
 20
6.3326828497
 30
0.0
  0
SPLINE
  5
2F4
100
AcDbEntity
  8
0
100
AcDbSpline
 62
7
  6
CONTINUOUS
 70
0
 71
3
 72
21
 73
17
 74
0
 42
0.0000001
 43
0.0000001
 44
0.0000000001
 40
0.0
 40
0.0
 40
0.0
 40
0.0
 40
0.005105369
 40
0.0110046905
 40
0.0184137348
 40
0.0276931809
 40
0.0524319987
 40
0.0857534994
 40
0.127600208
 40
0.1776939882
 40
0.2356180514
 40
0.3008465465
 40
0.4507168626
 40
0.6216413338
 40
0.8070892272
 40
1.0
 40
1.0
 40
1.0
 40
1.0
 10
5.0466074833
 20
18.7373668178
 30
0.0
 10
5.0455660476
 20
18.7374097868
 30
0.0
 10
5.0432732241
 20
18.7369201299
 30
0.0
 10
5.0402209177
 20
18.7345989797
 30
0.0
 10
5.0373997432
 20
18.730913062
 30
0.0
 10
5.0334446837
 20
18.7234083007
 30
0.0
 10
5.0291650491
 20
18.7102704959
 30
0.0
 10
5.0248081437
 20
18.6903392255
 30
0.0
 10
5.0209534417
 20
18.6650406877
 30
0.0
 10
5.0176132221
 20
18.6346229891
 30
0.0
 10
5.0148107673
 20
18.5993592418
 30
0.0
 10
5.011644547
 20
18.5437052365
 30
0.0
 10
5.0092585248
 20
18.4649178852
 30
0.0
 10
5.0083678696
 20
18.3615619795
 30
0.0
 10
5.0091797503
 20
18.2494181237
 30
0.0
 10
5.0107684789
 20
18.1721858569
 30
0.0
 10
5.0118002458
 20
18.1328143473
 30
0.0
  0
SPLINE
  5
2F5
100
AcDbEntity
  8
0
100
AcDbSpline
 62
7
  6
CONTINUOUS
 70
0
 71
3
 72
11
 73
7
 74
0
 42
0.0000001
 43
0.0000001
 44
0.0000000001
 40
0.0
 40
0.0
 40
0.0
 40
0.0
 40
0.1710939608
 40
0.3908060502
 40
0.6662826285
 40
1.0
 40
1.0
 40
1.0
 40
1.0
 10
29.4562946968
 20
5.8631313615
 30
0.0
 10
29.460149163
 20
5.8588460438
 30
0.0
 10
29.4710717061
 20
5.8510237174
 30
0.0
 10
29.4919465684
 20
5.8425603496
 30
0.0
 10
29.5191402797
 20
5.8358945223
 30
0.0
 10
29.5394795471
 20
5.832991531
 30
0.0
 10
29.5506541232
 20
5.8317607234
 30
0.0
  0
SPLINE
  5
2F6
100
AcDbEntity
  8
0
100
AcDbSpline
 62
7
  6
CONTINUOUS
 70
0
 71
3
 72
9
 73
5
 74
0
 42
0.0000001
 43
0.0000001
 44
0.0000000001
 40
0.0
 40
0.0
 40
0.0
 40
0.0
 40
0.2250926691
 40
1.0
 40
1.0
 40
1.0
 40
1.0
 10
29.5506541232
 20
5.8317607234
 30
0.0
 10
29.5569204189
 20
5.8310705313
 30
0.0
 10
29.5848168234
 20
5.8285279143
 30
0.0
 10
29.6128528851
 20
5.8277638003
 30
0.0
 10
29.6345557865
 20
5.8277638003
 30
0.0
  0
SPLINE
  5
2F7
100
AcDbEntity
  8
0
100
AcDbSpline
 62
7
  6
CONTINUOUS
 70
0
 71
3
 72
15
 73
11
 74
0
 42
0.0000001
 43
0.0000001
 44
0.0000000001
 40
0.0
 40
0.0
 40
0.0
 40
0.0
 40
0.1125950953
 40
0.2308613479
 40
0.3536309479
 40
0.4795698231
 40
0.6077050016
 40
0.737396877
 40
0.8682553522
 40
1.0
 40
1.0
 40
1.0
 40
1.0
 10
25.76695878
 20
34.1518199349
 30
0.0
 10
25.6792006374
 20
34.1363019488
 30
0.0
 10
25.5043793071
 20
34.0738580009
 30
0.0
 10
25.267873667
 20
33.9218530803
 30
0.0
 10
25.0479198947
 20
33.7311259126
 30
0.0
 10
24.8417180949
 20
33.5152337215
 30
0.0
 10
24.6462634395
 20
33.282533326
 30
0.0
 10
24.459095688
 20
33.038280804
 30
0.0
 10
24.2785139339
 20
32.7856375027
 30
0.0
 10
24.1619282023
 20
32.6135392698
 30
0.0
 10
24.104260566
 20
32.5266598027
 30
0.0
  0
SPLINE
  5
2F8
100
AcDbEntity
  8
0
100
AcDbSpline
 62
7
  6
CONTINUOUS
 70
0
 71
3
 72
17
 73
13
 74
0
 42
0.0000001
 43
0.0000001
 44
0.0000000001
 40
0.0
 40
0.0
 40
0.0
 40
0.0
 40
0.1416372094
 40
0.2115886996
 40
0.2805569282
 40
0.4144753875
 40
0.4792062366
 40
0.5422756475
 40
0.6632791289
 40
0.7784444021
 40
0.8897502963
 40
1.0
 40
1.0
 40
1.0
 40
1.0
 10
28.6147912726
 20
18.1328143473
 30
0.0
 10
28.6155286183
 20
18.1733728551
 30
0.0
 10
28.6124019947
 20
18.2342053297
 30
0.0
 10
28.5984002155
 20
18.3134039678
 30
0.0
 10
28.5787795456
 20
18.3891014193
 30
0.0
 10
28.5504901667
 20
18.4608270799
 30
0.0
 10
28.5136127939
 20
18.5261986278
 30
0.0
 10
28.4727782524
 20
18.5847037851
 30
0.0
 10
28.4132691406
 20
18.6473525155
 30
0.0
 10
28.3293653595
 20
18.7026345137
 30
0.0
 10
28.2371906605
 20
18.7343560258
 30
0.0
 10
28.173010754
 20
18.7386334073
 30
0.0
 10
28.1414978616
 20
18.7366418877
 30
0.0
  0
SPLINE
  5
2F9
100
AcDbEntity
  8
0
100
AcDbSpline
 62
7
  6
CONTINUOUS
 70
0
 71
3
 72
9
 73
5
 74
0
 42
0.0000001
 43
0.0000001
 44
0.0000000001
 40
0.0
 40
0.0
 40
0.0
 40
0.0
 40
0.4703253735
 40
1.0
 40
1.0
 40
1.0
 40
1.0
 10
27.6507080461
 20
5.8277638003
 30
0.0
 10
27.7154798804
 20
5.8277638003
 30
0.0
 10
27.8531964792
 20
5.8351580366
 30
0.0
 10
27.9899597733
 20
5.8520661821
 30
0.0
 10
28.0620609008
 20
5.8631312359
 30
0.0
  0
SPLINE
  5
2FA
100
AcDbEntity
  8
0
100
AcDbSpline
 62
7
  6
CONTINUOUS
 70
0
 71
3
 72
15
 73
11
 74
0
 42
0.0000001
 43
0.0000001
 44
0.0000000001
 40
0.0
 40
0.0
 40
0.0
 40
0.0
 40
0.1257395783
 40
0.2519839395
 40
0.3773869277
 40
0.5015496279
 40
0.6251171149
 40
0.7490281297
 40
0.8741371675
 40
1.0
 40
1.0
 40
1.0
 40
1.0
 10
28.0620609008
 20
5.8631312359
 30
0.0
 10
28.0921330642
 20
5.8677813266
 30
0.0
 10
28.1520734837
 20
5.8795966863
 30
0.0
 10
28.2392465348
 20
5.907731116
 30
0.0
 10
28.3208820282
 20
5.9488603755
 30
0.0
 10
28.3928226925
 20
6.0044584604
 30
0.0
 10
28.4514290828
 20
6.073593414
 30
0.0
 10
28.4940123754
 20
6.1538355262
 30
0.0
 10
28.5197615667
 20
6.24139674
 30
0.0
 10
28.5258184561
 20
6.3022251285
 30
0.0
 10
28.5261374706
 20
6.3326828497
 30
0.0
  0
SPLINE
  5
2FB
100
AcDbEntity
  8
0
100
AcDbSpline
 62
7
  6
CONTINUOUS
 70
0
 71
3
 72
15
 73
11
 74
0
 42
0.0000001
 43
0.0000001
 44
0.0000000001
 40
0.0
 40
0.0
 40
0.0
 40
0.0
 40
0.2353046992
 40
0.3582535958
 40
0.4837786382
 40
0.6112325008
 40
0.7400739971
 40
0.8048637625
 40
0.8698173729
 40
1.0
 40
1.0
 40
1.0
 40
1.0
 10
29.3080820857
 20
46.2751693553
 30
0.0
 10
29.2856442737
 20
46.2618389348
 30
0.0
 10
29.2519356687
 20
46.2407723939
 30
0.0
 10
29.2072038052
 20
46.2111360155
 30
0.0
 10
29.1726556567
 20
46.1877889374
 30
0.0
 10
29.1378190405
 20
46.1637074719
 30
0.0
 10
29.1085377023
 20
46.143434875
 30
0.0
 10
29.085157499
 20
46.1268230326
 30
0.0
 10
29.0616635714
 20
46.1101101857
 30
0.0
 10
29.0434367557
 20
46.098416495
 30
0.0
 10
29.0316408423
 20
46.0900888743
 30
0.0
  0
SPLINE
  5
2FC
100
AcDbEntity
  8
0
100
AcDbSpline
 62
7
  6
CONTINUOUS
 70
0
 71
3
 72
15
 73
11
 74
0
 42
0.0000001
 43
0.0000001
 44
0.0000000001
 40
0.0
 40
0.0
 40
0.0
 40
0.0
 40
0.130858896
 40
0.2609187998
 40
0.3898776903
 40
0.5173466665
 40
0.6427312121
 40
0.7652627032
 40
0.8842404485
 40
1.0
 40
1.0
 40
1.0
 40
1.0
 10
27.4404570164
 20
32.5266600188
 30
0.0
 10
27.3982553031
 20
32.6135721414
 30
0.0
 10
27.3117053118
 20
32.7857167318
 30
0.0
 10
27.1735554923
 20
33.0383345236
 30
0.0
 10
27.0257945709
 20
33.2825836429
 30
0.0
 10
26.8663621776
 20
33.515313638
 30
0.0
 10
26.6921599773
 20
33.7313621906
 30
0.0
 10
26.4990509487
 20
33.9225257002
 30
0.0
 10
26.2819868834
 20
34.075308784
 30
0.0
 10
26.1163851222
 20
34.1365848921
 30
0.0
 10
26.0322858869
 20
34.1518199349
 30
0.0
  0
SPLINE
  5
2FD
100
AcDbEntity
  8
0
100
AcDbSpline
 62
7
  6
CONTINUOUS
 70
0
 71
3
 72
15
 73
11
 74
0
 42
0.0000001
 43
0.0000001
 44
0.0000000001
 40
0.0
 40
0.0
 40
0.0
 40
0.0
 40
0.1317442044
 40
0.2626022304
 40
0.3922935217
 40
0.5204282009
 40
0.6463668851
 40
0.7691365253
 40
0.8874034019
 40
1.0
 40
1.0
 40
1.0
 40
1.0
 10
14.3059527045
 20
32.5266600188
 30
0.0
 10
14.2482852486
 20
32.6135392164
 30
0.0
 10
14.1316996563
 20
32.7856367474
 30
0.0
 10
13.9511189508
 20
33.0382794743
 30
0.0
 10
13.7639510132
 20
33.2825304086
 30
0.0
 10
13.5684969967
 20
33.5152301809
 30
0.0
 10
13.362295914
 20
33.7311221355
 30
0.0
 10
13.1423448651
 20
33.9218537341
 30
0.0
 10
12.9058344097
 20
34.0738540701
 30
0.0
 10
12.7310127821
 20
34.136301858
 30
0.0
 10
12.6432534244
 20
34.1518199349
 30
0.0
  0
SPLINE
  5
2FE
100
AcDbEntity
  8
0
100
AcDbSpline
 62
7
  6
CONTINUOUS
 70
0
 71
3
 72
12
 73
8
 74
0
 42
0.0000001
 43
0.0000001
 44
0.0000000001
 40
0.0
 40
0.0
 40
0.0
 40
0.0
 40
0.1404541801
 40
0.27455696
 40
0.5272822011
 40
0.7667598079
 40
1.0
 40
1.0
 40
1.0
 40
1.0
 10
29.3080418055
 20
46.2751693553
 30
0.0
 10
29.3271930094
 20
46.2879299193
 30
0.0
 10
29.3630461133
 20
46.3153868296
 30
0.0
 10
29.4239964177
 20
46.3768978574
 30
0.0
 10
29.4817938214
 20
46.4631138045
 30
0.0
 10
29.5226515086
 20
46.5758288147
 30
0.0
 10
29.5316134333
 20
46.6535773304
 30
0.0
 10
29.5316134333
 20
46.6917931305
 30
0.0
  0
SPLINE
  5
2FF
100
AcDbEntity
  8
0
100
AcDbSpline
 62
7
  6
CONTINUOUS
 70
0
 71
3
 72
11
 73
7
 74
0
 42
0.0000001
 43
0.0000001
 44
0.0000000001
 40
0.0
 40
0.0
 40
0.0
 40
0.0
 40
0.1815075738
 40
0.4098314104
 40
0.6838839463
 40
1.0
 40
1.0
 40
1.0
 40
1.0
 10
27.390817118
 20
5.8631313615
 30
0.0
 10
27.4053826362
 20
5.8566131172
 30
0.0
 10
27.4399926777
 20
5.8458338774
 30
0.0
 10
27.4992597815
 20
5.8353300315
 30
0.0
 10
27.5710173063
 20
5.8289992962
 30
0.0
 10
27.6229162462
 20
5.8277638003
 30
0.0
 10
27.6507080461
 20
5.8277638003
 30
0.0
  0
SPLINE
  5
300
100
AcDbEntity
  8
0
100
AcDbSpline
 62
7
  6
CONTINUOUS
 70
0
 71
3
 72
14
 73
10
 74
0
 42
0.0000001
 43
0.0000001
 44
0.0000000001
 40
0.0
 40
0.0
 40
0.0
 40
0.0
 40
0.2401146238
 40
0.3537441712
 40
0.4666859324
 40
0.5830548361
 40
0.7081900615
 40
0.8465913403
 40
1.0
 40
1.0
 40
1.0
 40
1.0
 10
26.2051067044
 20
47.7260194662
 30
0.0
 10
26.2051067044
 20
47.7084958658
 30
0.0
 10
26.2019750725
 20
47.682282728
 30
0.0
 10
26.1884282059
 20
47.6507991078
 30
0.0
 10
26.1736338084
 20
47.6303321333
 30
0.0
 10
26.1537470376
 20
47.6133914374
 30
0.0
 10
26.1287086312
 20
47.6009110964
 30
0.0
 10
26.0990373733
 20
47.593378477
 30
0.0
 10
26.0776886295
 20
47.5918199354
 30
0.0
 10
26.0664928431
 20
47.5918199354
 30
0.0
  0
SPLINE
  5
301
100
AcDbEntity
  8
0
100
AcDbSpline
 62
7
  6
CONTINUOUS
 70
0
 71
3
 72
18
 73
14
 74
0
 42
0.0000001
 43
0.0000001
 44
0.0000000001
 40
0.0
 40
0.0
 40
0.0
 40
0.0
 40
0.0628337249
 40
0.1256231131
 40
0.1883559553
 40
0.2510109022
 40
0.3758661073
 40
0.5005054087
 40
0.5629166687
 40
0.6253328003
 40
0.7500049737
 40
0.8748825294
 40
1.0
 40
1.0
 40
1.0
 40
1.0
 10
21.2894194136
 20
18.1328143473
 30
0.0
 10
21.2895448502
 20
18.1580859012
 30
0.0
 10
21.2869495211
 20
18.2086931725
 30
0.0
 10
21.2733170975
 20
18.283422717
 30
0.0
 10
21.2503189334
 20
18.3557443596
 30
0.0
 10
21.2082043145
 20
18.4473945968
 30
0.0
 10
21.1344650531
 20
18.5507661047
 30
0.0
 10
21.0372525099
 20
18.6323026697
 30
0.0
 10
20.9493538272
 20
18.6811809304
 30
0.0
 10
20.8559836388
 20
18.7185762589
 30
0.0
 10
20.731316214
 20
18.7425870819
 30
0.0
 10
20.5794198013
 20
18.732947415
 30
0.0
 10
20.4826465902
 20
18.7013027553
 30
0.0
 10
20.4371500196
 20
18.6797988291
 30
0.0
  0
SPLINE
  5
302
100
AcDbEntity
  8
0
100
AcDbSpline
 62
7
  6
CONTINUOUS
 70
0
 71
3
 72
9
 73
5
 74
0
 42
0.0000001
 43
0.0000001
 44
0.0000000001
 40
0.0
 40
0.0
 40
0.0
 40
0.0
 40
0.5113668912
 40
1.0
 40
1.0
 40
1.0
 40
1.0
 10
20.6078988945
 20
5.8277637997
 30
0.0
 10
20.6835571873
 20
5.8277637997
 30
0.0
 10
20.8315584972
 20
5.8336515978
 30
0.0
 10
20.9786793221
 20
5.8511581544
 30
0.0
 10
21.0499757425
 20
5.8631311567
 30
0.0
  0
SPLINE
  5
303
100
AcDbEntity
  8
0
100
AcDbSpline
 62
7
  6
CONTINUOUS
 70
0
 71
3
 72
11
 73
7
 74
0
 42
0.0000001
 43
0.0000001
 44
0.0000000001
 40
0.0
 40
0.0
 40
0.0
 40
0.0
 40
0.2599479696
 40
0.5162807945
 40
0.7647728041
 40
1.0
 40
1.0
 40
1.0
 40
1.0
 10
9.3786118863
 20
46.0896355502
 30
0.0
 10
9.355043168
 20
46.1062736131
 30
0.0
 10
9.3079693021
 20
46.1389415777
 30
0.0
 10
9.2383455308
 20
46.1874889291
 30
0.0
 10
9.1701446168
 20
46.2332616789
 30
0.0
 10
9.1247005805
 20
46.2618784891
 30
0.0
 10
9.1022309068
 20
46.2751693553
 30
0.0
  0
SPLINE
  5
304
100
AcDbEntity
  8
0
100
AcDbSpline
 62
7
  6
CONTINUOUS
 70
0
 71
3
 72
16
 73
12
 74
0
 42
0.0000001
 43
0.0000001
 44
0.0000000001
 40
0.0
 40
0.0
 40
0.0
 40
0.0
 40
0.1248211861
 40
0.2438357361
 40
0.3589161923
 40
0.4164034914
 40
0.474694565
 40
0.5954973688
 40
0.7240419312
 40
0.8599357789
 40
1.0
 40
1.0
 40
1.0
 40
1.0
 10
21.0499757425
 20
5.8631311567
 30
0.0
 10
21.0766349128
 20
5.8676421592
 30
0.0
 10
21.1283736776
 20
5.87899909
 30
0.0
 10
21.2012813767
 20
5.9071673234
 30
0.0
 10
21.2545720931
 20
5.9422288738
 30
0.0
 10
21.2906649789
 20
5.9770129779
 30
0.0
 10
21.3229215335
 20
6.0169871909
 30
0.0
 10
21.3552960451
 20
6.07588945
 30
0.0
 10
21.38066067
 20
6.1557910433
 30
0.0
 10
21.3948232376
 20
6.242494219
 30
0.0
 10
21.3975673146
 20
6.3023434674
 30
0.0
 10
21.3974071404
 20
6.3326830438
 30
0.0
  0
SPLINE
  5
305
100
AcDbEntity
  8
0
100
AcDbSpline
 62
7
  6
CONTINUOUS
 70
0
 71
3
 72
14
 73
10
 74
0
 42
0.0000001
 43
0.0000001
 44
0.0000000001
 40
0.0
 40
0.0
 40
0.0
 40
0.0
 40
0.1534058907
 40
0.2918301429
 40
0.4170072678
 40
0.5333686284
 40
0.6462989959
 40
0.7599209622
 40
1.0
 40
1.0
 40
1.0
 40
1.0
 10
12.3437205658
 20
47.5918199354
 30
0.0
 10
12.3325250172
 20
47.5918199354
 30
0.0
 10
12.3111745752
 20
47.593380972
 30
0.0
 10
12.2815013833
 20
47.6009201756
 30
0.0
 10
12.2564545322
 20
47.6133926814
 30
0.0
 10
12.2365675511
 20
47.6303374819
 30
0.0
 10
12.2217823901
 20
47.6508083617
 30
0.0
 10
12.2082396407
 20
47.6822885724
 30
0.0
 10
12.2051067389
 20
47.7084981595
 30
0.0
 10
12.2051067044
 20
47.7260191069
 30
0.0
  0
SPLINE
  5
306
100
AcDbEntity
  8
0
100
AcDbSpline
 62
7
  6
CONTINUOUS
 70
0
 71
3
 72
15
 73
11
 74
0
 42
0.0000001
 43
0.0000001
 44
0.0000000001
 40
0.0
 40
0.0
 40
0.0
 40
0.0
 40
0.1507116286
 40
0.2958316933
 40
0.430553318
 40
0.5529463392
 40
0.6648938164
 40
0.7723706389
 40
0.882597265
 40
1.0
 40
1.0
 40
1.0
 40
1.0
 10
19.9170656319
 20
6.3326581989
 30
0.0
 10
19.9167366582
 20
6.3023452921
 30
0.0
 10
19.9180378387
 20
6.2427970289
 30
0.0
 10
19.9267255853
 20
6.1565199195
 30
0.0
 10
19.9435003343
 20
6.0771362196
 30
0.0
 10
19.9705205974
 20
6.0075015831
 30
0.0
 10
20.0097227541
 20
5.9500632358
 30
0.0
 10
20.0614961535
 20
5.9072686387
 30
0.0
 10
20.1231977339
 20
5.8787794324
 30
0.0
 10
20.1677881361
 20
5.867587589
 30
0.0
 10
20.1909786726
 20
5.8631312828
 30
0.0
  0
SPLINE
  5
307
100
AcDbEntity
  8
0
100
AcDbSpline
 62
7
  6
CONTINUOUS
 70
0
 71
3
 72
9
 73
5
 74
0
 42
0.0000001
 43
0.0000001
 44
0.0000000001
 40
0.0
 40
0.0
 40
0.0
 40
0.0
 40
0.473482951
 40
1.0
 40
1.0
 40
1.0
 40
1.0
 10
20.1909786726
 20
5.8631312828
 30
0.0
 10
20.2559158763
 20
5.8507471981
 30
0.0
 10
20.3947132067
 20
5.833155529
 30
0.0
 10
20.5343867577
 20
5.8277637997
 30
0.0
 10
20.6078988945
 20
5.8277637997
 30
0.0
  0
ELLIPSE
  5
308
100
AcDbEntity
  8
0
100
AcDbEllipse
 62
7
  6
CONTINUOUS
 10
13.9072361635
 20
64.130470536
 30
0.0
 11
0.0
 21
28.7445147379
 31
0.0
 40
0.0174550649
 41
-4.2140612684
 42
-4.1658840692
  0
ELLIPSE
  5
309
100
AcDbEntity
  8
0
100
AcDbEllipse
 62
7
  6
CONTINUOUS
 10
19.9136000792
 20
23.0147133901
 30
0.0
 11
10.826013306
 21
38.1705593386
 31
0.0
 40
0.2460158785
 41
-4.5308486341
 42
-4.4886576423
  0
ELLIPSE
  5
30A
100
AcDbEntity
  8
0
100
AcDbEllipse
 62
7
  6
CONTINUOUS
 10
18.4964400299
 20
23.1487004679
 30
0.0
 11
-10.8286603847
 21
38.1798960098
 31
0.0
 40
0.2460158612
 41
-4.6679928385
 42
-4.6244770856
  0
ELLIPSE
  5
30B
100
AcDbEntity
  8
0
100
AcDbEllipse
 62
7
  6
CONTINUOUS
 10
19.2051067045
 20
17.0928199354
 30
0.0
 11
-0.0
 21
162.8571428998
 31
0.0
 40
0.0875
 41
1.4896546856
 42
1.4970452765
  0
ELLIPSE
  5
30C
100
AcDbEntity
  8
0
100
AcDbEllipse
 62
7
  6
CONTINUOUS
 10
19.2051067045
 20
17.0928199354
 30
0.0
 11
-0.0
 21
162.8571428998
 31
0.0
 40
0.0875
 41
-1.4970452765
 42
-1.4896546856
  0
ELLIPSE
  5
30D
100
AcDbEntity
  8
0
100
AcDbEllipse
 62
7
  6
CONTINUOUS
 10
24.5029680925
 20
64.1307001098
 30
0.0
 11
0.0
 21
28.7450394449
 31
0.0
 40
0.0174550649
 41
-2.1172994822
 42
-2.0691231986
  0
ELLIPSE
  5
30E
100
AcDbEntity
  8
0
100
AcDbEllipse
 62
7
  6
CONTINUOUS
 10
19.2051067045
 20
-168.5100342614
 30
0.0
 11
-0.0
 21
509.8806585133
 31
0.0
 40
0.0174550649
 41
-1.1296610962
 42
-1.1270568421
  0
ELLIPSE
  5
30F
100
AcDbEntity
  8
0
100
AcDbEllipse
 62
7
  6
CONTINUOUS
 10
19.2025529772
 20
42.9932289027
 30
0.0
 11
10.9971135921
 21
-0.0
 31
0.0
 40
1.0
 41
0.3534812045
 42
0.5988054662
  0
ELLIPSE
  5
310
100
AcDbEntity
  8
0
100
AcDbEllipse
 62
7
  6
CONTINUOUS
 10
29.0316402367
 20
46.6917931305
 30
0.0
 11
0.4999731966
 21
0.0
 31
0.0
 40
1.0
 41
0.0
 42
0.2182628097
  0
ELLIPSE
  5
311
100
AcDbEntity
  8
0
100
AcDbEllipse
 62
7
  6
CONTINUOUS
 10
19.2025529772
 20
42.9932289027
 30
0.0
 11
10.9971135921
 21
-0.0
 31
0.0
 40
1.0
 41
2.5427871874
 42
2.7815134241
  0
ELLIPSE
  5
312
100
AcDbEntity
  8
0
100
AcDbEllipse
 62
7
  6
CONTINUOUS
 10
19.2051067045
 20
-168.5100342614
 30
0.0
 11
-0.0
 21
509.8806585133
 31
0.0
 40
0.0174550649
 41
1.1270568421
 42
1.1296610962
  0
ELLIPSE
  5
313
100
AcDbEntity
  8
0
100
AcDbEllipse
 62
7
  6
CONTINUOUS
 10
19.913773379
 20
23.1487004679
 30
0.0
 11
10.8286603847
 21
38.1798960098
 31
0.0
 40
0.2460158612
 41
1.7545177
 42
1.7980334529
  0
ELLIPSE
  5
314
100
AcDbEntity
  8
0
100
AcDbEllipse
 62
7
  6
CONTINUOUS
 10
18.4966133297
 20
23.0147133901
 30
0.0
 11
-10.826013306
 21
38.1705593386
 31
0.0
 40
0.2460158785
 41
-4.6701738882
 42
-4.6279829046
  0
ELLIPSE
  5
315
100
AcDbEntity
  8
0
100
AcDbEllipse
 62
7
  6
CONTINUOUS
 10
19.2051067045
 20
392.9315897179
 30
0.0
 11
-0.0
 21
509.8806585107
 31
0.0
 40
0.0174550649
 41
-2.3106194774
 42
-2.3074376171
  0
ELLIPSE
  5
316
100
AcDbEntity
  8
0
100
AcDbEllipse
 62
7
  6
CONTINUOUS
 10
9.3786481133
 20
46.6918449902
 30
0.0
 11
0.5000250562
 21
0.0
 31
0.0
 40
1.0
 41
9.0646643648
 42
10.4098456489
  0
ELLIPSE
  5
317
100
AcDbEntity
  8
0
100
AcDbEllipse
 62
7
  6
CONTINUOUS
 10
19.2051067045
 20
392.9315897179
 30
0.0
 11
-0.0
 21
509.8806585107
 31
0.0
 40
0.0174550649
 41
-3.9757476901
 42
-3.9725658298
  0
ENDSEC
  0
SECTION
  2
OBJECTS
  0
DICTIONARY
  5
C
100
AcDbDictionary
280
0
281
1
  3
ACAD_GROUP
350
D
  3
ACAD_MLINESTYLE
350
17
  3
ACAD_LAYOUT
350
1A
  3
ACAD_PLOTSETTINGS
350
19
  3
ACAD_PLOTSTYLENAME
350
E
  0
DICTIONARY
  5
D
102
{ACAD_REACTORS
330
C
102
}
100
AcDbDictionary
280
0
281
1
  0
ACDBDICTIONARYWDFLT
  5
E
102
{ACAD_REACTORS
330
C
102
}
100
AcDbDictionary
281
1
  3
Normal
350
F
100
AcDbDictionaryWithDefault
340
F
  0
DICTIONARY
  5
17
102
{ACAD_REACTORS
330
C
102
}
100
AcDbDictionary
280
0
281
1
  3
Standard
350
18
  0
DICTIONARY
  5
19
102
{ACAD_REACTORS
330
C
102
}
100
AcDbDictionary
281
1
  0
DICTIONARY
  5
1A
102
{ACAD_REACTORS
330
C
102
}
100
AcDbDictionary
281
1
  3
Model
350
318
  3
Layout1
350
319
  0
ACDBPLACEHOLDER
  5
F
102
{ACAD_REACTORS
330
E
102
}
  0
MLINESTYLE
  5
18
102
{ACAD_REACTORS
330
17
102
}
100
AcDbMlineStyle
  2
STANDARD
 70
0
  3

 62
256
 51
90.0
 52
90.0
 71
2
 49
0.5
 62
256
  6
BYLAYER
 49
-0.5
 62
256
  6
BYLAYER
  0
LAYOUT
  5
318
102
{ACAD_REACTORS
330
1A
102
}
100
AcDbPlotSettings
  1

  2
none_device
  4

  6

 40
0.0
 41
0.0
 42
0.0
 43
0.0
 44
210.0
 45
297.0
 46
0.0
 47
0.0
 48
0.0
 49
0.0
140
0.0
141
0.0
142
1.0
143
1.0
 70
1024
 72
1
 73
0
 74
0
  7

 75
0
147
1.0
148
0.0
149
0.0
100
AcDbLayout
  1
Model
 70
0
 71
0
 10
0.0
 20
0.0
 11
210.0
 21
297.0
 12
0.0
 22
0.0
 32
0.0
 14
0.0
 24
0.0
 34
0.0
 15
0.0
 25
0.0
 35
0.0
146
0.0
 13
0.0
 23
0.0
 33
0.0
 16
1.0
 26
0.0
 36
0.0
 17
0.0
 27
1.0
 37
0.0
 76
0
330
210
345
0
346
0
  0
LAYOUT
  5
319
102
{ACAD_REACTORS
330
1A
102
}
100
AcDbPlotSettings
  1

  2
none_device
  4

  6

 40
0.0
 41
0.0
 42
0.0
 43
0.0
 44
210.0
 45
297.0
 46
0.0
 47
0.0
 48
0.0
 49
0.0
140
0.0
141
0.0
142
1.0
143
1.0
 70
0
 72
1
 73
0
 74
0
  7

 75
0
147
1.0
148
0.0
149
0.0
100
AcDbLayout
  1
Layout1
 70
0
 71
1
 10
0.0
 20
0.0
 11
210.0
 21
297.0
 12
0.0
 22
0.0
 32
0.0
 14
0.0
 24
0.0
 34
0.0
 15
0.0
 25
0.0
 35
0.0
146
0.0
 13
0.0
 23
0.0
 33
0.0
 16
1.0
 26
0.0
 36
0.0
 17
0.0
 27
1.0
 37
0.0
 76
0
330
211
345
0
346
0
  0
ENDSEC
  0
EOF
