999
DXF file: C:\Users\sesa63760\Dev\_Creo\CAD\MCADID0000927_3D-CAD\drw0001_4.dxf
999
Pro/ENGINEER 2019471 by Parametric Technology Corporation
  0
SECTION
  2
HEADER
  9
$ACADVER
  1
AC1024
  9
$DWGCODEPAGE
  3
ANSI_1252
  9
$EXTMAX
 10
106.4421393794
 20
150.5395971223
 30
0.0
  9
$EXTMIN
 10
0.0
 20
0.0
 30
0.0
  9
$LIMMIN
 10
0.0
 20
0.0
  9
$LIMMAX
 10
106.4421393794
 20
150.5395971223
  9
$VIEWCTR
 10
53.2210696897
 20
75.2697985612
  9
$VIEWSIZE
 40
150.5395971223
  9
$CLAYER
  8
0
  9
$LTSCALE
 40
9.8129515161
  9
$CELTYPE
  6
BYLAYER
  9
$DIMSCALE
 40
1.0
  9
$DIMASZ
 40
1.2671683259
  9
$DIMEXO
 40
1.0
  9
$DIMDLI
 40
6.7798574111
  9
$DIMEXE
 40
1.0
  9
$DIMCEN
 40
1.6057557026
  9
$DIMLFAC
 40
1.0
  9
$DIMBLK
  1
_FILLED
  9
$DIMALT
 70
0
  9
$DIMALTF
 40
0.0393700787
  9
$DIMTXT
 40
1.7740356563
  9
$DIMTOL
 70
1
  9
$DIMLIM
 70
0
  9
$DIMTFAC
 40
1.0
  9
$DIMTP
 40
0.01
  9
$DIMTM
 40
0.01
  9
$DIMGAP
 40
0.625
  9
$DIMDSEP
 70
46
  9
$AUNITS
 70
0
  9
$PDMODE
 70
3
  9
$PDSIZE
 40
0.3125
  9
$HANDSEED
  5
419
  9
$TILEMODE
 70
1
  9
$MEASUREMENT
 70
1
  9
$INSUNITS
 70
4
  0
ENDSEC
  0
SECTION
  2
CLASSES
  0
CLASS
  1
ACDBDICTIONARYWDFLT
  2
AcDbDictionaryWithDefault
  3
AutoCAD 2000
 90
0
 91
1
280
0
281
0
  0
CLASS
  1
ACDBPLACEHOLDER
  2
AcDbPlaceHolder
  3
AutoCAD 2000
 90
0
 91
1
280
0
281
0
  0
CLASS
  1
LAYOUT
  2
AcDbLayout
  3
AutoCAD 2000
 90
0
 91
0
280
0
281
0
  0
ENDSEC
  0
SECTION
  2
TABLES
  0
TABLE
  2
VPORT
  5
8
100
AcDbSymbolTable
 70
2
  0
VPORT
  5
1F4
100
AcDbSymbolTableRecord
100
AcDbViewportTableRecord
  2
*ACTIVE
 70
0
 10
0.0
 20
0.0
 11
1.0
 21
1.0
 12
53.2210696897
 22
75.2697985612
 13
0.0
 23
0.0
 14
1.0
 24
1.0
 15
0.0
 25
0.0
 16
0.0
 26
0.0
 36
1.0
 17
0.0
 27
0.0
 37
0.0
 40
150.5395971223
 41
0.7070707071
 42
50.0
 43
0.0
 44
0.0
 50
0.0
 51
0.0
 71
0
 72
100
 73
1
 74
1
 75
0
 76
0
 77
0
 78
0
  0
ENDTAB
  0
TABLE
  2
LTYPE
  5
5
100
AcDbSymbolTable
 70
6
  0
LTYPE
  5
14
100
AcDbSymbolTableRecord
100
AcDbLinetypeTableRecord
  2
BYBLOCK
 70
0
  3

 72
65
 73
0
 40
0.0
  0
LTYPE
  5
15
100
AcDbSymbolTableRecord
100
AcDbLinetypeTableRecord
  2
BYLAYER
 70
0
  3

 72
65
 73
0
 40
0.0
  0
LTYPE
  5
16
100
AcDbSymbolTableRecord
100
AcDbLinetypeTableRecord
  2
CONTINUOUS
 70
64
  3
Solid line
 72
65
 73
0
 40
0.0
  0
LTYPE
  5
1F5
100
AcDbSymbolTableRecord
100
AcDbLinetypeTableRecord
  2
CENTER
 70
64
  3
____ _ ____ _ ____ _ ____ _ ____ _ ____ _ ____
 72
65
 73
4
 40
0.6
 49
0.375
 74
0
 49
-0.075
 74
0
 49
0.075
 74
0
 49
-0.075
 74
0
  0
LTYPE
  5
1F6
100
AcDbSymbolTableRecord
100
AcDbLinetypeTableRecord
  2
HIDDEN
 70
64
  3
- - - - - - - - - - - - - - - - - - - -
 72
65
 73
2
 40
0.2
 49
0.1
 74
0
 49
-0.1
 74
0
  0
LTYPE
  5
1F7
100
AcDbSymbolTableRecord
100
AcDbLinetypeTableRecord
  2
PHANTOM
 70
64
  3
_____ _ _ _____ _ _ _____ _ _ _____
 72
65
 73
6
 40
0.8
 49
0.45
 74
0
 49
-0.05
 74
0
 49
0.1
 74
0
 49
-0.05
 74
0
 49
0.1
 74
0
 49
-0.05
 74
0
  0
LTYPE
  5
1F8
100
AcDbSymbolTableRecord
100
AcDbLinetypeTableRecord
  2
DOT
 70
64
  3
. . . . . . . . . . . . . . . . . . . .
 72
65
 73
2
 40
0.2
 49
0.1
 74
0
 49
-0.1
 74
0
  0
LTYPE
  5
1F9
100
AcDbSymbolTableRecord
100
AcDbLinetypeTableRecord
  2
DASHED
 70
64
  3
- - - - - - - - - - - - - - - - - - - -
 72
65
 73
2
 40
0.2
 49
0.1
 74
0
 49
-0.1
 74
0
  0
ENDTAB
  0
TABLE
  2
LAYER
  5
2
100
AcDbSymbolTable
 70
36
  0
LAYER
  5
10
100
AcDbSymbolTableRecord
100
AcDbLayerTableRecord
  2
0
 70
0
 62
7
  6
CONTINUOUS
370
-3
390
F
  0
LAYER
  5
1FA
100
AcDbSymbolTableRecord
100
AcDbLayerTableRecord
  2
DEFAULT_1
 70
0
 62
7
  6
CENTER
370
-3
390
F
  0
LAYER
  5
1FB
100
AcDbSymbolTableRecord
100
AcDbLayerTableRecord
  2
DEFAULT_2
 70
0
 62
8
  6
HIDDEN
370
-3
390
F
  0
LAYER
  5
1FC
100
AcDbSymbolTableRecord
100
AcDbLayerTableRecord
  2
DEFAULT_3
 70
0
 62
7
  6
PHANTOM
370
-3
390
F
  0
LAYER
  5
1FD
100
AcDbSymbolTableRecord
100
AcDbLayerTableRecord
  2
00_COMPONENTS
 70
0
 62
7
  6
CONTINUOUS
370
-3
390
F
  0
LAYER
  5
1FE
100
AcDbSymbolTableRecord
100
AcDbLayerTableRecord
  2
01_1_DEFAULT_DATUMS
 70
0
 62
7
  6
CONTINUOUS
370
-3
390
F
  0
LAYER
  5
1FF
100
AcDbSymbolTableRecord
100
AcDbLayerTableRecord
  2
01_PLANES
 70
0
 62
7
  6
CONTINUOUS
370
-3
390
F
  0
LAYER
  5
200
100
AcDbSymbolTableRecord
100
AcDbLayerTableRecord
  2
02_COORD_SYS
 70
0
 62
7
  6
CONTINUOUS
370
-3
390
F
  0
LAYER
  5
201
100
AcDbSymbolTableRecord
100
AcDbLayerTableRecord
  2
03_AXES
 70
0
 62
7
  6
CONTINUOUS
370
-3
390
F
  0
LAYER
  5
202
100
AcDbSymbolTableRecord
100
AcDbLayerTableRecord
  2
04_POINTS
 70
0
 62
7
  6
CONTINUOUS
370
-3
390
F
  0
LAYER
  5
203
100
AcDbSymbolTableRecord
100
AcDbLayerTableRecord
  2
05_CURVES
 70
0
 62
7
  6
CONTINUOUS
370
-3
390
F
  0
LAYER
  5
204
100
AcDbSymbolTableRecord
100
AcDbLayerTableRecord
  2
06_SURFS
 70
0
 62
7
  6
CONTINUOUS
370
-3
390
F
  0
LAYER
  5
205
100
AcDbSymbolTableRecord
100
AcDbLayerTableRecord
  2
07_COSMETICS
 70
0
 62
7
  6
CONTINUOUS
370
-3
390
F
  0
LAYER
  5
206
100
AcDbSymbolTableRecord
100
AcDbLayerTableRecord
  2
10_NOTES
 70
0
 62
7
  6
CONTINUOUS
370
-3
390
F
  0
LAYER
  5
207
100
AcDbSymbolTableRecord
100
AcDbLayerTableRecord
  2
11_NOTES_PUB
 70
0
 62
7
  6
CONTINUOUS
370
-3
390
F
  0
LAYER
  5
208
100
AcDbSymbolTableRecord
100
AcDbLayerTableRecord
  2
13_REF_GTOL
 70
0
 62
7
  6
CONTINUOUS
370
-3
390
F
  0
LAYER
  5
209
100
AcDbSymbolTableRecord
100
AcDbLayerTableRecord
  2
16_MISC
 70
0
 62
7
  6
CONTINUOUS
370
-3
390
F
  0
LAYER
  5
20A
100
AcDbSymbolTableRecord
100
AcDbLayerTableRecord
  2
17_NO_PRINT
 70
0
 62
7
  6
CONTINUOUS
370
-3
390
F
  0
LAYER
  5
20B
100
AcDbSymbolTableRecord
100
AcDbLayerTableRecord
  2
18_DATUM_CAMS_JOINTS
 70
0
 62
7
  6
CONTINUOUS
370
-3
390
F
  0
LAYER
  5
20C
100
AcDbSymbolTableRecord
100
AcDbLayerTableRecord
  2
19_DATUM_FUNCTIONAL
 70
0
 62
7
  6
CONTINUOUS
370
-3
390
F
  0
LAYER
  5
20D
100
AcDbSymbolTableRecord
100
AcDbLayerTableRecord
  2
20_DATUM_KINEMATIC_SCHEME
 70
0
 62
7
  6
CONTINUOUS
370
-3
390
F
  0
ENDTAB
  0
TABLE
  2
STYLE
  5
3
100
AcDbSymbolTable
 70
1
  0
STYLE
  5
11
100
AcDbSymbolTableRecord
100
AcDbTextStyleTableRecord
  2
STANDARD
 70
0
 40
0.0
 41
0.8
 50
0.0
 71
0
 42
0.2
  3
txt
  4

  0
STYLE
  5
20E
100
AcDbSymbolTableRecord
100
AcDbTextStyleTableRecord
  2
TEXTSTYLE_1
 70
0
 40
0.0
 41
0.8
 50
0.0
 71
0
 42
0.2
  3
gdt
  4

  0
ENDTAB
  0
TABLE
  2
VIEW
  5
6
100
AcDbSymbolTable
 70
0
  0
ENDTAB
  0
TABLE
  2
UCS
  5
7
100
AcDbSymbolTable
 70
0
  0
ENDTAB
  0
TABLE
  2
APPID
  5
9
100
AcDbSymbolTable
 70
1
  0
APPID
  5
20F
100
AcDbSymbolTableRecord
100
AcDbRegAppTableRecord
  2
ACAD
 70
0
  0
ENDTAB
  0
TABLE
  2
BLOCK_RECORD
  5
1
100
AcDbSymbolTable
 70
0
  0
BLOCK_RECORD
  5
210
100
AcDbSymbolTableRecord
100
AcDbBlockTableRecord
  2
*Model_Space
  0
BLOCK_RECORD
  5
211
100
AcDbSymbolTableRecord
100
AcDbBlockTableRecord
  2
*Paper_Space
  0
BLOCK_RECORD
  5
212
100
AcDbSymbolTableRecord
100
AcDbBlockTableRecord
  2
_FILLED
  0
ENDTAB
  0
TABLE
  2
DIMSTYLE
  5
A
100
AcDbSymbolTable
 70
1
100
AcDbDimStyleTable
 71
0
  0
DIMSTYLE
105
213
100
AcDbSymbolTableRecord
100
AcDbDimStyleTableRecord
  2
STANDARD
 70
0
  3

  4

 40
1.0
 41
1.2671683259
 42
1.0
 43
0.38
 44
1.0
 45
0.0
 46
0.0
 47
0.01
 48
0.01
140
1.7740356563
141
0.09
142
0.0
143
25.4
144
1.0
145
0.0
146
1.0
147
0.625
 71
1
 72
0
 73
0
 74
0
 75
0
 76
0
 77
1
 78
8
 79
2
170
0
171
1
172
0
173
0
174
0
175
0
176
0
177
0
178
0
270
2
179
2
271
2
272
2
273
2
274
2
275
0
280
0
281
0
282
0
283
1
284
8
285
0
286
0
287
3
288
0
340
11
278
46
341
212
342
212
343
212
344
212
  0
ENDTAB
  0
ENDSEC
  0
SECTION
  2
BLOCKS
  0
BLOCK
  5
20
100
AcDbEntity
  8
0
100
AcDbBlockBegin
  2
*Model_Space
 70
0
 10
0.0
 20
0.0
 30
0.0
  3
*Model_Space
  1

  0
ENDBLK
  5
21
100
AcDbEntity
  8
0
100
AcDbBlockEnd
  0
BLOCK
  5
1C
100
AcDbEntity
  8
0
100
AcDbBlockBegin
  2
*Paper_Space
 70
0
 10
0.0
 20
0.0
 30
0.0
  3
*Paper_Space
  1

  0
ENDBLK
  5
1D
100
AcDbEntity
  8
0
100
AcDbBlockEnd
  0
BLOCK
  5
214
100
AcDbEntity
  8
0
100
AcDbBlockBegin
  2
_FILLED
 70
64
 10
0.0
 20
0.0
  3
_FILLED
  1

  0
SOLID
  5
215
100
AcDbEntity
  8
0
  6
BYBLOCK
 62
0
100
AcDbTrace
 10
0.0
 20
0.0
 11
-1.0
 21
0.25
 12
-1.0
 22
-0.25
 13
-1.0
 23
-0.25
  0
ENDBLK
  5
216
100
AcDbEntity
  8
0
  6
BYBLOCK
 62
0
100
AcDbBlockEnd
  0
ENDSEC
  0
SECTION
  2
ENTITIES
  0
LINE
  5
217
100
AcDbEntity
  8
0
100
AcDbLine
 62
7
  6
CONTINUOUS
 10
90.6030121357
 20
10.7791510791
 11
18.6030121357
 21
10.7791510791
  0
LINE
  5
218
100
AcDbEntity
  8
0
100
AcDbLine
 62
7
  6
CONTINUOUS
 10
74.8693455357
 20
12.7791510791
 11
90.6030121357
 21
12.7791510791
  0
LINE
  5
219
100
AcDbEntity
  8
0
100
AcDbLine
 62
7
  6
CONTINUOUS
 10
74.8693455357
 20
29.7791510791
 11
90.6030121357
 21
29.7791510791
  0
LINE
  5
21A
100
AcDbEntity
  8
0
100
AcDbLine
 62
7
  6
CONTINUOUS
 10
85.1030121357
 20
31.7791510791
 11
90.6030121357
 21
31.7791510791
  0
LINE
  5
21B
100
AcDbEntity
  8
0
100
AcDbLine
 62
7
  6
CONTINUOUS
 10
90.6030121357
 20
32.2791510791
 11
18.6030121357
 21
32.2791510791
  0
LINE
  5
21C
100
AcDbEntity
  8
0
100
AcDbLine
 62
7
  6
CONTINUOUS
 10
18.6030121357
 20
35.7791510791
 11
20.5030121357
 21
35.7791510791
  0
LINE
  5
21D
100
AcDbEntity
  8
0
100
AcDbLine
 62
7
  6
CONTINUOUS
 10
18.6030121357
 20
10.7791510791
 11
18.6030121357
 21
132.6791510791
  0
LINE
  5
21E
100
AcDbEntity
  8
0
100
AcDbLine
 62
7
  6
CONTINUOUS
 10
20.5030121357
 20
32.2791510791
 11
20.5030121357
 21
41.5959288232
  0
LINE
  5
21F
100
AcDbEntity
  8
0
100
AcDbLine
 62
7
  6
CONTINUOUS
 10
20.5030121357
 20
54.7791510791
 11
20.5030121357
 21
63.6296033402
  0
LINE
  5
220
100
AcDbEntity
  8
0
100
AcDbLine
 62
7
  6
CONTINUOUS
 10
20.5030121357
 20
65.0791510791
 11
20.5030121357
 21
105.4079140682
  0
LINE
  5
221
100
AcDbEntity
  8
0
100
AcDbLine
 62
7
  6
CONTINUOUS
 10
20.6030121357
 20
54.2791510791
 11
20.6030121357
 21
127.1791510791
  0
LINE
  5
222
100
AcDbEntity
  8
0
100
AcDbLine
 62
7
  6
CONTINUOUS
 10
20.5030121357
 20
39.8791510795
 11
82.6030121357
 21
39.8791510791
  0
LINE
  5
223
100
AcDbEntity
  8
0
100
AcDbLine
 62
7
  6
CONTINUOUS
 10
36.1030121357
 20
40.0291510791
 11
41.5108600723
 21
40.0291510791
  0
LINE
  5
224
100
AcDbEntity
  8
0
100
AcDbLine
 62
7
  6
CONTINUOUS
 10
46.7008600723
 20
40.0291510791
 11
63.1030121357
 21
40.0291510791
  0
LINE
  5
225
100
AcDbEntity
  8
0
100
AcDbLine
 62
7
  6
CONTINUOUS
 10
21.3530121357
 20
110.9791510791
 11
21.3530121357
 21
112.5791510791
  0
LINE
  5
226
100
AcDbEntity
  8
0
100
AcDbLine
 62
7
  6
CONTINUOUS
 10
21.6030121357
 20
54.7791510791
 11
21.6030121357
 21
54.2791510791
  0
LINE
  5
227
100
AcDbEntity
  8
0
100
AcDbLine
 62
7
  6
CONTINUOUS
 10
21.6130121357
 20
112.5791510791
 11
21.6130121357
 21
127.1791510791
  0
LINE
  5
228
100
AcDbEntity
  8
0
100
AcDbLine
 62
7
  6
CONTINUOUS
 10
21.8730121357
 20
112.5791510791
 11
21.8730121357
 21
123.5791510791
  0
LINE
  5
229
100
AcDbEntity
  8
0
100
AcDbLine
 62
7
  6
CONTINUOUS
 10
22.1030121357
 20
54.2791510791
 11
22.1030121357
 21
54.7791510791
  0
LINE
  5
22A
100
AcDbEntity
  8
0
100
AcDbLine
 62
7
  6
CONTINUOUS
 10
22.5030121357
 20
41.5959288232
 11
22.5030121357
 21
39.8791510793
  0
LINE
  5
22B
100
AcDbEntity
  8
0
100
AcDbLine
 62
7
  6
CONTINUOUS
 10
23.2530121357
 20
54.7791510791
 11
23.2530121357
 21
54.2791510791
  0
LINE
  5
22C
100
AcDbEntity
  8
0
100
AcDbLine
 62
7
  6
CONTINUOUS
 10
23.5380121357
 20
121.0944054055
 11
23.5380121357
 21
119.7155471822
  0
LINE
  5
22D
100
AcDbEntity
  8
0
100
AcDbLine
 62
7
  6
CONTINUOUS
 10
23.6530121357
 20
58.8791510791
 11
23.6530121357
 21
54.7791510791
  0
LINE
  5
22E
100
AcDbEntity
  8
0
100
AcDbLine
 62
7
  6
CONTINUOUS
 10
23.6530121357
 20
53.7791510791
 11
23.6530121357
 21
54.2791510791
  0
LINE
  5
22F
100
AcDbEntity
  8
0
100
AcDbLine
 62
7
  6
CONTINUOUS
 10
24.4030121357
 20
58.8791510791
 11
24.4030121357
 21
54.2791510791
  0
LINE
  5
230
100
AcDbEntity
  8
0
100
AcDbLine
 62
7
  6
CONTINUOUS
 10
24.5030121357
 20
73.4791510791
 11
24.5030121357
 21
76.2791510791
  0
LINE
  5
231
100
AcDbEntity
  8
0
100
AcDbLine
 62
7
  6
CONTINUOUS
 10
24.5030121357
 20
79.2791510791
 11
24.5030121357
 21
82.0791510791
  0
LINE
  5
232
100
AcDbEntity
  8
0
100
AcDbLine
 62
7
  6
CONTINUOUS
 10
24.5030121357
 20
85.0791510791
 11
24.5030121357
 21
87.8791510791
  0
LINE
  5
233
100
AcDbEntity
  8
0
100
AcDbLine
 62
7
  6
CONTINUOUS
 10
24.5030121357
 20
90.8791510791
 11
24.5030121357
 21
93.6791510791
  0
LINE
  5
234
100
AcDbEntity
  8
0
100
AcDbLine
 62
7
  6
CONTINUOUS
 10
24.5030121357
 20
96.6791510791
 11
24.5030121357
 21
99.4791510791
  0
LINE
  5
235
100
AcDbEntity
  8
0
100
AcDbLine
 62
7
  6
CONTINUOUS
 10
24.6030121357
 20
127.1791510791
 11
24.6030121357
 21
129.6791510791
  0
LINE
  5
236
100
AcDbEntity
  8
0
100
AcDbLine
 62
7
  6
CONTINUOUS
 10
25.1030121357
 20
106.9496079228
 11
25.1030121357
 21
105.4079140682
  0
LINE
  5
237
100
AcDbEntity
  8
0
100
AcDbLine
 62
7
  6
CONTINUOUS
 10
25.1030121357
 20
79.9791510791
 11
25.1030121357
 21
79.2791510791
  0
LINE
  5
238
100
AcDbEntity
  8
0
100
AcDbLine
 62
7
  6
CONTINUOUS
 10
25.1030121357
 20
76.2791510791
 11
25.1030121357
 21
73.4791510791
  0
LINE
  5
239
100
AcDbEntity
  8
0
100
AcDbLine
 62
7
  6
CONTINUOUS
 10
25.1030121357
 20
65.0791510791
 11
25.1030121357
 21
64.8791510791
  0
LINE
  5
23A
100
AcDbEntity
  8
0
100
AcDbLine
 62
7
  6
CONTINUOUS
 10
25.3530121357
 20
105.4079140682
 11
25.3530121357
 21
106.8960503646
  0
LINE
  5
23B
100
AcDbEntity
  8
0
100
AcDbLine
 62
7
  6
CONTINUOUS
 10
25.3580121357
 20
43.4791510791
 11
25.3580121357
 21
39.8791510791
  0
LINE
  5
23C
100
AcDbEntity
  8
0
100
AcDbLine
 62
7
  6
CONTINUOUS
 10
22.5030121357
 20
41.5959288231
 11
20.5030121357
 21
41.5959288231
  0
LINE
  5
23D
100
AcDbEntity
  8
0
100
AcDbLine
 62
7
  6
CONTINUOUS
 10
25.3580121357
 20
43.4791510791
 11
30.5480121357
 21
43.4791510791
  0
LINE
  5
23E
100
AcDbEntity
  8
0
100
AcDbLine
 62
7
  6
CONTINUOUS
 10
41.5108600723
 20
43.4791510791
 11
46.7008600723
 21
43.4791510791
  0
LINE
  5
23F
100
AcDbEntity
  8
0
100
AcDbLine
 62
7
  6
CONTINUOUS
 10
66.4780121357
 20
43.4791510791
 11
71.6680121357
 21
43.4791510791
  0
LINE
  5
240
100
AcDbEntity
  8
0
100
AcDbLine
 62
7
  6
CONTINUOUS
 10
30.0529219483
 20
64.2268151232
 11
30.0187344695
 21
64.8791510791
  0
LINE
  5
241
100
AcDbEntity
  8
0
100
AcDbLine
 62
7
  6
CONTINUOUS
 10
26.2880121357
 20
119.7155471822
 11
26.2880121357
 21
121.0944054055
  0
LINE
  5
242
100
AcDbEntity
  8
0
100
AcDbLine
 62
7
  6
CONTINUOUS
 10
28.4530121357
 20
64.8791510791
 11
28.4530121357
 21
65.0791510791
  0
LINE
  5
243
100
AcDbEntity
  8
0
100
AcDbLine
 62
7
  6
CONTINUOUS
 10
28.6180121357
 20
121.0944054055
 11
28.6180121357
 21
119.7155471822
  0
LINE
  5
244
100
AcDbEntity
  8
0
100
AcDbLine
 62
7
  6
CONTINUOUS
 10
28.9030121357
 20
54.2791510791
 11
28.9030121357
 21
58.8791510791
  0
LINE
  5
245
100
AcDbEntity
  8
0
100
AcDbLine
 62
7
  6
CONTINUOUS
 10
29.6030121357
 20
65.0791510791
 11
29.6030121357
 21
64.8791510791
  0
LINE
  5
246
100
AcDbEntity
  8
0
100
AcDbLine
 62
7
  6
CONTINUOUS
 10
29.6530121357
 20
58.8791510791
 11
29.6530121357
 21
54.7791510791
  0
LINE
  5
247
100
AcDbEntity
  8
0
100
AcDbLine
 62
7
  6
CONTINUOUS
 10
29.6530121357
 20
54.2791510791
 11
29.6530121357
 21
53.7791510791
  0
LINE
  5
248
100
AcDbEntity
  8
0
100
AcDbLine
 62
7
  6
CONTINUOUS
 10
30.0030121357
 20
68.6791510791
 11
30.0030121357
 21
65.0791510791
  0
LINE
  5
249
100
AcDbEntity
  8
0
100
AcDbLine
 62
7
  6
CONTINUOUS
 10
30.0530121357
 20
54.2791510791
 11
30.0530121357
 21
54.7791510791
  0
LINE
  5
24A
100
AcDbEntity
  8
0
100
AcDbLine
 62
7
  6
CONTINUOUS
 10
30.5030121357
 20
65.2791510791
 11
30.5030121357
 21
63.4439181022
  0
LINE
  5
24B
100
AcDbEntity
  8
0
100
AcDbLine
 62
7
  6
CONTINUOUS
 10
30.5480121357
 20
43.4791510791
 11
30.5480121357
 21
39.8791510791
  0
LINE
  5
24C
100
AcDbEntity
  8
0
100
AcDbLine
 62
7
  6
CONTINUOUS
 10
30.7530121357
 20
68.6791510791
 11
30.7530121357
 21
64.8291510791
  0
LINE
  5
24D
100
AcDbEntity
  8
0
100
AcDbLine
 62
7
  6
CONTINUOUS
 10
75.3030121357
 20
49.4791510791
 11
72.8030121357
 21
49.4791510791
  0
LINE
  5
24E
100
AcDbEntity
  8
0
100
AcDbLine
 62
7
  6
CONTINUOUS
 10
67.4030121357
 20
49.4791510791
 11
64.9030121357
 21
49.4791510791
  0
LINE
  5
24F
100
AcDbEntity
  8
0
100
AcDbLine
 62
7
  6
CONTINUOUS
 10
59.5030121357
 20
49.4791510791
 11
57.0030121357
 21
49.4791510791
  0
LINE
  5
250
100
AcDbEntity
  8
0
100
AcDbLine
 62
7
  6
CONTINUOUS
 10
51.6030121357
 20
49.4791510791
 11
49.1030121357
 21
49.4791510791
  0
LINE
  5
251
100
AcDbEntity
  8
0
100
AcDbLine
 62
7
  6
CONTINUOUS
 10
43.7030121357
 20
49.4791510791
 11
41.2030121357
 21
49.4791510791
  0
LINE
  5
252
100
AcDbEntity
  8
0
100
AcDbLine
 62
7
  6
CONTINUOUS
 10
41.2030121357
 20
50.2291510791
 11
43.7030121357
 21
50.2291510791
  0
LINE
  5
253
100
AcDbEntity
  8
0
100
AcDbLine
 62
7
  6
CONTINUOUS
 10
49.1030121357
 20
50.2291510791
 11
51.6030121357
 21
50.2291510791
  0
LINE
  5
254
100
AcDbEntity
  8
0
100
AcDbLine
 62
7
  6
CONTINUOUS
 10
57.0030121357
 20
50.2291510791
 11
59.5030121357
 21
50.2291510791
  0
LINE
  5
255
100
AcDbEntity
  8
0
100
AcDbLine
 62
7
  6
CONTINUOUS
 10
64.9030121357
 20
50.2291510791
 11
67.4030121357
 21
50.2291510791
  0
LINE
  5
256
100
AcDbEntity
  8
0
100
AcDbLine
 62
7
  6
CONTINUOUS
 10
72.8030121357
 20
50.2291510791
 11
75.3030121357
 21
50.2291510791
  0
LINE
  5
257
100
AcDbEntity
  8
0
100
AcDbLine
 62
7
  6
CONTINUOUS
 10
31.1530121357
 20
54.7791510791
 11
31.1530121357
 21
54.2791510791
  0
LINE
  5
258
100
AcDbEntity
  8
0
100
AcDbLine
 62
7
  6
CONTINUOUS
 10
31.3680121357
 20
119.7155471822
 11
31.3680121357
 21
121.0944054055
  0
LINE
  5
259
100
AcDbEntity
  8
0
100
AcDbLine
 62
7
  6
CONTINUOUS
 10
31.5530121357
 20
58.8791510791
 11
31.5530121357
 21
54.7791510791
  0
LINE
  5
25A
100
AcDbEntity
  8
0
100
AcDbLine
 62
7
  6
CONTINUOUS
 10
31.5530121357
 20
53.7791510791
 11
31.5530121357
 21
54.2791510791
  0
LINE
  5
25B
100
AcDbEntity
  8
0
100
AcDbLine
 62
7
  6
CONTINUOUS
 10
32.3030121357
 20
54.8791510791
 11
32.3030121357
 21
58.8791510791
  0
LINE
  5
25C
100
AcDbEntity
  8
0
100
AcDbLine
 62
7
  6
CONTINUOUS
 10
32.5530121357
 20
52.7791510791
 11
32.5530121357
 21
54.8791510791
  0
LINE
  5
25D
100
AcDbEntity
  8
0
100
AcDbLine
 62
7
  6
CONTINUOUS
 10
33.6980121357
 20
121.0944054055
 11
33.6980121357
 21
119.7155471822
  0
LINE
  5
25E
100
AcDbEntity
  8
0
100
AcDbLine
 62
7
  6
CONTINUOUS
 10
34.1530121357
 20
54.8791510791
 11
34.1530121357
 21
52.7791510791
  0
LINE
  5
25F
100
AcDbEntity
  8
0
100
AcDbLine
 62
7
  6
CONTINUOUS
 10
34.9530121357
 20
52.7791510791
 11
34.9530121357
 21
54.8791510791
  0
LINE
  5
260
100
AcDbEntity
  8
0
100
AcDbLine
 62
7
  6
CONTINUOUS
 10
35.2530121357
 20
64.8291510791
 11
35.2530121357
 21
68.6791510791
  0
LINE
  5
261
100
AcDbEntity
  8
0
100
AcDbLine
 62
7
  6
CONTINUOUS
 10
35.5030121357
 20
65.2791510791
 11
35.5030121357
 21
63.4439181022
  0
LINE
  5
262
100
AcDbEntity
  8
0
100
AcDbLine
 62
7
  6
CONTINUOUS
 10
39.4530121357
 20
51.5791510791
 11
40.2030121357
 21
51.5791510791
  0
LINE
  5
263
100
AcDbEntity
  8
0
100
AcDbLine
 62
7
  6
CONTINUOUS
 10
44.7030121357
 20
51.5791510791
 11
45.4530121357
 21
51.5791510791
  0
LINE
  5
264
100
AcDbEntity
  8
0
100
AcDbLine
 62
7
  6
CONTINUOUS
 10
47.3530121357
 20
51.5791510791
 11
48.1030121357
 21
51.5791510791
  0
LINE
  5
265
100
AcDbEntity
  8
0
100
AcDbLine
 62
7
  6
CONTINUOUS
 10
52.6030121357
 20
51.5791510791
 11
53.3530121357
 21
51.5791510791
  0
LINE
  5
266
100
AcDbEntity
  8
0
100
AcDbLine
 62
7
  6
CONTINUOUS
 10
55.2530121357
 20
51.5791510791
 11
56.0030121357
 21
51.5791510791
  0
LINE
  5
267
100
AcDbEntity
  8
0
100
AcDbLine
 62
7
  6
CONTINUOUS
 10
60.5030121357
 20
51.5791510791
 11
61.2530121357
 21
51.5791510791
  0
LINE
  5
268
100
AcDbEntity
  8
0
100
AcDbLine
 62
7
  6
CONTINUOUS
 10
63.1530121357
 20
51.5791510791
 11
63.9030121357
 21
51.5791510791
  0
LINE
  5
269
100
AcDbEntity
  8
0
100
AcDbLine
 62
7
  6
CONTINUOUS
 10
68.4030121357
 20
51.5791510791
 11
69.1530121357
 21
51.5791510791
  0
LINE
  5
26A
100
AcDbEntity
  8
0
100
AcDbLine
 62
7
  6
CONTINUOUS
 10
71.0530121357
 20
51.5791510791
 11
71.8030121357
 21
51.5791510791
  0
LINE
  5
26B
100
AcDbEntity
  8
0
100
AcDbLine
 62
7
  6
CONTINUOUS
 10
76.3030121357
 20
51.5791510791
 11
77.0530121357
 21
51.5791510791
  0
LINE
  5
26C
100
AcDbEntity
  8
0
100
AcDbLine
 62
7
  6
CONTINUOUS
 10
36.5530121357
 20
52.7791510791
 11
32.5530121357
 21
52.7791510791
  0
LINE
  5
26D
100
AcDbEntity
  8
0
100
AcDbLine
 62
7
  6
CONTINUOUS
 10
28.6530121357
 20
52.7791510791
 11
24.6530121357
 21
52.7791510791
  0
LINE
  5
26E
100
AcDbEntity
  8
0
100
AcDbLine
 62
7
  6
CONTINUOUS
 10
39.4530121357
 20
52.7791510791
 11
45.4530121357
 21
52.7791510791
  0
LINE
  5
26F
100
AcDbEntity
  8
0
100
AcDbLine
 62
7
  6
CONTINUOUS
 10
47.3530121357
 20
52.7791510791
 11
53.3530121357
 21
52.7791510791
  0
LINE
  5
270
100
AcDbEntity
  8
0
100
AcDbLine
 62
7
  6
CONTINUOUS
 10
55.2530121357
 20
52.7791510791
 11
61.2530121357
 21
52.7791510791
  0
LINE
  5
271
100
AcDbEntity
  8
0
100
AcDbLine
 62
7
  6
CONTINUOUS
 10
63.1530121357
 20
52.7791510791
 11
69.1530121357
 21
52.7791510791
  0
LINE
  5
272
100
AcDbEntity
  8
0
100
AcDbLine
 62
7
  6
CONTINUOUS
 10
71.0530121357
 20
52.7791510791
 11
77.0530121357
 21
52.7791510791
  0
LINE
  5
273
100
AcDbEntity
  8
0
100
AcDbLine
 62
7
  6
CONTINUOUS
 10
25.1530121357
 20
53.5291510791
 11
28.1530121357
 21
53.5291510791
  0
LINE
  5
274
100
AcDbEntity
  8
0
100
AcDbLine
 62
7
  6
CONTINUOUS
 10
40.9530121357
 20
53.5291510791
 11
43.9530121357
 21
53.5291510791
  0
LINE
  5
275
100
AcDbEntity
  8
0
100
AcDbLine
 62
7
  6
CONTINUOUS
 10
48.8530121357
 20
53.5291510791
 11
51.8530121357
 21
53.5291510791
  0
LINE
  5
276
100
AcDbEntity
  8
0
100
AcDbLine
 62
7
  6
CONTINUOUS
 10
77.0530121357
 20
53.6791510791
 11
71.0530121357
 21
53.6791510791
  0
LINE
  5
277
100
AcDbEntity
  8
0
100
AcDbLine
 62
7
  6
CONTINUOUS
 10
69.1530121357
 20
53.6791510791
 11
63.1530121357
 21
53.6791510791
  0
LINE
  5
278
100
AcDbEntity
  8
0
100
AcDbLine
 62
7
  6
CONTINUOUS
 10
61.2530121357
 20
53.6791510791
 11
55.2530121357
 21
53.6791510791
  0
LINE
  5
279
100
AcDbEntity
  8
0
100
AcDbLine
 62
7
  6
CONTINUOUS
 10
53.3530121357
 20
53.6791510791
 11
52.2909894613
 21
53.6791510791
  0
LINE
  5
27A
100
AcDbEntity
  8
0
100
AcDbLine
 62
7
  6
CONTINUOUS
 10
48.4150367628
 20
53.6791510791
 11
47.3530121357
 21
53.6791510791
  0
LINE
  5
27B
100
AcDbEntity
  8
0
100
AcDbLine
 62
7
  6
CONTINUOUS
 10
45.4530121357
 20
53.6791510791
 11
44.3909894613
 21
53.6791510791
  0
LINE
  5
27C
100
AcDbEntity
  8
0
100
AcDbLine
 62
7
  6
CONTINUOUS
 10
40.5150367628
 20
53.6791510791
 11
40.4611339998
 21
53.6791510791
  0
LINE
  5
27D
100
AcDbEntity
  8
0
100
AcDbLine
 62
7
  6
CONTINUOUS
 10
34.9530121357
 20
53.6791510791
 11
34.1530121357
 21
53.6791510791
  0
LINE
  5
27E
100
AcDbEntity
  8
0
100
AcDbLine
 62
7
  6
CONTINUOUS
 10
32.5530121357
 20
53.6791510791
 11
31.5855316252
 21
53.6791510791
  0
LINE
  5
27F
100
AcDbEntity
  8
0
100
AcDbLine
 62
7
  6
CONTINUOUS
 10
29.6204894233
 20
53.6791510791
 11
28.5909894613
 21
53.6791510791
  0
LINE
  5
280
100
AcDbEntity
  8
0
100
AcDbLine
 62
7
  6
CONTINUOUS
 10
24.7150367628
 20
53.6791510791
 11
23.6855316252
 21
53.6791510791
  0
LINE
  5
281
100
AcDbEntity
  8
0
100
AcDbLine
 62
7
  6
CONTINUOUS
 10
80.1030121357
 20
54.2791510791
 11
77.0530121357
 21
54.2791510791
  0
LINE
  5
282
100
AcDbEntity
  8
0
100
AcDbLine
 62
7
  6
CONTINUOUS
 10
71.0530121357
 20
54.2791510791
 11
69.1530121357
 21
54.2791510791
  0
LINE
  5
283
100
AcDbEntity
  8
0
100
AcDbLine
 62
7
  6
CONTINUOUS
 10
63.1530121357
 20
54.2791510791
 11
61.2530121357
 21
54.2791510791
  0
LINE
  5
284
100
AcDbEntity
  8
0
100
AcDbLine
 62
7
  6
CONTINUOUS
 10
55.2530121357
 20
54.2791510791
 11
53.3530121357
 21
54.2791510791
  0
LINE
  5
285
100
AcDbEntity
  8
0
100
AcDbLine
 62
7
  6
CONTINUOUS
 10
47.3530121357
 20
54.2791510791
 11
45.4530121357
 21
54.2791510791
  0
LINE
  5
286
100
AcDbEntity
  8
0
100
AcDbLine
 62
7
  6
CONTINUOUS
 10
39.4530121357
 20
54.2791510791
 11
37.5530121357
 21
54.2791510791
  0
LINE
  5
287
100
AcDbEntity
  8
0
100
AcDbLine
 62
7
  6
CONTINUOUS
 10
31.5530121357
 20
54.2791510791
 11
29.6530121357
 21
54.2791510791
  0
LINE
  5
288
100
AcDbEntity
  8
0
100
AcDbLine
 62
7
  6
CONTINUOUS
 10
23.6530121357
 20
54.2791510791
 11
20.6030121357
 21
54.2791510791
  0
LINE
  5
289
100
AcDbEntity
  8
0
100
AcDbLine
 62
7
  6
CONTINUOUS
 10
80.2030121357
 20
54.7791510791
 11
77.0530121357
 21
54.7791510791
  0
LINE
  5
28A
100
AcDbEntity
  8
0
100
AcDbLine
 62
7
  6
CONTINUOUS
 10
71.0530121357
 20
54.7791510791
 11
69.1530121357
 21
54.7791510791
  0
LINE
  5
28B
100
AcDbEntity
  8
0
100
AcDbLine
 62
7
  6
CONTINUOUS
 10
63.1530121357
 20
54.7791510791
 11
61.2530121357
 21
54.7791510791
  0
LINE
  5
28C
100
AcDbEntity
  8
0
100
AcDbLine
 62
7
  6
CONTINUOUS
 10
55.2530121357
 20
54.7791510791
 11
53.3530121357
 21
54.7791510791
  0
LINE
  5
28D
100
AcDbEntity
  8
0
100
AcDbLine
 62
7
  6
CONTINUOUS
 10
47.3530121357
 20
54.7791510791
 11
45.4530121357
 21
54.7791510791
  0
LINE
  5
28E
100
AcDbEntity
  8
0
100
AcDbLine
 62
7
  6
CONTINUOUS
 10
39.4530121357
 20
54.7791510791
 11
37.5530121357
 21
54.7791510791
  0
LINE
  5
28F
100
AcDbEntity
  8
0
100
AcDbLine
 62
7
  6
CONTINUOUS
 10
31.5530121357
 20
54.7791510791
 11
29.6530121357
 21
54.7791510791
  0
LINE
  5
290
100
AcDbEntity
  8
0
100
AcDbLine
 62
7
  6
CONTINUOUS
 10
23.6530121357
 20
54.7791510791
 11
20.5030121357
 21
54.7791510791
  0
LINE
  5
291
100
AcDbEntity
  8
0
100
AcDbLine
 62
7
  6
CONTINUOUS
 10
36.8030121357
 20
54.8791510791
 11
32.3030121357
 21
54.8791510791
  0
LINE
  5
292
100
AcDbEntity
  8
0
100
AcDbLine
 62
7
  6
CONTINUOUS
 10
37.9529219483
 20
64.2268151232
 11
37.9187344695
 21
64.8791510791
  0
LINE
  5
293
100
AcDbEntity
  8
0
100
AcDbLine
 62
7
  6
CONTINUOUS
 10
36.0030121357
 20
68.6791510791
 11
36.0030121357
 21
65.0791510791
  0
LINE
  5
294
100
AcDbEntity
  8
0
100
AcDbLine
 62
7
  6
CONTINUOUS
 10
36.1030121357
 20
39.8791510791
 11
36.1030121357
 21
40.0291510791
  0
LINE
  5
295
100
AcDbEntity
  8
0
100
AcDbLine
 62
7
  6
CONTINUOUS
 10
36.4030121357
 20
64.8791510791
 11
36.4030121357
 21
65.0791510791
  0
LINE
  5
296
100
AcDbEntity
  8
0
100
AcDbLine
 62
7
  6
CONTINUOUS
 10
36.4276470346
 20
59.7506411648
 11
36.4276470346
 21
60.6222586092
  0
LINE
  5
297
100
AcDbEntity
  8
0
100
AcDbLine
 62
7
  6
CONTINUOUS
 10
36.4480121357
 20
119.7155471822
 11
36.4480121357
 21
121.0944054055
  0
LINE
  5
298
100
AcDbEntity
  8
0
100
AcDbLine
 62
7
  6
CONTINUOUS
 10
36.5530121357
 20
54.8791510791
 11
36.5530121357
 21
52.7791510791
  0
LINE
  5
299
100
AcDbEntity
  8
0
100
AcDbLine
 62
7
  6
CONTINUOUS
 10
36.8030121357
 20
58.8791510791
 11
36.8030121357
 21
54.8791510791
  0
LINE
  5
29A
100
AcDbEntity
  8
0
100
AcDbLine
 62
7
  6
CONTINUOUS
 10
37.1030121357
 20
79.9791510791
 11
37.1030121357
 21
79.2791510791
  0
LINE
  5
29B
100
AcDbEntity
  8
0
100
AcDbLine
 62
7
  6
CONTINUOUS
 10
37.1030121357
 20
76.2791510791
 11
37.1030121357
 21
73.4791510791
  0
LINE
  5
29C
100
AcDbEntity
  8
0
100
AcDbLine
 62
7
  6
CONTINUOUS
 10
37.5030121357
 20
65.0791510791
 11
37.5030121357
 21
64.8791510791
  0
LINE
  5
29D
100
AcDbEntity
  8
0
100
AcDbLine
 62
7
  6
CONTINUOUS
 10
37.5030121357
 20
73.4791510791
 11
37.5030121357
 21
76.2791510791
  0
LINE
  5
29E
100
AcDbEntity
  8
0
100
AcDbLine
 62
7
  6
CONTINUOUS
 10
37.5030121357
 20
79.2791510791
 11
37.5030121357
 21
82.0791510791
  0
LINE
  5
29F
100
AcDbEntity
  8
0
100
AcDbLine
 62
7
  6
CONTINUOUS
 10
37.5030121357
 20
85.0791510791
 11
37.5030121357
 21
87.8791510791
  0
LINE
  5
2A0
100
AcDbEntity
  8
0
100
AcDbLine
 62
7
  6
CONTINUOUS
 10
37.5030121357
 20
90.8791510791
 11
37.5030121357
 21
93.6791510791
  0
LINE
  5
2A1
100
AcDbEntity
  8
0
100
AcDbLine
 62
7
  6
CONTINUOUS
 10
37.5030121357
 20
96.6791510791
 11
37.5030121357
 21
99.4791510791
  0
LINE
  5
2A2
100
AcDbEntity
  8
0
100
AcDbLine
 62
7
  6
CONTINUOUS
 10
37.5530121357
 20
58.8791510791
 11
37.5530121357
 21
54.7791510791
  0
LINE
  5
2A3
100
AcDbEntity
  8
0
100
AcDbLine
 62
7
  6
CONTINUOUS
 10
37.5530121357
 20
54.2791510791
 11
37.5530121357
 21
53.7791510791
  0
LINE
  5
2A4
100
AcDbEntity
  8
0
100
AcDbLine
 62
7
  6
CONTINUOUS
 10
37.9030121357
 20
68.6791510791
 11
37.9030121357
 21
65.0791510791
  0
LINE
  5
2A5
100
AcDbEntity
  8
0
100
AcDbLine
 62
7
  6
CONTINUOUS
 10
37.9530121357
 20
54.2791510791
 11
37.9530121357
 21
54.7791510791
  0
LINE
  5
2A6
100
AcDbEntity
  8
0
100
AcDbLine
 62
7
  6
CONTINUOUS
 10
38.4030121357
 20
65.2791510791
 11
38.4030121357
 21
64.5189388489
  0
LINE
  5
2A7
100
AcDbEntity
  8
0
100
AcDbLine
 62
7
  6
CONTINUOUS
 10
38.7780121357
 20
121.0944054055
 11
38.7780121357
 21
119.7155471822
  0
LINE
  5
2A8
100
AcDbEntity
  8
0
100
AcDbLine
 62
7
  6
CONTINUOUS
 10
39.0530121357
 20
54.7791510791
 11
39.0530121357
 21
54.2791510791
  0
LINE
  5
2A9
100
AcDbEntity
  8
0
100
AcDbLine
 62
7
  6
CONTINUOUS
 10
39.4530121357
 20
58.8791510791
 11
39.4530121357
 21
54.7791510791
  0
LINE
  5
2AA
100
AcDbEntity
  8
0
100
AcDbLine
 62
7
  6
CONTINUOUS
 10
39.4530121357
 20
54.2791510791
 11
39.4530121357
 21
51.2291510791
  0
LINE
  5
2AB
100
AcDbEntity
  8
0
100
AcDbLine
 62
7
  6
CONTINUOUS
 10
39.5030121357
 20
99.4791510791
 11
39.5030121357
 21
96.6791510791
  0
LINE
  5
2AC
100
AcDbEntity
  8
0
100
AcDbLine
 62
7
  6
CONTINUOUS
 10
39.5030121357
 20
93.6791510791
 11
39.5030121357
 21
90.8791510791
  0
LINE
  5
2AD
100
AcDbEntity
  8
0
100
AcDbLine
 62
7
  6
CONTINUOUS
 10
39.5030121357
 20
87.8791510791
 11
39.5030121357
 21
85.0791510791
  0
LINE
  5
2AE
100
AcDbEntity
  8
0
100
AcDbLine
 62
7
  6
CONTINUOUS
 10
39.5030121357
 20
82.0791510791
 11
39.5030121357
 21
79.2791510791
  0
LINE
  5
2AF
100
AcDbEntity
  8
0
100
AcDbLine
 62
7
  6
CONTINUOUS
 10
39.5030121357
 20
76.2791510791
 11
39.5030121357
 21
73.4791510791
  0
LINE
  5
2B0
100
AcDbEntity
  8
0
100
AcDbLine
 62
7
  6
CONTINUOUS
 10
40.2030121357
 20
58.8791510791
 11
40.2030121357
 21
54.2791510791
  0
LINE
  5
2B1
100
AcDbEntity
  8
0
100
AcDbLine
 62
7
  6
CONTINUOUS
 10
40.2030121357
 20
52.7791510791
 11
40.2030121357
 21
51.2291510791
  0
LINE
  5
2B2
100
AcDbEntity
  8
0
100
AcDbLine
 62
7
  6
CONTINUOUS
 10
40.4611339998
 20
60.5656849702
 11
40.4611339998
 21
59.633360717
  0
LINE
  5
2B3
100
AcDbEntity
  8
0
100
AcDbLine
 62
7
  6
CONTINUOUS
 10
40.4611339998
 20
53.714396383
 11
40.4611339998
 21
52.7791510791
  0
LINE
  5
2B4
100
AcDbEntity
  8
0
100
AcDbLine
 62
7
  6
CONTINUOUS
 10
35.9531023232
 20
64.226815123
 11
35.987289802
 21
64.8791510791
  0
LINE
  5
2B5
100
AcDbEntity
  8
0
100
AcDbLine
 62
7
  6
CONTINUOUS
 10
43.8851551746
 20
138.8391510791
 11
43.4544060131
 21
132.6791510791
  0
LINE
  5
2B6
100
AcDbEntity
  8
0
100
AcDbLine
 62
7
  6
CONTINUOUS
 10
56.5030121357
 20
56.6791510791
 11
60.0030121357
 21
56.6791510791
  0
LINE
  5
2B7
100
AcDbEntity
  8
0
100
AcDbLine
 62
7
  6
CONTINUOUS
 10
64.4030121357
 20
56.6791510791
 11
67.9030121357
 21
56.6791510791
  0
LINE
  5
2B8
100
AcDbEntity
  8
0
100
AcDbLine
 62
7
  6
CONTINUOUS
 10
72.3030121357
 20
56.6791510791
 11
75.8030121357
 21
56.6791510791
  0
LINE
  5
2B9
100
AcDbEntity
  8
0
100
AcDbLine
 62
7
  6
CONTINUOUS
 10
76.9286398522
 20
59.4791510791
 11
71.1773844193
 21
59.4791510791
  0
LINE
  5
2BA
100
AcDbEntity
  8
0
100
AcDbLine
 62
7
  6
CONTINUOUS
 10
69.0286398522
 20
59.4791510791
 11
63.2773844193
 21
59.4791510791
  0
LINE
  5
2BB
100
AcDbEntity
  8
0
100
AcDbLine
 62
7
  6
CONTINUOUS
 10
61.1286398522
 20
59.4791510791
 11
55.3773844193
 21
59.4791510791
  0
LINE
  5
2BC
100
AcDbEntity
  8
0
100
AcDbLine
 62
7
  6
CONTINUOUS
 10
51.3530121357
 20
60.1291510791
 11
49.3530121357
 21
60.1291510791
  0
LINE
  5
2BD
100
AcDbEntity
  8
0
100
AcDbLine
 62
7
  6
CONTINUOUS
 10
43.4530121357
 20
60.1291510791
 11
41.4530121357
 21
60.1291510791
  0
LINE
  5
2BE
100
AcDbEntity
  8
0
100
AcDbLine
 62
7
  6
CONTINUOUS
 10
27.6530121357
 20
60.1291510791
 11
25.6530121357
 21
60.1291510791
  0
LINE
  5
2BF
100
AcDbEntity
  8
0
100
AcDbLine
 62
7
  6
CONTINUOUS
 10
33.5530121357
 20
60.1291510791
 11
35.5530121357
 21
60.1291510791
  0
LINE
  5
2C0
100
AcDbEntity
  8
0
100
AcDbLine
 62
7
  6
CONTINUOUS
 10
45.8529219483
 20
64.2268151229
 11
45.8187344695
 21
64.8791510791
  0
LINE
  5
2C1
100
AcDbEntity
  8
0
100
AcDbLine
 62
7
  6
CONTINUOUS
 10
41.5108600723
 20
43.4791510791
 11
41.5108600723
 21
39.8791510791
  0
LINE
  5
2C2
100
AcDbEntity
  8
0
100
AcDbLine
 62
7
  6
CONTINUOUS
 10
41.5280121357
 20
119.7155471822
 11
41.5280121357
 21
121.0944054055
  0
LINE
  5
2C3
100
AcDbEntity
  8
0
100
AcDbLine
 62
7
  6
CONTINUOUS
 10
42.6030121357
 20
129.6791510791
 11
42.6030121357
 21
127.8791510791
  0
LINE
  5
2C4
100
AcDbEntity
  8
0
100
AcDbLine
 62
7
  6
CONTINUOUS
 10
43.4030121357
 20
65.2791510791
 11
43.4030121357
 21
63.4439181022
  0
LINE
  5
2C5
100
AcDbEntity
  8
0
100
AcDbLine
 62
7
  6
CONTINUOUS
 10
43.8580121357
 20
121.0944054055
 11
43.8580121357
 21
119.7155471822
  0
LINE
  5
2C6
100
AcDbEntity
  8
0
100
AcDbLine
 62
7
  6
CONTINUOUS
 10
43.9030121357
 20
68.6791510791
 11
43.9030121357
 21
65.0791510791
  0
LINE
  5
2C7
100
AcDbEntity
  8
0
100
AcDbLine
 62
7
  6
CONTINUOUS
 10
44.3030121357
 20
64.8791510791
 11
44.3030121357
 21
65.0791510791
  0
LINE
  5
2C8
100
AcDbEntity
  8
0
100
AcDbLine
 62
7
  6
CONTINUOUS
 10
44.7030121357
 20
51.2291510791
 11
44.7030121357
 21
52.7791510791
  0
LINE
  5
2C9
100
AcDbEntity
  8
0
100
AcDbLine
 62
7
  6
CONTINUOUS
 10
44.7030121357
 20
54.2791510791
 11
44.7030121357
 21
58.8791510791
  0
LINE
  5
2CA
100
AcDbEntity
  8
0
100
AcDbLine
 62
7
  6
CONTINUOUS
 10
45.4030121357
 20
65.0791510791
 11
45.4030121357
 21
64.8791510791
  0
LINE
  5
2CB
100
AcDbEntity
  8
0
100
AcDbLine
 62
7
  6
CONTINUOUS
 10
45.4530121357
 20
58.8791510791
 11
45.4530121357
 21
54.7791510791
  0
LINE
  5
2CC
100
AcDbEntity
  8
0
100
AcDbLine
 62
7
  6
CONTINUOUS
 10
45.4530121357
 20
51.2291510791
 11
45.4530121357
 21
54.2791510791
  0
LINE
  5
2CD
100
AcDbEntity
  8
0
100
AcDbLine
 62
7
  6
CONTINUOUS
 10
43.8531023231
 20
64.2268151229
 11
43.887289802
 21
64.8791510791
  0
LINE
  5
2CE
100
AcDbEntity
  8
0
100
AcDbLine
 62
7
  6
CONTINUOUS
 10
25.6530121357
 20
60.8791510791
 11
27.6530121357
 21
60.8791510791
  0
LINE
  5
2CF
100
AcDbEntity
  8
0
100
AcDbLine
 62
7
  6
CONTINUOUS
 10
33.5530121357
 20
60.8791510791
 11
35.5530121357
 21
60.8791510791
  0
LINE
  5
2D0
100
AcDbEntity
  8
0
100
AcDbLine
 62
7
  6
CONTINUOUS
 10
41.4530121357
 20
60.8791510791
 11
43.4530121357
 21
60.8791510791
  0
LINE
  5
2D1
100
AcDbEntity
  8
0
100
AcDbLine
 62
7
  6
CONTINUOUS
 10
49.3530121357
 20
60.8791510791
 11
51.3530121357
 21
60.8791510791
  0
LINE
  5
2D2
100
AcDbEntity
  8
0
100
AcDbLine
 62
7
  6
CONTINUOUS
 10
57.2530121357
 20
60.8791510791
 11
59.2530121357
 21
60.8791510791
  0
LINE
  5
2D3
100
AcDbEntity
  8
0
100
AcDbLine
 62
7
  6
CONTINUOUS
 10
65.1530121357
 20
60.8791510791
 11
67.1530121357
 21
60.8791510791
  0
LINE
  5
2D4
100
AcDbEntity
  8
0
100
AcDbLine
 62
7
  6
CONTINUOUS
 10
73.0530121357
 20
60.8791510791
 11
75.0530121357
 21
60.8791510791
  0
LINE
  5
2D5
100
AcDbEntity
  8
0
100
AcDbLine
 62
7
  6
CONTINUOUS
 10
50.7544727884
 20
63.2791510791
 11
46.8515514831
 21
63.2791510791
  0
LINE
  5
2D6
100
AcDbEntity
  8
0
100
AcDbLine
 62
7
  6
CONTINUOUS
 10
42.8544727884
 20
63.2791510791
 11
38.9515514831
 21
63.2791510791
  0
LINE
  5
2D7
100
AcDbEntity
  8
0
100
AcDbLine
 62
7
  6
CONTINUOUS
 10
34.9544727884
 20
63.2791510791
 11
31.0515514831
 21
63.2791510791
  0
LINE
  5
2D8
100
AcDbEntity
  8
0
100
AcDbLine
 62
7
  6
CONTINUOUS
 10
80.2030121357
 20
63.6296033402
 11
51.5147935989
 21
63.6296033402
  0
LINE
  5
2D9
100
AcDbEntity
  8
0
100
AcDbLine
 62
7
  6
CONTINUOUS
 10
46.0912306726
 20
63.6296033402
 11
43.6147935989
 21
63.6296033402
  0
LINE
  5
2DA
100
AcDbEntity
  8
0
100
AcDbLine
 62
7
  6
CONTINUOUS
 10
38.1912306726
 20
63.6296033402
 11
35.7147935989
 21
63.6296033402
  0
LINE
  5
2DB
100
AcDbEntity
  8
0
100
AcDbLine
 62
7
  6
CONTINUOUS
 10
30.2912306726
 20
63.6296033402
 11
20.5030121357
 21
63.6296033402
  0
LINE
  5
2DC
100
AcDbEntity
  8
0
100
AcDbLine
 62
7
  6
CONTINUOUS
 10
20.6030121357
 20
63.7212310546
 11
30.2216567632
 21
63.7212310546
  0
LINE
  5
2DD
100
AcDbEntity
  8
0
100
AcDbLine
 62
7
  6
CONTINUOUS
 10
35.7843675083
 20
63.7212310546
 11
38.1216567632
 21
63.7212310546
  0
LINE
  5
2DE
100
AcDbEntity
  8
0
100
AcDbLine
 62
7
  6
CONTINUOUS
 10
43.6843675083
 20
63.7212310546
 11
46.0216567632
 21
63.7212310546
  0
LINE
  5
2DF
100
AcDbEntity
  8
0
100
AcDbLine
 62
7
  6
CONTINUOUS
 10
52.6030121357
 20
63.8371257448
 11
80.1030121357
 21
63.8371257448
  0
LINE
  5
2E0
100
AcDbEntity
  8
0
100
AcDbLine
 62
7
  6
CONTINUOUS
 10
51.6966549775
 20
63.9440500159
 11
51.787289802
 21
63.9440500159
  0
LINE
  5
2E1
100
AcDbEntity
  8
0
100
AcDbLine
 62
7
  6
CONTINUOUS
 10
45.8969376704
 20
63.981304695
 11
43.8090866011
 21
63.981304695
  0
LINE
  5
2E2
100
AcDbEntity
  8
0
100
AcDbLine
 62
7
  6
CONTINUOUS
 10
37.9969376704
 20
63.981304695
 11
35.9090866011
 21
63.981304695
  0
LINE
  5
2E3
100
AcDbEntity
  8
0
100
AcDbLine
 62
7
  6
CONTINUOUS
 10
30.0969376704
 20
63.981304695
 11
20.6030121357
 21
63.981304695
  0
LINE
  5
2E4
100
AcDbEntity
  8
0
100
AcDbLine
 62
7
  6
CONTINUOUS
 10
31.5030121357
 20
64.0791510791
 11
34.5030121357
 21
64.0791510791
  0
LINE
  5
2E5
100
AcDbEntity
  8
0
100
AcDbLine
 62
7
  6
CONTINUOUS
 10
37.9376123926
 20
64.5189388489
 11
39.0611339998
 21
64.5189388489
  0
LINE
  5
2E6
100
AcDbEntity
  8
0
100
AcDbLine
 62
7
  6
CONTINUOUS
 10
51.787289802
 20
64.520535588
 11
52.6030121357
 21
64.520535588
  0
LINE
  5
2E7
100
AcDbEntity
  8
0
100
AcDbLine
 62
7
  6
CONTINUOUS
 10
45.8187344695
 20
64.8791510791
 11
43.887289802
 21
64.8791510791
  0
LINE
  5
2E8
100
AcDbEntity
  8
0
100
AcDbLine
 62
7
  6
CONTINUOUS
 10
37.9187344695
 20
64.8791510791
 11
35.987289802
 21
64.8791510791
  0
LINE
  5
2E9
100
AcDbEntity
  8
0
100
AcDbLine
 62
7
  6
CONTINUOUS
 10
30.0187344695
 20
64.8791510791
 11
20.6030121357
 21
64.8791510791
  0
LINE
  5
2EA
100
AcDbEntity
  8
0
100
AcDbLine
 62
7
  6
CONTINUOUS
 10
80.2030121357
 20
65.0791510791
 11
51.8030121357
 21
65.0791510791
  0
LINE
  5
2EB
100
AcDbEntity
  8
0
100
AcDbLine
 62
7
  6
CONTINUOUS
 10
45.8030121357
 20
65.0791510791
 11
43.9030121357
 21
65.0791510791
  0
LINE
  5
2EC
100
AcDbEntity
  8
0
100
AcDbLine
 62
7
  6
CONTINUOUS
 10
37.9030121357
 20
65.0791510791
 11
36.0030121357
 21
65.0791510791
  0
LINE
  5
2ED
100
AcDbEntity
  8
0
100
AcDbLine
 62
7
  6
CONTINUOUS
 10
30.0030121357
 20
65.0791510791
 11
20.5030121357
 21
65.0791510791
  0
LINE
  5
2EE
100
AcDbEntity
  8
0
100
AcDbLine
 62
7
  6
CONTINUOUS
 10
30.5030121357
 20
65.2791510791
 11
30.7530121357
 21
65.2791510791
  0
LINE
  5
2EF
100
AcDbEntity
  8
0
100
AcDbLine
 62
7
  6
CONTINUOUS
 10
35.2530121357
 20
65.2791510791
 11
35.5030121357
 21
65.2791510791
  0
LINE
  5
2F0
100
AcDbEntity
  8
0
100
AcDbLine
 62
7
  6
CONTINUOUS
 10
38.4030121357
 20
65.2791510791
 11
43.4030121357
 21
65.2791510791
  0
LINE
  5
2F1
100
AcDbEntity
  8
0
100
AcDbLine
 62
7
  6
CONTINUOUS
 10
46.3030121357
 20
65.2791510791
 11
51.3030121357
 21
65.2791510791
  0
LINE
  5
2F2
100
AcDbEntity
  8
0
100
AcDbLine
 62
7
  6
CONTINUOUS
 10
45.8030121357
 20
68.6791510791
 11
45.8030121357
 21
65.0791510791
  0
LINE
  5
2F3
100
AcDbEntity
  8
0
100
AcDbLine
 62
7
  6
CONTINUOUS
 10
45.8530121357
 20
54.2791510791
 11
45.8530121357
 21
54.7791510791
  0
LINE
  5
2F4
100
AcDbEntity
  8
0
100
AcDbLine
 62
7
  6
CONTINUOUS
 10
46.3030121357
 20
65.2791510791
 11
46.3030121357
 21
63.4439181022
  0
LINE
  5
2F5
100
AcDbEntity
  8
0
100
AcDbLine
 62
7
  6
CONTINUOUS
 10
46.6080121357
 20
119.7155471822
 11
46.6080121357
 21
121.0944054055
  0
LINE
  5
2F6
100
AcDbEntity
  8
0
100
AcDbLine
 62
7
  6
CONTINUOUS
 10
46.7008600723
 20
43.4791510791
 11
46.7008600723
 21
39.8791510791
  0
LINE
  5
2F7
100
AcDbEntity
  8
0
100
AcDbLine
 62
7
  6
CONTINUOUS
 10
46.9530121357
 20
54.7791510791
 11
46.9530121357
 21
54.2791510791
  0
LINE
  5
2F8
100
AcDbEntity
  8
0
100
AcDbLine
 62
7
  6
CONTINUOUS
 10
47.3530121357
 20
58.8791510791
 11
47.3530121357
 21
54.7791510791
  0
LINE
  5
2F9
100
AcDbEntity
  8
0
100
AcDbLine
 62
7
  6
CONTINUOUS
 10
47.3530121357
 20
54.2791510791
 11
47.3530121357
 21
51.2291510791
  0
LINE
  5
2FA
100
AcDbEntity
  8
0
100
AcDbLine
 62
7
  6
CONTINUOUS
 10
48.1030121357
 20
58.8791510791
 11
48.1030121357
 21
54.2791510791
  0
LINE
  5
2FB
100
AcDbEntity
  8
0
100
AcDbLine
 62
7
  6
CONTINUOUS
 10
48.1030121357
 20
52.7791510791
 11
48.1030121357
 21
51.2291510791
  0
LINE
  5
2FC
100
AcDbEntity
  8
0
100
AcDbLine
 62
7
  6
CONTINUOUS
 10
48.9380121357
 20
121.0944054055
 11
48.9380121357
 21
119.7155471822
  0
LINE
  5
2FD
100
AcDbEntity
  8
0
100
AcDbLine
 62
7
  6
CONTINUOUS
 10
36.0030121357
 20
66.1791510791
 11
35.2530121357
 21
66.1791510791
  0
LINE
  5
2FE
100
AcDbEntity
  8
0
100
AcDbLine
 62
7
  6
CONTINUOUS
 10
30.7530121357
 20
66.1791510791
 11
30.0030121357
 21
66.1791510791
  0
LINE
  5
2FF
100
AcDbEntity
  8
0
100
AcDbLine
 62
7
  6
CONTINUOUS
 10
30.0030121357
 20
67.5791510791
 11
30.7530121357
 21
67.5791510791
  0
LINE
  5
300
100
AcDbEntity
  8
0
100
AcDbLine
 62
7
  6
CONTINUOUS
 10
35.2530121357
 20
67.5791510791
 11
36.0030121357
 21
67.5791510791
  0
LINE
  5
301
100
AcDbEntity
  8
0
100
AcDbLine
 62
7
  6
CONTINUOUS
 10
76.2030121357
 20
67.6791510791
 11
54.0030121357
 21
67.6791510791
  0
LINE
  5
302
100
AcDbEntity
  8
0
100
AcDbLine
 62
7
  6
CONTINUOUS
 10
34.0030121357
 20
69.9291510791
 11
32.0030121357
 21
69.9291510791
  0
LINE
  5
303
100
AcDbEntity
  8
0
100
AcDbLine
 62
7
  6
CONTINUOUS
 10
54.0030121357
 20
70.4791510791
 11
76.2030121357
 21
70.4791510791
  0
LINE
  5
304
100
AcDbEntity
  8
0
100
AcDbLine
 62
7
  6
CONTINUOUS
 10
51.3030121357
 20
65.2791510791
 11
51.3030121357
 21
63.4439181022
  0
LINE
  5
305
100
AcDbEntity
  8
0
100
AcDbLine
 62
7
  6
CONTINUOUS
 10
51.5030121357
 20
99.4791510791
 11
51.5030121357
 21
96.6791510791
  0
LINE
  5
306
100
AcDbEntity
  8
0
100
AcDbLine
 62
7
  6
CONTINUOUS
 10
51.6880121357
 20
119.7155471822
 11
51.6880121357
 21
121.0944054055
  0
LINE
  5
307
100
AcDbEntity
  8
0
100
AcDbLine
 62
7
  6
CONTINUOUS
 10
51.787289802
 20
63.9440500159
 11
51.787289802
 21
64.520535588
  0
LINE
  5
308
100
AcDbEntity
  8
0
100
AcDbLine
 62
7
  6
CONTINUOUS
 10
51.8030121357
 20
68.6791510791
 11
51.8030121357
 21
65.0791510791
  0
LINE
  5
309
100
AcDbEntity
  8
0
100
AcDbLine
 62
7
  6
CONTINUOUS
 10
52.2030121357
 20
64.520535588
 11
52.2030121357
 21
65.0791510791
  0
LINE
  5
30A
100
AcDbEntity
  8
0
100
AcDbLine
 62
7
  6
CONTINUOUS
 10
52.3530121357
 20
105.4079140682
 11
52.3530121357
 21
108.1791510791
  0
LINE
  5
30B
100
AcDbEntity
  8
0
100
AcDbLine
 62
7
  6
CONTINUOUS
 10
52.3530121357
 20
110.9791510791
 11
52.3530121357
 21
112.5791510791
  0
LINE
  5
30C
100
AcDbEntity
  8
0
100
AcDbLine
 62
7
  6
CONTINUOUS
 10
52.5630121357
 20
112.5791510791
 11
52.5630121357
 21
122.5791510791
  0
LINE
  5
30D
100
AcDbEntity
  8
0
100
AcDbLine
 62
7
  6
CONTINUOUS
 10
52.6030121357
 20
82.0791510791
 11
52.6030121357
 21
79.2791510791
  0
LINE
  5
30E
100
AcDbEntity
  8
0
100
AcDbLine
 62
7
  6
CONTINUOUS
 10
52.6030121357
 20
76.2791510791
 11
52.6030121357
 21
73.4791510791
  0
LINE
  5
30F
100
AcDbEntity
  8
0
100
AcDbLine
 62
7
  6
CONTINUOUS
 10
52.6030121357
 20
65.0791510791
 11
52.6030121357
 21
63.8371257448
  0
LINE
  5
310
100
AcDbEntity
  8
0
100
AcDbLine
 62
7
  6
CONTINUOUS
 10
52.6030121357
 20
51.2291510791
 11
52.6030121357
 21
52.7791510791
  0
LINE
  5
311
100
AcDbEntity
  8
0
100
AcDbLine
 62
7
  6
CONTINUOUS
 10
52.6030121357
 20
54.2791510791
 11
52.6030121357
 21
58.8791510791
  0
LINE
  5
312
100
AcDbEntity
  8
0
100
AcDbLine
 62
7
  6
CONTINUOUS
 10
52.6030121357
 20
85.0791510791
 11
52.6030121357
 21
87.8791510791
  0
LINE
  5
313
100
AcDbEntity
  8
0
100
AcDbLine
 62
7
  6
CONTINUOUS
 10
52.6030121357
 20
90.8791510791
 11
52.6030121357
 21
93.6791510791
  0
LINE
  5
314
100
AcDbEntity
  8
0
100
AcDbLine
 62
7
  6
CONTINUOUS
 10
53.3530121357
 20
58.8791510791
 11
53.3530121357
 21
54.7791510791
  0
LINE
  5
315
100
AcDbEntity
  8
0
100
AcDbLine
 62
7
  6
CONTINUOUS
 10
53.3530121357
 20
51.2291510791
 11
53.3530121357
 21
54.2791510791
  0
LINE
  5
316
100
AcDbEntity
  8
0
100
AcDbLine
 62
7
  6
CONTINUOUS
 10
53.7280121357
 20
116.2991510791
 11
53.7280121357
 21
114.3491510791
  0
LINE
  5
317
100
AcDbEntity
  8
0
100
AcDbLine
 62
7
  6
CONTINUOUS
 10
53.7530121357
 20
54.2791510791
 11
53.7530121357
 21
54.7791510791
  0
LINE
  5
318
100
AcDbEntity
  8
0
100
AcDbLine
 62
7
  6
CONTINUOUS
 10
54.0030121357
 20
93.6791510791
 11
54.0030121357
 21
92.7791510791
  0
LINE
  5
319
100
AcDbEntity
  8
0
100
AcDbLine
 62
7
  6
CONTINUOUS
 10
54.0030121357
 20
67.6791510791
 11
54.0030121357
 21
70.4791510791
  0
LINE
  5
31A
100
AcDbEntity
  8
0
100
AcDbLine
 62
7
  6
CONTINUOUS
 10
54.6030121357
 20
40.0291510791
 11
54.6030121357
 21
39.8791510792
  0
LINE
  5
31B
100
AcDbEntity
  8
0
100
AcDbLine
 62
7
  6
CONTINUOUS
 10
54.8530121357
 20
54.7791510791
 11
54.8530121357
 21
54.2791510791
  0
LINE
  5
31C
100
AcDbEntity
  8
0
100
AcDbLine
 62
7
  6
CONTINUOUS
 10
55.2530121357
 20
58.8791510791
 11
55.2530121357
 21
54.7791510791
  0
LINE
  5
31D
100
AcDbEntity
  8
0
100
AcDbLine
 62
7
  6
CONTINUOUS
 10
55.2530121357
 20
54.2791510791
 11
55.2530121357
 21
51.2291510791
  0
LINE
  5
31E
100
AcDbEntity
  8
0
100
AcDbLine
 62
7
  6
CONTINUOUS
 10
32.0030121357
 20
70.6791510791
 11
34.0030121357
 21
70.6791510791
  0
LINE
  5
31F
100
AcDbEntity
  8
0
100
AcDbLine
 62
7
  6
CONTINUOUS
 10
39.9030121357
 20
70.6791510791
 11
41.9030121357
 21
70.6791510791
  0
LINE
  5
320
100
AcDbEntity
  8
0
100
AcDbLine
 62
7
  6
CONTINUOUS
 10
47.8030121357
 20
70.6791510791
 11
49.8030121357
 21
70.6791510791
  0
LINE
  5
321
100
AcDbEntity
  8
0
100
AcDbLine
 62
7
  6
CONTINUOUS
 10
76.2030121357
 20
73.4791510791
 11
24.5030121357
 21
73.4791510791
  0
LINE
  5
322
100
AcDbEntity
  8
0
100
AcDbLine
 62
7
  6
CONTINUOUS
 10
56.0030121357
 20
52.7791510791
 11
56.0030121357
 21
51.2291510791
  0
LINE
  5
323
100
AcDbEntity
  8
0
100
AcDbLine
 62
7
  6
CONTINUOUS
 10
56.4780121357
 20
114.3491510791
 11
56.4780121357
 21
116.2991510791
  0
LINE
  5
324
100
AcDbEntity
  8
0
100
AcDbLine
 62
7
  6
CONTINUOUS
 10
56.5030121357
 20
56.6791510791
 11
56.5030121357
 21
53.6791510791
  0
LINE
  5
325
100
AcDbEntity
  8
0
100
AcDbLine
 62
7
  6
CONTINUOUS
 10
56.5101064965
 20
98.0791510791
 11
56.5101064965
 21
96.4791510791
  0
LINE
  5
326
100
AcDbEntity
  8
0
100
AcDbLine
 62
7
  6
CONTINUOUS
 10
56.6588372245
 20
98.0791510791
 11
56.6588372245
 21
96.4791510791
  0
LINE
  5
327
100
AcDbEntity
  8
0
100
AcDbLine
 62
7
  6
CONTINUOUS
 10
57.1730121357
 20
127.8791510791
 11
57.1730121357
 21
123.5791510791
  0
LINE
  5
328
100
AcDbEntity
  8
0
100
AcDbLine
 62
7
  6
CONTINUOUS
 10
58.8080121357
 20
116.2991510791
 11
58.8080121357
 21
114.3491510791
  0
LINE
  5
329
100
AcDbEntity
  8
0
100
AcDbLine
 62
7
  6
CONTINUOUS
 10
59.1180121357
 20
122.5791510791
 11
59.1180121357
 21
124.9905637699
  0
LINE
  5
32A
100
AcDbEntity
  8
0
100
AcDbLine
 62
7
  6
CONTINUOUS
 10
59.5630121357
 20
124.9905637699
 11
59.5630121357
 21
127.8791510791
  0
LINE
  5
32B
100
AcDbEntity
  8
0
100
AcDbLine
 62
7
  6
CONTINUOUS
 10
59.7030121357
 20
98.0791510791
 11
59.7030121357
 21
96.4791510791
  0
LINE
  5
32C
100
AcDbEntity
  8
0
100
AcDbLine
 62
7
  6
CONTINUOUS
 10
60.0030121357
 20
56.6791510791
 11
60.0030121357
 21
53.6791510791
  0
LINE
  5
32D
100
AcDbEntity
  8
0
100
AcDbLine
 62
7
  6
CONTINUOUS
 10
24.5030121357
 20
75.4791510791
 11
25.1030121357
 21
75.4791510791
  0
LINE
  5
32E
100
AcDbEntity
  8
0
100
AcDbLine
 62
7
  6
CONTINUOUS
 10
24.5030121357
 20
76.2791510791
 11
76.2030121357
 21
76.2791510791
  0
LINE
  5
32F
100
AcDbEntity
  8
0
100
AcDbLine
 62
7
  6
CONTINUOUS
 10
87.6030121357
 20
78.5791510791
 11
82.6030121357
 21
78.5791510791
  0
LINE
  5
330
100
AcDbEntity
  8
0
100
AcDbLine
 62
7
  6
CONTINUOUS
 10
76.2030121357
 20
79.2791510791
 11
24.5030121357
 21
79.2791510791
  0
LINE
  5
331
100
AcDbEntity
  8
0
100
AcDbLine
 62
7
  6
CONTINUOUS
 10
25.1030121357
 20
79.9791510791
 11
37.1030121357
 21
79.9791510791
  0
LINE
  5
332
100
AcDbEntity
  8
0
100
AcDbLine
 62
7
  6
CONTINUOUS
 10
60.5030121357
 20
51.2291510791
 11
60.5030121357
 21
52.7791510791
  0
LINE
  5
333
100
AcDbEntity
  8
0
100
AcDbLine
 62
7
  6
CONTINUOUS
 10
61.2030121357
 20
73.4791510791
 11
61.2030121357
 21
76.2791510791
  0
LINE
  5
334
100
AcDbEntity
  8
0
100
AcDbLine
 62
7
  6
CONTINUOUS
 10
61.2030121357
 20
79.2791510791
 11
61.2030121357
 21
82.0791510791
  0
LINE
  5
335
100
AcDbEntity
  8
0
100
AcDbLine
 62
7
  6
CONTINUOUS
 10
61.2030121357
 20
85.0791510791
 11
61.2030121357
 21
87.8791510791
  0
LINE
  5
336
100
AcDbEntity
  8
0
100
AcDbLine
 62
7
  6
CONTINUOUS
 10
61.2030121357
 20
90.8791510791
 11
61.2030121357
 21
93.6791510791
  0
LINE
  5
337
100
AcDbEntity
  8
0
100
AcDbLine
 62
7
  6
CONTINUOUS
 10
61.2530121357
 20
58.8791510791
 11
61.2530121357
 21
54.7791510791
  0
LINE
  5
338
100
AcDbEntity
  8
0
100
AcDbLine
 62
7
  6
CONTINUOUS
 10
61.2530121357
 20
51.2291510791
 11
61.2530121357
 21
54.2791510791
  0
LINE
  5
339
100
AcDbEntity
  8
0
100
AcDbLine
 62
7
  6
CONTINUOUS
 10
61.5580121357
 20
114.3491510791
 11
61.5580121357
 21
116.2991510791
  0
LINE
  5
33A
100
AcDbEntity
  8
0
100
AcDbLine
 62
7
  6
CONTINUOUS
 10
61.6530121357
 20
54.2791510791
 11
61.6530121357
 21
54.7791510791
  0
LINE
  5
33B
100
AcDbEntity
  8
0
100
AcDbLine
 62
7
  6
CONTINUOUS
 10
62.7530121357
 20
54.7791510791
 11
62.7530121357
 21
54.2791510791
  0
LINE
  5
33C
100
AcDbEntity
  8
0
100
AcDbLine
 62
7
  6
CONTINUOUS
 10
63.1030121357
 20
40.0291510791
 11
63.1030121357
 21
39.8791510791
  0
LINE
  5
33D
100
AcDbEntity
  8
0
100
AcDbLine
 62
7
  6
CONTINUOUS
 10
63.1530121357
 20
58.8791510791
 11
63.1530121357
 21
54.7791510791
  0
LINE
  5
33E
100
AcDbEntity
  8
0
100
AcDbLine
 62
7
  6
CONTINUOUS
 10
63.1530121357
 20
54.2791510791
 11
63.1530121357
 21
51.2291510791
  0
LINE
  5
33F
100
AcDbEntity
  8
0
100
AcDbLine
 62
7
  6
CONTINUOUS
 10
63.2030121357
 20
93.6791510791
 11
63.2030121357
 21
90.8791510791
  0
LINE
  5
340
100
AcDbEntity
  8
0
100
AcDbLine
 62
7
  6
CONTINUOUS
 10
63.2030121357
 20
87.8791510791
 11
63.2030121357
 21
85.0791510791
  0
LINE
  5
341
100
AcDbEntity
  8
0
100
AcDbLine
 62
7
  6
CONTINUOUS
 10
63.2030121357
 20
82.0791510791
 11
63.2030121357
 21
79.2791510791
  0
LINE
  5
342
100
AcDbEntity
  8
0
100
AcDbLine
 62
7
  6
CONTINUOUS
 10
63.2030121357
 20
76.2791510791
 11
63.2030121357
 21
73.4791510791
  0
LINE
  5
343
100
AcDbEntity
  8
0
100
AcDbLine
 62
7
  6
CONTINUOUS
 10
63.8880121357
 20
116.2991510791
 11
63.8880121357
 21
114.3491510791
  0
LINE
  5
344
100
AcDbEntity
  8
0
100
AcDbLine
 62
7
  6
CONTINUOUS
 10
63.9030121357
 20
52.7791510791
 11
63.9030121357
 21
51.2291510791
  0
LINE
  5
345
100
AcDbEntity
  8
0
100
AcDbLine
 62
7
  6
CONTINUOUS
 10
64.4030121357
 20
56.6791510791
 11
64.4030121357
 21
53.6791510791
  0
LINE
  5
346
100
AcDbEntity
  8
0
100
AcDbLine
 62
7
  6
CONTINUOUS
 10
64.7030121357
 20
98.0791510791
 11
64.7030121357
 21
96.4791510791
  0
LINE
  5
347
100
AcDbEntity
  8
0
100
AcDbLine
 62
7
  6
CONTINUOUS
 10
82.6030121357
 20
81.3791510791
 11
87.6030121357
 21
81.3791510791
  0
LINE
  5
348
100
AcDbEntity
  8
0
100
AcDbLine
 62
7
  6
CONTINUOUS
 10
24.5030121357
 20
82.0791510791
 11
76.2030121357
 21
82.0791510791
  0
LINE
  5
349
100
AcDbEntity
  8
0
100
AcDbLine
 62
7
  6
CONTINUOUS
 10
87.6030121357
 20
84.3791510791
 11
82.6030121357
 21
84.3791510791
  0
LINE
  5
34A
100
AcDbEntity
  8
0
100
AcDbLine
 62
7
  6
CONTINUOUS
 10
76.2030121357
 20
85.0791510791
 11
24.5030121357
 21
85.0791510791
  0
LINE
  5
34B
100
AcDbEntity
  8
0
100
AcDbLine
 62
7
  6
CONTINUOUS
 10
65.3208690969
 20
138.8391510791
 11
65.7516182584
 21
132.6791510791
  0
LINE
  5
34C
100
AcDbEntity
  8
0
100
AcDbLine
 62
7
  6
CONTINUOUS
 10
66.4780121357
 20
43.4791510791
 11
66.4780121357
 21
39.8791510791
  0
LINE
  5
34D
100
AcDbEntity
  8
0
100
AcDbLine
 62
7
  6
CONTINUOUS
 10
66.6030121357
 20
110.9791510791
 11
66.6030121357
 21
110.0147347767
  0
LINE
  5
34E
100
AcDbEntity
  8
0
100
AcDbLine
 62
7
  6
CONTINUOUS
 10
66.6030121357
 20
127.8791510791
 11
66.6030121357
 21
128.4791510791
  0
LINE
  5
34F
100
AcDbEntity
  8
0
100
AcDbLine
 62
7
  6
CONTINUOUS
 10
66.6380121357
 20
114.3491510791
 11
66.6380121357
 21
116.2991510791
  0
LINE
  5
350
100
AcDbEntity
  8
0
100
AcDbLine
 62
7
  6
CONTINUOUS
 10
66.9180121357
 20
124.9905637699
 11
66.9180121357
 21
122.5791510791
  0
LINE
  5
351
100
AcDbEntity
  8
0
100
AcDbLine
 62
7
  6
CONTINUOUS
 10
67.747187047
 20
98.0791510791
 11
67.747187047
 21
96.4791510791
  0
LINE
  5
352
100
AcDbEntity
  8
0
100
AcDbLine
 62
7
  6
CONTINUOUS
 10
67.7630121357
 20
112.5791510791
 11
67.7630121357
 21
122.5791510791
  0
LINE
  5
353
100
AcDbEntity
  8
0
100
AcDbLine
 62
7
  6
CONTINUOUS
 10
67.895917775
 20
98.0791510791
 11
67.895917775
 21
96.4791510791
  0
LINE
  5
354
100
AcDbEntity
  8
0
100
AcDbLine
 62
7
  6
CONTINUOUS
 10
67.9030121357
 20
56.6791510791
 11
67.9030121357
 21
53.6791510791
  0
LINE
  5
355
100
AcDbEntity
  8
0
100
AcDbLine
 62
7
  6
CONTINUOUS
 10
68.1810121357
 20
127.8791510791
 11
68.1810121357
 21
128.3791510791
  0
LINE
  5
356
100
AcDbEntity
  8
0
100
AcDbLine
 62
7
  6
CONTINUOUS
 10
68.4030121357
 20
51.2291510791
 11
68.4030121357
 21
52.7791510791
  0
LINE
  5
357
100
AcDbEntity
  8
0
100
AcDbLine
 62
7
  6
CONTINUOUS
 10
68.5930121357
 20
112.5791510791
 11
68.5930121357
 21
123.5791510791
  0
LINE
  5
358
100
AcDbEntity
  8
0
100
AcDbLine
 62
7
  6
CONTINUOUS
 10
69.1530121357
 20
58.8791510791
 11
69.1530121357
 21
54.7791510791
  0
LINE
  5
359
100
AcDbEntity
  8
0
100
AcDbLine
 62
7
  6
CONTINUOUS
 10
69.1530121357
 20
51.2291510791
 11
69.1530121357
 21
54.2791510791
  0
LINE
  5
35A
100
AcDbEntity
  8
0
100
AcDbLine
 62
7
  6
CONTINUOUS
 10
69.5280121357
 20
112.5791510791
 11
69.5280121357
 21
126.1791510791
  0
LINE
  5
35B
100
AcDbEntity
  8
0
100
AcDbLine
 62
7
  6
CONTINUOUS
 10
69.5530121357
 20
54.2791510791
 11
69.5530121357
 21
54.7791510791
  0
LINE
  5
35C
100
AcDbEntity
  8
0
100
AcDbLine
 62
7
  6
CONTINUOUS
 10
82.6030121357
 20
87.1791510791
 11
87.6030121357
 21
87.1791510791
  0
LINE
  5
35D
100
AcDbEntity
  8
0
100
AcDbLine
 62
7
  6
CONTINUOUS
 10
24.5030121357
 20
87.8791510791
 11
76.2030121357
 21
87.8791510791
  0
LINE
  5
35E
100
AcDbEntity
  8
0
100
AcDbLine
 62
7
  6
CONTINUOUS
 10
70.4030121357
 20
93.6791510791
 11
70.4030121357
 21
92.7791510791
  0
LINE
  5
35F
100
AcDbEntity
  8
0
100
AcDbLine
 62
7
  6
CONTINUOUS
 10
70.6530121357
 20
54.7791510791
 11
70.6530121357
 21
54.2791510791
  0
LINE
  5
360
100
AcDbEntity
  8
0
100
AcDbLine
 62
7
  6
CONTINUOUS
 10
71.0530121357
 20
58.8791510791
 11
71.0530121357
 21
54.7791510791
  0
LINE
  5
361
100
AcDbEntity
  8
0
100
AcDbLine
 62
7
  6
CONTINUOUS
 10
71.0530121357
 20
54.2791510791
 11
71.0530121357
 21
51.2291510791
  0
LINE
  5
362
100
AcDbEntity
  8
0
100
AcDbLine
 62
7
  6
CONTINUOUS
 10
71.6680121357
 20
43.4791510791
 11
71.6680121357
 21
39.8791510791
  0
LINE
  5
363
100
AcDbEntity
  8
0
100
AcDbLine
 62
7
  6
CONTINUOUS
 10
71.8030121357
 20
52.7791510791
 11
71.8030121357
 21
51.2291510791
  0
LINE
  5
364
100
AcDbEntity
  8
0
100
AcDbLine
 62
7
  6
CONTINUOUS
 10
71.8530121357
 20
108.1791510791
 11
71.8530121357
 21
110.9791510791
  0
LINE
  5
365
100
AcDbEntity
  8
0
100
AcDbLine
 62
7
  6
CONTINUOUS
 10
72.3030121357
 20
56.6791510791
 11
72.3030121357
 21
53.6791510791
  0
LINE
  5
366
100
AcDbEntity
  8
0
100
AcDbLine
 62
7
  6
CONTINUOUS
 10
72.9030121357
 20
96.6791510791
 11
72.9030121357
 21
99.4791510791
  0
LINE
  5
367
100
AcDbEntity
  8
0
100
AcDbLine
 62
7
  6
CONTINUOUS
 10
87.6030121357
 20
90.1791510791
 11
82.6030121357
 21
90.1791510791
  0
LINE
  5
368
100
AcDbEntity
  8
0
100
AcDbLine
 62
7
  6
CONTINUOUS
 10
76.2030121357
 20
90.8791510791
 11
24.5030121357
 21
90.8791510791
  0
LINE
  5
369
100
AcDbEntity
  8
0
100
AcDbLine
 62
7
  6
CONTINUOUS
 10
54.0030121357
 20
92.7791510791
 11
61.2030121357
 21
92.7791510791
  0
LINE
  5
36A
100
AcDbEntity
  8
0
100
AcDbLine
 62
7
  6
CONTINUOUS
 10
63.2030121357
 20
92.7791510791
 11
70.4030121357
 21
92.7791510791
  0
LINE
  5
36B
100
AcDbEntity
  8
0
100
AcDbLine
 62
7
  6
CONTINUOUS
 10
82.6030121357
 20
92.9791510791
 11
87.6030121357
 21
92.9791510791
  0
LINE
  5
36C
100
AcDbEntity
  8
0
100
AcDbLine
 62
7
  6
CONTINUOUS
 10
24.5030121357
 20
93.6791510791
 11
76.2030121357
 21
93.6791510791
  0
LINE
  5
36D
100
AcDbEntity
  8
0
100
AcDbLine
 62
7
  6
CONTINUOUS
 10
74.8693455357
 20
29.7791510791
 11
74.8693455357
 21
12.7791510791
  0
LINE
  5
36E
100
AcDbEntity
  8
0
100
AcDbLine
 62
7
  6
CONTINUOUS
 10
75.8030121357
 20
56.6791510791
 11
75.8030121357
 21
53.6791510791
  0
LINE
  5
36F
100
AcDbEntity
  8
0
100
AcDbLine
 62
7
  6
CONTINUOUS
 10
76.2030121357
 20
99.4791510791
 11
76.2030121357
 21
96.6791510791
  0
LINE
  5
370
100
AcDbEntity
  8
0
100
AcDbLine
 62
7
  6
CONTINUOUS
 10
76.2030121357
 20
93.6791510791
 11
76.2030121357
 21
90.8791510791
  0
LINE
  5
371
100
AcDbEntity
  8
0
100
AcDbLine
 62
7
  6
CONTINUOUS
 10
76.2030121357
 20
87.8791510791
 11
76.2030121357
 21
85.0791510791
  0
LINE
  5
372
100
AcDbEntity
  8
0
100
AcDbLine
 62
7
  6
CONTINUOUS
 10
76.2030121357
 20
82.0791510791
 11
76.2030121357
 21
79.2791510791
  0
LINE
  5
373
100
AcDbEntity
  8
0
100
AcDbLine
 62
7
  6
CONTINUOUS
 10
76.2030121357
 20
76.2791510791
 11
76.2030121357
 21
73.4791510791
  0
LINE
  5
374
100
AcDbEntity
  8
0
100
AcDbLine
 62
7
  6
CONTINUOUS
 10
76.2030121357
 20
70.4791510791
 11
76.2030121357
 21
67.6791510791
  0
LINE
  5
375
100
AcDbEntity
  8
0
100
AcDbLine
 62
7
  6
CONTINUOUS
 10
76.3030121357
 20
51.2291510791
 11
76.3030121357
 21
52.7791510791
  0
LINE
  5
376
100
AcDbEntity
  8
0
100
AcDbLine
 62
7
  6
CONTINUOUS
 10
77.0530121357
 20
58.8791510791
 11
77.0530121357
 21
54.7791510791
  0
LINE
  5
377
100
AcDbEntity
  8
0
100
AcDbLine
 62
7
  6
CONTINUOUS
 10
77.0530121357
 20
51.2291510791
 11
77.0530121357
 21
54.2791510791
  0
LINE
  5
378
100
AcDbEntity
  8
0
100
AcDbLine
 62
7
  6
CONTINUOUS
 10
77.2030121357
 20
39.8791510792
 11
77.2030121357
 21
32.2791510791
  0
LINE
  5
379
100
AcDbEntity
  8
0
100
AcDbLine
 62
7
  6
CONTINUOUS
 10
77.4530121357
 20
54.2791510791
 11
77.4530121357
 21
54.7791510791
  0
LINE
  5
37A
100
AcDbEntity
  8
0
100
AcDbLine
 62
7
  6
CONTINUOUS
 10
77.8530121357
 20
108.1791510791
 11
77.8530121357
 21
110.9791510791
  0
LINE
  5
37B
100
AcDbEntity
  8
0
100
AcDbLine
 62
7
  6
CONTINUOUS
 10
78.1030121357
 20
29.7791510791
 11
78.1030121357
 21
32.2791510791
  0
LINE
  5
37C
100
AcDbEntity
  8
0
100
AcDbLine
 62
7
  6
CONTINUOUS
 10
78.6030121357
 20
54.2791510791
 11
78.6030121357
 21
54.7791510791
  0
LINE
  5
37D
100
AcDbEntity
  8
0
100
AcDbLine
 62
7
  6
CONTINUOUS
 10
78.6810121357
 20
127.8791510791
 11
78.6810121357
 21
128.3791510791
  0
LINE
  5
37E
100
AcDbEntity
  8
0
100
AcDbLine
 62
7
  6
CONTINUOUS
 10
67.895917775
 20
96.4791510791
 11
64.7030121357
 21
96.4791510791
  0
LINE
  5
37F
100
AcDbEntity
  8
0
100
AcDbLine
 62
7
  6
CONTINUOUS
 10
59.7030121357
 20
96.4791510791
 11
56.5101064965
 21
96.4791510791
  0
LINE
  5
380
100
AcDbEntity
  8
0
100
AcDbLine
 62
7
  6
CONTINUOUS
 10
76.2030121357
 20
96.6791510791
 11
72.9030121357
 21
96.6791510791
  0
LINE
  5
381
100
AcDbEntity
  8
0
100
AcDbLine
 62
7
  6
CONTINUOUS
 10
51.5030121357
 20
96.6791510791
 11
24.5030121357
 21
96.6791510791
  0
LINE
  5
382
100
AcDbEntity
  8
0
100
AcDbLine
 62
7
  6
CONTINUOUS
 10
67.895917775
 20
98.0791510791
 11
64.7030121357
 21
98.0791510791
  0
LINE
  5
383
100
AcDbEntity
  8
0
100
AcDbLine
 62
7
  6
CONTINUOUS
 10
59.7030121357
 20
98.0791510791
 11
56.5101064965
 21
98.0791510791
  0
LINE
  5
384
100
AcDbEntity
  8
0
100
AcDbLine
 62
7
  6
CONTINUOUS
 10
24.5030121357
 20
99.4791510791
 11
51.5030121357
 21
99.4791510791
  0
LINE
  5
385
100
AcDbEntity
  8
0
100
AcDbLine
 62
7
  6
CONTINUOUS
 10
72.9030121357
 20
99.4791510791
 11
76.2030121357
 21
99.4791510791
  0
LINE
  5
386
100
AcDbEntity
  8
0
100
AcDbLine
 62
7
  6
CONTINUOUS
 10
80.1030121357
 20
128.4791510791
 11
80.1030121357
 21
127.8791510791
  0
LINE
  5
387
100
AcDbEntity
  8
0
100
AcDbLine
 62
7
  6
CONTINUOUS
 10
80.1030121357
 20
54.2791510791
 11
80.1030121357
 21
105.4079604485
  0
LINE
  5
388
100
AcDbEntity
  8
0
100
AcDbLine
 62
7
  6
CONTINUOUS
 10
80.2030121357
 20
63.6296033402
 11
80.2030121357
 21
54.7791510791
  0
LINE
  5
389
100
AcDbEntity
  8
0
100
AcDbLine
 62
7
  6
CONTINUOUS
 10
80.2030121357
 20
65.0791510791
 11
80.2030121357
 21
105.4079140682
  0
LINE
  5
38A
100
AcDbEntity
  8
0
100
AcDbLine
 62
7
  6
CONTINUOUS
 10
81.6030121357
 20
12.7791510791
 11
81.6030121357
 21
10.7791510791
  0
LINE
  5
38B
100
AcDbEntity
  8
0
100
AcDbLine
 62
7
  6
CONTINUOUS
 10
81.6030121357
 20
127.8791510791
 11
81.6030121357
 21
129.6791510791
  0
LINE
  5
38C
100
AcDbEntity
  8
0
100
AcDbLine
 62
7
  6
CONTINUOUS
 10
82.6030121357
 20
32.2791510791
 11
82.6030121357
 21
104.7141057061
  0
LINE
  5
38D
100
AcDbEntity
  8
0
100
AcDbLine
 62
7
  6
CONTINUOUS
 10
84.1030121357
 20
29.7791510791
 11
84.1030121357
 21
32.2791510791
  0
LINE
  5
38E
100
AcDbEntity
  8
0
100
AcDbLine
 62
7
  6
CONTINUOUS
 10
84.6030121357
 20
127.1791510791
 11
84.6030121357
 21
129.6791510791
  0
LINE
  5
38F
100
AcDbEntity
  8
0
100
AcDbLine
 62
7
  6
CONTINUOUS
 10
18.6030121357
 20
103.5703210517
 11
82.6030121357
 21
103.5703210517
  0
LINE
  5
390
100
AcDbEntity
  8
0
100
AcDbLine
 62
7
  6
CONTINUOUS
 10
82.6030121357
 20
104.7141057061
 11
90.6030121357
 21
104.7141057061
  0
LINE
  5
391
100
AcDbEntity
  8
0
100
AcDbLine
 62
7
  6
CONTINUOUS
 10
84.9630121357
 20
127.1791510791
 11
84.9630121357
 21
126.1791510791
  0
LINE
  5
392
100
AcDbEntity
  8
0
100
AcDbLine
 62
7
  6
CONTINUOUS
 10
85.1030121357
 20
32.2791510791
 11
85.1030121357
 21
31.7791510791
  0
LINE
  5
393
100
AcDbEntity
  8
0
100
AcDbLine
 62
7
  6
CONTINUOUS
 10
86.0280121357
 20
112.5791510791
 11
86.0280121357
 21
126.1791510791
  0
LINE
  5
394
100
AcDbEntity
  8
0
100
AcDbLine
 62
7
  6
CONTINUOUS
 10
86.6030121357
 20
12.7791510791
 11
86.6030121357
 21
10.7791510791
  0
LINE
  5
395
100
AcDbEntity
  8
0
100
AcDbLine
 62
7
  6
CONTINUOUS
 10
87.6030121357
 20
92.9791510791
 11
87.6030121357
 21
90.1791510791
  0
LINE
  5
396
100
AcDbEntity
  8
0
100
AcDbLine
 62
7
  6
CONTINUOUS
 10
87.6030121357
 20
87.1791510791
 11
87.6030121357
 21
84.3791510791
  0
LINE
  5
397
100
AcDbEntity
  8
0
100
AcDbLine
 62
7
  6
CONTINUOUS
 10
87.6030121357
 20
81.3791510791
 11
87.6030121357
 21
78.5791510791
  0
LINE
  5
398
100
AcDbEntity
  8
0
100
AcDbLine
 62
7
  6
CONTINUOUS
 10
87.8530121357
 20
110.9791510791
 11
87.8530121357
 21
112.5791510791
  0
LINE
  5
399
100
AcDbEntity
  8
0
100
AcDbLine
 62
7
  6
CONTINUOUS
 10
88.6030121357
 20
127.1791510791
 11
88.6030121357
 21
108.1791510791
  0
LINE
  5
39A
100
AcDbEntity
  8
0
100
AcDbLine
 62
7
  6
CONTINUOUS
 10
65.872485889
 20
105.3079140682
 11
58.5335383816
 21
105.3079140682
  0
LINE
  5
39B
100
AcDbEntity
  8
0
100
AcDbLine
 62
7
  6
CONTINUOUS
 10
25.3530121357
 20
105.4079140682
 11
20.5030121357
 21
105.4079140682
  0
LINE
  5
39C
100
AcDbEntity
  8
0
100
AcDbLine
 62
7
  6
CONTINUOUS
 10
52.3530121357
 20
105.4079140682
 11
80.2030121357
 21
105.4079140682
  0
LINE
  5
39D
100
AcDbEntity
  8
0
100
AcDbLine
 62
7
  6
CONTINUOUS
 10
52.3530121357
 20
106.8960503646
 11
25.3530121357
 21
106.8960503646
  0
LINE
  5
39E
100
AcDbEntity
  8
0
100
AcDbLine
 62
7
  6
CONTINUOUS
 10
25.1030121357
 20
106.9496079228
 11
52.3530121357
 21
106.9496079228
  0
LINE
  5
39F
100
AcDbEntity
  8
0
100
AcDbLine
 62
7
  6
CONTINUOUS
 10
20.6030121357
 20
108.1791510791
 11
88.6030121357
 21
108.1791510791
  0
LINE
  5
3A0
100
AcDbEntity
  8
0
100
AcDbLine
 62
7
  6
CONTINUOUS
 10
90.6030121357
 20
10.7791510791
 11
90.6030121357
 21
132.6791510791
  0
LINE
  5
3A1
100
AcDbEntity
  8
0
100
AcDbLine
 62
7
  6
CONTINUOUS
 10
20.6030121357
 20
110.9791510791
 11
87.8530121357
 21
110.9791510791
  0
LINE
  5
3A2
100
AcDbEntity
  8
0
100
AcDbLine
 62
7
  6
CONTINUOUS
 10
20.6030121357
 20
112.5791510791
 11
69.5280121357
 21
112.5791510791
  0
LINE
  5
3A3
100
AcDbEntity
  8
0
100
AcDbLine
 62
7
  6
CONTINUOUS
 10
86.0280121357
 20
112.5791510791
 11
87.8530121357
 21
112.5791510791
  0
LINE
  5
3A4
100
AcDbEntity
  8
0
100
AcDbLine
 62
7
  6
CONTINUOUS
 10
53.7280121357
 20
114.3491510791
 11
56.4780121357
 21
114.3491510791
  0
LINE
  5
3A5
100
AcDbEntity
  8
0
100
AcDbLine
 62
7
  6
CONTINUOUS
 10
58.8080121357
 20
114.3491510791
 11
61.5580121357
 21
114.3491510791
  0
LINE
  5
3A6
100
AcDbEntity
  8
0
100
AcDbLine
 62
7
  6
CONTINUOUS
 10
63.8880121357
 20
114.3491510791
 11
66.6380121357
 21
114.3491510791
  0
LINE
  5
3A7
100
AcDbEntity
  8
0
100
AcDbLine
 62
7
  6
CONTINUOUS
 10
66.6380121357
 20
116.2991510791
 11
63.8880121357
 21
116.2991510791
  0
LINE
  5
3A8
100
AcDbEntity
  8
0
100
AcDbLine
 62
7
  6
CONTINUOUS
 10
61.5580121357
 20
116.2991510791
 11
58.8080121357
 21
116.2991510791
  0
LINE
  5
3A9
100
AcDbEntity
  8
0
100
AcDbLine
 62
7
  6
CONTINUOUS
 10
56.4780121357
 20
116.2991510791
 11
53.7280121357
 21
116.2991510791
  0
LINE
  5
3AA
100
AcDbEntity
  8
0
100
AcDbLine
 62
7
  6
CONTINUOUS
 10
21.6130121357
 20
116.9291510791
 11
21.8730121357
 21
116.9291510791
  0
LINE
  5
3AB
100
AcDbEntity
  8
0
100
AcDbLine
 62
7
  6
CONTINUOUS
 10
68.5930121357
 20
116.9291510791
 11
69.5280121357
 21
116.9291510791
  0
LINE
  5
3AC
100
AcDbEntity
  8
0
100
AcDbLine
 62
7
  6
CONTINUOUS
 10
21.6130121357
 20
118.0494831403
 11
21.8730121357
 21
118.0494831403
  0
LINE
  5
3AD
100
AcDbEntity
  8
0
100
AcDbLine
 62
7
  6
CONTINUOUS
 10
68.5930121357
 20
118.0494831403
 11
69.5280121357
 21
118.0494831403
  0
LINE
  5
3AE
100
AcDbEntity
  8
0
100
AcDbLine
 62
7
  6
CONTINUOUS
 10
52.5630121357
 20
118.3091510791
 11
67.7630121357
 21
118.3091510791
  0
LINE
  5
3AF
100
AcDbEntity
  8
0
100
AcDbLine
 62
7
  6
CONTINUOUS
 10
21.8730121357
 20
119.0791510791
 11
52.5630121357
 21
119.0791510791
  0
LINE
  5
3B0
100
AcDbEntity
  8
0
100
AcDbLine
 62
7
  6
CONTINUOUS
 10
67.7630121357
 20
119.0791510791
 11
68.5930121357
 21
119.0791510791
  0
LINE
  5
3B1
100
AcDbEntity
  8
0
100
AcDbLine
 62
7
  6
CONTINUOUS
 10
23.5380121357
 20
119.7155471822
 11
26.2880121357
 21
119.7155471822
  0
LINE
  5
3B2
100
AcDbEntity
  8
0
100
AcDbLine
 62
7
  6
CONTINUOUS
 10
28.6180121357
 20
119.7155471822
 11
31.3680121357
 21
119.7155471822
  0
LINE
  5
3B3
100
AcDbEntity
  8
0
100
AcDbLine
 62
7
  6
CONTINUOUS
 10
33.6980121357
 20
119.7155471822
 11
36.4480121357
 21
119.7155471822
  0
LINE
  5
3B4
100
AcDbEntity
  8
0
100
AcDbLine
 62
7
  6
CONTINUOUS
 10
38.7780121357
 20
119.7155471822
 11
41.5280121357
 21
119.7155471822
  0
LINE
  5
3B5
100
AcDbEntity
  8
0
100
AcDbLine
 62
7
  6
CONTINUOUS
 10
43.8580121357
 20
119.7155471822
 11
46.6080121357
 21
119.7155471822
  0
LINE
  5
3B6
100
AcDbEntity
  8
0
100
AcDbLine
 62
7
  6
CONTINUOUS
 10
48.9380121357
 20
119.7155471822
 11
51.6880121357
 21
119.7155471822
  0
LINE
  5
3B7
100
AcDbEntity
  8
0
100
AcDbLine
 62
7
  6
CONTINUOUS
 10
51.6880121357
 20
121.0944054055
 11
48.9380121357
 21
121.0944054055
  0
LINE
  5
3B8
100
AcDbEntity
  8
0
100
AcDbLine
 62
7
  6
CONTINUOUS
 10
46.6080121357
 20
121.0944054055
 11
43.8580121357
 21
121.0944054055
  0
LINE
  5
3B9
100
AcDbEntity
  8
0
100
AcDbLine
 62
7
  6
CONTINUOUS
 10
41.5280121357
 20
121.0944054055
 11
38.7780121357
 21
121.0944054055
  0
LINE
  5
3BA
100
AcDbEntity
  8
0
100
AcDbLine
 62
7
  6
CONTINUOUS
 10
36.4480121357
 20
121.0944054055
 11
33.6980121357
 21
121.0944054055
  0
LINE
  5
3BB
100
AcDbEntity
  8
0
100
AcDbLine
 62
7
  6
CONTINUOUS
 10
31.3680121357
 20
121.0944054055
 11
28.6180121357
 21
121.0944054055
  0
LINE
  5
3BC
100
AcDbEntity
  8
0
100
AcDbLine
 62
7
  6
CONTINUOUS
 10
26.2880121357
 20
121.0944054055
 11
23.5380121357
 21
121.0944054055
  0
LINE
  5
3BD
100
AcDbEntity
  8
0
100
AcDbLine
 62
7
  6
CONTINUOUS
 10
52.5630121357
 20
122.5791510791
 11
67.7630121357
 21
122.5791510791
  0
LINE
  5
3BE
100
AcDbEntity
  8
0
100
AcDbLine
 62
7
  6
CONTINUOUS
 10
21.8730121357
 20
123.5791510791
 11
59.1180121357
 21
123.5791510791
  0
LINE
  5
3BF
100
AcDbEntity
  8
0
100
AcDbLine
 62
7
  6
CONTINUOUS
 10
66.9180121357
 20
123.5791510791
 11
68.5930121357
 21
123.5791510791
  0
LINE
  5
3C0
100
AcDbEntity
  8
0
100
AcDbLine
 62
7
  6
CONTINUOUS
 10
59.1180121357
 20
124.0006142762
 11
66.9180121357
 21
124.0006142762
  0
LINE
  5
3C1
100
AcDbEntity
  8
0
100
AcDbLine
 62
7
  6
CONTINUOUS
 10
21.6130121357
 20
124.684614699
 11
57.1730121357
 21
124.684614699
  0
LINE
  5
3C2
100
AcDbEntity
  8
0
100
AcDbLine
 62
7
  6
CONTINUOUS
 10
66.9180121357
 20
124.684614699
 11
69.5280121357
 21
124.684614699
  0
LINE
  5
3C3
100
AcDbEntity
  8
0
100
AcDbLine
 62
7
  6
CONTINUOUS
 10
66.9180121357
 20
124.9905637699
 11
59.1180121357
 21
124.9905637699
  0
LINE
  5
3C4
100
AcDbEntity
  8
0
100
AcDbLine
 62
7
  6
CONTINUOUS
 10
86.0280121357
 20
125.6791510791
 11
88.6030121357
 21
125.6791510791
  0
LINE
  5
3C5
100
AcDbEntity
  8
0
100
AcDbLine
 62
7
  6
CONTINUOUS
 10
69.5280121357
 20
126.1791510791
 11
86.0280121357
 21
126.1791510791
  0
LINE
  5
3C6
100
AcDbEntity
  8
0
100
AcDbLine
 62
7
  6
CONTINUOUS
 10
18.6030121357
 20
127.1791510791
 11
24.6030121357
 21
127.1791510791
  0
LINE
  5
3C7
100
AcDbEntity
  8
0
100
AcDbLine
 62
7
  6
CONTINUOUS
 10
84.6030121357
 20
127.1791510791
 11
90.6030121357
 21
127.1791510791
  0
LINE
  5
3C8
100
AcDbEntity
  8
0
100
AcDbLine
 62
7
  6
CONTINUOUS
 10
24.6030121357
 20
127.8791510791
 11
57.1730121357
 21
127.8791510791
  0
LINE
  5
3C9
100
AcDbEntity
  8
0
100
AcDbLine
 62
7
  6
CONTINUOUS
 10
59.5630121357
 20
127.8791510791
 11
84.6030121357
 21
127.8791510791
  0
LINE
  5
3CA
100
AcDbEntity
  8
0
100
AcDbLine
 62
7
  6
CONTINUOUS
 10
68.1810121357
 20
128.3791510791
 11
78.6810121357
 21
128.3791510791
  0
LINE
  5
3CB
100
AcDbEntity
  8
0
100
AcDbLine
 62
7
  6
CONTINUOUS
 10
66.6030121357
 20
128.4791510791
 11
80.1030121357
 21
128.4791510791
  0
LINE
  5
3CC
100
AcDbEntity
  8
0
100
AcDbLine
 62
7
  6
CONTINUOUS
 10
84.6030121357
 20
129.6791510791
 11
24.6030121357
 21
129.6791510791
  0
LINE
  5
3CD
100
AcDbEntity
  8
0
100
AcDbLine
 62
7
  6
CONTINUOUS
 10
18.6030121357
 20
132.6791510791
 11
90.6030121357
 21
132.6791510791
  0
LINE
  5
3CE
100
AcDbEntity
  8
0
100
AcDbLine
 62
7
  6
CONTINUOUS
 10
43.8852485687
 20
138.8391510791
 11
65.3207757028
 21
138.8391510791
  0
ARC
  5
3CF
100
AcDbEntity
  8
0
100
AcDbCircle
 62
7
  6
CONTINUOUS
 10
49.3530121357
 20
58.8791510791
 40
2.0
100
AcDbArc
 50
90.0
 51
180.0
  0
ARC
  5
3D0
100
AcDbEntity
  8
0
100
AcDbCircle
 62
7
  6
CONTINUOUS
 10
43.4530121357
 20
58.8791510791
 40
2.0
100
AcDbArc
 50
0.0
 51
90.0
  0
ARC
  5
3D1
100
AcDbEntity
  8
0
100
AcDbCircle
 62
7
  6
CONTINUOUS
 10
41.4530121357
 20
58.8791510791
 40
2.0
100
AcDbArc
 50
90.0
 51
180.0
  0
ARC
  5
3D2
100
AcDbEntity
  8
0
100
AcDbCircle
 62
7
  6
CONTINUOUS
 10
35.5530121357
 20
58.8791510791
 40
2.0
100
AcDbArc
 50
0.0
 51
90.0
  0
ARC
  5
3D3
100
AcDbEntity
  8
0
100
AcDbCircle
 62
7
  6
CONTINUOUS
 10
33.5530121357
 20
58.8791510791
 40
2.0
100
AcDbArc
 50
90.0
 51
180.0
  0
ARC
  5
3D4
100
AcDbEntity
  8
0
100
AcDbCircle
 62
7
  6
CONTINUOUS
 10
27.6530121357
 20
58.8791510791
 40
2.0
100
AcDbArc
 50
0.0
 51
90.0
  0
ARC
  5
3D5
100
AcDbEntity
  8
0
100
AcDbCircle
 62
7
  6
CONTINUOUS
 10
25.6530121357
 20
58.8791510791
 40
2.0
100
AcDbArc
 50
90.0
 51
180.0
  0
ARC
  5
3D6
100
AcDbEntity
  8
0
100
AcDbCircle
 62
7
  6
CONTINUOUS
 10
41.2030121357
 20
51.2291510791
 40
1.75
100
AcDbArc
 50
180.0
 51
270.0
  0
ARC
  5
3D7
100
AcDbEntity
  8
0
100
AcDbCircle
 62
7
  6
CONTINUOUS
 10
43.7030121357
 20
51.2291510791
 40
1.75
100
AcDbArc
 50
270.0
 51
360.0
  0
ARC
  5
3D8
100
AcDbEntity
  8
0
100
AcDbCircle
 62
7
  6
CONTINUOUS
 10
49.1030121357
 20
51.2291510791
 40
1.75
100
AcDbArc
 50
180.0
 51
270.0
  0
ARC
  5
3D9
100
AcDbEntity
  8
0
100
AcDbCircle
 62
7
  6
CONTINUOUS
 10
43.4530121357
 20
58.8791510791
 40
1.25
100
AcDbArc
 50
0.0
 51
90.0
  0
ARC
  5
3DA
100
AcDbEntity
  8
0
100
AcDbCircle
 62
7
  6
CONTINUOUS
 10
41.4530121357
 20
58.8791510791
 40
1.25
100
AcDbArc
 50
90.0
 51
180.0
  0
ARC
  5
3DB
100
AcDbEntity
  8
0
100
AcDbCircle
 62
7
  6
CONTINUOUS
 10
49.3530121357
 20
58.8791510791
 40
1.25
100
AcDbArc
 50
90.0
 51
180.0
  0
ARC
  5
3DC
100
AcDbEntity
  8
0
100
AcDbCircle
 62
7
  6
CONTINUOUS
 10
25.6530121357
 20
58.8791510791
 40
1.25
100
AcDbArc
 50
90.0
 51
180.0
  0
ARC
  5
3DD
100
AcDbEntity
  8
0
100
AcDbCircle
 62
7
  6
CONTINUOUS
 10
27.6530121357
 20
58.8791510791
 40
1.25
100
AcDbArc
 50
0.0
 51
90.0
  0
ARC
  5
3DE
100
AcDbEntity
  8
0
100
AcDbCircle
 62
7
  6
CONTINUOUS
 10
35.5530121357
 20
58.8791510791
 40
1.25
100
AcDbArc
 50
0.0
 51
90.0
  0
ARC
  5
3DF
100
AcDbEntity
  8
0
100
AcDbCircle
 62
7
  6
CONTINUOUS
 10
33.5530121357
 20
58.8791510791
 40
1.25
100
AcDbArc
 50
90.0
 51
180.0
  0
ARC
  5
3E0
100
AcDbEntity
  8
0
100
AcDbCircle
 62
7
  6
CONTINUOUS
 10
24.6530121357
 20
53.7791510791
 40
1.0
100
AcDbArc
 50
180.0
 51
270.0
  0
ARC
  5
3E1
100
AcDbEntity
  8
0
100
AcDbCircle
 62
7
  6
CONTINUOUS
 10
28.6530121357
 20
53.7791510791
 40
1.0
100
AcDbArc
 50
270.0
 51
360.0
  0
ARC
  5
3E2
100
AcDbEntity
  8
0
100
AcDbCircle
 62
7
  6
CONTINUOUS
 10
32.5530121357
 20
53.7791510791
 40
1.0
100
AcDbArc
 50
180.0
 51
270.0
  0
ARC
  5
3E3
100
AcDbEntity
  8
0
100
AcDbCircle
 62
7
  6
CONTINUOUS
 10
36.5530121357
 20
53.7791510791
 40
1.0
100
AcDbArc
 50
270.0
 51
360.0
  0
ARC
  5
3E4
100
AcDbEntity
  8
0
100
AcDbCircle
 62
7
  6
CONTINUOUS
 10
43.7030121357
 20
51.2291510791
 40
1.0
100
AcDbArc
 50
270.0
 51
360.0
  0
ARC
  5
3E5
100
AcDbEntity
  8
0
100
AcDbCircle
 62
7
  6
CONTINUOUS
 10
41.2030121357
 20
51.2291510791
 40
1.0
100
AcDbArc
 50
180.0
 51
270.0
  0
ARC
  5
3E6
100
AcDbEntity
  8
0
100
AcDbCircle
 62
7
  6
CONTINUOUS
 10
49.1030121357
 20
51.2291510791
 40
1.0
100
AcDbArc
 50
180.0
 51
270.0
  0
ARC
  5
3E7
100
AcDbEntity
  8
0
100
AcDbCircle
 62
7
  6
CONTINUOUS
 10
43.9530121357
 20
54.2791510791
 40
0.75
100
AcDbArc
 50
270.0
 51
360.0
  0
ARC
  5
3E8
100
AcDbEntity
  8
0
100
AcDbCircle
 62
7
  6
CONTINUOUS
 10
40.9530121357
 20
54.2791510791
 40
0.75
100
AcDbArc
 50
180.0
 51
270.0
  0
ARC
  5
3E9
100
AcDbEntity
  8
0
100
AcDbCircle
 62
7
  6
CONTINUOUS
 10
48.8530121357
 20
54.2791510791
 40
0.75
100
AcDbArc
 50
180.0
 51
270.0
  0
ARC
  5
3EA
100
AcDbEntity
  8
0
100
AcDbCircle
 62
7
  6
CONTINUOUS
 10
25.1530121357
 20
54.2791510791
 40
0.75
100
AcDbArc
 50
180.0
 51
270.0
  0
ARC
  5
3EB
100
AcDbEntity
  8
0
100
AcDbCircle
 62
7
  6
CONTINUOUS
 10
28.1530121357
 20
54.2791510791
 40
0.75
100
AcDbArc
 50
270.0
 51
360.0
  0
ARC
  5
3EC
100
AcDbEntity
  8
0
100
AcDbCircle
 62
7
  6
CONTINUOUS
 10
49.8030121357
 20
68.6791510791
 40
2.0
100
AcDbArc
 50
0.0
 51
90.0
  0
ARC
  5
3ED
100
AcDbEntity
  8
0
100
AcDbCircle
 62
7
  6
CONTINUOUS
 10
47.8030121357
 20
68.6791510791
 40
2.0
100
AcDbArc
 50
90.0
 51
180.0
  0
ARC
  5
3EE
100
AcDbEntity
  8
0
100
AcDbCircle
 62
7
  6
CONTINUOUS
 10
41.9030121357
 20
68.6791510791
 40
2.0
100
AcDbArc
 50
0.0
 51
90.0
  0
ARC
  5
3EF
100
AcDbEntity
  8
0
100
AcDbCircle
 62
7
  6
CONTINUOUS
 10
39.9030121357
 20
68.6791510791
 40
2.0
100
AcDbArc
 50
90.0
 51
180.0
  0
ARC
  5
3F0
100
AcDbEntity
  8
0
100
AcDbCircle
 62
7
  6
CONTINUOUS
 10
34.0030121357
 20
68.6791510791
 40
2.0
100
AcDbArc
 50
0.0
 51
90.0
  0
ARC
  5
3F1
100
AcDbEntity
  8
0
100
AcDbCircle
 62
7
  6
CONTINUOUS
 10
32.0030121357
 20
68.6791510791
 40
2.0
100
AcDbArc
 50
90.0
 51
180.0
  0
ARC
  5
3F2
100
AcDbEntity
  8
0
100
AcDbCircle
 62
7
  6
CONTINUOUS
 10
39.0611339998
 20
63.1189388489
 40
1.4
100
AcDbArc
 50
6.949156324
 51
90.0
  0
ARC
  5
3F3
100
AcDbEntity
  8
0
100
AcDbCircle
 62
7
  6
CONTINUOUS
 10
34.0030121357
 20
68.6791510791
 40
1.25
100
AcDbArc
 50
0.0
 51
90.0
  0
ARC
  5
3F4
100
AcDbEntity
  8
0
100
AcDbCircle
 62
7
  6
CONTINUOUS
 10
32.0030121357
 20
68.6791510791
 40
1.25
100
AcDbArc
 50
90.0
 51
180.0
  0
ARC
  5
3F5
100
AcDbEntity
  8
0
100
AcDbCircle
 62
7
  6
CONTINUOUS
 10
42.8544727884
 20
64.2791510791
 40
1.0
100
AcDbArc
 50
270.0
 51
357.0000000001
  0
ARC
  5
3F6
100
AcDbEntity
  8
0
100
AcDbCircle
 62
7
  6
CONTINUOUS
 10
46.8515514831
 20
64.2791510791
 40
1.0
100
AcDbArc
 50
182.9999999999
 51
270.0
  0
ARC
  5
3F7
100
AcDbEntity
  8
0
100
AcDbCircle
 62
7
  6
CONTINUOUS
 10
38.9515514831
 20
64.2791510791
 40
1.0
100
AcDbArc
 50
182.9999999962
 51
270.0
  0
ARC
  5
3F8
100
AcDbEntity
  8
0
100
AcDbCircle
 62
7
  6
CONTINUOUS
 10
34.9544727884
 20
64.2791510791
 40
1.0
100
AcDbArc
 50
270.0
 51
357.0000000034
  0
ARC
  5
3F9
100
AcDbEntity
  8
0
100
AcDbCircle
 62
7
  6
CONTINUOUS
 10
31.0515514831
 20
64.2791510791
 40
1.0
100
AcDbArc
 50
182.9999999963
 51
270.0
  0
ARC
  5
3FA
100
AcDbEntity
  8
0
100
AcDbCircle
 62
7
  6
CONTINUOUS
 10
34.5030121357
 20
64.8291510791
 40
0.75
100
AcDbArc
 50
270.0
 51
360.0
  0
ARC
  5
3FB
100
AcDbEntity
  8
0
100
AcDbCircle
 62
7
  6
CONTINUOUS
 10
31.5030121357
 20
64.8291510791
 40
0.75
100
AcDbArc
 50
180.0
 51
270.0
  0
ARC
  5
3FC
100
AcDbEntity
  8
0
100
AcDbCircle
 62
7
  6
CONTINUOUS
 10
75.0530121357
 20
58.8791510791
 40
2.0
100
AcDbArc
 50
0.0
 51
90.0
  0
ARC
  5
3FD
100
AcDbEntity
  8
0
100
AcDbCircle
 62
7
  6
CONTINUOUS
 10
73.0530121357
 20
58.8791510791
 40
2.0
100
AcDbArc
 50
90.0
 51
180.0
  0
ARC
  5
3FE
100
AcDbEntity
  8
0
100
AcDbCircle
 62
7
  6
CONTINUOUS
 10
67.1530121357
 20
58.8791510791
 40
2.0
100
AcDbArc
 50
0.0
 51
90.0
  0
ARC
  5
3FF
100
AcDbEntity
  8
0
100
AcDbCircle
 62
7
  6
CONTINUOUS
 10
65.1530121357
 20
58.8791510791
 40
2.0
100
AcDbArc
 50
90.0
 51
180.0
  0
ARC
  5
400
100
AcDbEntity
  8
0
100
AcDbCircle
 62
7
  6
CONTINUOUS
 10
59.2530121357
 20
58.8791510791
 40
2.0
100
AcDbArc
 50
0.0
 51
90.0
  0
ARC
  5
401
100
AcDbEntity
  8
0
100
AcDbCircle
 62
7
  6
CONTINUOUS
 10
57.2530121357
 20
58.8791510791
 40
2.0
100
AcDbArc
 50
90.0
 51
180.0
  0
ARC
  5
402
100
AcDbEntity
  8
0
100
AcDbCircle
 62
7
  6
CONTINUOUS
 10
51.3530121357
 20
58.8791510791
 40
2.0
100
AcDbArc
 50
0.0
 51
90.0
  0
ARC
  5
403
100
AcDbEntity
  8
0
100
AcDbCircle
 62
7
  6
CONTINUOUS
 10
51.6030121357
 20
51.2291510791
 40
1.75
100
AcDbArc
 50
270.0
 51
360.0
  0
ARC
  5
404
100
AcDbEntity
  8
0
100
AcDbCircle
 62
7
  6
CONTINUOUS
 10
57.0030121357
 20
51.2291510791
 40
1.75
100
AcDbArc
 50
180.0
 51
270.0
  0
ARC
  5
405
100
AcDbEntity
  8
0
100
AcDbCircle
 62
7
  6
CONTINUOUS
 10
59.5030121357
 20
51.2291510791
 40
1.75
100
AcDbArc
 50
270.0
 51
360.0
  0
ARC
  5
406
100
AcDbEntity
  8
0
100
AcDbCircle
 62
7
  6
CONTINUOUS
 10
64.9030121357
 20
51.2291510791
 40
1.75
100
AcDbArc
 50
180.0
 51
270.0
  0
ARC
  5
407
100
AcDbEntity
  8
0
100
AcDbCircle
 62
7
  6
CONTINUOUS
 10
67.4030121357
 20
51.2291510791
 40
1.75
100
AcDbArc
 50
270.0
 51
360.0
  0
ARC
  5
408
100
AcDbEntity
  8
0
100
AcDbCircle
 62
7
  6
CONTINUOUS
 10
72.8030121357
 20
51.2291510791
 40
1.75
100
AcDbArc
 50
180.0
 51
270.0
  0
ARC
  5
409
100
AcDbEntity
  8
0
100
AcDbCircle
 62
7
  6
CONTINUOUS
 10
75.3030121357
 20
51.2291510791
 40
1.75
100
AcDbArc
 50
270.0
 51
360.0
  0
ARC
  5
40A
100
AcDbEntity
  8
0
100
AcDbCircle
 62
7
  6
CONTINUOUS
 10
51.3530121357
 20
58.8791510791
 40
1.25
100
AcDbArc
 50
0.0
 51
90.0
  0
ARC
  5
40B
100
AcDbEntity
  8
0
100
AcDbCircle
 62
7
  6
CONTINUOUS
 10
51.6030121357
 20
51.2291510791
 40
1.0
100
AcDbArc
 50
270.0
 51
360.0
  0
ARC
  5
40C
100
AcDbEntity
  8
0
100
AcDbCircle
 62
7
  6
CONTINUOUS
 10
59.5030121357
 20
51.2291510791
 40
1.0
100
AcDbArc
 50
270.0
 51
360.0
  0
ARC
  5
40D
100
AcDbEntity
  8
0
100
AcDbCircle
 62
7
  6
CONTINUOUS
 10
57.0030121357
 20
51.2291510791
 40
1.0
100
AcDbArc
 50
180.0
 51
270.0
  0
ARC
  5
40E
100
AcDbEntity
  8
0
100
AcDbCircle
 62
7
  6
CONTINUOUS
 10
72.8030121357
 20
51.2291510791
 40
1.0
100
AcDbArc
 50
180.0
 51
270.0
  0
ARC
  5
40F
100
AcDbEntity
  8
0
100
AcDbCircle
 62
7
  6
CONTINUOUS
 10
75.3030121357
 20
51.2291510791
 40
1.0
100
AcDbArc
 50
270.0
 51
360.0
  0
ARC
  5
410
100
AcDbEntity
  8
0
100
AcDbCircle
 62
7
  6
CONTINUOUS
 10
67.4030121357
 20
51.2291510791
 40
1.0
100
AcDbArc
 50
270.0
 51
360.0
  0
ARC
  5
411
100
AcDbEntity
  8
0
100
AcDbCircle
 62
7
  6
CONTINUOUS
 10
64.9030121357
 20
51.2291510791
 40
1.0
100
AcDbArc
 50
180.0
 51
270.0
  0
ARC
  5
412
100
AcDbEntity
  8
0
100
AcDbCircle
 62
7
  6
CONTINUOUS
 10
51.8530121357
 20
54.2791510791
 40
0.75
100
AcDbArc
 50
270.0
 51
360.0
  0
ARC
  5
413
100
AcDbEntity
  8
0
100
AcDbCircle
 62
7
  6
CONTINUOUS
 10
50.7544727884
 20
64.2791510791
 40
1.0
100
AcDbArc
 50
270.0
 51
340.4213163373
  0
SPLINE
  5
414
100
AcDbEntity
  8
0
100
AcDbSpline
 62
7
  6
CONTINUOUS
 70
0
 71
3
 72
29
 73
25
 74
0
 42
0.0000001
 43
0.0000001
 44
0.0000000001
 40
0.0
 40
0.0
 40
0.0
 40
0.0
 40
0.0068361487
 40
0.0171329379
 40
0.0313129614
 40
0.0494365023
 40
0.0714375725
 40
0.0971760718
 40
0.1590261989
 40
0.2329668145
 40
0.3164539601
 40
0.406539306
 40
0.4999956869
 40
0.5934510656
 40
0.6835354195
 40
0.7670231501
 40
0.8409659015
 40
0.9028190935
 40
0.9285593118
 40
0.9505613994
 40
0.9686860558
 40
0.9828667571
 40
0.9931638017
 40
1.0
 40
1.0
 40
1.0
 40
1.0
 10
58.7078087594
 20
104.9551193204
 30
0.0
 10
58.7148738963
 20
104.9406008913
 30
0.0
 10
58.7464162003
 20
104.9122619038
 30
0.0
 10
58.8122746529
 20
104.8791762919
 30
0.0
 10
58.9076158552
 20
104.8457727255
 30
0.0
 10
59.0317038556
 20
104.8133462533
 30
0.0
 10
59.1841325477
 20
104.7818824862
 30
0.0
 10
59.4394755067
 20
104.7392907009
 30
0.0
 10
59.8183909944
 20
104.6933793668
 30
0.0
 10
60.3345387456
 20
104.6499238233
 30
0.0
 10
60.9183060474
 20
104.6174370074
 30
0.0
 10
61.5487290352
 20
104.5973374261
 30
0.0
 10
62.2029791237
 20
104.5905379003
 30
0.0
 10
62.8572269188
 20
104.5973335417
 30
0.0
 10
63.4876466388
 20
104.617432202
 30
0.0
 10
64.0714179544
 20
104.6499195473
 30
0.0
 10
64.5875796892
 20
104.6933723554
 30
0.0
 10
64.9665112906
 20
104.7392863658
 30
0.0
 10
65.2218681406
 20
104.7818781723
 30
0.0
 10
65.3743058175
 20
104.8133434292
 30
0.0
 10
65.4984005192
 20
104.8457704746
 30
0.0
 10
65.5937464586
 20
104.8791753222
 30
0.0
 10
65.6596071037
 20
104.9122615653
 30
0.0
 10
65.6911503048
 20
104.9406007648
 30
0.0
 10
65.6982155001
 20
104.9551192958
 30
0.0
  0
ELLIPSE
  5
415
100
AcDbEntity
  8
0
100
AcDbEllipse
 62
7
  6
CONTINUOUS
 10
71.8709701904
 20
-988.7208489209
 30
0.0
 11
-0.0
 21
1100.0
 31
0.0
 40
0.0524077793
 41
0.1033657883
 42
0.1072812844
  0
ELLIPSE
  5
416
100
AcDbEntity
  8
0
100
AcDbEllipse
 62
7
  6
CONTINUOUS
 10
52.5350540811
 20
-988.7208489209
 30
0.0
 11
-0.0
 21
1100.0
 31
0.0
 40
0.0524077793
 41
-0.1072812842
 42
-0.1033657883
  0
ENDSEC
  0
SECTION
  2
OBJECTS
  0
DICTIONARY
  5
C
100
AcDbDictionary
280
0
281
1
  3
ACAD_GROUP
350
D
  3
ACAD_MLINESTYLE
350
17
  3
ACAD_LAYOUT
350
1A
  3
ACAD_PLOTSETTINGS
350
19
  3
ACAD_PLOTSTYLENAME
350
E
  0
DICTIONARY
  5
D
102
{ACAD_REACTORS
330
C
102
}
100
AcDbDictionary
280
0
281
1
  0
ACDBDICTIONARYWDFLT
  5
E
102
{ACAD_REACTORS
330
C
102
}
100
AcDbDictionary
281
1
  3
Normal
350
F
100
AcDbDictionaryWithDefault
340
F
  0
DICTIONARY
  5
17
102
{ACAD_REACTORS
330
C
102
}
100
AcDbDictionary
280
0
281
1
  3
Standard
350
18
  0
DICTIONARY
  5
19
102
{ACAD_REACTORS
330
C
102
}
100
AcDbDictionary
281
1
  0
DICTIONARY
  5
1A
102
{ACAD_REACTORS
330
C
102
}
100
AcDbDictionary
281
1
  3
Model
350
417
  3
Layout1
350
418
  0
ACDBPLACEHOLDER
  5
F
102
{ACAD_REACTORS
330
E
102
}
  0
MLINESTYLE
  5
18
102
{ACAD_REACTORS
330
17
102
}
100
AcDbMlineStyle
  2
STANDARD
 70
0
  3

 62
256
 51
90.0
 52
90.0
 71
2
 49
0.5
 62
256
  6
BYLAYER
 49
-0.5
 62
256
  6
BYLAYER
  0
LAYOUT
  5
417
102
{ACAD_REACTORS
330
1A
102
}
100
AcDbPlotSettings
  1

  2
none_device
  4

  6

 40
0.0
 41
0.0
 42
0.0
 43
0.0
 44
210.0
 45
297.0
 46
0.0
 47
0.0
 48
0.0
 49
0.0
140
0.0
141
0.0
142
1.0
143
1.0
 70
1024
 72
1
 73
0
 74
0
  7

 75
0
147
1.0
148
0.0
149
0.0
100
AcDbLayout
  1
Model
 70
0
 71
0
 10
0.0
 20
0.0
 11
210.0
 21
297.0
 12
0.0
 22
0.0
 32
0.0
 14
0.0
 24
0.0
 34
0.0
 15
0.0
 25
0.0
 35
0.0
146
0.0
 13
0.0
 23
0.0
 33
0.0
 16
1.0
 26
0.0
 36
0.0
 17
0.0
 27
1.0
 37
0.0
 76
0
330
210
345
0
346
0
  0
LAYOUT
  5
418
102
{ACAD_REACTORS
330
1A
102
}
100
AcDbPlotSettings
  1

  2
none_device
  4

  6

 40
0.0
 41
0.0
 42
0.0
 43
0.0
 44
210.0
 45
297.0
 46
0.0
 47
0.0
 48
0.0
 49
0.0
140
0.0
141
0.0
142
1.0
143
1.0
 70
0
 72
1
 73
0
 74
0
  7

 75
0
147
1.0
148
0.0
149
0.0
100
AcDbLayout
  1
Layout1
 70
0
 71
1
 10
0.0
 20
0.0
 11
210.0
 21
297.0
 12
0.0
 22
0.0
 32
0.0
 14
0.0
 24
0.0
 34
0.0
 15
0.0
 25
0.0
 35
0.0
146
0.0
 13
0.0
 23
0.0
 33
0.0
 16
1.0
 26
0.0
 36
0.0
 17
0.0
 27
1.0
 37
0.0
 76
0
330
211
345
0
346
0
  0
ENDSEC
  0
EOF
