999
DXF file: C:\Users\sesa63760\Dev\_Creo\CAD\MCADID0001910_3D-CAD\drw0001_5.dxf
999
Pro/ENGINEER 2019471 by Parametric Technology Corporation
  0
SECTION
  2
HEADER
  9
$ACADVER
  1
AC1024
  9
$DWGCODEPAGE
  3
ANSI_1252
  9
$EXTMAX
 10
67.6622861266
 20
95.6938046647
 30
0.0
  9
$EXTMIN
 10
0.0
 20
0.0
 30
0.0
  9
$LIMMIN
 10
0.0
 20
0.0
  9
$LIMMAX
 10
67.6622861266
 20
95.6938046647
  9
$VIEWCTR
 10
33.8311430633
 20
47.8469023324
  9
$VIEWSIZE
 40
95.6938046647
  9
$CLAYER
  8
0
  9
$LTSCALE
 40
6.2378183781
  9
$CELTYPE
  6
BYLAYER
  9
$DIMSCALE
 40
1.0
  9
$DIMASZ
 40
0.8055034063
  9
$DIMEXO
 40
1.0
  9
$DIMDLI
 40
4.3097654249
  9
$DIMEXE
 40
1.0
  9
$DIMCEN
 40
1.0207339164
  9
$DIMLFAC
 40
1.0
  9
$DIMBLK
  1
_FILLED
  9
$DIMALT
 70
0
  9
$DIMALTF
 40
0.0393700787
  9
$DIMTXT
 40
1.1277047688
  9
$DIMTOL
 70
1
  9
$DIMLIM
 70
0
  9
$DIMTFAC
 40
1.0
  9
$DIMTP
 40
0.01
  9
$DIMTM
 40
0.01
  9
$DIMGAP
 40
0.625
  9
$DIMDSEP
 70
46
  9
$AUNITS
 70
0
  9
$PDMODE
 70
3
  9
$PDSIZE
 40
0.3125
  9
$HANDSEED
  5
32E
  9
$TILEMODE
 70
1
  9
$MEASUREMENT
 70
1
  9
$INSUNITS
 70
4
  0
ENDSEC
  0
SECTION
  2
CLASSES
  0
CLASS
  1
ACDBDICTIONARYWDFLT
  2
AcDbDictionaryWithDefault
  3
AutoCAD 2000
 90
0
 91
1
280
0
281
0
  0
CLASS
  1
ACDBPLACEHOLDER
  2
AcDbPlaceHolder
  3
AutoCAD 2000
 90
0
 91
1
280
0
281
0
  0
CLASS
  1
LAYOUT
  2
AcDbLayout
  3
AutoCAD 2000
 90
0
 91
0
280
0
281
0
  0
ENDSEC
  0
SECTION
  2
TABLES
  0
TABLE
  2
VPORT
  5
8
100
AcDbSymbolTable
 70
2
  0
VPORT
  5
1F4
100
AcDbSymbolTableRecord
100
AcDbViewportTableRecord
  2
*ACTIVE
 70
0
 10
0.0
 20
0.0
 11
1.0
 21
1.0
 12
33.8311430633
 22
47.8469023324
 13
0.0
 23
0.0
 14
1.0
 24
1.0
 15
0.0
 25
0.0
 16
0.0
 26
0.0
 36
1.0
 17
0.0
 27
0.0
 37
0.0
 40
95.6938046647
 41
0.7070707071
 42
50.0
 43
0.0
 44
0.0
 50
0.0
 51
0.0
 71
0
 72
100
 73
1
 74
1
 75
0
 76
0
 77
0
 78
0
  0
ENDTAB
  0
TABLE
  2
LTYPE
  5
5
100
AcDbSymbolTable
 70
6
  0
LTYPE
  5
14
100
AcDbSymbolTableRecord
100
AcDbLinetypeTableRecord
  2
BYBLOCK
 70
0
  3

 72
65
 73
0
 40
0.0
  0
LTYPE
  5
15
100
AcDbSymbolTableRecord
100
AcDbLinetypeTableRecord
  2
BYLAYER
 70
0
  3

 72
65
 73
0
 40
0.0
  0
LTYPE
  5
16
100
AcDbSymbolTableRecord
100
AcDbLinetypeTableRecord
  2
CONTINUOUS
 70
64
  3
Solid line
 72
65
 73
0
 40
0.0
  0
LTYPE
  5
1F5
100
AcDbSymbolTableRecord
100
AcDbLinetypeTableRecord
  2
CENTER
 70
64
  3
____ _ ____ _ ____ _ ____ _ ____ _ ____ _ ____
 72
65
 73
4
 40
0.6
 49
0.375
 74
0
 49
-0.075
 74
0
 49
0.075
 74
0
 49
-0.075
 74
0
  0
LTYPE
  5
1F6
100
AcDbSymbolTableRecord
100
AcDbLinetypeTableRecord
  2
HIDDEN
 70
64
  3
- - - - - - - - - - - - - - - - - - - -
 72
65
 73
2
 40
0.2
 49
0.1
 74
0
 49
-0.1
 74
0
  0
LTYPE
  5
1F7
100
AcDbSymbolTableRecord
100
AcDbLinetypeTableRecord
  2
PHANTOM
 70
64
  3
_____ _ _ _____ _ _ _____ _ _ _____
 72
65
 73
6
 40
0.8
 49
0.45
 74
0
 49
-0.05
 74
0
 49
0.1
 74
0
 49
-0.05
 74
0
 49
0.1
 74
0
 49
-0.05
 74
0
  0
LTYPE
  5
1F8
100
AcDbSymbolTableRecord
100
AcDbLinetypeTableRecord
  2
DOT
 70
64
  3
. . . . . . . . . . . . . . . . . . . .
 72
65
 73
2
 40
0.2
 49
0.1
 74
0
 49
-0.1
 74
0
  0
LTYPE
  5
1F9
100
AcDbSymbolTableRecord
100
AcDbLinetypeTableRecord
  2
DASHED
 70
64
  3
- - - - - - - - - - - - - - - - - - - -
 72
65
 73
2
 40
0.2
 49
0.1
 74
0
 49
-0.1
 74
0
  0
ENDTAB
  0
TABLE
  2
LAYER
  5
2
100
AcDbSymbolTable
 70
36
  0
LAYER
  5
10
100
AcDbSymbolTableRecord
100
AcDbLayerTableRecord
  2
0
 70
0
 62
7
  6
CONTINUOUS
370
-3
390
F
  0
LAYER
  5
1FA
100
AcDbSymbolTableRecord
100
AcDbLayerTableRecord
  2
DEFAULT_1
 70
0
 62
7
  6
CENTER
370
-3
390
F
  0
LAYER
  5
1FB
100
AcDbSymbolTableRecord
100
AcDbLayerTableRecord
  2
DEFAULT_2
 70
0
 62
8
  6
HIDDEN
370
-3
390
F
  0
LAYER
  5
1FC
100
AcDbSymbolTableRecord
100
AcDbLayerTableRecord
  2
DEFAULT_3
 70
0
 62
7
  6
PHANTOM
370
-3
390
F
  0
LAYER
  5
1FD
100
AcDbSymbolTableRecord
100
AcDbLayerTableRecord
  2
00_COMPONENTS
 70
0
 62
7
  6
CONTINUOUS
370
-3
390
F
  0
LAYER
  5
1FE
100
AcDbSymbolTableRecord
100
AcDbLayerTableRecord
  2
01_1_DEFAULT_DATUMS
 70
0
 62
7
  6
CONTINUOUS
370
-3
390
F
  0
LAYER
  5
1FF
100
AcDbSymbolTableRecord
100
AcDbLayerTableRecord
  2
01_PLANES
 70
0
 62
7
  6
CONTINUOUS
370
-3
390
F
  0
LAYER
  5
200
100
AcDbSymbolTableRecord
100
AcDbLayerTableRecord
  2
02_COORD_SYS
 70
0
 62
7
  6
CONTINUOUS
370
-3
390
F
  0
LAYER
  5
201
100
AcDbSymbolTableRecord
100
AcDbLayerTableRecord
  2
03_AXES
 70
0
 62
7
  6
CONTINUOUS
370
-3
390
F
  0
LAYER
  5
202
100
AcDbSymbolTableRecord
100
AcDbLayerTableRecord
  2
04_POINTS
 70
0
 62
7
  6
CONTINUOUS
370
-3
390
F
  0
LAYER
  5
203
100
AcDbSymbolTableRecord
100
AcDbLayerTableRecord
  2
05_CURVES
 70
0
 62
7
  6
CONTINUOUS
370
-3
390
F
  0
LAYER
  5
204
100
AcDbSymbolTableRecord
100
AcDbLayerTableRecord
  2
06_SURFS
 70
0
 62
7
  6
CONTINUOUS
370
-3
390
F
  0
LAYER
  5
205
100
AcDbSymbolTableRecord
100
AcDbLayerTableRecord
  2
07_COSMETICS
 70
0
 62
7
  6
CONTINUOUS
370
-3
390
F
  0
LAYER
  5
206
100
AcDbSymbolTableRecord
100
AcDbLayerTableRecord
  2
10_NOTES
 70
0
 62
7
  6
CONTINUOUS
370
-3
390
F
  0
LAYER
  5
207
100
AcDbSymbolTableRecord
100
AcDbLayerTableRecord
  2
11_NOTES_PUB
 70
0
 62
7
  6
CONTINUOUS
370
-3
390
F
  0
LAYER
  5
208
100
AcDbSymbolTableRecord
100
AcDbLayerTableRecord
  2
13_REF_GTOL
 70
0
 62
7
  6
CONTINUOUS
370
-3
390
F
  0
LAYER
  5
209
100
AcDbSymbolTableRecord
100
AcDbLayerTableRecord
  2
16_MISC
 70
0
 62
7
  6
CONTINUOUS
370
-3
390
F
  0
LAYER
  5
20A
100
AcDbSymbolTableRecord
100
AcDbLayerTableRecord
  2
17_NO_PRINT
 70
0
 62
7
  6
CONTINUOUS
370
-3
390
F
  0
LAYER
  5
20B
100
AcDbSymbolTableRecord
100
AcDbLayerTableRecord
  2
18_DATUM_CAMS_JOINTS
 70
0
 62
7
  6
CONTINUOUS
370
-3
390
F
  0
LAYER
  5
20C
100
AcDbSymbolTableRecord
100
AcDbLayerTableRecord
  2
19_DATUM_FUNCTIONAL
 70
0
 62
7
  6
CONTINUOUS
370
-3
390
F
  0
LAYER
  5
20D
100
AcDbSymbolTableRecord
100
AcDbLayerTableRecord
  2
20_DATUM_KINEMATIC_SCHEME
 70
0
 62
7
  6
CONTINUOUS
370
-3
390
F
  0
ENDTAB
  0
TABLE
  2
STYLE
  5
3
100
AcDbSymbolTable
 70
1
  0
STYLE
  5
11
100
AcDbSymbolTableRecord
100
AcDbTextStyleTableRecord
  2
STANDARD
 70
0
 40
0.0
 41
0.8
 50
0.0
 71
0
 42
0.2
  3
txt
  4

  0
STYLE
  5
20E
100
AcDbSymbolTableRecord
100
AcDbTextStyleTableRecord
  2
TEXTSTYLE_1
 70
0
 40
0.0
 41
0.8
 50
0.0
 71
0
 42
0.2
  3
gdt
  4

  0
ENDTAB
  0
TABLE
  2
VIEW
  5
6
100
AcDbSymbolTable
 70
0
  0
ENDTAB
  0
TABLE
  2
UCS
  5
7
100
AcDbSymbolTable
 70
0
  0
ENDTAB
  0
TABLE
  2
APPID
  5
9
100
AcDbSymbolTable
 70
1
  0
APPID
  5
20F
100
AcDbSymbolTableRecord
100
AcDbRegAppTableRecord
  2
ACAD
 70
0
  0
ENDTAB
  0
TABLE
  2
BLOCK_RECORD
  5
1
100
AcDbSymbolTable
 70
0
  0
BLOCK_RECORD
  5
210
100
AcDbSymbolTableRecord
100
AcDbBlockTableRecord
  2
*Model_Space
  0
BLOCK_RECORD
  5
211
100
AcDbSymbolTableRecord
100
AcDbBlockTableRecord
  2
*Paper_Space
  0
BLOCK_RECORD
  5
212
100
AcDbSymbolTableRecord
100
AcDbBlockTableRecord
  2
_FILLED
  0
ENDTAB
  0
TABLE
  2
DIMSTYLE
  5
A
100
AcDbSymbolTable
 70
1
100
AcDbDimStyleTable
 71
0
  0
DIMSTYLE
105
213
100
AcDbSymbolTableRecord
100
AcDbDimStyleTableRecord
  2
STANDARD
 70
0
  3

  4

 40
1.0
 41
0.8055034063
 42
1.0
 43
0.38
 44
1.0
 45
0.0
 46
0.0
 47
0.01
 48
0.01
140
1.1277047688
141
0.09
142
0.0
143
25.4
144
1.0
145
0.0
146
1.0
147
0.625
 71
1
 72
0
 73
0
 74
0
 75
0
 76
0
 77
1
 78
8
 79
2
170
0
171
1
172
0
173
0
174
0
175
0
176
0
177
0
178
0
270
2
179
2
271
2
272
2
273
2
274
2
275
0
280
0
281
0
282
0
283
1
284
8
285
0
286
0
287
3
288
0
340
11
278
46
341
212
342
212
343
212
344
212
  0
ENDTAB
  0
ENDSEC
  0
SECTION
  2
BLOCKS
  0
BLOCK
  5
20
100
AcDbEntity
  8
0
100
AcDbBlockBegin
  2
*Model_Space
 70
0
 10
0.0
 20
0.0
 30
0.0
  3
*Model_Space
  1

  0
ENDBLK
  5
21
100
AcDbEntity
  8
0
100
AcDbBlockEnd
  0
BLOCK
  5
1C
100
AcDbEntity
  8
0
100
AcDbBlockBegin
  2
*Paper_Space
 70
0
 10
0.0
 20
0.0
 30
0.0
  3
*Paper_Space
  1

  0
ENDBLK
  5
1D
100
AcDbEntity
  8
0
100
AcDbBlockEnd
  0
BLOCK
  5
214
100
AcDbEntity
  8
0
100
AcDbBlockBegin
  2
_FILLED
 70
64
 10
0.0
 20
0.0
  3
_FILLED
  1

  0
SOLID
  5
215
100
AcDbEntity
  8
0
  6
BYBLOCK
 62
0
100
AcDbTrace
 10
0.0
 20
0.0
 11
-1.0
 21
0.25
 12
-1.0
 22
-0.25
 13
-1.0
 23
-0.25
  0
ENDBLK
  5
216
100
AcDbEntity
  8
0
  6
BYBLOCK
 62
0
100
AcDbBlockEnd
  0
ENDSEC
  0
SECTION
  2
ENTITIES
  0
LINE
  5
217
100
AcDbEntity
  8
0
100
AcDbLine
 62
7
  6
CONTINUOUS
 10
21.3181693024
 20
7.7890306122
 11
48.2181693024
 21
7.7890306122
  0
LINE
  5
218
100
AcDbEntity
  8
0
100
AcDbLine
 62
7
  6
CONTINUOUS
 10
26.8681681122
 20
7.8890306122
 11
42.8681688162
 21
7.8890306122
  0
LINE
  5
219
100
AcDbEntity
  8
0
100
AcDbLine
 62
7
  6
CONTINUOUS
 10
26.7681693064
 20
9.4390306122
 11
26.8681655134
 21
9.4390306122
  0
LINE
  5
21A
100
AcDbEntity
  8
0
100
AcDbLine
 62
7
  6
CONTINUOUS
 10
26.7681693024
 20
9.7890306122
 11
26.8681650061
 21
9.7890306122
  0
LINE
  5
21B
100
AcDbEntity
  8
0
100
AcDbLine
 62
7
  6
CONTINUOUS
 10
26.7681693024
 20
10.8890306122
 11
26.8681634117
 21
10.8890306122
  0
LINE
  5
21C
100
AcDbEntity
  8
0
100
AcDbLine
 62
7
  6
CONTINUOUS
 10
26.6681693024
 20
11.2890306122
 11
42.8681688162
 21
11.2890306122
  0
LINE
  5
21D
100
AcDbEntity
  8
0
100
AcDbLine
 62
7
  6
CONTINUOUS
 10
33.2681693024
 20
12.0890306122
 11
36.2681693024
 21
12.0890306122
  0
LINE
  5
21E
100
AcDbEntity
  8
0
100
AcDbLine
 62
7
  6
CONTINUOUS
 10
24.2673040481
 20
79.6258259097
 11
29.0855279247
 21
83.0390306122
  0
LINE
  5
21F
100
AcDbEntity
  8
0
100
AcDbLine
 62
7
  6
CONTINUOUS
 10
24.514762656
 20
84.9622665414
 11
25.2139004965
 21
86.0390306122
  0
LINE
  5
220
100
AcDbEntity
  8
0
100
AcDbLine
 62
7
  6
CONTINUOUS
 10
22.7681693024
 20
18.1890306122
 11
27.1681693024
 21
18.1890306122
  0
LINE
  5
221
100
AcDbEntity
  8
0
100
AcDbLine
 62
7
  6
CONTINUOUS
 10
42.3681693024
 20
18.1890306122
 11
46.7681693024
 21
18.1890306122
  0
LINE
  5
222
100
AcDbEntity
  8
0
100
AcDbLine
 62
7
  6
CONTINUOUS
 10
46.1681693024
 20
18.2890306122
 11
42.7681693024
 21
18.2890306122
  0
LINE
  5
223
100
AcDbEntity
  8
0
100
AcDbLine
 62
7
  6
CONTINUOUS
 10
26.9681693024
 20
18.2890306122
 11
23.5681693024
 21
18.2890306122
  0
LINE
  5
224
100
AcDbEntity
  8
0
100
AcDbLine
 62
7
  6
CONTINUOUS
 10
23.1681693024
 20
18.5016806338
 11
23.4681693024
 21
18.5016806338
  0
LINE
  5
225
100
AcDbEntity
  8
0
100
AcDbLine
 62
7
  6
CONTINUOUS
 10
27.0681693024
 20
18.5016806338
 11
27.1681693024
 21
18.5016806338
  0
LINE
  5
226
100
AcDbEntity
  8
0
100
AcDbLine
 62
7
  6
CONTINUOUS
 10
42.3681693024
 20
18.5016806338
 11
42.6681693024
 21
18.5016806338
  0
LINE
  5
227
100
AcDbEntity
  8
0
100
AcDbLine
 62
7
  6
CONTINUOUS
 10
46.2681693024
 20
18.5016806338
 11
46.3681693024
 21
18.5016806338
  0
LINE
  5
228
100
AcDbEntity
  8
0
100
AcDbLine
 62
7
  6
CONTINUOUS
 10
46.3681693024
 20
18.8089691457
 11
46.2681693024
 21
18.8089691457
  0
LINE
  5
229
100
AcDbEntity
  8
0
100
AcDbLine
 62
7
  6
CONTINUOUS
 10
42.6681693024
 20
18.8089691457
 11
42.3681693024
 21
18.8089691457
  0
LINE
  5
22A
100
AcDbEntity
  8
0
100
AcDbLine
 62
7
  6
CONTINUOUS
 10
27.1681693024
 20
18.8089691457
 11
27.0681693024
 21
18.8089691457
  0
LINE
  5
22B
100
AcDbEntity
  8
0
100
AcDbLine
 62
7
  6
CONTINUOUS
 10
23.4681693024
 20
18.8089691457
 11
23.1681693024
 21
18.8089691457
  0
LINE
  5
22C
100
AcDbEntity
  8
0
100
AcDbLine
 62
7
  6
CONTINUOUS
 10
23.1681693024
 20
19.6890306122
 11
23.4681693024
 21
19.6890306122
  0
LINE
  5
22D
100
AcDbEntity
  8
0
100
AcDbLine
 62
7
  6
CONTINUOUS
 10
27.0681693024
 20
19.6890306122
 11
27.1681693024
 21
19.6890306122
  0
LINE
  5
22E
100
AcDbEntity
  8
0
100
AcDbLine
 62
7
  6
CONTINUOUS
 10
42.3681693024
 20
19.6890306122
 11
42.6681693024
 21
19.6890306122
  0
LINE
  5
22F
100
AcDbEntity
  8
0
100
AcDbLine
 62
7
  6
CONTINUOUS
 10
46.2681693024
 20
19.6890306122
 11
46.3681693024
 21
19.6890306122
  0
LINE
  5
230
100
AcDbEntity
  8
0
100
AcDbLine
 62
7
  6
CONTINUOUS
 10
23.1577510547
 20
88.1390306122
 11
22.9577510547
 21
87.5390306122
  0
LINE
  5
231
100
AcDbEntity
  8
0
100
AcDbLine
 62
7
  6
CONTINUOUS
 10
46.1181693024
 20
23.2890306122
 11
42.8181693024
 21
23.2890306122
  0
LINE
  5
232
100
AcDbEntity
  8
0
100
AcDbLine
 62
7
  6
CONTINUOUS
 10
27.0681693024
 20
23.2890306122
 11
23.6181693024
 21
23.2890306122
  0
LINE
  5
233
100
AcDbEntity
  8
0
100
AcDbLine
 62
7
  6
CONTINUOUS
 10
46.2681693024
 20
23.6890306122
 11
42.7681693024
 21
23.6890306122
  0
LINE
  5
234
100
AcDbEntity
  8
0
100
AcDbLine
 62
7
  6
CONTINUOUS
 10
27.0681693024
 20
23.6890306122
 11
23.5681693024
 21
23.6890306122
  0
LINE
  5
235
100
AcDbEntity
  8
0
100
AcDbLine
 62
7
  6
CONTINUOUS
 10
46.3681693024
 20
23.7890306122
 11
42.3681693024
 21
23.7890306122
  0
LINE
  5
236
100
AcDbEntity
  8
0
100
AcDbLine
 62
7
  6
CONTINUOUS
 10
27.1681693024
 20
23.7890306122
 11
23.1681693024
 21
23.7890306122
  0
LINE
  5
237
100
AcDbEntity
  8
0
100
AcDbLine
 62
7
  6
CONTINUOUS
 10
37.4139004965
 20
86.0390306122
 11
36.7147664464
 21
84.9622723789
  0
LINE
  5
238
100
AcDbEntity
  8
0
100
AcDbLine
 62
7
  6
CONTINUOUS
 10
21.6181693024
 20
28.9890306122
 11
23.1681693024
 21
28.9890306122
  0
LINE
  5
239
100
AcDbEntity
  8
0
100
AcDbLine
 62
7
  6
CONTINUOUS
 10
27.1681693024
 20
28.9890306122
 11
42.3681693024
 21
28.9890306122
  0
LINE
  5
23A
100
AcDbEntity
  8
0
100
AcDbLine
 62
7
  6
CONTINUOUS
 10
46.3681693024
 20
28.9890306122
 11
47.9181693024
 21
28.9890306122
  0
LINE
  5
23B
100
AcDbEntity
  8
0
100
AcDbLine
 62
7
  6
CONTINUOUS
 10
31.8681693024
 20
29.8890306122
 11
34.7681693024
 21
29.8890306122
  0
LINE
  5
23C
100
AcDbEntity
  8
0
100
AcDbLine
 62
7
  6
CONTINUOUS
 10
37.6681693024
 20
29.8890306122
 11
40.5681693024
 21
29.8890306122
  0
LINE
  5
23D
100
AcDbEntity
  8
0
100
AcDbLine
 62
7
  6
CONTINUOUS
 10
39.4181693024
 20
30.1390306122
 11
39.0181693024
 21
30.1390306122
  0
LINE
  5
23E
100
AcDbEntity
  8
0
100
AcDbLine
 62
7
  6
CONTINUOUS
 10
33.6181693024
 20
30.1390306122
 11
33.2181693024
 21
30.1390306122
  0
LINE
  5
23F
100
AcDbEntity
  8
0
100
AcDbLine
 62
7
  6
CONTINUOUS
 10
33.2181693024
 20
30.6390306122
 11
33.6181693024
 21
30.6390306122
  0
LINE
  5
240
100
AcDbEntity
  8
0
100
AcDbLine
 62
7
  6
CONTINUOUS
 10
39.0181693024
 20
30.6390306122
 11
39.4181693024
 21
30.6390306122
  0
LINE
  5
241
100
AcDbEntity
  8
0
100
AcDbLine
 62
7
  6
CONTINUOUS
 10
40.5681693024
 20
30.8890306122
 11
37.6681693024
 21
30.8890306122
  0
LINE
  5
242
100
AcDbEntity
  8
0
100
AcDbLine
 62
7
  6
CONTINUOUS
 10
34.7681693024
 20
30.8890306122
 11
31.8681693024
 21
30.8890306122
  0
LINE
  5
243
100
AcDbEntity
  8
0
100
AcDbLine
 62
7
  6
CONTINUOUS
 10
27.1681693024
 20
31.7890306122
 11
42.3681693024
 21
31.7890306122
  0
LINE
  5
244
100
AcDbEntity
  8
0
100
AcDbLine
 62
7
  6
CONTINUOUS
 10
42.3681693024
 20
32.5890306122
 11
27.1681693024
 21
32.5890306122
  0
LINE
  5
245
100
AcDbEntity
  8
0
100
AcDbLine
 62
7
  6
CONTINUOUS
 10
28.9681693024
 20
33.4890306122
 11
31.8681693024
 21
33.4890306122
  0
LINE
  5
246
100
AcDbEntity
  8
0
100
AcDbLine
 62
7
  6
CONTINUOUS
 10
34.7681693024
 20
33.4890306122
 11
37.6681693024
 21
33.4890306122
  0
LINE
  5
247
100
AcDbEntity
  8
0
100
AcDbLine
 62
7
  6
CONTINUOUS
 10
36.5181693024
 20
33.7390306122
 11
36.1181693024
 21
33.7390306122
  0
LINE
  5
248
100
AcDbEntity
  8
0
100
AcDbLine
 62
7
  6
CONTINUOUS
 10
30.7181693024
 20
33.7390306122
 11
30.3181693024
 21
33.7390306122
  0
LINE
  5
249
100
AcDbEntity
  8
0
100
AcDbLine
 62
7
  6
CONTINUOUS
 10
21.3181693024
 20
68.4890306122
 11
21.3181693024
 21
7.7890306122
  0
LINE
  5
24A
100
AcDbEntity
  8
0
100
AcDbLine
 62
7
  6
CONTINUOUS
 10
21.6181693024
 20
7.7890306122
 11
21.6181693024
 21
68.7890306122
  0
LINE
  5
24B
100
AcDbEntity
  8
0
100
AcDbLine
 62
7
  6
CONTINUOUS
 10
22.7681693024
 20
28.9890306122
 11
22.7681693024
 21
18.1890306122
  0
LINE
  5
24C
100
AcDbEntity
  8
0
100
AcDbLine
 62
7
  6
CONTINUOUS
 10
22.9577510547
 20
87.3390306122
 11
22.9577510547
 21
87.5390306122
  0
LINE
  5
24D
100
AcDbEntity
  8
0
100
AcDbLine
 62
7
  6
CONTINUOUS
 10
23.1681693024
 20
18.1890306122
 11
23.1681693024
 21
28.9890306122
  0
LINE
  5
24E
100
AcDbEntity
  8
0
100
AcDbLine
 62
7
  6
CONTINUOUS
 10
23.4681693024
 20
18.3890306122
 11
23.4681693024
 21
23.5890306122
  0
LINE
  5
24F
100
AcDbEntity
  8
0
100
AcDbLine
 62
7
  6
CONTINUOUS
 10
23.6181693024
 20
23.2890306122
 11
23.6181693024
 21
23.6890306122
  0
LINE
  5
250
100
AcDbEntity
  8
0
100
AcDbLine
 62
7
  6
CONTINUOUS
 10
23.6681693024
 20
23.2890306122
 11
23.6681693024
 21
18.2890306122
  0
LINE
  5
251
100
AcDbEntity
  8
0
100
AcDbLine
 62
7
  6
CONTINUOUS
 10
23.7681693024
 20
18.1890306122
 11
23.7681693024
 21
18.2890306122
  0
LINE
  5
252
100
AcDbEntity
  8
0
100
AcDbLine
 62
7
  6
CONTINUOUS
 10
21.7425381959
 20
36.687511084
 11
22.3577730283
 21
87.0426617051
  0
LINE
  5
253
100
AcDbEntity
  8
0
100
AcDbLine
 62
7
  6
CONTINUOUS
 10
22.8036008415
 20
41.6798729654
 11
22.7426231655
 21
36.6890306122
  0
LINE
  5
254
100
AcDbEntity
  8
0
100
AcDbLine
 62
7
  6
CONTINUOUS
 10
24.2681160012
 20
73.6890313875
 11
24.3170510963
 21
76.4925211122
  0
LINE
  5
255
100
AcDbEntity
  8
0
100
AcDbLine
 62
7
  6
CONTINUOUS
 10
34.9577510547
 20
88.1390306122
 11
34.7577510547
 21
87.5390306122
  0
LINE
  5
256
100
AcDbEntity
  8
0
100
AcDbLine
 62
7
  6
CONTINUOUS
 10
30.3181693024
 20
34.2390306122
 11
30.7181693024
 21
34.2390306122
  0
LINE
  5
257
100
AcDbEntity
  8
0
100
AcDbLine
 62
7
  6
CONTINUOUS
 10
36.1181693024
 20
34.2390306122
 11
36.5181693024
 21
34.2390306122
  0
LINE
  5
258
100
AcDbEntity
  8
0
100
AcDbLine
 62
7
  6
CONTINUOUS
 10
37.6681693024
 20
34.4890306122
 11
34.7681693024
 21
34.4890306122
  0
LINE
  5
259
100
AcDbEntity
  8
0
100
AcDbLine
 62
7
  6
CONTINUOUS
 10
31.8681693024
 20
34.4890306122
 11
28.9681693024
 21
34.4890306122
  0
LINE
  5
25A
100
AcDbEntity
  8
0
100
AcDbLine
 62
7
  6
CONTINUOUS
 10
42.3681693024
 20
35.3890306122
 11
27.1681693024
 21
35.3890306122
  0
LINE
  5
25B
100
AcDbEntity
  8
0
100
AcDbLine
 62
7
  6
CONTINUOUS
 10
47.9181693024
 20
36.6890306122
 11
21.6181693024
 21
36.6890306122
  0
LINE
  5
25C
100
AcDbEntity
  8
0
100
AcDbLine
 62
7
  6
CONTINUOUS
 10
37.9431693024
 20
36.8890306122
 11
31.6431693024
 21
36.8890306122
  0
LINE
  5
25D
100
AcDbEntity
  8
0
100
AcDbLine
 62
7
  6
CONTINUOUS
 10
21.8255716299
 20
43.4835519683
 11
22.8036008415
 21
41.6798729654
  0
LINE
  5
25E
100
AcDbEntity
  8
0
100
AcDbLine
 62
7
  6
CONTINUOUS
 10
24.1181693024
 20
23.2890306122
 11
24.1181693024
 21
23.6890306122
  0
LINE
  5
25F
100
AcDbEntity
  8
0
100
AcDbLine
 62
7
  6
CONTINUOUS
 10
24.2681693024
 20
73.6890306122
 11
24.2681693024
 21
38.8890306122
  0
LINE
  5
260
100
AcDbEntity
  8
0
100
AcDbLine
 62
7
  6
CONTINUOUS
 10
24.2931693024
 20
38.8890306122
 11
24.2931693024
 21
36.6890306122
  0
LINE
  5
261
100
AcDbEntity
  8
0
100
AcDbLine
 62
7
  6
CONTINUOUS
 10
24.759443099
 20
38.8890306122
 11
24.7594430991
 21
73.6890306122
  0
LINE
  5
262
100
AcDbEntity
  8
0
100
AcDbLine
 62
7
  6
CONTINUOUS
 10
25.0169444826
 20
76.4925211103
 11
25.0169444826
 21
76.6890306122
  0
LINE
  5
263
100
AcDbEntity
  8
0
100
AcDbLine
 62
7
  6
CONTINUOUS
 10
25.2931693024
 20
36.6890306122
 11
25.2931693024
 21
38.8890306122
  0
LINE
  5
264
100
AcDbEntity
  8
0
100
AcDbLine
 62
7
  6
CONTINUOUS
 10
26.3931693024
 20
37.6890306122
 11
26.3931693024
 21
36.6890306122
  0
LINE
  5
265
100
AcDbEntity
  8
0
100
AcDbLine
 62
7
  6
CONTINUOUS
 10
26.4181693024
 20
23.2890306122
 11
26.4181693024
 21
23.6890306122
  0
LINE
  5
266
100
AcDbEntity
  8
0
100
AcDbLine
 62
7
  6
CONTINUOUS
 10
26.6681693024
 20
11.2890306122
 11
26.6681693024
 21
7.7890306122
  0
LINE
  5
267
100
AcDbEntity
  8
0
100
AcDbLine
 62
7
  6
CONTINUOUS
 10
24.3090062851
 20
83.0390306122
 11
23.7427060332
 21
36.6890306122
  0
LINE
  5
268
100
AcDbEntity
  8
0
100
AcDbLine
 62
7
  6
CONTINUOUS
 10
25.0169448503
 20
76.4925211103
 11
24.9680167205
 21
73.6890306273
  0
LINE
  5
269
100
AcDbEntity
  8
0
100
AcDbLine
 62
7
  6
CONTINUOUS
 10
39.3931693024
 20
37.1312597358
 11
38.9931693024
 21
37.1312597358
  0
LINE
  5
26A
100
AcDbEntity
  8
0
100
AcDbLine
 62
7
  6
CONTINUOUS
 10
30.5931693024
 20
37.1312597358
 11
30.1931693024
 21
37.1312597358
  0
LINE
  5
26B
100
AcDbEntity
  8
0
100
AcDbLine
 62
7
  6
CONTINUOUS
 10
26.3931693024
 20
37.6890306122
 11
31.6431693024
 21
37.6890306122
  0
LINE
  5
26C
100
AcDbEntity
  8
0
100
AcDbLine
 62
7
  6
CONTINUOUS
 10
37.9431693024
 20
37.6890306122
 11
43.1931693024
 21
37.6890306122
  0
LINE
  5
26D
100
AcDbEntity
  8
0
100
AcDbLine
 62
7
  6
CONTINUOUS
 10
24.2681693024
 20
38.8890306122
 11
45.2931693024
 21
38.8890306122
  0
LINE
  5
26E
100
AcDbEntity
  8
0
100
AcDbLine
 62
7
  6
CONTINUOUS
 10
26.7681693024
 20
23.2890306122
 11
26.7681693024
 21
18.1890306122
  0
LINE
  5
26F
100
AcDbEntity
  8
0
100
AcDbLine
 62
7
  6
CONTINUOUS
 10
26.7681693024
 20
11.2890306122
 11
26.7681693024
 21
7.7890306122
  0
LINE
  5
270
100
AcDbEntity
  8
0
100
AcDbLine
 62
7
  6
CONTINUOUS
 10
26.8681628319
 20
11.2890306122
 11
26.8681677601
 21
7.8890306122
  0
LINE
  5
271
100
AcDbEntity
  8
0
100
AcDbLine
 62
7
  6
CONTINUOUS
 10
26.9181693024
 20
23.2890306122
 11
26.9181693024
 21
23.6890306122
  0
LINE
  5
272
100
AcDbEntity
  8
0
100
AcDbLine
 62
7
  6
CONTINUOUS
 10
27.0181693024
 20
23.7890306122
 11
27.0181693024
 21
23.6890306122
  0
LINE
  5
273
100
AcDbEntity
  8
0
100
AcDbLine
 62
7
  6
CONTINUOUS
 10
27.0681693024
 20
18.3890306122
 11
27.0681693024
 21
23.7890306122
  0
LINE
  5
274
100
AcDbEntity
  8
0
100
AcDbLine
 62
7
  6
CONTINUOUS
 10
27.1681693024
 20
32.5890306122
 11
27.1681693024
 21
31.7890306122
  0
LINE
  5
275
100
AcDbEntity
  8
0
100
AcDbLine
 62
7
  6
CONTINUOUS
 10
27.1681693024
 20
18.1890306122
 11
27.1681693024
 21
28.9890306122
  0
LINE
  5
276
100
AcDbEntity
  8
0
100
AcDbLine
 62
7
  6
CONTINUOUS
 10
27.1681693024
 20
35.3890306122
 11
27.1681693024
 21
36.6890306122
  0
LINE
  5
277
100
AcDbEntity
  8
0
100
AcDbLine
 62
7
  6
CONTINUOUS
 10
27.8681688037
 20
11.2890306122
 11
27.8681688037
 21
7.8890306122
  0
LINE
  5
278
100
AcDbEntity
  8
0
100
AcDbLine
 62
7
  6
CONTINUOUS
 10
28.0181693024
 20
7.8890306122
 11
28.0181693024
 21
7.7890306122
  0
LINE
  5
279
100
AcDbEntity
  8
0
100
AcDbLine
 62
7
  6
CONTINUOUS
 10
28.5169620417
 20
76.6890306122
 11
28.5169620417
 21
78.5890306122
  0
LINE
  5
27A
100
AcDbEntity
  8
0
100
AcDbLine
 62
7
  6
CONTINUOUS
 10
28.9681693024
 20
34.4890306122
 11
28.9681693024
 21
33.4890306122
  0
LINE
  5
27B
100
AcDbEntity
  8
0
100
AcDbLine
 62
7
  6
CONTINUOUS
 10
29.4181693024
 20
7.8890306122
 11
29.4181693024
 21
7.7890306122
  0
LINE
  5
27C
100
AcDbEntity
  8
0
100
AcDbLine
 62
7
  6
CONTINUOUS
 10
46.7282332317
 20
41.6798729654
 11
45.7241172839
 21
41.6798729654
  0
LINE
  5
27D
100
AcDbEntity
  8
0
100
AcDbLine
 62
7
  6
CONTINUOUS
 10
22.8036008415
 20
41.6798729654
 11
23.8036837092
 21
41.6798729654
  0
LINE
  5
27E
100
AcDbEntity
  8
0
100
AcDbLine
 62
7
  6
CONTINUOUS
 10
29.7540623635
 20
11.2890306122
 11
29.7540623635
 21
7.8890306122
  0
LINE
  5
27F
100
AcDbEntity
  8
0
100
AcDbLine
 62
7
  6
CONTINUOUS
 10
29.9931693024
 20
36.8890306122
 11
29.9931693024
 21
37.6890306122
  0
LINE
  5
280
100
AcDbEntity
  8
0
100
AcDbLine
 62
7
  6
CONTINUOUS
 10
30.1931693024
 20
36.6890306122
 11
30.1931693024
 21
37.6890306122
  0
LINE
  5
281
100
AcDbEntity
  8
0
100
AcDbLine
 62
7
  6
CONTINUOUS
 10
30.3181693024
 20
33.4890306122
 11
30.3181693024
 21
34.4890306122
  0
LINE
  5
282
100
AcDbEntity
  8
0
100
AcDbLine
 62
7
  6
CONTINUOUS
 10
30.5931693024
 20
37.6890306122
 11
30.5931693024
 21
36.6890306122
  0
LINE
  5
283
100
AcDbEntity
  8
0
100
AcDbLine
 62
7
  6
CONTINUOUS
 10
30.7181693024
 20
34.4890306122
 11
30.7181693024
 21
33.4890306122
  0
LINE
  5
284
100
AcDbEntity
  8
0
100
AcDbLine
 62
7
  6
CONTINUOUS
 10
30.7931693024
 20
37.6890306122
 11
30.7931693024
 21
36.8890306122
  0
LINE
  5
285
100
AcDbEntity
  8
0
100
AcDbLine
 62
7
  6
CONTINUOUS
 10
30.8681693024
 20
33.4890306122
 11
30.8681693024
 21
34.4890306122
  0
LINE
  5
286
100
AcDbEntity
  8
0
100
AcDbLine
 62
7
  6
CONTINUOUS
 10
30.9139004965
 20
80.647202636
 11
30.9139004965
 21
83.0390306122
  0
LINE
  5
287
100
AcDbEntity
  8
0
100
AcDbLine
 62
7
  6
CONTINUOUS
 10
31.0169620417
 20
76.6890306122
 11
31.0169620417
 21
78.5890306122
  0
LINE
  5
288
100
AcDbEntity
  8
0
100
AcDbLine
 62
7
  6
CONTINUOUS
 10
31.5681695602
 20
11.2890306122
 11
31.5681695602
 21
7.8890306122
  0
LINE
  5
289
100
AcDbEntity
  8
0
100
AcDbLine
 62
7
  6
CONTINUOUS
 10
31.6431693024
 20
36.8890306122
 11
31.6431693024
 21
38.8890306122
  0
LINE
  5
28A
100
AcDbEntity
  8
0
100
AcDbLine
 62
7
  6
CONTINUOUS
 10
31.8681693024
 20
30.8890306122
 11
31.8681693024
 21
29.8890306122
  0
LINE
  5
28B
100
AcDbEntity
  8
0
100
AcDbLine
 62
7
  6
CONTINUOUS
 10
31.8681693024
 20
33.4890306122
 11
31.8681693024
 21
34.4890306122
  0
LINE
  5
28C
100
AcDbEntity
  8
0
100
AcDbLine
 62
7
  6
CONTINUOUS
 10
32.9679220342
 20
78.0666146727
 11
32.9679326322
 21
78.0591772486
  0
LINE
  5
28D
100
AcDbEntity
  8
0
100
AcDbLine
 62
7
  6
CONTINUOUS
 10
32.8681693024
 20
29.8890306122
 11
32.8681693024
 21
30.8890306122
  0
LINE
  5
28E
100
AcDbEntity
  8
0
100
AcDbLine
 62
7
  6
CONTINUOUS
 10
32.9639004965
 20
76.6836709988
 11
32.9639004965
 21
77.9209693943
  0
LINE
  5
28F
100
AcDbEntity
  8
0
100
AcDbLine
 62
7
  6
CONTINUOUS
 10
33.2181693024
 20
29.8890306122
 11
33.2181693024
 21
30.8890306122
  0
LINE
  5
290
100
AcDbEntity
  8
0
100
AcDbLine
 62
7
  6
CONTINUOUS
 10
33.2681693024
 20
12.0890306122
 11
33.2681693024
 21
11.2890306122
  0
LINE
  5
291
100
AcDbEntity
  8
0
100
AcDbLine
 62
7
  6
CONTINUOUS
 10
33.6181693024
 20
30.8890306122
 11
33.6181693024
 21
29.8890306122
  0
LINE
  5
292
100
AcDbEntity
  8
0
100
AcDbLine
 62
7
  6
CONTINUOUS
 10
33.7681693024
 20
29.8890306122
 11
33.7681693024
 21
30.8890306122
  0
LINE
  5
293
100
AcDbEntity
  8
0
100
AcDbLine
 62
7
  6
CONTINUOUS
 10
34.7681693024
 20
73.6890306122
 11
34.7681693024
 21
38.8890306122
  0
LINE
  5
294
100
AcDbEntity
  8
0
100
AcDbLine
 62
7
  6
CONTINUOUS
 10
34.7681693024
 20
34.4890306122
 11
34.7681693024
 21
33.4890306122
  0
LINE
  5
295
100
AcDbEntity
  8
0
100
AcDbLine
 62
7
  6
CONTINUOUS
 10
34.7681693024
 20
29.8890306122
 11
34.7681693024
 21
30.8890306122
  0
LINE
  5
296
100
AcDbEntity
  8
0
100
AcDbLine
 62
7
  6
CONTINUOUS
 10
36.5598587372
 20
78.0666422298
 11
36.5598692404
 21
78.0591778616
  0
LINE
  5
297
100
AcDbEntity
  8
0
100
AcDbLine
 62
7
  6
CONTINUOUS
 10
35.7681693024
 20
33.4890306122
 11
35.7681693024
 21
34.4890306122
  0
LINE
  5
298
100
AcDbEntity
  8
0
100
AcDbLine
 62
7
  6
CONTINUOUS
 10
35.9181693024
 20
34.4890306122
 11
35.9181693024
 21
33.4890306122
  0
LINE
  5
299
100
AcDbEntity
  8
0
100
AcDbLine
 62
7
  6
CONTINUOUS
 10
36.1181693024
 20
33.4890306122
 11
36.1181693024
 21
34.4890306122
  0
LINE
  5
29A
100
AcDbEntity
  8
0
100
AcDbLine
 62
7
  6
CONTINUOUS
 10
36.2681693024
 20
12.0890306122
 11
36.2681693024
 21
11.2890306122
  0
LINE
  5
29B
100
AcDbEntity
  8
0
100
AcDbLine
 62
7
  6
CONTINUOUS
 10
36.5181693024
 20
34.4890306122
 11
36.5181693024
 21
33.4890306122
  0
LINE
  5
29C
100
AcDbEntity
  8
0
100
AcDbLine
 62
7
  6
CONTINUOUS
 10
36.5639004965
 20
77.9209499076
 11
36.5639004965
 21
76.6836709988
  0
LINE
  5
29D
100
AcDbEntity
  8
0
100
AcDbLine
 62
7
  6
CONTINUOUS
 10
36.6681693024
 20
33.4890306122
 11
36.6681693024
 21
34.4890306122
  0
LINE
  5
29E
100
AcDbEntity
  8
0
100
AcDbLine
 62
7
  6
CONTINUOUS
 10
37.6681693024
 20
30.8890306122
 11
37.6681693024
 21
29.8890306122
  0
LINE
  5
29F
100
AcDbEntity
  8
0
100
AcDbLine
 62
7
  6
CONTINUOUS
 10
37.6681693024
 20
33.4890306122
 11
37.6681693024
 21
34.4890306122
  0
LINE
  5
2A0
100
AcDbEntity
  8
0
100
AcDbLine
 62
7
  6
CONTINUOUS
 10
37.7431693024
 20
30.8890306122
 11
37.7431693024
 21
29.8890306122
  0
LINE
  5
2A1
100
AcDbEntity
  8
0
100
AcDbLine
 62
7
  6
CONTINUOUS
 10
37.9431693024
 20
36.8890306122
 11
37.9431693024
 21
38.8890306122
  0
LINE
  5
2A2
100
AcDbEntity
  8
0
100
AcDbLine
 62
7
  6
CONTINUOUS
 10
38.1681694066
 20
11.2890306122
 11
38.1681694066
 21
7.8890306122
  0
LINE
  5
2A3
100
AcDbEntity
  8
0
100
AcDbLine
 62
7
  6
CONTINUOUS
 10
38.6139004965
 20
83.0390306122
 11
38.6139004965
 21
80.647202636
  0
LINE
  5
2A4
100
AcDbEntity
  8
0
100
AcDbLine
 62
7
  6
CONTINUOUS
 10
38.6681693024
 20
29.8890306122
 11
38.6681693024
 21
30.8890306122
  0
LINE
  5
2A5
100
AcDbEntity
  8
0
100
AcDbLine
 62
7
  6
CONTINUOUS
 10
38.7931693024
 20
36.8890306122
 11
38.7931693024
 21
37.6890306122
  0
LINE
  5
2A6
100
AcDbEntity
  8
0
100
AcDbLine
 62
7
  6
CONTINUOUS
 10
38.8181693024
 20
30.8890306122
 11
38.8181693024
 21
29.8890306122
  0
LINE
  5
2A7
100
AcDbEntity
  8
0
100
AcDbLine
 62
7
  6
CONTINUOUS
 10
38.9931693024
 20
36.6890306122
 11
38.9931693024
 21
37.6890306122
  0
LINE
  5
2A8
100
AcDbEntity
  8
0
100
AcDbLine
 62
7
  6
CONTINUOUS
 10
39.0181693024
 20
29.8890306122
 11
39.0181693024
 21
30.8890306122
  0
LINE
  5
2A9
100
AcDbEntity
  8
0
100
AcDbLine
 62
7
  6
CONTINUOUS
 10
39.3931693024
 20
37.6890306122
 11
39.3931693024
 21
36.6890306122
  0
LINE
  5
2AA
100
AcDbEntity
  8
0
100
AcDbLine
 62
7
  6
CONTINUOUS
 10
39.4181693024
 20
30.8890306122
 11
39.4181693024
 21
29.8890306122
  0
LINE
  5
2AB
100
AcDbEntity
  8
0
100
AcDbLine
 62
7
  6
CONTINUOUS
 10
39.5931693024
 20
37.6890306122
 11
39.5931693024
 21
36.8890306122
  0
LINE
  5
2AC
100
AcDbEntity
  8
0
100
AcDbLine
 62
7
  6
CONTINUOUS
 10
39.9822768333
 20
11.2890306122
 11
39.9822768333
 21
7.8890306122
  0
LINE
  5
2AD
100
AcDbEntity
  8
0
100
AcDbLine
 62
7
  6
CONTINUOUS
 10
40.3181693024
 20
7.7890306122
 11
40.3181693024
 21
7.8890306122
  0
LINE
  5
2AE
100
AcDbEntity
  8
0
100
AcDbLine
 62
7
  6
CONTINUOUS
 10
40.5681693024
 20
29.8890306122
 11
40.5681693024
 21
30.8890306122
  0
LINE
  5
2AF
100
AcDbEntity
  8
0
100
AcDbLine
 62
7
  6
CONTINUOUS
 10
41.7181693024
 20
7.8890306122
 11
41.7181693024
 21
7.7890306122
  0
LINE
  5
2B0
100
AcDbEntity
  8
0
100
AcDbLine
 62
7
  6
CONTINUOUS
 10
41.8681687913
 20
11.2890306122
 11
41.8681687913
 21
7.8890306122
  0
LINE
  5
2B1
100
AcDbEntity
  8
0
100
AcDbLine
 62
7
  6
CONTINUOUS
 10
42.3681693024
 20
36.6890306122
 11
42.3681693024
 21
35.3890306122
  0
LINE
  5
2B2
100
AcDbEntity
  8
0
100
AcDbLine
 62
7
  6
CONTINUOUS
 10
42.3681693024
 20
28.9890306122
 11
42.3681693024
 21
18.1890306122
  0
LINE
  5
2B3
100
AcDbEntity
  8
0
100
AcDbLine
 62
7
  6
CONTINUOUS
 10
42.3681693024
 20
31.7890306122
 11
42.3681693024
 21
32.5890306122
  0
LINE
  5
2B4
100
AcDbEntity
  8
0
100
AcDbLine
 62
7
  6
CONTINUOUS
 10
42.6681693024
 20
18.3890306122
 11
42.6681693024
 21
23.5890306122
  0
LINE
  5
2B5
100
AcDbEntity
  8
0
100
AcDbLine
 62
7
  6
CONTINUOUS
 10
42.8181693024
 20
23.2890306122
 11
42.8181693024
 21
23.6890306122
  0
LINE
  5
2B6
100
AcDbEntity
  8
0
100
AcDbLine
 62
7
  6
CONTINUOUS
 10
42.8681693024
 20
7.7890306122
 11
42.8681688162
 21
11.2890306122
  0
LINE
  5
2B7
100
AcDbEntity
  8
0
100
AcDbLine
 62
7
  6
CONTINUOUS
 10
42.9681693024
 20
18.1890306122
 11
42.9681693024
 21
23.2890306122
  0
LINE
  5
2B8
100
AcDbEntity
  8
0
100
AcDbLine
 62
7
  6
CONTINUOUS
 10
43.1931693024
 20
37.6890306122
 11
43.1931693024
 21
36.6890306122
  0
LINE
  5
2B9
100
AcDbEntity
  8
0
100
AcDbLine
 62
7
  6
CONTINUOUS
 10
43.3181693024
 20
23.2890306122
 11
43.3181693024
 21
23.6890306122
  0
LINE
  5
2BA
100
AcDbEntity
  8
0
100
AcDbLine
 62
7
  6
CONTINUOUS
 10
45.0019059263
 20
79.6226664672
 11
45.2187947079
 21
83.0390306123
  0
LINE
  5
2BB
100
AcDbEntity
  8
0
100
AcDbLine
 62
7
  6
CONTINUOUS
 10
47.570932551
 20
54.2298075535
 11
45.5707832791
 21
54.2298075535
  0
LINE
  5
2BC
100
AcDbEntity
  8
0
100
AcDbLine
 62
7
  6
CONTINUOUS
 10
21.9568684421
 20
54.2298075535
 11
23.9570177139
 21
54.2298075535
  0
LINE
  5
2BD
100
AcDbEntity
  8
0
100
AcDbLine
 62
7
  6
CONTINUOUS
 10
44.5682685693
 20
73.6890306273
 11
44.5193404398
 21
76.4925211104
  0
LINE
  5
2BE
100
AcDbEntity
  8
0
100
AcDbLine
 62
7
  6
CONTINUOUS
 10
45.2192341938
 20
76.492521108
 11
45.2681693024
 21
73.6890306147
  0
LINE
  5
2BF
100
AcDbEntity
  8
0
100
AcDbLine
 62
7
  6
CONTINUOUS
 10
45.2187947079
 20
83.0390306122
 11
45.7850949598
 21
36.6890306122
  0
LINE
  5
2C0
100
AcDbEntity
  8
0
100
AcDbLine
 62
7
  6
CONTINUOUS
 10
44.2931693024
 20
38.8890306122
 11
44.2931693024
 21
36.6890306122
  0
LINE
  5
2C1
100
AcDbEntity
  8
0
100
AcDbLine
 62
7
  6
CONTINUOUS
 10
44.5193408075
 20
76.6890306122
 11
44.5193408075
 21
76.4925211103
  0
LINE
  5
2C2
100
AcDbEntity
  8
0
100
AcDbLine
 62
7
  6
CONTINUOUS
 10
44.7768955056
 20
73.6890306122
 11
44.7768955056
 21
38.8890306122
  0
LINE
  5
2C3
100
AcDbEntity
  8
0
100
AcDbLine
 62
7
  6
CONTINUOUS
 10
45.2681693024
 20
38.8890306122
 11
45.2681693024
 21
73.6890306122
  0
LINE
  5
2C4
100
AcDbEntity
  8
0
100
AcDbLine
 62
7
  6
CONTINUOUS
 10
45.2931693024
 20
36.6890306122
 11
45.2931693024
 21
38.8890306122
  0
LINE
  5
2C5
100
AcDbEntity
  8
0
100
AcDbLine
 62
7
  6
CONTINUOUS
 10
45.6181693024
 20
23.2890306122
 11
45.6181693024
 21
23.6890306122
  0
LINE
  5
2C6
100
AcDbEntity
  8
0
100
AcDbLine
 62
7
  6
CONTINUOUS
 10
45.9681693024
 20
18.2890306122
 11
45.9681693024
 21
18.1890306122
  0
LINE
  5
2C7
100
AcDbEntity
  8
0
100
AcDbLine
 62
7
  6
CONTINUOUS
 10
46.0681693024
 20
23.2890306122
 11
46.0681693024
 21
18.2890306122
  0
LINE
  5
2C8
100
AcDbEntity
  8
0
100
AcDbLine
 62
7
  6
CONTINUOUS
 10
46.1181693024
 20
23.2890306122
 11
46.1181693024
 21
23.6890306122
  0
LINE
  5
2C9
100
AcDbEntity
  8
0
100
AcDbLine
 62
7
  6
CONTINUOUS
 10
46.2181693024
 20
23.7890306122
 11
46.2181693024
 21
23.6890306122
  0
LINE
  5
2CA
100
AcDbEntity
  8
0
100
AcDbLine
 62
7
  6
CONTINUOUS
 10
46.2681693024
 20
18.3890306122
 11
46.2681693024
 21
23.7890306122
  0
LINE
  5
2CB
100
AcDbEntity
  8
0
100
AcDbLine
 62
7
  6
CONTINUOUS
 10
46.3681693024
 20
28.9890306122
 11
46.3681693024
 21
18.1890306122
  0
LINE
  5
2CC
100
AcDbEntity
  8
0
100
AcDbLine
 62
7
  6
CONTINUOUS
 10
46.7892109077
 20
36.6890306122
 11
46.7282332317
 21
41.6798729654
  0
LINE
  5
2CD
100
AcDbEntity
  8
0
100
AcDbLine
 62
7
  6
CONTINUOUS
 10
47.7852640714
 20
36.6874067877
 11
47.1664069553
 21
87.3390306122
  0
LINE
  5
2CE
100
AcDbEntity
  8
0
100
AcDbLine
 62
7
  6
CONTINUOUS
 10
46.5577510547
 20
87.3390306122
 11
46.5577510547
 21
87.5390306122
  0
LINE
  5
2CF
100
AcDbEntity
  8
0
100
AcDbLine
 62
7
  6
CONTINUOUS
 10
46.7681693024
 20
18.1890306122
 11
46.7681693024
 21
28.9890306122
  0
LINE
  5
2D0
100
AcDbEntity
  8
0
100
AcDbLine
 62
7
  6
CONTINUOUS
 10
47.9181693024
 20
68.7890306122
 11
47.9181693024
 21
7.7890306122
  0
LINE
  5
2D1
100
AcDbEntity
  8
0
100
AcDbLine
 62
7
  6
CONTINUOUS
 10
48.2181693024
 20
7.7890306122
 11
48.2181693024
 21
68.4890306122
  0
LINE
  5
2D2
100
AcDbEntity
  8
0
100
AcDbLine
 62
7
  6
CONTINUOUS
 10
46.7282332317
 20
41.6798729654
 11
47.7021401314
 21
43.4908553203
  0
LINE
  5
2D3
100
AcDbEntity
  8
0
100
AcDbLine
 62
7
  6
CONTINUOUS
 10
34.7577510547
 20
87.5390306122
 11
34.5577510547
 21
88.1390306122
  0
LINE
  5
2D4
100
AcDbEntity
  8
0
100
AcDbLine
 62
7
  6
CONTINUOUS
 10
32.1139004965
 20
86.0390306122
 11
32.8129501756
 21
84.9624023213
  0
LINE
  5
2D5
100
AcDbEntity
  8
0
100
AcDbLine
 62
7
  6
CONTINUOUS
 10
21.3181693024
 20
68.4890306122
 11
22.131086384
 21
68.4890306122
  0
LINE
  5
2D6
100
AcDbEntity
  8
0
100
AcDbLine
 62
7
  6
CONTINUOUS
 10
24.1312356558
 20
68.4890306122
 11
24.2681693024
 21
68.4890306122
  0
LINE
  5
2D7
100
AcDbEntity
  8
0
100
AcDbLine
 62
7
  6
CONTINUOUS
 10
45.2681693024
 20
68.4890306122
 11
45.3965653372
 21
68.4890306122
  0
LINE
  5
2D8
100
AcDbEntity
  8
0
100
AcDbLine
 62
7
  6
CONTINUOUS
 10
47.396714609
 20
68.4890306122
 11
48.2181693024
 21
68.4890306122
  0
LINE
  5
2D9
100
AcDbEntity
  8
0
100
AcDbLine
 62
7
  6
CONTINUOUS
 10
47.9181693024
 20
68.7890306122
 11
47.3930492352
 21
68.7890306122
  0
LINE
  5
2DA
100
AcDbEntity
  8
0
100
AcDbLine
 62
7
  6
CONTINUOUS
 10
45.3928999634
 20
68.7890306122
 11
45.2681693024
 21
68.7890306122
  0
LINE
  5
2DB
100
AcDbEntity
  8
0
100
AcDbLine
 62
7
  6
CONTINUOUS
 10
24.2681693024
 20
68.7890306122
 11
24.1349010296
 21
68.7890306122
  0
LINE
  5
2DC
100
AcDbEntity
  8
0
100
AcDbLine
 62
7
  6
CONTINUOUS
 10
22.1347517578
 20
68.7890306122
 11
21.6181693024
 21
68.7890306122
  0
LINE
  5
2DD
100
AcDbEntity
  8
0
100
AcDbLine
 62
7
  6
CONTINUOUS
 10
24.1925375993
 20
73.5064133016
 11
24.2681692664
 21
73.5064339405
  0
LINE
  5
2DE
100
AcDbEntity
  8
0
100
AcDbLine
 62
7
  6
CONTINUOUS
 10
45.3356351782
 20
73.4890306122
 11
45.2681693024
 21
73.4890306122
  0
LINE
  5
2DF
100
AcDbEntity
  8
0
100
AcDbLine
 62
7
  6
CONTINUOUS
 10
24.2681693024
 20
73.4890306122
 11
24.1921592301
 21
73.4890306122
  0
LINE
  5
2E0
100
AcDbEntity
  8
0
100
AcDbLine
 62
7
  6
CONTINUOUS
 10
45.2681693438
 20
73.5064317115
 11
45.3352633937
 21
73.5064133017
  0
LINE
  5
2E1
100
AcDbEntity
  8
0
100
AcDbLine
 62
7
  6
CONTINUOUS
 10
24.2685079863
 20
73.6890267942
 11
45.2677773742
 21
73.6890261939
  0
LINE
  5
2E2
100
AcDbEntity
  8
0
100
AcDbLine
 62
7
  6
CONTINUOUS
 10
46.5577510547
 20
87.5390306122
 11
46.3577510547
 21
88.1390306122
  0
LINE
  5
2E3
100
AcDbEntity
  8
0
100
AcDbLine
 62
7
  6
CONTINUOUS
 10
45.2498034234
 20
74.7412111151
 11
45.3200850528
 21
74.7440474682
  0
LINE
  5
2E4
100
AcDbEntity
  8
0
100
AcDbLine
 62
7
  6
CONTINUOUS
 10
25.0169448503
 20
76.4925211103
 11
44.5193404398
 21
76.4925211104
  0
LINE
  5
2E5
100
AcDbEntity
  8
0
100
AcDbLine
 62
7
  6
CONTINUOUS
 10
24.2077159404
 20
74.7440474682
 11
24.2864712289
 21
74.7406016802
  0
LINE
  5
2E6
100
AcDbEntity
  8
0
100
AcDbLine
 62
7
  6
CONTINUOUS
 10
32.9639004965
 20
76.6836709988
 11
36.5639004965
 21
76.6836709988
  0
LINE
  5
2E7
100
AcDbEntity
  8
0
100
AcDbLine
 62
7
  6
CONTINUOUS
 10
32.9639004965
 20
76.6890306122
 11
24.517020635
 21
76.6890306122
  0
LINE
  5
2E8
100
AcDbEntity
  8
0
100
AcDbLine
 62
7
  6
CONTINUOUS
 10
36.5639004965
 20
76.6890306122
 11
45.019264655
 21
76.6890306122
  0
LINE
  5
2E9
100
AcDbEntity
  8
0
100
AcDbLine
 62
7
  6
CONTINUOUS
 10
32.9639004965
 20
77.2157715813
 11
36.5639004965
 21
77.2157715813
  0
LINE
  5
2EA
100
AcDbEntity
  8
0
100
AcDbLine
 62
7
  6
CONTINUOUS
 10
31.0169620417
 20
77.5890306122
 11
28.5169620417
 21
77.5890306122
  0
LINE
  5
2EB
100
AcDbEntity
  8
0
100
AcDbLine
 62
7
  6
CONTINUOUS
 10
36.5598680896
 20
78.0591772486
 11
32.9679336738
 21
78.0591772486
  0
LINE
  5
2EC
100
AcDbEntity
  8
0
100
AcDbLine
 62
7
  6
CONTINUOUS
 10
31.0169620417
 20
78.5890306122
 11
28.5169620417
 21
78.5890306122
  0
LINE
  5
2ED
100
AcDbEntity
  8
0
100
AcDbLine
 62
7
  6
CONTINUOUS
 10
45.0130353462
 20
84.9622711474
 11
44.3139004965
 21
86.0390306122
  0
LINE
  5
2EE
100
AcDbEntity
  8
0
100
AcDbLine
 62
7
  6
CONTINUOUS
 10
40.4422730683
 20
83.0390306122
 11
45.0019059263
 21
79.6226664672
  0
LINE
  5
2EF
100
AcDbEntity
  8
0
100
AcDbLine
 62
7
  6
CONTINUOUS
 10
38.6139004965
 20
82.4994669039
 11
30.9139004965
 21
82.4994669039
  0
LINE
  5
2F0
100
AcDbEntity
  8
0
100
AcDbLine
 62
7
  6
CONTINUOUS
 10
45.2187947079
 20
83.0390306122
 11
24.3090062851
 21
83.0390306122
  0
LINE
  5
2F1
100
AcDbEntity
  8
0
100
AcDbLine
 62
7
  6
CONTINUOUS
 10
32.5615295251
 20
84.4988993119
 11
24.7663198129
 21
84.4988993098
  0
LINE
  5
2F2
100
AcDbEntity
  8
0
100
AcDbLine
 62
7
  6
CONTINUOUS
 10
36.9663801896
 20
84.4988993124
 11
44.7614212697
 21
84.4988993124
  0
LINE
  5
2F3
100
AcDbEntity
  8
0
100
AcDbLine
 62
7
  6
CONTINUOUS
 10
44.5736186128
 20
85.6390306122
 11
37.1541823802
 21
85.6390306122
  0
LINE
  5
2F4
100
AcDbEntity
  8
0
100
AcDbLine
 62
7
  6
CONTINUOUS
 10
32.3736186128
 20
85.6390306122
 11
24.9541823802
 21
85.6390306122
  0
LINE
  5
2F5
100
AcDbEntity
  8
0
100
AcDbLine
 62
7
  6
CONTINUOUS
 10
44.3139004965
 20
86.0390306122
 11
37.4139004965
 21
86.0390306122
  0
LINE
  5
2F6
100
AcDbEntity
  8
0
100
AcDbLine
 62
7
  6
CONTINUOUS
 10
25.2139004965
 20
86.0390306122
 11
32.1139004965
 21
86.0390306122
  0
LINE
  5
2F7
100
AcDbEntity
  8
0
100
AcDbLine
 62
7
  6
CONTINUOUS
 10
47.1664069553
 20
87.3390306122
 11
22.6577171097
 21
87.3390306122
  0
LINE
  5
2F8
100
AcDbEntity
  8
0
100
AcDbLine
 62
7
  6
CONTINUOUS
 10
46.3577510547
 20
88.1390306122
 11
34.9577510547
 21
88.1390306122
  0
LINE
  5
2F9
100
AcDbEntity
  8
0
100
AcDbLine
 62
7
  6
CONTINUOUS
 10
34.5577510547
 20
88.1390306122
 11
23.1577510547
 21
88.1390306122
  0
ARC
  5
2FA
100
AcDbEntity
  8
0
100
AcDbCircle
 62
7
  6
CONTINUOUS
 10
21.6181693024
 20
28.6890306122
 40
0.3
100
AcDbArc
 50
90.0
 51
180.0
  0
ARC
  5
2FB
100
AcDbEntity
  8
0
100
AcDbCircle
 62
7
  6
CONTINUOUS
 10
21.6181693024
 20
36.3890306122
 40
0.3
100
AcDbArc
 50
90.0
 51
179.9999999999
  0
ARC
  5
2FC
100
AcDbEntity
  8
0
100
AcDbCircle
 62
7
  6
CONTINUOUS
 10
30.1931693024
 20
36.8890306122
 40
0.2
100
AcDbArc
 50
180.0
 51
270.0
  0
ARC
  5
2FD
100
AcDbEntity
  8
0
100
AcDbCircle
 62
7
  6
CONTINUOUS
 10
30.5931693024
 20
36.8890306122
 40
0.2
100
AcDbArc
 50
270.0
 51
360.0
  0
ARC
  5
2FE
100
AcDbEntity
  8
0
100
AcDbCircle
 62
7
  6
CONTINUOUS
 10
31.8431693024
 20
36.8890306122
 40
0.2
100
AcDbArc
 50
180.0
 51
270.0
  0
ARC
  5
2FF
100
AcDbEntity
  8
0
100
AcDbCircle
 62
7
  6
CONTINUOUS
 10
23.5681693024
 20
23.5890306122
 40
0.1
100
AcDbArc
 50
90.0
 51
180.0
  0
ARC
  5
300
100
AcDbEntity
  8
0
100
AcDbCircle
 62
7
  6
CONTINUOUS
 10
26.9681693024
 20
18.3890306122
 40
0.1
100
AcDbArc
 50
270.0
 51
360.0
  0
ARC
  5
301
100
AcDbEntity
  8
0
100
AcDbCircle
 62
7
  6
CONTINUOUS
 10
23.5681693024
 20
18.3890306122
 40
0.1
100
AcDbArc
 50
180.0
 51
270.0
  0
ARC
  5
302
100
AcDbEntity
  8
0
100
AcDbCircle
 62
7
  6
CONTINUOUS
 10
30.171187005
 20
77.9975269669
 40
2.8166266402
100
AcDbArc
 50
74.271314555
 51
74.7109318672
  0
ARC
  5
303
100
AcDbEntity
  8
0
100
AcDbCircle
 62
7
  6
CONTINUOUS
 10
30.3324555507
 20
78.0669623607
 40
2.6354896216
100
AcDbArc
 50
356.8252875858
 51
359.8307507218
  0
ARC
  5
304
100
AcDbEntity
  8
0
100
AcDbCircle
 62
7
  6
CONTINUOUS
 10
24.1642110956
 20
71.2515185107
 40
2.4582396942
100
AcDbArc
 50
87.5707795263
 51
89.2819053848
  0
ARC
  5
305
100
AcDbEntity
  8
0
100
AcDbCircle
 62
7
  6
CONTINUOUS
 10
21.6181693024
 20
68.4890306122
 40
0.3
100
AcDbArc
 50
90.0
 51
180.0
  0
ARC
  5
306
100
AcDbEntity
  8
0
100
AcDbCircle
 62
7
  6
CONTINUOUS
 10
22.6577510547
 20
87.0390306122
 40
0.3
100
AcDbArc
 50
90.0
 51
179.2999999973
  0
ARC
  5
307
100
AcDbEntity
  8
0
100
AcDbCircle
 62
7
  6
CONTINUOUS
 10
24.7663797234
 20
84.7988993124
 40
0.3
100
AcDbArc
 50
147.0049286598
 51
269.9984266861
  0
ARC
  5
308
100
AcDbEntity
  8
0
100
AcDbCircle
 62
7
  6
CONTINUOUS
 10
32.5614212697
 20
84.7988993124
 40
0.3
100
AcDbArc
 50
269.9999998832
 51
32.9954739714
  0
ARC
  5
309
100
AcDbEntity
  8
0
100
AcDbCircle
 62
7
  6
CONTINUOUS
 10
24.517020635
 20
76.4890306122
 40
0.2
100
AcDbArc
 50
90.0
 51
178.9999947464
  0
ARC
  5
30A
100
AcDbEntity
  8
0
100
AcDbCircle
 62
7
  6
CONTINUOUS
 10
31.1223889534
 20
85.5115710833
 40
0.15
100
AcDbArc
 50
227.1604115858
 51
47.1604115959
  0
ARC
  5
30B
100
AcDbEntity
  8
0
100
AcDbCircle
 62
7
  6
CONTINUOUS
 10
26.593113156
 20
85.5115710833
 40
0.15
100
AcDbArc
 50
132.8395883991
 51
312.8395884146
  0
ARC
  5
30C
100
AcDbEntity
  8
0
100
AcDbCircle
 62
7
  6
CONTINUOUS
 10
47.9181693024
 20
28.6890306122
 40
0.3
100
AcDbArc
 50
0.0
 51
90.0
  0
ARC
  5
30D
100
AcDbEntity
  8
0
100
AcDbCircle
 62
7
  6
CONTINUOUS
 10
47.9181693024
 20
36.3890306122
 40
0.3
100
AcDbArc
 50
0.0
 51
90.0
  0
ARC
  5
30E
100
AcDbEntity
  8
0
100
AcDbCircle
 62
7
  6
CONTINUOUS
 10
39.3931693024
 20
36.8890306122
 40
0.2
100
AcDbArc
 50
270.0
 51
360.0
  0
ARC
  5
30F
100
AcDbEntity
  8
0
100
AcDbCircle
 62
7
  6
CONTINUOUS
 10
38.9931693024
 20
36.8890306122
 40
0.2
100
AcDbArc
 50
180.0
 51
270.0
  0
ARC
  5
310
100
AcDbEntity
  8
0
100
AcDbCircle
 62
7
  6
CONTINUOUS
 10
37.7431693024
 20
36.8890306122
 40
0.2
100
AcDbArc
 50
270.0
 51
360.0
  0
ARC
  5
311
100
AcDbEntity
  8
0
100
AcDbCircle
 62
7
  6
CONTINUOUS
 10
42.7681693024
 20
23.5890306122
 40
0.1
100
AcDbArc
 50
90.0
 51
180.0
  0
ARC
  5
312
100
AcDbEntity
  8
0
100
AcDbCircle
 62
7
  6
CONTINUOUS
 10
46.1681693024
 20
18.3890306122
 40
0.1
100
AcDbArc
 50
270.0
 51
360.0
  0
ARC
  5
313
100
AcDbEntity
  8
0
100
AcDbCircle
 62
7
  6
CONTINUOUS
 10
42.7681693024
 20
18.3890306122
 40
0.1
100
AcDbArc
 50
180.0
 51
270.0
  0
ARC
  5
314
100
AcDbEntity
  8
0
100
AcDbCircle
 62
7
  6
CONTINUOUS
 10
39.3566140119
 20
77.9975268796
 40
2.8166267308
100
AcDbArc
 50
105.2890681324
 51
105.728684593
  0
ARC
  5
315
100
AcDbEntity
  8
0
100
AcDbCircle
 62
7
  6
CONTINUOUS
 10
39.1845774667
 20
78.0665517753
 40
2.6247185845
100
AcDbArc
 50
180.1609676136
 51
183.1800169313
  0
ARC
  5
316
100
AcDbEntity
  8
0
100
AcDbCircle
 62
7
  6
CONTINUOUS
 10
45.3638542509
 20
71.250993612
 40
2.4587738895
100
AcDbArc
 50
91.2498297845
 51
92.2379472258
  0
ARC
  5
317
100
AcDbEntity
  8
0
100
AcDbCircle
 62
7
  6
CONTINUOUS
 10
45.3618338801
 20
71.3314817983
 40
2.3782607984
100
AcDbArc
 50
90.6999364827
 51
91.2434626863
  0
ARC
  5
318
100
AcDbEntity
  8
0
100
AcDbCircle
 62
7
  6
CONTINUOUS
 10
47.9181693024
 20
68.4890306122
 40
0.3
100
AcDbArc
 50
0.0
 51
90.0
  0
ARC
  5
319
100
AcDbEntity
  8
0
100
AcDbCircle
 62
7
  6
CONTINUOUS
 10
44.7614212697
 20
84.7988993124
 40
0.3
100
AcDbArc
 50
270.0000000063
 51
32.9954739698
  0
ARC
  5
31A
100
AcDbEntity
  8
0
100
AcDbCircle
 62
7
  6
CONTINUOUS
 10
36.9663797234
 20
84.7988993124
 40
0.3
100
AcDbArc
 50
147.004417973
 51
270.0000591722
  0
ARC
  5
31B
100
AcDbEntity
  8
0
100
AcDbCircle
 62
7
  6
CONTINUOUS
 10
45.019264655
 20
76.4890306122
 40
0.2
100
AcDbArc
 50
1.0000027698
 51
90.0
  0
ARC
  5
31C
100
AcDbEntity
  8
0
100
AcDbCircle
 62
7
  6
CONTINUOUS
 10
42.9223889534
 20
85.5115710833
 40
0.15
100
AcDbArc
 50
227.1604115858
 51
47.1604115959
  0
ARC
  5
31D
100
AcDbEntity
  8
0
100
AcDbCircle
 62
7
  6
CONTINUOUS
 10
38.393113156
 20
85.5115710833
 40
0.15
100
AcDbArc
 50
132.8395883991
 51
312.8395884146
  0
SPLINE
  5
31E
100
AcDbEntity
  8
0
100
AcDbSpline
 62
7
  6
CONTINUOUS
 70
0
 71
3
 72
13
 73
9
 74
0
 42
0.0000001
 43
0.0000001
 44
0.0000000001
 40
0.0
 40
0.0
 40
0.0
 40
0.0
 40
0.145168092
 40
0.2861458976
 40
0.4215987359
 40
0.5506299372
 40
0.7876573728
 40
1.0
 40
1.0
 40
1.0
 40
1.0
 10
38.6139004965
 20
80.647202636
 30
0.0
 10
38.4491490617
 20
80.6024885935
 30
0.0
 10
38.1316107291
 20
80.4846946534
 30
0.0
 10
37.7027775728
 20
80.2310682079
 30
0.0
 10
37.3387313312
 20
79.9193670831
 30
0.0
 10
36.9595677362
 20
79.4647154157
 30
0.0
 10
36.6524240437
 20
78.8449583839
 30
0.0
 10
36.5655517615
 20
78.3155804292
 30
0.0
 10
36.5604144789
 20
78.0659275364
 30
0.0
  0
SPLINE
  5
31F
100
AcDbEntity
  8
0
100
AcDbSpline
 62
7
  6
CONTINUOUS
 70
0
 71
3
 72
13
 73
9
 74
0
 42
0.0000001
 43
0.0000001
 44
0.0000000001
 40
0.0
 40
0.0
 40
0.0
 40
0.0
 40
0.1451688086
 40
0.2861471399
 40
0.42160028
 40
0.5506315247
 40
0.7876583887
 40
1.0
 40
1.0
 40
1.0
 40
1.0
 10
30.9139004965
 20
80.647202636
 30
0.0
 10
31.0786562506
 20
80.6024874213
 30
0.0
 10
31.3962025481
 20
80.4846896686
 30
0.0
 10
31.8250447332
 20
80.2310538343
 30
0.0
 10
32.1890960741
 20
79.9193412189
 30
0.0
 10
32.5682607078
 20
79.4646742274
 30
0.0
 10
32.8753978208
 20
78.8448990331
 30
0.0
 10
32.9622578747
 20
78.3155091226
 30
0.0
 10
32.9673880748
 20
78.0658519642
 30
0.0
  0
SPLINE
  5
320
100
AcDbEntity
  8
0
100
AcDbSpline
 62
7
  6
CONTINUOUS
 70
0
 71
3
 72
8
 73
4
 74
0
 42
0.0000001
 43
0.0000001
 44
0.0000000001
 40
0.0
 40
0.0
 40
0.0
 40
0.0
 40
1.0
 40
1.0
 40
1.0
 40
1.0
 10
30.5992972052
 20
85.6390306122
 30
0.0
 10
30.7289721921
 20
85.552857159
 30
0.0
 10
30.8746844644
 20
85.4772196038
 30
0.0
 10
31.0203967367
 20
85.4015820487
 30
0.0
  0
SPLINE
  5
321
100
AcDbEntity
  8
0
100
AcDbSpline
 62
7
  6
CONTINUOUS
 70
0
 71
3
 72
8
 73
4
 74
0
 42
0.0000001
 43
0.0000001
 44
0.0000000001
 40
0.0
 40
0.0
 40
0.0
 40
0.0
 40
1.0
 40
1.0
 40
1.0
 40
1.0
 10
26.6951053727
 20
85.4015820487
 30
0.0
 10
26.840817645
 20
85.4772196038
 30
0.0
 10
26.9865299173
 20
85.552857159
 30
0.0
 10
27.1162049041
 20
85.6390306122
 30
0.0
  0
SPLINE
  5
322
100
AcDbEntity
  8
0
100
AcDbSpline
 62
7
  6
CONTINUOUS
 70
0
 71
3
 72
8
 73
4
 74
0
 42
0.0000001
 43
0.0000001
 44
0.0000000001
 40
0.0
 40
0.0
 40
0.0
 40
0.0
 40
1.0
 40
1.0
 40
1.0
 40
1.0
 10
42.3992972052
 20
85.6390306122
 30
0.0
 10
42.5289721921
 20
85.552857159
 30
0.0
 10
42.6746844644
 20
85.4772196038
 30
0.0
 10
42.8203967367
 20
85.4015820487
 30
0.0
  0
SPLINE
  5
323
100
AcDbEntity
  8
0
100
AcDbSpline
 62
7
  6
CONTINUOUS
 70
0
 71
3
 72
8
 73
4
 74
0
 42
0.0000001
 43
0.0000001
 44
0.0000000001
 40
0.0
 40
0.0
 40
0.0
 40
0.0
 40
1.0
 40
1.0
 40
1.0
 40
1.0
 10
38.4951053727
 20
85.4015820487
 30
0.0
 10
38.640817645
 20
85.4772196038
 30
0.0
 10
38.7865299173
 20
85.552857159
 30
0.0
 10
38.9162049041
 20
85.6390306122
 30
0.0
  0
SPLINE
  5
324
100
AcDbEntity
  8
0
100
AcDbSpline
 62
7
  6
CONTINUOUS
 70
0
 71
3
 72
14
 73
10
 74
0
 42
0.0000001
 43
0.0000001
 44
0.0000000001
 40
0.0
 40
0.0
 40
0.0
 40
0.0
 40
0.3262829173
 40
0.4779221117
 40
0.6151640782
 40
0.7355553697
 40
0.8380224545
 40
0.9243764863
 40
1.0
 40
1.0
 40
1.0
 40
1.0
 10
30.1931693024
 20
37.1312597358
 30
0.0
 10
30.1675889421
 20
37.1312597358
 30
0.0
 10
30.1299826841
 20
37.1344514601
 30
0.0
 10
30.0829352467
 20
37.1453698002
 30
0.0
 10
30.0526589427
 20
37.1562577172
 30
0.0
 10
30.0275834456
 20
37.1694960728
 30
0.0
 10
30.0085829029
 20
37.1848856895
 30
0.0
 10
29.9963069129
 20
37.2019997518
 30
0.0
 10
29.9931693024
 20
37.2147736226
 30
0.0
 10
29.9931693024
 20
37.2207024549
 30
0.0
  0
SPLINE
  5
325
100
AcDbEntity
  8
0
100
AcDbSpline
 62
7
  6
CONTINUOUS
 70
0
 71
3
 72
14
 73
10
 74
0
 42
0.0000001
 43
0.0000001
 44
0.0000000001
 40
0.0
 40
0.0
 40
0.0
 40
0.0
 40
0.0756235137
 40
0.1619775455
 40
0.2644446303
 40
0.3848359218
 40
0.5220778883
 40
0.6737170827
 40
1.0
 40
1.0
 40
1.0
 40
1.0
 10
30.7931693024
 20
37.2207024549
 30
0.0
 10
30.7931693024
 20
37.2147736226
 30
0.0
 10
30.7900316918
 20
37.2019997518
 30
0.0
 10
30.7777557018
 20
37.1848856895
 30
0.0
 10
30.7587551591
 20
37.1694960728
 30
0.0
 10
30.733679662
 20
37.1562577172
 30
0.0
 10
30.703403358
 20
37.1453698002
 30
0.0
 10
30.6563559206
 20
37.1344514601
 30
0.0
 10
30.6187496626
 20
37.1312597358
 30
0.0
 10
30.5931693024
 20
37.1312597358
 30
0.0
  0
SPLINE
  5
326
100
AcDbEntity
  8
0
100
AcDbSpline
 62
7
  6
CONTINUOUS
 70
0
 71
3
 72
14
 73
10
 74
0
 42
0.0000001
 43
0.0000001
 44
0.0000000001
 40
0.0
 40
0.0
 40
0.0
 40
0.0
 40
0.0756235137
 40
0.1619775455
 40
0.2644446303
 40
0.3848359218
 40
0.5220778883
 40
0.6737170827
 40
1.0
 40
1.0
 40
1.0
 40
1.0
 10
39.5931693024
 20
37.2207024549
 30
0.0
 10
39.5931693024
 20
37.2147736226
 30
0.0
 10
39.5900316918
 20
37.2019997518
 30
0.0
 10
39.5777557018
 20
37.1848856895
 30
0.0
 10
39.5587551591
 20
37.1694960728
 30
0.0
 10
39.533679662
 20
37.1562577172
 30
0.0
 10
39.503403358
 20
37.1453698002
 30
0.0
 10
39.4563559206
 20
37.1344514601
 30
0.0
 10
39.4187496626
 20
37.1312597358
 30
0.0
 10
39.3931693024
 20
37.1312597358
 30
0.0
  0
SPLINE
  5
327
100
AcDbEntity
  8
0
100
AcDbSpline
 62
7
  6
CONTINUOUS
 70
0
 71
3
 72
14
 73
10
 74
0
 42
0.0000001
 43
0.0000001
 44
0.0000000001
 40
0.0
 40
0.0
 40
0.0
 40
0.0
 40
0.3262829173
 40
0.4779221117
 40
0.6151640782
 40
0.7355553697
 40
0.8380224545
 40
0.9243764863
 40
1.0
 40
1.0
 40
1.0
 40
1.0
 10
38.9931693024
 20
37.1312597358
 30
0.0
 10
38.9675889421
 20
37.1312597358
 30
0.0
 10
38.9299826841
 20
37.1344514601
 30
0.0
 10
38.8829352467
 20
37.1453698002
 30
0.0
 10
38.8526589427
 20
37.1562577172
 30
0.0
 10
38.8275834456
 20
37.1694960728
 30
0.0
 10
38.8085829029
 20
37.1848856895
 30
0.0
 10
38.7963069129
 20
37.2019997518
 30
0.0
 10
38.7931693024
 20
37.2147736226
 30
0.0
 10
38.7931693024
 20
37.2207024549
 30
0.0
  0
SPLINE
  5
328
100
AcDbEntity
  8
0
100
AcDbSpline
 62
7
  6
CONTINUOUS
 70
0
 71
3
 72
13
 73
9
 74
0
 42
0.0000001
 43
0.0000001
 44
0.0000000001
 40
0.0
 40
0.0
 40
0.0
 40
0.0
 40
0.1413125832
 40
0.2806668552
 40
0.4167570127
 40
0.5480192849
 40
0.7896549966
 40
1.0
 40
1.0
 40
1.0
 40
1.0
 10
38.5930761493
 20
80.7086882678
 30
0.0
 10
38.4312426299
 20
80.6631116043
 30
0.0
 10
38.1171925867
 20
80.5435320865
 30
0.0
 10
37.6902608553
 20
80.2865846344
 30
0.0
 10
37.3235878178
 20
79.9669326498
 30
0.0
 10
36.9397673205
 20
79.4954077675
 30
0.0
 10
36.6372158321
 20
78.8571811955
 30
0.0
 10
36.5598590941
 20
78.3168766796
 30
0.0
 10
36.5598587416
 20
78.0666153864
 30
0.0
  0
SPLINE
  5
329
100
AcDbEntity
  8
0
100
AcDbSpline
 62
7
  6
CONTINUOUS
 70
0
 71
3
 72
13
 73
9
 74
0
 42
0.0000001
 43
0.0000001
 44
0.0000000001
 40
0.0
 40
0.0
 40
0.0
 40
0.0
 40
0.1413125543
 40
0.2806667944
 40
0.4167569227
 40
0.5480191649
 40
0.7896548241
 40
1.0
 40
1.0
 40
1.0
 40
1.0
 10
30.9347248833
 20
80.7086882566
 30
0.0
 10
31.0965584028
 20
80.6631115906
 30
0.0
 10
31.4106084445
 20
80.5435320682
 30
0.0
 10
31.8375401572
 20
80.2865846133
 30
0.0
 10
32.2042132295
 20
79.9669326271
 30
0.0
 10
32.5880335188
 20
79.4954077576
 30
0.0
 10
32.8905864216
 20
78.8571808721
 30
0.0
 10
32.9679398317
 20
78.3168762499
 30
0.0
 10
32.9679430432
 20
78.0666146992
 30
0.0
  0
SPLINE
  5
32A
100
AcDbEntity
  8
0
100
AcDbSpline
 62
7
  6
CONTINUOUS
 70
0
 71
3
 72
23
 73
19
 74
0
 42
0.0000001
 43
0.0000001
 44
0.0000000001
 40
0.0
 40
0.0
 40
0.0
 40
0.0
 40
0.1993533323
 40
0.3860319652
 40
0.55575065
 40
0.6329108831
 40
0.7042241785
 40
0.7691549015
 40
0.8271674346
 40
0.8777261913
 40
0.9202956448
 40
0.9543403968
 40
0.9679987937
 40
0.9793254331
 40
0.9882536353
 40
0.9947170562
 40
0.9986505813
 40
1.0
 40
1.0
 40
1.0
 40
1.0
 10
25.0169483392
 20
76.4925210954
 30
0.0
 10
24.9704379461
 20
76.4927529304
 30
0.0
 10
24.8803740146
 20
76.4931564504
 30
0.0
 10
24.7507130001
 20
76.4936021442
 30
0.0
 10
24.6495602837
 20
76.493835881
 30
0.0
 10
24.5753231262
 20
76.4939296999
 30
0.0
 10
24.5255340329
 20
76.4939535978
 30
0.0
 10
24.4802119016
 20
76.4939339731
 30
0.0
 10
24.4397332121
 20
76.4938699911
 30
0.0
 10
24.4044681238
 20
76.4937657015
 30
0.0
 10
24.3748056241
 20
76.4936119178
 30
0.0
 10
24.353726379
 20
76.4934586389
 30
0.0
 10
24.3399839497
 20
76.4932748334
 30
0.0
 10
24.3320106447
 20
76.4931925597
 30
0.0
 10
24.3259413655
 20
76.4929502223
 30
0.0
 10
24.3210592898
 20
76.493064526
 30
0.0
 10
24.3189921303
 20
76.4924781821
 30
0.0
 10
24.317056475
 20
76.4928358942
 30
0.0
 10
24.3170510963
 20
76.4925211083
 30
0.0
  0
SPLINE
  5
32B
100
AcDbEntity
  8
0
100
AcDbSpline
 62
7
  6
CONTINUOUS
 70
0
 71
3
 72
23
 73
19
 74
0
 42
0.0000001
 43
0.0000001
 44
0.0000000001
 40
0.0
 40
0.0
 40
0.0
 40
0.0
 40
0.0013495067
 40
0.0052831132
 40
0.0117466079
 40
0.0206748764
 40
0.0320015748
 40
0.0456600236
 40
0.0797048591
 40
0.1222743702
 40
0.1728331606
 40
0.2308457051
 40
0.295776419
 40
0.3670896867
 40
0.4442498751
 40
0.6139684268
 40
0.80064688
 40
1.0
 40
1.0
 40
1.0
 40
1.0
 10
45.2192341938
 20
76.4925211118
 30
0.0
 10
45.2192286988
 20
76.4928359162
 30
0.0
 10
45.217293249
 20
76.4924781667
 30
0.0
 10
45.2152257831
 20
76.493064535
 30
0.0
 10
45.2103438005
 20
76.492950221
 30
0.0
 10
45.2042744109
 20
76.4931925618
 30
0.0
 10
45.1963010891
 20
76.4932748338
 30
0.0
 10
45.182558603
 20
76.4934586391
 30
0.0
 10
45.1614793203
 20
76.493611917
 30
0.0
 10
45.1318167767
 20
76.4937657002
 30
0.0
 10
45.0965516656
 20
76.4938699892
 30
0.0
 10
45.0560729675
 20
76.4939339707
 30
0.0
 10
45.0107508423
 20
76.4939535949
 30
0.0
 10
44.9609617681
 20
76.4939296967
 30
0.0
 10
44.8867246586
 20
76.4938358775
 30
0.0
 10
44.7855720259
 20
76.4936021405
 30
0.0
 10
44.6559111341
 20
76.493156447
 30
0.0
 10
44.5658472943
 20
76.4927529273
 30
0.0
 10
44.5193369507
 20
76.4925210925
 30
0.0
  0
ENDSEC
  0
SECTION
  2
OBJECTS
  0
DICTIONARY
  5
C
100
AcDbDictionary
280
0
281
1
  3
ACAD_GROUP
350
D
  3
ACAD_MLINESTYLE
350
17
  3
ACAD_LAYOUT
350
1A
  3
ACAD_PLOTSETTINGS
350
19
  3
ACAD_PLOTSTYLENAME
350
E
  0
DICTIONARY
  5
D
102
{ACAD_REACTORS
330
C
102
}
100
AcDbDictionary
280
0
281
1
  0
ACDBDICTIONARYWDFLT
  5
E
102
{ACAD_REACTORS
330
C
102
}
100
AcDbDictionary
281
1
  3
Normal
350
F
100
AcDbDictionaryWithDefault
340
F
  0
DICTIONARY
  5
17
102
{ACAD_REACTORS
330
C
102
}
100
AcDbDictionary
280
0
281
1
  3
Standard
350
18
  0
DICTIONARY
  5
19
102
{ACAD_REACTORS
330
C
102
}
100
AcDbDictionary
281
1
  0
DICTIONARY
  5
1A
102
{ACAD_REACTORS
330
C
102
}
100
AcDbDictionary
281
1
  3
Model
350
32C
  3
Layout1
350
32D
  0
ACDBPLACEHOLDER
  5
F
102
{ACAD_REACTORS
330
E
102
}
  0
MLINESTYLE
  5
18
102
{ACAD_REACTORS
330
17
102
}
100
AcDbMlineStyle
  2
STANDARD
 70
0
  3

 62
256
 51
90.0
 52
90.0
 71
2
 49
0.5
 62
256
  6
BYLAYER
 49
-0.5
 62
256
  6
BYLAYER
  0
LAYOUT
  5
32C
102
{ACAD_REACTORS
330
1A
102
}
100
AcDbPlotSettings
  1

  2
none_device
  4

  6

 40
0.0
 41
0.0
 42
0.0
 43
0.0
 44
210.0
 45
297.0
 46
0.0
 47
0.0
 48
0.0
 49
0.0
140
0.0
141
0.0
142
1.0
143
1.0
 70
1024
 72
1
 73
0
 74
0
  7

 75
0
147
1.0
148
0.0
149
0.0
100
AcDbLayout
  1
Model
 70
0
 71
0
 10
0.0
 20
0.0
 11
210.0
 21
297.0
 12
0.0
 22
0.0
 32
0.0
 14
0.0
 24
0.0
 34
0.0
 15
0.0
 25
0.0
 35
0.0
146
0.0
 13
0.0
 23
0.0
 33
0.0
 16
1.0
 26
0.0
 36
0.0
 17
0.0
 27
1.0
 37
0.0
 76
0
330
210
345
0
346
0
  0
LAYOUT
  5
32D
102
{ACAD_REACTORS
330
1A
102
}
100
AcDbPlotSettings
  1

  2
none_device
  4

  6

 40
0.0
 41
0.0
 42
0.0
 43
0.0
 44
210.0
 45
297.0
 46
0.0
 47
0.0
 48
0.0
 49
0.0
140
0.0
141
0.0
142
1.0
143
1.0
 70
0
 72
1
 73
0
 74
0
  7

 75
0
147
1.0
148
0.0
149
0.0
100
AcDbLayout
  1
Layout1
 70
0
 71
1
 10
0.0
 20
0.0
 11
210.0
 21
297.0
 12
0.0
 22
0.0
 32
0.0
 14
0.0
 24
0.0
 34
0.0
 15
0.0
 25
0.0
 35
0.0
146
0.0
 13
0.0
 23
0.0
 33
0.0
 16
1.0
 26
0.0
 36
0.0
 17
0.0
 27
1.0
 37
0.0
 76
0
330
211
345
0
346
0
  0
ENDSEC
  0
EOF
