999
DXF file: C:\Users\sesa63760\Dev\_Creo\CAD\MCADID0004900_3D-CAD\drw0001_3.dxf
999
Pro/ENGINEER 2019471 by Parametric Technology Corporation
  0
SECTION
  2
HEADER
  9
$ACADVER
  1
AC1024
  9
$DWGCODEPAGE
  3
ANSI_1252
  9
$EXTMAX
 10
616.8627190947
 20
872.420131291
 30
0.0
  9
$EXTMIN
 10
0.0
 20
0.0
 30
0.0
  9
$LIMMIN
 10
0.0
 20
0.0
  9
$LIMMAX
 10
616.8627190947
 20
872.420131291
  9
$VIEWCTR
 10
308.4313595473
 20
436.2100656455
  9
$VIEWSIZE
 40
872.420131291
  9
$CLAYER
  8
0
  9
$LTSCALE
 40
56.8688678175
  9
$CELTYPE
  6
BYLAYER
  9
$DIMSCALE
 40
1.0
  9
$DIMASZ
 40
7.3436037987
  9
$DIMEXO
 40
1.0
  9
$DIMDLI
 40
39.2912177648
  9
$DIMEXE
 40
1.0
  9
$DIMCEN
 40
9.3058147338
  9
$DIMLFAC
 40
1.0
  9
$DIMBLK
  1
_FILLED
  9
$DIMALT
 70
0
  9
$DIMALTF
 40
0.0393700787
  9
$DIMTXT
 40
10.2810453182
  9
$DIMTOL
 70
1
  9
$DIMLIM
 70
0
  9
$DIMTFAC
 40
1.0
  9
$DIMTP
 40
0.01
  9
$DIMTM
 40
0.01
  9
$DIMGAP
 40
0.625
  9
$DIMDSEP
 70
46
  9
$AUNITS
 70
0
  9
$PDMODE
 70
3
  9
$PDSIZE
 40
0.3125
  9
$HANDSEED
  5
369
  9
$TILEMODE
 70
1
  9
$MEASUREMENT
 70
1
  9
$INSUNITS
 70
4
  0
ENDSEC
  0
SECTION
  2
CLASSES
  0
CLASS
  1
ACDBDICTIONARYWDFLT
  2
AcDbDictionaryWithDefault
  3
AutoCAD 2000
 90
0
 91
1
280
0
281
0
  0
CLASS
  1
ACDBPLACEHOLDER
  2
AcDbPlaceHolder
  3
AutoCAD 2000
 90
0
 91
1
280
0
281
0
  0
CLASS
  1
LAYOUT
  2
AcDbLayout
  3
AutoCAD 2000
 90
0
 91
0
280
0
281
0
  0
ENDSEC
  0
SECTION
  2
TABLES
  0
TABLE
  2
VPORT
  5
8
100
AcDbSymbolTable
 70
2
  0
VPORT
  5
1F4
100
AcDbSymbolTableRecord
100
AcDbViewportTableRecord
  2
*ACTIVE
 70
0
 10
0.0
 20
0.0
 11
1.0
 21
1.0
 12
308.4313595473
 22
436.2100656455
 13
0.0
 23
0.0
 14
1.0
 24
1.0
 15
0.0
 25
0.0
 16
0.0
 26
0.0
 36
1.0
 17
0.0
 27
0.0
 37
0.0
 40
872.420131291
 41
0.7070707071
 42
50.0
 43
0.0
 44
0.0
 50
0.0
 51
0.0
 71
0
 72
100
 73
1
 74
1
 75
0
 76
0
 77
0
 78
0
  0
ENDTAB
  0
TABLE
  2
LTYPE
  5
5
100
AcDbSymbolTable
 70
6
  0
LTYPE
  5
14
100
AcDbSymbolTableRecord
100
AcDbLinetypeTableRecord
  2
BYBLOCK
 70
0
  3

 72
65
 73
0
 40
0.0
  0
LTYPE
  5
15
100
AcDbSymbolTableRecord
100
AcDbLinetypeTableRecord
  2
BYLAYER
 70
0
  3

 72
65
 73
0
 40
0.0
  0
LTYPE
  5
16
100
AcDbSymbolTableRecord
100
AcDbLinetypeTableRecord
  2
CONTINUOUS
 70
64
  3
Solid line
 72
65
 73
0
 40
0.0
  0
LTYPE
  5
1F5
100
AcDbSymbolTableRecord
100
AcDbLinetypeTableRecord
  2
CENTER
 70
64
  3
____ _ ____ _ ____ _ ____ _ ____ _ ____ _ ____
 72
65
 73
4
 40
0.6
 49
0.375
 74
0
 49
-0.075
 74
0
 49
0.075
 74
0
 49
-0.075
 74
0
  0
LTYPE
  5
1F6
100
AcDbSymbolTableRecord
100
AcDbLinetypeTableRecord
  2
HIDDEN
 70
64
  3
- - - - - - - - - - - - - - - - - - - -
 72
65
 73
2
 40
0.2
 49
0.1
 74
0
 49
-0.1
 74
0
  0
LTYPE
  5
1F7
100
AcDbSymbolTableRecord
100
AcDbLinetypeTableRecord
  2
PHANTOM
 70
64
  3
_____ _ _ _____ _ _ _____ _ _ _____
 72
65
 73
6
 40
0.8
 49
0.45
 74
0
 49
-0.05
 74
0
 49
0.1
 74
0
 49
-0.05
 74
0
 49
0.1
 74
0
 49
-0.05
 74
0
  0
LTYPE
  5
1F8
100
AcDbSymbolTableRecord
100
AcDbLinetypeTableRecord
  2
DOT
 70
64
  3
. . . . . . . . . . . . . . . . . . . .
 72
65
 73
2
 40
0.2
 49
0.1
 74
0
 49
-0.1
 74
0
  0
LTYPE
  5
1F9
100
AcDbSymbolTableRecord
100
AcDbLinetypeTableRecord
  2
DASHED
 70
64
  3
- - - - - - - - - - - - - - - - - - - -
 72
65
 73
2
 40
0.2
 49
0.1
 74
0
 49
-0.1
 74
0
  0
ENDTAB
  0
TABLE
  2
LAYER
  5
2
100
AcDbSymbolTable
 70
36
  0
LAYER
  5
10
100
AcDbSymbolTableRecord
100
AcDbLayerTableRecord
  2
0
 70
0
 62
7
  6
CONTINUOUS
370
-3
390
F
  0
LAYER
  5
1FA
100
AcDbSymbolTableRecord
100
AcDbLayerTableRecord
  2
DEFAULT_1
 70
0
 62
7
  6
CENTER
370
-3
390
F
  0
LAYER
  5
1FB
100
AcDbSymbolTableRecord
100
AcDbLayerTableRecord
  2
DEFAULT_2
 70
0
 62
7
  6
HIDDEN
370
-3
390
F
  0
LAYER
  5
1FC
100
AcDbSymbolTableRecord
100
AcDbLayerTableRecord
  2
DEFAULT_3
 70
0
 62
7
  6
PHANTOM
370
-3
390
F
  0
LAYER
  5
1FD
100
AcDbSymbolTableRecord
100
AcDbLayerTableRecord
  2
00_COMPONENTS
 70
0
 62
7
  6
CONTINUOUS
370
-3
390
F
  0
LAYER
  5
1FE
100
AcDbSymbolTableRecord
100
AcDbLayerTableRecord
  2
01_1_DEFAULT_DATUMS
 70
0
 62
7
  6
CONTINUOUS
370
-3
390
F
  0
LAYER
  5
1FF
100
AcDbSymbolTableRecord
100
AcDbLayerTableRecord
  2
01_PLANES
 70
0
 62
7
  6
CONTINUOUS
370
-3
390
F
  0
LAYER
  5
200
100
AcDbSymbolTableRecord
100
AcDbLayerTableRecord
  2
02_COORD_SYS
 70
0
 62
7
  6
CONTINUOUS
370
-3
390
F
  0
LAYER
  5
201
100
AcDbSymbolTableRecord
100
AcDbLayerTableRecord
  2
03_AXES
 70
0
 62
7
  6
CONTINUOUS
370
-3
390
F
  0
LAYER
  5
202
100
AcDbSymbolTableRecord
100
AcDbLayerTableRecord
  2
04_POINTS
 70
0
 62
7
  6
CONTINUOUS
370
-3
390
F
  0
LAYER
  5
203
100
AcDbSymbolTableRecord
100
AcDbLayerTableRecord
  2
05_CURVES
 70
0
 62
7
  6
CONTINUOUS
370
-3
390
F
  0
LAYER
  5
204
100
AcDbSymbolTableRecord
100
AcDbLayerTableRecord
  2
06_SURFS
 70
0
 62
7
  6
CONTINUOUS
370
-3
390
F
  0
LAYER
  5
205
100
AcDbSymbolTableRecord
100
AcDbLayerTableRecord
  2
07_COSMETICS
 70
0
 62
7
  6
CONTINUOUS
370
-3
390
F
  0
LAYER
  5
206
100
AcDbSymbolTableRecord
100
AcDbLayerTableRecord
  2
10_NOTES
 70
0
 62
7
  6
CONTINUOUS
370
-3
390
F
  0
LAYER
  5
207
100
AcDbSymbolTableRecord
100
AcDbLayerTableRecord
  2
11_NOTES_PUB
 70
0
 62
7
  6
CONTINUOUS
370
-3
390
F
  0
LAYER
  5
208
100
AcDbSymbolTableRecord
100
AcDbLayerTableRecord
  2
13_REF_GTOL
 70
0
 62
7
  6
CONTINUOUS
370
-3
390
F
  0
LAYER
  5
209
100
AcDbSymbolTableRecord
100
AcDbLayerTableRecord
  2
16_MISC
 70
0
 62
7
  6
CONTINUOUS
370
-3
390
F
  0
LAYER
  5
20A
100
AcDbSymbolTableRecord
100
AcDbLayerTableRecord
  2
17_NO_PRINT
 70
0
 62
7
  6
CONTINUOUS
370
-3
390
F
  0
LAYER
  5
20B
100
AcDbSymbolTableRecord
100
AcDbLayerTableRecord
  2
18_DATUM_CAMS_JOINTS
 70
0
 62
7
  6
CONTINUOUS
370
-3
390
F
  0
LAYER
  5
20C
100
AcDbSymbolTableRecord
100
AcDbLayerTableRecord
  2
19_DATUM_FUNCTIONAL
 70
0
 62
7
  6
CONTINUOUS
370
-3
390
F
  0
LAYER
  5
20D
100
AcDbSymbolTableRecord
100
AcDbLayerTableRecord
  2
20_DATUM_KINEMATIC_SCHEME
 70
0
 62
7
  6
CONTINUOUS
370
-3
390
F
  0
ENDTAB
  0
TABLE
  2
STYLE
  5
3
100
AcDbSymbolTable
 70
1
  0
STYLE
  5
11
100
AcDbSymbolTableRecord
100
AcDbTextStyleTableRecord
  2
STANDARD
 70
0
 40
0.0
 41
1.0
 50
0.0
 71
0
 42
0.2
  3
ARIAL.TTF
  4

  0
STYLE
  5
20E
100
AcDbSymbolTableRecord
100
AcDbTextStyleTableRecord
  2
TEXTSTYLE_1
 70
0
 40
0.0
 41
0.8
 50
0.0
 71
0
 42
0.2
  3
gdt
  4

  0
ENDTAB
  0
TABLE
  2
VIEW
  5
6
100
AcDbSymbolTable
 70
0
  0
ENDTAB
  0
TABLE
  2
UCS
  5
7
100
AcDbSymbolTable
 70
0
  0
ENDTAB
  0
TABLE
  2
APPID
  5
9
100
AcDbSymbolTable
 70
1
  0
APPID
  5
20F
100
AcDbSymbolTableRecord
100
AcDbRegAppTableRecord
  2
ACAD
 70
0
  0
ENDTAB
  0
TABLE
  2
BLOCK_RECORD
  5
1
100
AcDbSymbolTable
 70
0
  0
BLOCK_RECORD
  5
210
100
AcDbSymbolTableRecord
100
AcDbBlockTableRecord
  2
*Model_Space
  0
BLOCK_RECORD
  5
211
100
AcDbSymbolTableRecord
100
AcDbBlockTableRecord
  2
*Paper_Space
  0
BLOCK_RECORD
  5
212
100
AcDbSymbolTableRecord
100
AcDbBlockTableRecord
  2
_FILLED
  0
ENDTAB
  0
TABLE
  2
DIMSTYLE
  5
A
100
AcDbSymbolTable
 70
1
100
AcDbDimStyleTable
 71
0
  0
DIMSTYLE
105
213
100
AcDbSymbolTableRecord
100
AcDbDimStyleTableRecord
  2
STANDARD
 70
0
  3

  4

 40
1.0
 41
7.3436037987
 42
1.0
 43
0.38
 44
1.0
 45
0.0
 46
0.0
 47
0.01
 48
0.01
140
10.2810453182
141
0.09
142
0.0
143
25.4
144
1.0
145
0.0
146
1.0
147
0.625
 71
1
 72
0
 73
0
 74
0
 75
0
 76
0
 77
1
 78
8
 79
2
170
0
171
1
172
0
173
0
174
0
175
0
176
0
177
0
178
0
270
2
179
2
271
2
272
2
273
2
274
2
275
0
280
0
281
0
282
0
283
1
284
8
285
0
286
0
287
3
288
0
340
11
278
46
341
212
342
212
343
212
344
212
  0
ENDTAB
  0
ENDSEC
  0
SECTION
  2
BLOCKS
  0
BLOCK
  5
20
100
AcDbEntity
  8
0
100
AcDbBlockBegin
  2
*Model_Space
 70
0
 10
0.0
 20
0.0
 30
0.0
  3
*Model_Space
  1

  0
ENDBLK
  5
21
100
AcDbEntity
  8
0
100
AcDbBlockEnd
  0
BLOCK
  5
1C
100
AcDbEntity
  8
0
100
AcDbBlockBegin
  2
*Paper_Space
 70
0
 10
0.0
 20
0.0
 30
0.0
  3
*Paper_Space
  1

  0
ENDBLK
  5
1D
100
AcDbEntity
  8
0
100
AcDbBlockEnd
  0
BLOCK
  5
214
100
AcDbEntity
  8
0
100
AcDbBlockBegin
  2
_FILLED
 70
64
 10
0.0
 20
0.0
  3
_FILLED
  1

  0
SOLID
  5
215
100
AcDbEntity
  8
0
  6
BYBLOCK
 62
0
100
AcDbTrace
 10
0.0
 20
0.0
 11
-1.0
 21
0.25
 12
-1.0
 22
-0.25
 13
-1.0
 23
-0.25
  0
ENDBLK
  5
216
100
AcDbEntity
  8
0
  6
BYBLOCK
 62
0
100
AcDbBlockEnd
  0
ENDSEC
  0
SECTION
  2
ENTITIES
  0
LINE
  5
217
100
AcDbEntity
  8
0
100
AcDbLine
 62
7
  6
BYLAYER
 10
73.2912186181
 20
456.4957330416
 11
72.9740291311
 21
449.4957330416
  0
LINE
  5
218
100
AcDbEntity
  8
0
100
AcDbLine
 62
7
  6
BYLAYER
 10
78.5954552807
 20
449.4957330416
 11
79.1367272085
 21
433.9957330416
  0
LINE
  5
219
100
AcDbEntity
  8
0
100
AcDbLine
 62
7
  6
BYLAYER
 10
83.9770778583
 20
433.4957330416
 11
84.0788763029
 21
428.4957330416
  0
LINE
  5
21A
100
AcDbEntity
  8
0
100
AcDbLine
 62
7
  6
BYLAYER
 10
84.0930382296
 20
449.4957330416
 11
84.2292830286
 21
433.9957330416
  0
LINE
  5
21B
100
AcDbEntity
  8
0
100
AcDbLine
 62
7
  6
BYLAYER
 10
75.9740291316
 20
456.7957330416
 11
75.9740291316
 21
456.4957330416
  0
LINE
  5
21C
100
AcDbEntity
  8
0
100
AcDbLine
 62
7
  6
BYLAYER
 10
77.9288429946
 20
456.4957330416
 11
77.9288429946
 21
456.7957330416
  0
LINE
  5
21D
100
AcDbEntity
  8
0
100
AcDbLine
 62
7
  6
BYLAYER
 10
79.1390291316
 20
433.4957330416
 11
79.1390291316
 21
428.4957330416
  0
LINE
  5
21E
100
AcDbEntity
  8
0
100
AcDbLine
 62
7
  6
BYLAYER
 10
79.6367272086
 20
433.9957330416
 11
79.6367272086
 21
433.4957330416
  0
LINE
  5
21F
100
AcDbEntity
  8
0
100
AcDbLine
 62
7
  6
BYLAYER
 10
84.2048483936
 20
433.4957330416
 11
84.2048483936
 21
433.9957330416
  0
LINE
  5
220
100
AcDbEntity
  8
0
100
AcDbLine
 62
7
  6
BYLAYER
 10
76.091218618
 20
456.4957330416
 11
75.9740291311
 21
449.4957330416
  0
LINE
  5
221
100
AcDbEntity
  8
0
100
AcDbLine
 62
7
  6
BYLAYER
 10
111.1740291316
 20
457.0957330416
 11
111.1740291316
 21
456.7957330416
  0
LINE
  5
222
100
AcDbEntity
  8
0
100
AcDbLine
 62
7
  6
BYLAYER
 10
114.1740291316
 20
456.7957330416
 11
114.1740291316
 21
457.0957330416
  0
LINE
  5
223
100
AcDbEntity
  8
0
100
AcDbLine
 62
7
  6
BYLAYER
 10
115.4740291316
 20
457.1957330416
 11
115.4740291316
 21
457.0957330416
  0
LINE
  5
224
100
AcDbEntity
  8
0
100
AcDbLine
 62
7
  6
BYLAYER
 10
115.9966853816
 20
457.1957330416
 11
115.9966853816
 21
457.0957330416
  0
LINE
  5
225
100
AcDbEntity
  8
0
100
AcDbLine
 62
7
  6
BYLAYER
 10
116.524029131
 20
457.0957330416
 11
116.524029131
 21
457.1957330416
  0
LINE
  5
226
100
AcDbEntity
  8
0
100
AcDbLine
 62
7
  6
BYLAYER
 10
117.4580135076
 20
457.1957330416
 11
117.4580135076
 21
457.0957330416
  0
LINE
  5
227
100
AcDbEntity
  8
0
100
AcDbLine
 62
7
  6
BYLAYER
 10
117.8211526516
 20
428.3957330416
 11
117.8211526516
 21
428.4957330416
  0
LINE
  5
228
100
AcDbEntity
  8
0
100
AcDbLine
 62
7
  6
BYLAYER
 10
118.2490291326
 20
457.1957330416
 11
118.2490291326
 21
457.0957330416
  0
LINE
  5
229
100
AcDbEntity
  8
0
100
AcDbLine
 62
7
  6
BYLAYER
 10
119.0400447571
 20
457.0957330416
 11
119.0400447571
 21
457.1957330416
  0
LINE
  5
22A
100
AcDbEntity
  8
0
100
AcDbLine
 62
7
  6
BYLAYER
 10
119.9740291316
 20
457.0957330416
 11
119.9740291316
 21
457.1957330416
  0
LINE
  5
22B
100
AcDbEntity
  8
0
100
AcDbLine
 62
7
  6
BYLAYER
 10
120.4931697566
 20
457.1957330416
 11
120.4931697566
 21
457.0957330416
  0
LINE
  5
22C
100
AcDbEntity
  8
0
100
AcDbLine
 62
7
  6
BYLAYER
 10
121.0240291317
 20
457.0957330416
 11
121.0240291317
 21
457.1957330416
  0
LINE
  5
22D
100
AcDbEntity
  8
0
100
AcDbLine
 62
7
  6
BYLAYER
 10
121.9990291316
 20
457.1957330416
 11
121.9990291316
 21
457.0957330416
  0
LINE
  5
22E
100
AcDbEntity
  8
0
100
AcDbLine
 62
7
  6
BYLAYER
 10
123.3642635066
 20
457.1957330416
 11
123.3642635066
 21
457.0957330416
  0
LINE
  5
22F
100
AcDbEntity
  8
0
100
AcDbLine
 62
7
  6
BYLAYER
 10
124.9205135076
 20
457.1957330416
 11
124.9205135076
 21
457.0957330416
  0
LINE
  5
230
100
AcDbEntity
  8
0
100
AcDbLine
 62
7
  6
BYLAYER
 10
125.5895120256
 20
428.3957330416
 11
125.5895120256
 21
428.4957330416
  0
LINE
  5
231
100
AcDbEntity
  8
0
100
AcDbLine
 62
7
  6
BYLAYER
 10
125.5919978806
 20
457.1957330416
 11
125.5919978806
 21
457.0957330416
  0
LINE
  5
232
100
AcDbEntity
  8
0
100
AcDbLine
 62
7
  6
BYLAYER
 10
126.1005916316
 20
457.1957330416
 11
126.1005916316
 21
457.0957330416
  0
LINE
  5
233
100
AcDbEntity
  8
0
100
AcDbLine
 62
7
  6
BYLAYER
 10
126.7240291306
 20
457.1957330416
 11
126.7240291306
 21
457.0957330416
  0
LINE
  5
234
100
AcDbEntity
  8
0
100
AcDbLine
 62
7
  6
BYLAYER
 10
126.8576228816
 20
457.1957330416
 11
126.8576228816
 21
457.0957330416
  0
LINE
  5
235
100
AcDbEntity
  8
0
100
AcDbLine
 62
7
  6
BYLAYER
 10
128.7642635066
 20
457.1957330416
 11
128.7642635066
 21
457.0957330416
  0
LINE
  5
236
100
AcDbEntity
  8
0
100
AcDbLine
 62
7
  6
BYLAYER
 10
128.8461526506
 20
428.3957330416
 11
128.8461526506
 21
428.4957330416
  0
LINE
  5
237
100
AcDbEntity
  8
0
100
AcDbLine
 62
7
  6
BYLAYER
 10
129.0240291316
 20
428.3957330416
 11
129.0240291316
 21
428.4957330416
  0
LINE
  5
238
100
AcDbEntity
  8
0
100
AcDbLine
 62
7
  6
BYLAYER
 10
130.9240291316
 20
457.0957330416
 11
130.9240291316
 21
457.1957330416
  0
LINE
  5
239
100
AcDbEntity
  8
0
100
AcDbLine
 62
7
  6
BYLAYER
 10
131.8990291316
 20
457.1957330416
 11
131.8990291316
 21
457.0957330416
  0
LINE
  5
23A
100
AcDbEntity
  8
0
100
AcDbLine
 62
7
  6
BYLAYER
 10
133.6341853806
 20
428.3957330416
 11
133.6341853806
 21
428.4957330416
  0
LINE
  5
23B
100
AcDbEntity
  8
0
100
AcDbLine
 62
7
  6
BYLAYER
 10
134.0412166326
 20
457.1957330416
 11
134.0412166326
 21
457.0957330416
  0
LINE
  5
23C
100
AcDbEntity
  8
0
100
AcDbLine
 62
7
  6
BYLAYER
 10
135.8880916316
 20
457.1957330416
 11
135.8880916316
 21
457.0957330416
  0
LINE
  5
23D
100
AcDbEntity
  8
0
100
AcDbLine
 62
7
  6
BYLAYER
 10
135.9513728826
 20
457.1957330416
 11
135.9513728826
 21
457.0957330416
  0
LINE
  5
23E
100
AcDbEntity
  8
0
100
AcDbLine
 62
7
  6
BYLAYER
 10
136.9240291316
 20
457.1957330416
 11
136.9240291316
 21
457.0957330416
  0
LINE
  5
23F
100
AcDbEntity
  8
0
100
AcDbLine
 62
7
  6
BYLAYER
 10
137.4431697566
 20
457.1957330416
 11
137.4431697566
 21
457.0957330416
  0
LINE
  5
240
100
AcDbEntity
  8
0
100
AcDbLine
 62
7
  6
BYLAYER
 10
137.9740291316
 20
457.0957330416
 11
137.9740291316
 21
457.1957330416
  0
LINE
  5
241
100
AcDbEntity
  8
0
100
AcDbLine
 62
7
  6
BYLAYER
 10
139.0990291316
 20
457.1957330416
 11
139.0990291316
 21
457.0957330416
  0
LINE
  5
242
100
AcDbEntity
  8
0
100
AcDbLine
 62
7
  6
BYLAYER
 10
139.6181697566
 20
457.1957330416
 11
139.6181697566
 21
457.0957330416
  0
LINE
  5
243
100
AcDbEntity
  8
0
100
AcDbLine
 62
7
  6
BYLAYER
 10
140.1490291324
 20
457.0957330416
 11
140.1490291325
 21
457.1957330416
  0
LINE
  5
244
100
AcDbEntity
  8
0
100
AcDbLine
 62
7
  6
BYLAYER
 10
141.0021541326
 20
457.1957330416
 11
141.0021541326
 21
457.0957330416
  0
LINE
  5
245
100
AcDbEntity
  8
0
100
AcDbLine
 62
7
  6
BYLAYER
 10
142.8197322566
 20
457.1957330416
 11
142.8197322566
 21
457.0957330416
  0
LINE
  5
246
100
AcDbEntity
  8
0
100
AcDbLine
 62
7
  6
BYLAYER
 10
144.7240291316
 20
457.1957330416
 11
144.7240291316
 21
457.0957330416
  0
LINE
  5
247
100
AcDbEntity
  8
0
100
AcDbLine
 62
7
  6
BYLAYER
 10
146.1740291316
 20
457.0957330416
 11
146.1740291316
 21
456.7957330416
  0
LINE
  5
248
100
AcDbEntity
  8
0
100
AcDbLine
 62
7
  6
BYLAYER
 10
149.1740291316
 20
456.7957330416
 11
149.1740291316
 21
457.0957330416
  0
LINE
  5
249
100
AcDbEntity
  8
0
100
AcDbLine
 62
7
  6
BYLAYER
 10
165.4951228816
 20
428.3957330416
 11
165.4951228816
 21
428.4957330416
  0
LINE
  5
24A
100
AcDbEntity
  8
0
100
AcDbLine
 62
7
  6
BYLAYER
 10
169.9740291295
 20
428.3957330416
 11
169.9740291295
 21
428.4957330416
  0
LINE
  5
24B
100
AcDbEntity
  8
0
100
AcDbLine
 62
7
  6
BYLAYER
 10
171.6686870966
 20
428.3957330416
 11
171.6686870966
 21
428.4957330416
  0
LINE
  5
24C
100
AcDbEntity
  8
0
100
AcDbLine
 62
7
  6
BYLAYER
 10
188.9740291316
 20
428.4957330416
 11
188.9740291316
 21
428.3957330416
  0
LINE
  5
24D
100
AcDbEntity
  8
0
100
AcDbLine
 62
7
  6
BYLAYER
 10
190.9740291316
 20
428.3957330416
 11
190.9740291316
 21
428.4957330416
  0
LINE
  5
24E
100
AcDbEntity
  8
0
100
AcDbLine
 62
7
  6
BYLAYER
 10
196.9740291316
 20
421.4957330416
 11
196.9740291316
 21
428.3957330416
  0
LINE
  5
24F
100
AcDbEntity
  8
0
100
AcDbLine
 62
7
  6
BYLAYER
 10
200.9740291316
 20
421.4957330416
 11
200.9740291316
 21
428.3957330416
  0
LINE
  5
250
100
AcDbEntity
  8
0
100
AcDbLine
 62
7
  6
BYLAYER
 10
238.4740291316
 20
428.4957330416
 11
238.4740291316
 21
428.3957330416
  0
LINE
  5
251
100
AcDbEntity
  8
0
100
AcDbLine
 62
7
  6
BYLAYER
 10
238.9740291316
 20
428.3957330416
 11
238.9740291316
 21
428.4957330416
  0
LINE
  5
252
100
AcDbEntity
  8
0
100
AcDbLine
 62
7
  6
BYLAYER
 10
285.9740291316
 20
457.0957330416
 11
285.9740291316
 21
456.7957330416
  0
LINE
  5
253
100
AcDbEntity
  8
0
100
AcDbLine
 62
7
  6
BYLAYER
 10
299.459063009
 20
457.1957330416
 11
299.459063009
 21
457.0957330416
  0
LINE
  5
254
100
AcDbEntity
  8
0
100
AcDbLine
 62
7
  6
BYLAYER
 10
299.5717851555
 20
457.1957330416
 11
299.5717851555
 21
457.0957330416
  0
LINE
  5
255
100
AcDbEntity
  8
0
100
AcDbLine
 62
7
  6
BYLAYER
 10
436.9740291316
 20
421.4957330416
 11
432.9740291316
 21
421.4957330416
  0
LINE
  5
256
100
AcDbEntity
  8
0
100
AcDbLine
 62
7
  6
BYLAYER
 10
200.9740291316
 20
421.4957330416
 11
196.9740291316
 21
421.4957330416
  0
LINE
  5
257
100
AcDbEntity
  8
0
100
AcDbLine
 62
7
  6
BYLAYER
 10
333.8140291316
 20
421.6957330459
 11
325.8140291316
 21
421.6957330459
  0
LINE
  5
258
100
AcDbEntity
  8
0
100
AcDbLine
 62
7
  6
BYLAYER
 10
303.4305269362
 20
457.0957330416
 11
303.4305269362
 21
457.1957330416
  0
LINE
  5
259
100
AcDbEntity
  8
0
100
AcDbLine
 62
7
  6
BYLAYER
 10
303.6810075948
 20
457.0957330416
 11
303.6810075948
 21
457.1957330416
  0
LINE
  5
25A
100
AcDbEntity
  8
0
100
AcDbLine
 62
7
  6
BYLAYER
 10
303.9480765973
 20
457.1957330416
 11
303.9480765973
 21
457.0957330416
  0
LINE
  5
25B
100
AcDbEntity
  8
0
100
AcDbLine
 62
7
  6
BYLAYER
 10
307.3659324611
 20
457.0957330416
 11
307.3659324611
 21
457.1957330416
  0
LINE
  5
25C
100
AcDbEntity
  8
0
100
AcDbLine
 62
7
  6
BYLAYER
 10
307.8492547759
 20
457.0957330416
 11
307.8492547759
 21
457.1957330416
  0
LINE
  5
25D
100
AcDbEntity
  8
0
100
AcDbLine
 62
7
  6
BYLAYER
 10
308.0303520664
 20
457.1957330416
 11
308.0303520664
 21
457.0957330416
  0
LINE
  5
25E
100
AcDbEntity
  8
0
100
AcDbLine
 62
7
  6
BYLAYER
 10
308.2444989665
 20
457.0957330416
 11
308.2444989665
 21
457.1957330416
  0
LINE
  5
25F
100
AcDbEntity
  8
0
100
AcDbLine
 62
7
  6
BYLAYER
 10
308.4594981785
 20
457.1957330416
 11
308.4594981785
 21
457.0957330416
  0
LINE
  5
260
100
AcDbEntity
  8
0
100
AcDbLine
 62
7
  6
BYLAYER
 10
312.2397022119
 20
457.1957330416
 11
312.2397022119
 21
457.0957330416
  0
LINE
  5
261
100
AcDbEntity
  8
0
100
AcDbLine
 62
7
  6
BYLAYER
 10
312.8119544706
 20
457.0957330416
 11
312.8119544706
 21
457.1957330416
  0
LINE
  5
262
100
AcDbEntity
  8
0
100
AcDbLine
 62
7
  6
BYLAYER
 10
313.0979954174
 20
457.1957330416
 11
313.0979954174
 21
457.0957330416
  0
LINE
  5
263
100
AcDbEntity
  8
0
100
AcDbLine
 62
7
  6
BYLAYER
 10
313.2993655189
 20
457.0957330416
 11
313.2993655189
 21
457.1957330416
  0
LINE
  5
264
100
AcDbEntity
  8
0
100
AcDbLine
 62
7
  6
BYLAYER
 10
313.4390638957
 20
457.1957330416
 11
313.4390638957
 21
457.0957330416
  0
LINE
  5
265
100
AcDbEntity
  8
0
100
AcDbLine
 62
7
  6
BYLAYER
 10
314.7021416698
 20
457.1957330416
 11
314.7021416698
 21
457.0957330416
  0
LINE
  5
266
100
AcDbEntity
  8
0
100
AcDbLine
 62
7
  6
BYLAYER
 10
316.5585968211
 20
457.1957330416
 11
316.5585968211
 21
457.0957330416
  0
LINE
  5
267
100
AcDbEntity
  8
0
100
AcDbLine
 62
7
  6
BYLAYER
 10
317.6284819589
 20
457.1957330416
 11
317.6284819589
 21
457.0957330416
  0
LINE
  5
268
100
AcDbEntity
  8
0
100
AcDbLine
 62
7
  6
BYLAYER
 10
318.0450216353
 20
457.1957330416
 11
318.0450216353
 21
457.0957330416
  0
LINE
  5
269
100
AcDbEntity
  8
0
100
AcDbLine
 62
7
  6
BYLAYER
 10
319.111315686
 20
457.1957330416
 11
319.111315686
 21
457.0957330416
  0
LINE
  5
26A
100
AcDbEntity
  8
0
100
AcDbLine
 62
7
  6
BYLAYER
 10
489.8802791306
 20
428.2957330416
 11
487.6615291306
 21
428.2957330416
  0
LINE
  5
26B
100
AcDbEntity
  8
0
100
AcDbLine
 62
7
  6
BYLAYER
 10
487.3802791306
 20
428.2957330416
 11
485.2225642866
 21
428.2957330416
  0
LINE
  5
26C
100
AcDbEntity
  8
0
100
AcDbLine
 62
7
  6
BYLAYER
 10
484.9740291316
 20
428.2957330416
 11
484.1302791316
 21
428.2957330416
  0
LINE
  5
26D
100
AcDbEntity
  8
0
100
AcDbLine
 62
7
  6
BYLAYER
 10
483.8177791326
 20
428.2957330416
 11
481.7552791326
 21
428.2957330416
  0
LINE
  5
26E
100
AcDbEntity
  8
0
100
AcDbLine
 62
7
  6
BYLAYER
 10
481.4427791306
 20
428.2957330416
 11
479.2850642866
 21
428.2957330416
  0
LINE
  5
26F
100
AcDbEntity
  8
0
100
AcDbLine
 62
7
  6
BYLAYER
 10
478.0052791317
 20
428.2957330416
 11
475.6927791315
 21
428.2957330416
  0
LINE
  5
270
100
AcDbEntity
  8
0
100
AcDbLine
 62
7
  6
BYLAYER
 10
475.3177791316
 20
428.2957330416
 11
473.5365291316
 21
428.2957330416
  0
LINE
  5
271
100
AcDbEntity
  8
0
100
AcDbLine
 62
7
  6
BYLAYER
 10
473.2865291316
 20
428.2957330416
 11
471.5052791316
 21
428.2957330416
  0
LINE
  5
272
100
AcDbEntity
  8
0
100
AcDbLine
 62
7
  6
BYLAYER
 10
471.0677791316
 20
428.2957330416
 11
469.4740291316
 21
428.2957330416
  0
LINE
  5
273
100
AcDbEntity
  8
0
100
AcDbLine
 62
7
  6
BYLAYER
 10
469.0052791317
 20
428.2957330416
 11
468.5677791315
 21
428.2957330416
  0
LINE
  5
274
100
AcDbEntity
  8
0
100
AcDbLine
 62
7
  6
BYLAYER
 10
468.1927791316
 20
428.2957330416
 11
466.5043025696
 21
428.2957330416
  0
LINE
  5
275
100
AcDbEntity
  8
0
100
AcDbLine
 62
7
  6
BYLAYER
 10
443.7240291317
 20
428.2957330416
 11
441.4115291315
 21
428.2957330416
  0
LINE
  5
276
100
AcDbEntity
  8
0
100
AcDbLine
 62
7
  6
BYLAYER
 10
441.0365291316
 20
428.2957330416
 11
439.2552791316
 21
428.2957330416
  0
LINE
  5
277
100
AcDbEntity
  8
0
100
AcDbLine
 62
7
  6
BYLAYER
 10
439.0052791316
 20
428.2957330416
 11
437.2240291316
 21
428.2957330416
  0
LINE
  5
278
100
AcDbEntity
  8
0
100
AcDbLine
 62
7
  6
BYLAYER
 10
432.8874130115
 20
428.2957330416
 11
432.2025447576
 21
428.2957330416
  0
LINE
  5
279
100
AcDbEntity
  8
0
100
AcDbLine
 62
7
  6
BYLAYER
 10
431.8177791315
 20
428.2957330416
 11
430.5946345996
 21
428.2957330416
  0
LINE
  5
27A
100
AcDbEntity
  8
0
100
AcDbLine
 62
7
  6
BYLAYER
 10
429.6302791316
 20
428.2957330416
 11
427.8490291316
 21
428.2957330416
  0
LINE
  5
27B
100
AcDbEntity
  8
0
100
AcDbLine
 62
7
  6
BYLAYER
 10
427.3802791317
 20
428.2957330416
 11
426.9427791315
 21
428.2957330416
  0
LINE
  5
27C
100
AcDbEntity
  8
0
100
AcDbLine
 62
7
  6
BYLAYER
 10
426.5873103816
 20
428.2957330416
 11
425.0365291316
 21
428.2957330416
  0
LINE
  5
27D
100
AcDbEntity
  8
0
100
AcDbLine
 62
7
  6
BYLAYER
 10
424.6615291316
 20
428.2957330416
 11
422.9115291316
 21
428.2957330416
  0
LINE
  5
27E
100
AcDbEntity
  8
0
100
AcDbLine
 62
7
  6
BYLAYER
 10
422.5052791317
 20
428.2957330416
 11
422.0677791315
 21
428.2957330416
  0
LINE
  5
27F
100
AcDbEntity
  8
0
100
AcDbLine
 62
7
  6
BYLAYER
 10
421.6927791326
 20
428.2957330416
 11
419.9837947576
 21
428.2957330416
  0
LINE
  5
280
100
AcDbEntity
  8
0
100
AcDbLine
 62
7
  6
BYLAYER
 10
419.8065486636
 20
428.2957330416
 11
418.0990291316
 21
428.2957330416
  0
LINE
  5
281
100
AcDbEntity
  8
0
100
AcDbLine
 62
7
  6
BYLAYER
 10
417.9427791316
 20
428.2957330416
 11
417.0990291316
 21
428.2957330416
  0
LINE
  5
282
100
AcDbEntity
  8
0
100
AcDbLine
 62
7
  6
BYLAYER
 10
416.7865291307
 20
428.2957330416
 11
414.7855280749
 21
428.2957330416
  0
LINE
  5
283
100
AcDbEntity
  8
0
100
AcDbLine
 62
7
  6
BYLAYER
 10
414.505279132
 20
428.2957330416
 11
412.724029132
 21
428.2957330416
  0
LINE
  5
284
100
AcDbEntity
  8
0
100
AcDbLine
 62
7
  6
BYLAYER
 10
412.5052791322
 20
428.2957330416
 11
410.9427791322
 21
428.2957330416
  0
LINE
  5
285
100
AcDbEntity
  8
0
100
AcDbLine
 62
7
  6
BYLAYER
 10
408.4427791309
 20
428.2957330416
 11
406.7562556934
 21
428.2957330416
  0
LINE
  5
286
100
AcDbEntity
  8
0
100
AcDbLine
 62
7
  6
BYLAYER
 10
408.7552791309
 20
428.2957330416
 11
410.5677791309
 21
428.2957330416
  0
LINE
  5
287
100
AcDbEntity
  8
0
100
AcDbLine
 62
7
  6
BYLAYER
 10
490.9740291316
 20
428.3957330416
 11
459.9740291316
 21
428.3957330416
  0
LINE
  5
288
100
AcDbEntity
  8
0
100
AcDbLine
 62
7
  6
BYLAYER
 10
444.9740291316
 20
428.3957330416
 11
344.9740393029
 21
428.3957330416
  0
LINE
  5
289
100
AcDbEntity
  8
0
100
AcDbLine
 62
7
  6
BYLAYER
 10
238.9740291316
 20
428.3957330416
 11
188.9740291316
 21
428.3957330416
  0
LINE
  5
28A
100
AcDbEntity
  8
0
100
AcDbLine
 62
7
  6
BYLAYER
 10
171.6686870966
 20
428.3957330416
 11
129.0240291316
 21
428.3957330416
  0
LINE
  5
28B
100
AcDbEntity
  8
0
100
AcDbLine
 62
7
  6
BYLAYER
 10
128.8461526506
 20
428.3957330416
 11
117.8211526516
 21
428.3957330416
  0
LINE
  5
28C
100
AcDbEntity
  8
0
100
AcDbLine
 62
7
  6
BYLAYER
 10
554.8090291316
 20
428.4957330416
 11
79.1390291316
 21
428.4957330416
  0
LINE
  5
28D
100
AcDbEntity
  8
0
100
AcDbLine
 62
7
  6
BYLAYER
 10
554.8090291316
 20
433.4957330416
 11
79.1390291316
 21
433.4957330416
  0
LINE
  5
28E
100
AcDbEntity
  8
0
100
AcDbLine
 62
7
  6
BYLAYER
 10
79.1367272086
 20
433.9957330416
 11
554.8113310546
 21
433.9957330416
  0
LINE
  5
28F
100
AcDbEntity
  8
0
100
AcDbLine
 62
7
  6
BYLAYER
 10
320.9783468446
 20
457.0957330416
 11
320.9783468446
 21
457.1957330416
  0
LINE
  5
290
100
AcDbEntity
  8
0
100
AcDbLine
 62
7
  6
BYLAYER
 10
321.0149750779
 20
457.1957330416
 11
321.0149750779
 21
457.0957330416
  0
LINE
  5
291
100
AcDbEntity
  8
0
100
AcDbLine
 62
7
  6
BYLAYER
 10
321.8434546042
 20
457.1957330416
 11
321.8434546042
 21
457.0957330416
  0
LINE
  5
292
100
AcDbEntity
  8
0
100
AcDbLine
 62
7
  6
BYLAYER
 10
321.9259371974
 20
457.0957330416
 11
321.9259371974
 21
457.1957330416
  0
LINE
  5
293
100
AcDbEntity
  8
0
100
AcDbLine
 62
7
  6
BYLAYER
 10
322.0828244474
 20
457.1957330416
 11
322.0828244474
 21
457.0957330416
  0
LINE
  5
294
100
AcDbEntity
  8
0
100
AcDbLine
 62
7
  6
BYLAYER
 10
323.7815140523
 20
457.0957330416
 11
323.7815140523
 21
457.1957330416
  0
LINE
  5
295
100
AcDbEntity
  8
0
100
AcDbLine
 62
7
  6
BYLAYER
 10
324.8024920197
 20
457.1957330416
 11
324.8024920197
 21
457.0957330416
  0
LINE
  5
296
100
AcDbEntity
  8
0
100
AcDbLine
 62
7
  6
BYLAYER
 10
325.2176815231
 20
457.1957330416
 11
325.2176815231
 21
457.0957330416
  0
LINE
  5
297
100
AcDbEntity
  8
0
100
AcDbLine
 62
7
  6
BYLAYER
 10
325.2605732905
 20
457.1957330416
 11
325.2605732905
 21
457.0957330416
  0
LINE
  5
298
100
AcDbEntity
  8
0
100
AcDbLine
 62
7
  6
BYLAYER
 10
325.3889611046
 20
457.1957330416
 11
325.3889611046
 21
457.0957330416
  0
LINE
  5
299
100
AcDbEntity
  8
0
100
AcDbLine
 62
7
  6
BYLAYER
 10
325.5218378291
 20
457.1957330416
 11
325.5218378291
 21
457.0957330416
  0
LINE
  5
29A
100
AcDbEntity
  8
0
100
AcDbLine
 62
7
  6
BYLAYER
 10
325.6923933633
 20
457.1957330416
 11
325.6923933633
 21
457.0957330416
  0
LINE
  5
29B
100
AcDbEntity
  8
0
100
AcDbLine
 62
7
  6
BYLAYER
 10
325.8140291316
 20
421.6957330459
 11
325.8140291316
 21
428.4957330416
  0
LINE
  5
29C
100
AcDbEntity
  8
0
100
AcDbLine
 62
7
  6
BYLAYER
 10
325.9272560486
 20
457.1957330416
 11
325.9272560486
 21
457.0957330416
  0
LINE
  5
29D
100
AcDbEntity
  8
0
100
AcDbLine
 62
7
  6
BYLAYER
 10
326.0173269635
 20
457.1957330416
 11
326.0173269635
 21
457.0957330416
  0
LINE
  5
29E
100
AcDbEntity
  8
0
100
AcDbLine
 62
7
  6
BYLAYER
 10
326.4086953769
 20
457.1957330416
 11
326.4086953769
 21
457.0957330416
  0
LINE
  5
29F
100
AcDbEntity
  8
0
100
AcDbLine
 62
7
  6
BYLAYER
 10
327.4780694233
 20
457.1957330416
 11
327.4780694233
 21
457.0957330416
  0
LINE
  5
2A0
100
AcDbEntity
  8
0
100
AcDbLine
 62
7
  6
BYLAYER
 10
327.8942683706
 20
457.1957330416
 11
327.8942683706
 21
457.0957330416
  0
LINE
  5
2A1
100
AcDbEntity
  8
0
100
AcDbLine
 62
7
  6
BYLAYER
 10
328.7958340012
 20
457.0957330416
 11
328.7958340012
 21
457.1957330416
  0
LINE
  5
2A2
100
AcDbEntity
  8
0
100
AcDbLine
 62
7
  6
BYLAYER
 10
329.0164552201
 20
457.1957330416
 11
329.0164552201
 21
457.0957330416
  0
LINE
  5
2A3
100
AcDbEntity
  8
0
100
AcDbLine
 62
7
  6
BYLAYER
 10
330.1205834963
 20
457.1957330416
 11
330.1205834963
 21
457.0957330416
  0
LINE
  5
2A4
100
AcDbEntity
  8
0
100
AcDbLine
 62
7
  6
BYLAYER
 10
330.5371231728
 20
457.1957330416
 11
330.5371231728
 21
457.0957330416
  0
LINE
  5
2A5
100
AcDbEntity
  8
0
100
AcDbLine
 62
7
  6
BYLAYER
 10
330.6470078723
 20
457.1957330416
 11
330.6470078723
 21
457.0957330416
  0
LINE
  5
2A6
100
AcDbEntity
  8
0
100
AcDbLine
 62
7
  6
BYLAYER
 10
331.2267561406
 20
457.0957330416
 11
331.2267561406
 21
457.1957330416
  0
LINE
  5
2A7
100
AcDbEntity
  8
0
100
AcDbLine
 62
7
  6
BYLAYER
 10
331.6298599321
 20
457.1957330416
 11
331.6298599321
 21
457.0957330416
  0
LINE
  5
2A8
100
AcDbEntity
  8
0
100
AcDbLine
 62
7
  6
BYLAYER
 10
333.3322832787
 20
457.0957330416
 11
333.3322832787
 21
457.1957330416
  0
LINE
  5
2A9
100
AcDbEntity
  8
0
100
AcDbLine
 62
7
  6
BYLAYER
 10
333.8140291316
 20
421.6957330459
 11
333.8140291316
 21
428.4957330416
  0
LINE
  5
2AA
100
AcDbEntity
  8
0
100
AcDbLine
 62
7
  6
BYLAYER
 10
334.0542853828
 20
457.0957330416
 11
334.0542853828
 21
457.1957330416
  0
LINE
  5
2AB
100
AcDbEntity
  8
0
100
AcDbLine
 62
7
  6
BYLAYER
 10
334.3762731081
 20
457.1957330416
 11
334.3762731081
 21
457.0957330416
  0
LINE
  5
2AC
100
AcDbEntity
  8
0
100
AcDbLine
 62
7
  6
BYLAYER
 10
560.9740291316
 20
449.4957330416
 11
72.9740291316
 21
449.4957330416
  0
LINE
  5
2AD
100
AcDbEntity
  8
0
100
AcDbLine
 62
7
  6
BYLAYER
 10
560.6568396446
 20
456.4957330416
 11
73.2912186186
 21
456.4957330416
  0
LINE
  5
2AE
100
AcDbEntity
  8
0
100
AcDbLine
 62
7
  6
BYLAYER
 10
75.9740291316
 20
456.7957330416
 11
285.9740291316
 21
456.7957330416
  0
LINE
  5
2AF
100
AcDbEntity
  8
0
100
AcDbLine
 62
7
  6
BYLAYER
 10
347.9740291316
 20
456.7957330416
 11
557.9740291316
 21
456.7957330416
  0
LINE
  5
2B0
100
AcDbEntity
  8
0
100
AcDbLine
 62
7
  6
BYLAYER
 10
344.9740291316
 20
428.3957330416
 11
344.9740291316
 21
428.4957330416
  0
LINE
  5
2B1
100
AcDbEntity
  8
0
100
AcDbLine
 62
7
  6
BYLAYER
 10
345.4740291316
 20
428.3957330416
 11
345.4740291316
 21
428.4957330416
  0
LINE
  5
2B2
100
AcDbEntity
  8
0
100
AcDbLine
 62
7
  6
BYLAYER
 10
347.9740291316
 20
457.0957330416
 11
347.9740291316
 21
456.7957330416
  0
LINE
  5
2B3
100
AcDbEntity
  8
0
100
AcDbLine
 62
7
  6
BYLAYER
 10
347.9740291316
 20
457.0957330416
 11
285.9740291316
 21
457.0957330416
  0
LINE
  5
2B4
100
AcDbEntity
  8
0
100
AcDbLine
 62
7
  6
BYLAYER
 10
111.1740291316
 20
457.0957330416
 11
149.1740291316
 21
457.0957330416
  0
LINE
  5
2B5
100
AcDbEntity
  8
0
100
AcDbLine
 62
7
  6
BYLAYER
 10
115.4740291316
 20
457.1957330416
 11
121.0240291316
 21
457.1957330416
  0
LINE
  5
2B6
100
AcDbEntity
  8
0
100
AcDbLine
 62
7
  6
BYLAYER
 10
121.9990291316
 20
457.1957330416
 11
126.1005916316
 21
457.1957330416
  0
LINE
  5
2B7
100
AcDbEntity
  8
0
100
AcDbLine
 62
7
  6
BYLAYER
 10
126.7240291306
 20
457.1957330416
 11
130.9240291316
 21
457.1957330416
  0
LINE
  5
2B8
100
AcDbEntity
  8
0
100
AcDbLine
 62
7
  6
BYLAYER
 10
131.8990291316
 20
457.1957330416
 11
135.9513728826
 21
457.1957330416
  0
LINE
  5
2B9
100
AcDbEntity
  8
0
100
AcDbLine
 62
7
  6
BYLAYER
 10
136.9240291315
 20
457.1957330416
 11
137.9740291316
 21
457.1957330416
  0
LINE
  5
2BA
100
AcDbEntity
  8
0
100
AcDbLine
 62
7
  6
BYLAYER
 10
139.0990291316
 20
457.1957330416
 11
140.1490291315
 21
457.1957330416
  0
LINE
  5
2BB
100
AcDbEntity
  8
0
100
AcDbLine
 62
7
  6
BYLAYER
 10
141.0021541326
 20
457.1957330416
 11
144.7240291316
 21
457.1957330416
  0
LINE
  5
2BC
100
AcDbEntity
  8
0
100
AcDbLine
 62
7
  6
BYLAYER
 10
299.4589106071
 20
457.1957330416
 11
303.681521151
 21
457.1957330416
  0
LINE
  5
2BD
100
AcDbEntity
  8
0
100
AcDbLine
 62
7
  6
BYLAYER
 10
303.9472196226
 20
457.1957330416
 11
307.3659324611
 21
457.1957330416
  0
LINE
  5
2BE
100
AcDbEntity
  8
0
100
AcDbLine
 62
7
  6
BYLAYER
 10
307.8492547759
 20
457.1957330416
 11
313.4390638957
 21
457.1957330416
  0
LINE
  5
2BF
100
AcDbEntity
  8
0
100
AcDbLine
 62
7
  6
BYLAYER
 10
313.4966792369
 20
457.1957330416
 11
321.8434546042
 21
457.1957330416
  0
LINE
  5
2C0
100
AcDbEntity
  8
0
100
AcDbLine
 62
7
  6
BYLAYER
 10
321.904495387
 20
457.1957330416
 11
321.9229910699
 21
457.1957330416
  0
LINE
  5
2C1
100
AcDbEntity
  8
0
100
AcDbLine
 62
7
  6
BYLAYER
 10
322.0830882542
 20
457.1957330416
 11
326.4086953769
 21
457.1957330416
  0
LINE
  5
2C2
100
AcDbEntity
  8
0
100
AcDbLine
 62
7
  6
BYLAYER
 10
326.7589470672
 20
457.1957330416
 11
330.0895156802
 21
457.1957330416
  0
LINE
  5
2C3
100
AcDbEntity
  8
0
100
AcDbLine
 62
7
  6
BYLAYER
 10
330.1205834972
 20
457.1957330416
 11
330.5371231727
 21
457.1957330416
  0
LINE
  5
2C4
100
AcDbEntity
  8
0
100
AcDbLine
 62
7
  6
BYLAYER
 10
331.2267561405
 20
457.1957330416
 11
333.3322832787
 21
457.1957330416
  0
LINE
  5
2C5
100
AcDbEntity
  8
0
100
AcDbLine
 62
7
  6
BYLAYER
 10
333.3920044873
 20
457.1957330416
 11
334.3762731082
 21
457.1957330416
  0
LINE
  5
2C6
100
AcDbEntity
  8
0
100
AcDbLine
 62
7
  6
BYLAYER
 10
394.9740291316
 20
428.3957330416
 11
394.9740291316
 21
428.4957330416
  0
LINE
  5
2C7
100
AcDbEntity
  8
0
100
AcDbLine
 62
7
  6
BYLAYER
 10
395.4740291316
 20
428.3957330416
 11
395.4740291316
 21
428.4957330416
  0
LINE
  5
2C8
100
AcDbEntity
  8
0
100
AcDbLine
 62
7
  6
BYLAYER
 10
406.7562556934
 20
428.2957330416
 11
406.7562556934
 21
428.3957330416
  0
LINE
  5
2C9
100
AcDbEntity
  8
0
100
AcDbLine
 62
7
  6
BYLAYER
 10
407.5721736624
 20
428.2957330416
 11
407.5721736624
 21
428.3957330416
  0
LINE
  5
2CA
100
AcDbEntity
  8
0
100
AcDbLine
 62
7
  6
BYLAYER
 10
408.4427791309
 20
428.2957330416
 11
408.4427791309
 21
428.3957330416
  0
LINE
  5
2CB
100
AcDbEntity
  8
0
100
AcDbLine
 62
7
  6
BYLAYER
 10
408.7552791309
 20
428.2957330416
 11
408.7552791309
 21
428.3957330416
  0
LINE
  5
2CC
100
AcDbEntity
  8
0
100
AcDbLine
 62
7
  6
BYLAYER
 10
409.6576228809
 20
428.2957330416
 11
409.6576228809
 21
428.3957330416
  0
LINE
  5
2CD
100
AcDbEntity
  8
0
100
AcDbLine
 62
7
  6
BYLAYER
 10
410.0990291309
 20
428.3957330416
 11
410.0990291309
 21
428.2957330416
  0
LINE
  5
2CE
100
AcDbEntity
  8
0
100
AcDbLine
 62
7
  6
BYLAYER
 10
410.3324275684
 20
428.2957330416
 11
410.3324275684
 21
428.3957330416
  0
LINE
  5
2CF
100
AcDbEntity
  8
0
100
AcDbLine
 62
7
  6
BYLAYER
 10
410.5677791309
 20
428.2957330416
 11
410.5677791309
 21
428.3957330416
  0
LINE
  5
2D0
100
AcDbEntity
  8
0
100
AcDbLine
 62
7
  6
BYLAYER
 10
410.9427791322
 20
428.2957330416
 11
410.9427791322
 21
428.3957330416
  0
LINE
  5
2D1
100
AcDbEntity
  8
0
100
AcDbLine
 62
7
  6
BYLAYER
 10
411.1468806947
 20
428.2957330416
 11
411.1468806947
 21
428.3957330416
  0
LINE
  5
2D2
100
AcDbEntity
  8
0
100
AcDbLine
 62
7
  6
BYLAYER
 10
411.3983455383
 20
428.2957330416
 11
411.3983455383
 21
428.3957330416
  0
LINE
  5
2D3
100
AcDbEntity
  8
0
100
AcDbLine
 62
7
  6
BYLAYER
 10
411.721587725
 20
428.2957330416
 11
411.721587725
 21
428.3957330416
  0
LINE
  5
2D4
100
AcDbEntity
  8
0
100
AcDbLine
 62
7
  6
BYLAYER
 10
412.0531306944
 20
428.3957330416
 11
412.0531306944
 21
428.2957330416
  0
LINE
  5
2D5
100
AcDbEntity
  8
0
100
AcDbLine
 62
7
  6
BYLAYER
 10
412.3011775697
 20
428.2957330416
 11
412.3011775697
 21
428.3957330416
  0
LINE
  5
2D6
100
AcDbEntity
  8
0
100
AcDbLine
 62
7
  6
BYLAYER
 10
412.5052791322
 20
428.2957330416
 11
412.5052791322
 21
428.3957330416
  0
LINE
  5
2D7
100
AcDbEntity
  8
0
100
AcDbLine
 62
7
  6
BYLAYER
 10
412.724029132
 20
428.2957330416
 11
412.724029132
 21
428.3957330416
  0
LINE
  5
2D8
100
AcDbEntity
  8
0
100
AcDbLine
 62
7
  6
BYLAYER
 10
413.6170955382
 20
428.2957330416
 11
413.6170955382
 21
428.3957330416
  0
LINE
  5
2D9
100
AcDbEntity
  8
0
100
AcDbLine
 62
7
  6
BYLAYER
 10
414.505279132
 20
428.2957330416
 11
414.505279132
 21
428.3957330416
  0
LINE
  5
2DA
100
AcDbEntity
  8
0
100
AcDbLine
 62
7
  6
BYLAYER
 10
414.7865291307
 20
428.2957330416
 11
414.7865291307
 21
428.3957330416
  0
LINE
  5
2DB
100
AcDbEntity
  8
0
100
AcDbLine
 62
7
  6
BYLAYER
 10
415.1737361619
 20
428.3957330416
 11
415.1737361619
 21
428.2957330416
  0
LINE
  5
2DC
100
AcDbEntity
  8
0
100
AcDbLine
 62
7
  6
BYLAYER
 10
415.7582088182
 20
428.2957330416
 11
415.7582088182
 21
428.3957330416
  0
LINE
  5
2DD
100
AcDbEntity
  8
0
100
AcDbLine
 62
7
  6
BYLAYER
 10
416.4916072557
 20
428.3957330416
 11
416.4916072557
 21
428.2957330416
  0
LINE
  5
2DE
100
AcDbEntity
  8
0
100
AcDbLine
 62
7
  6
BYLAYER
 10
416.7865291307
 20
428.2957330416
 11
416.7865291307
 21
428.3957330416
  0
LINE
  5
2DF
100
AcDbEntity
  8
0
100
AcDbLine
 62
7
  6
BYLAYER
 10
417.0990291316
 20
428.2957330416
 11
417.0990291316
 21
428.3957330416
  0
LINE
  5
2E0
100
AcDbEntity
  8
0
100
AcDbLine
 62
7
  6
BYLAYER
 10
417.1332088186
 20
428.2957330416
 11
417.1332088186
 21
428.3957330416
  0
LINE
  5
2E1
100
AcDbEntity
  8
0
100
AcDbLine
 62
7
  6
BYLAYER
 10
417.585357256
 20
428.3957330416
 11
417.585357256
 21
428.2957330416
  0
LINE
  5
2E2
100
AcDbEntity
  8
0
100
AcDbLine
 62
7
  6
BYLAYER
 10
417.7777400686
 20
428.2957330416
 11
417.7777400686
 21
428.3957330416
  0
LINE
  5
2E3
100
AcDbEntity
  8
0
100
AcDbLine
 62
7
  6
BYLAYER
 10
417.9427791316
 20
428.2957330416
 11
417.9427791316
 21
428.3957330416
  0
LINE
  5
2E4
100
AcDbEntity
  8
0
100
AcDbLine
 62
7
  6
BYLAYER
 10
418.0990291316
 20
428.2957330416
 11
418.0990291316
 21
428.3957330416
  0
LINE
  5
2E5
100
AcDbEntity
  8
0
100
AcDbLine
 62
7
  6
BYLAYER
 10
418.1566463196
 20
428.2957330416
 11
418.1566463196
 21
428.3957330416
  0
LINE
  5
2E6
100
AcDbEntity
  8
0
100
AcDbLine
 62
7
  6
BYLAYER
 10
418.7455135068
 20
428.3957330416
 11
418.7455135068
 21
428.2957330416
  0
LINE
  5
2E7
100
AcDbEntity
  8
0
100
AcDbLine
 62
7
  6
BYLAYER
 10
419.4100642886
 20
428.2957330416
 11
419.4100642886
 21
428.3957330416
  0
LINE
  5
2E8
100
AcDbEntity
  8
0
100
AcDbLine
 62
7
  6
BYLAYER
 10
419.8065486636
 20
428.2957330416
 11
419.8065486636
 21
428.3957330416
  0
LINE
  5
2E9
100
AcDbEntity
  8
0
100
AcDbLine
 62
7
  6
BYLAYER
 10
419.9837947576
 20
428.2957330416
 11
419.9837947576
 21
428.3957330416
  0
LINE
  5
2EA
100
AcDbEntity
  8
0
100
AcDbLine
 62
7
  6
BYLAYER
 10
420.1957088196
 20
428.2957330416
 11
420.1957088196
 21
428.3957330416
  0
LINE
  5
2EB
100
AcDbEntity
  8
0
100
AcDbLine
 62
7
  6
BYLAYER
 10
420.4754939756
 20
428.2957330416
 11
420.4754939756
 21
428.3957330416
  0
LINE
  5
2EC
100
AcDbEntity
  8
0
100
AcDbLine
 62
7
  6
BYLAYER
 10
421.1239314756
 20
428.2957330416
 11
421.1239314756
 21
428.3957330416
  0
LINE
  5
2ED
100
AcDbEntity
  8
0
100
AcDbLine
 62
7
  6
BYLAYER
 10
421.6927791326
 20
428.2957330416
 11
421.6927791326
 21
428.3957330416
  0
LINE
  5
2EE
100
AcDbEntity
  8
0
100
AcDbLine
 62
7
  6
BYLAYER
 10
422.0677791314
 20
428.2957330416
 11
422.0677791314
 21
428.3957330416
  0
LINE
  5
2EF
100
AcDbEntity
  8
0
100
AcDbLine
 62
7
  6
BYLAYER
 10
422.2889705376
 20
428.2957330416
 11
422.2889705376
 21
428.3957330416
  0
LINE
  5
2F0
100
AcDbEntity
  8
0
100
AcDbLine
 62
7
  6
BYLAYER
 10
422.5052791316
 20
428.2957330416
 11
422.5052791316
 21
428.3957330416
  0
LINE
  5
2F1
100
AcDbEntity
  8
0
100
AcDbLine
 62
7
  6
BYLAYER
 10
422.9115291316
 20
428.2957330416
 11
422.9115291316
 21
428.3957330416
  0
LINE
  5
2F2
100
AcDbEntity
  8
0
100
AcDbLine
 62
7
  6
BYLAYER
 10
423.6595760066
 20
428.2957330416
 11
423.6595760066
 21
428.3957330416
  0
LINE
  5
2F3
100
AcDbEntity
  8
0
100
AcDbLine
 62
7
  6
BYLAYER
 10
424.2240291316
 20
428.3957330416
 11
424.2240291316
 21
428.2957330416
  0
LINE
  5
2F4
100
AcDbEntity
  8
0
100
AcDbLine
 62
7
  6
BYLAYER
 10
424.4461970996
 20
428.2957330416
 11
424.4461970996
 21
428.3957330416
  0
LINE
  5
2F5
100
AcDbEntity
  8
0
100
AcDbLine
 62
7
  6
BYLAYER
 10
424.6615291316
 20
428.2957330416
 11
424.6615291316
 21
428.3957330416
  0
LINE
  5
2F6
100
AcDbEntity
  8
0
100
AcDbLine
 62
7
  6
BYLAYER
 10
425.0365291316
 20
428.2957330416
 11
425.0365291316
 21
428.3957330416
  0
LINE
  5
2F7
100
AcDbEntity
  8
0
100
AcDbLine
 62
7
  6
BYLAYER
 10
425.8299861626
 20
428.2957330416
 11
425.8299861626
 21
428.3957330416
  0
LINE
  5
2F8
100
AcDbEntity
  8
0
100
AcDbLine
 62
7
  6
BYLAYER
 10
426.5873103816
 20
428.2957330416
 11
426.5873103816
 21
428.3957330416
  0
LINE
  5
2F9
100
AcDbEntity
  8
0
100
AcDbLine
 62
7
  6
BYLAYER
 10
426.9427791314
 20
428.2957330416
 11
426.9427791314
 21
428.3957330416
  0
LINE
  5
2FA
100
AcDbEntity
  8
0
100
AcDbLine
 62
7
  6
BYLAYER
 10
427.1639705376
 20
428.2957330416
 11
427.1639705376
 21
428.3957330416
  0
LINE
  5
2FB
100
AcDbEntity
  8
0
100
AcDbLine
 62
7
  6
BYLAYER
 10
427.3802791316
 20
428.2957330416
 11
427.3802791316
 21
428.3957330416
  0
LINE
  5
2FC
100
AcDbEntity
  8
0
100
AcDbLine
 62
7
  6
BYLAYER
 10
427.8490291316
 20
428.3957330416
 11
427.8490291316
 21
428.2957330416
  0
LINE
  5
2FD
100
AcDbEntity
  8
0
100
AcDbLine
 62
7
  6
BYLAYER
 10
428.0677791316
 20
428.2957330416
 11
428.0677791316
 21
428.3957330416
  0
LINE
  5
2FE
100
AcDbEntity
  8
0
100
AcDbLine
 62
7
  6
BYLAYER
 10
428.2879399486
 20
428.3957330416
 11
428.2879399486
 21
428.2957330416
  0
LINE
  5
2FF
100
AcDbEntity
  8
0
100
AcDbLine
 62
7
  6
BYLAYER
 10
428.8846736636
 20
428.2957330416
 11
428.8846736636
 21
428.3957330416
  0
LINE
  5
300
100
AcDbEntity
  8
0
100
AcDbLine
 62
7
  6
BYLAYER
 10
429.6302791316
 20
428.2957330416
 11
429.6302791316
 21
428.3957330416
  0
LINE
  5
301
100
AcDbEntity
  8
0
100
AcDbLine
 62
7
  6
BYLAYER
 10
430.5946345996
 20
428.2957330416
 11
430.5946345996
 21
428.3957330416
  0
LINE
  5
302
100
AcDbEntity
  8
0
100
AcDbLine
 62
7
  6
BYLAYER
 10
430.7738338186
 20
428.2957330416
 11
430.7738338186
 21
428.3957330416
  0
LINE
  5
303
100
AcDbEntity
  8
0
100
AcDbLine
 62
7
  6
BYLAYER
 10
431.0609431936
 20
428.2957330416
 11
431.0609431936
 21
428.3957330416
  0
LINE
  5
304
100
AcDbEntity
  8
0
100
AcDbLine
 62
7
  6
BYLAYER
 10
431.3802791317
 20
428.2957330416
 11
431.3802791317
 21
428.3957330416
  0
LINE
  5
305
100
AcDbEntity
  8
0
100
AcDbLine
 62
7
  6
BYLAYER
 10
431.6014705376
 20
428.2957330416
 11
431.6014705376
 21
428.3957330416
  0
LINE
  5
306
100
AcDbEntity
  8
0
100
AcDbLine
 62
7
  6
BYLAYER
 10
431.8177791316
 20
428.2957330416
 11
431.8177791316
 21
428.3957330416
  0
LINE
  5
307
100
AcDbEntity
  8
0
100
AcDbLine
 62
7
  6
BYLAYER
 10
432.2025447576
 20
428.2957330416
 11
432.2025447576
 21
428.3957330416
  0
LINE
  5
308
100
AcDbEntity
  8
0
100
AcDbLine
 62
7
  6
BYLAYER
 10
432.4144588196
 20
428.2957330416
 11
432.4144588196
 21
428.3957330416
  0
LINE
  5
309
100
AcDbEntity
  8
0
100
AcDbLine
 62
7
  6
BYLAYER
 10
432.6942439756
 20
428.2957330416
 11
432.6942439756
 21
428.3957330416
  0
LINE
  5
30A
100
AcDbEntity
  8
0
100
AcDbLine
 62
7
  6
BYLAYER
 10
432.9740291316
 20
421.4957330416
 11
432.9740291316
 21
428.3957330416
  0
LINE
  5
30B
100
AcDbEntity
  8
0
100
AcDbLine
 62
7
  6
BYLAYER
 10
436.9740291316
 20
421.4957330416
 11
436.9740291316
 21
428.3957330416
  0
LINE
  5
30C
100
AcDbEntity
  8
0
100
AcDbLine
 62
7
  6
BYLAYER
 10
437.2240291316
 20
428.3957330416
 11
437.2240291316
 21
428.2957330416
  0
LINE
  5
30D
100
AcDbEntity
  8
0
100
AcDbLine
 62
7
  6
BYLAYER
 10
437.4427791316
 20
428.2957330416
 11
437.4427791316
 21
428.3957330416
  0
LINE
  5
30E
100
AcDbEntity
  8
0
100
AcDbLine
 62
7
  6
BYLAYER
 10
437.6629399486
 20
428.3957330416
 11
437.6629399486
 21
428.2957330416
  0
LINE
  5
30F
100
AcDbEntity
  8
0
100
AcDbLine
 62
7
  6
BYLAYER
 10
438.2596736636
 20
428.2957330416
 11
438.2596736636
 21
428.3957330416
  0
LINE
  5
310
100
AcDbEntity
  8
0
100
AcDbLine
 62
7
  6
BYLAYER
 10
439.0052791316
 20
428.2957330416
 11
439.0052791316
 21
428.3957330416
  0
LINE
  5
311
100
AcDbEntity
  8
0
100
AcDbLine
 62
7
  6
BYLAYER
 10
439.2552791316
 20
428.2957330416
 11
439.2552791316
 21
428.3957330416
  0
LINE
  5
312
100
AcDbEntity
  8
0
100
AcDbLine
 62
7
  6
BYLAYER
 10
440.1483455386
 20
428.2957330416
 11
440.1483455386
 21
428.3957330416
  0
LINE
  5
313
100
AcDbEntity
  8
0
100
AcDbLine
 62
7
  6
BYLAYER
 10
441.0365291316
 20
428.2957330416
 11
441.0365291316
 21
428.3957330416
  0
LINE
  5
314
100
AcDbEntity
  8
0
100
AcDbLine
 62
7
  6
BYLAYER
 10
441.4115291314
 20
428.2957330416
 11
441.4115291314
 21
428.3957330416
  0
LINE
  5
315
100
AcDbEntity
  8
0
100
AcDbLine
 62
7
  6
BYLAYER
 10
441.6327205386
 20
428.2957330416
 11
441.6327205386
 21
428.3957330416
  0
LINE
  5
316
100
AcDbEntity
  8
0
100
AcDbLine
 62
7
  6
BYLAYER
 10
441.8490291316
 20
428.2957330416
 11
441.8490291316
 21
428.3957330416
  0
LINE
  5
317
100
AcDbEntity
  8
0
100
AcDbLine
 62
7
  6
BYLAYER
 10
442.2381892883
 20
428.3957330416
 11
442.2381892883
 21
428.2957330416
  0
LINE
  5
318
100
AcDbEntity
  8
0
100
AcDbLine
 62
7
  6
BYLAYER
 10
442.5677791326
 20
428.2957330416
 11
442.5677791326
 21
428.3957330416
  0
LINE
  5
319
100
AcDbEntity
  8
0
100
AcDbLine
 62
7
  6
BYLAYER
 10
442.8973689756
 20
428.2957330416
 11
442.8973689756
 21
428.3957330416
  0
LINE
  5
31A
100
AcDbEntity
  8
0
100
AcDbLine
 62
7
  6
BYLAYER
 10
442.9740291316
 20
428.4957330416
 11
442.9740291316
 21
428.3957330416
  0
LINE
  5
31B
100
AcDbEntity
  8
0
100
AcDbLine
 62
7
  6
BYLAYER
 10
443.286529132
 20
428.2957330416
 11
443.286529132
 21
428.3957330416
  0
LINE
  5
31C
100
AcDbEntity
  8
0
100
AcDbLine
 62
7
  6
BYLAYER
 10
443.5062556946
 20
428.2957330416
 11
443.5062556946
 21
428.3957330416
  0
LINE
  5
31D
100
AcDbEntity
  8
0
100
AcDbLine
 62
7
  6
BYLAYER
 10
443.7240291316
 20
428.2957330416
 11
443.7240291316
 21
428.3957330416
  0
LINE
  5
31E
100
AcDbEntity
  8
0
100
AcDbLine
 62
7
  6
BYLAYER
 10
444.9740291316
 20
428.3957330416
 11
444.9740291316
 21
428.4957330416
  0
LINE
  5
31F
100
AcDbEntity
  8
0
100
AcDbLine
 62
7
  6
BYLAYER
 10
459.9740291316
 20
428.3957330416
 11
459.9740291316
 21
428.4957330416
  0
LINE
  5
320
100
AcDbEntity
  8
0
100
AcDbLine
 62
7
  6
BYLAYER
 10
460.4740291316
 20
428.3957330416
 11
460.4740291316
 21
428.4957330416
  0
LINE
  5
321
100
AcDbEntity
  8
0
100
AcDbLine
 62
7
  6
BYLAYER
 10
466.5043025696
 20
428.2957330416
 11
466.5043025696
 21
428.3957330416
  0
LINE
  5
322
100
AcDbEntity
  8
0
100
AcDbLine
 62
7
  6
BYLAYER
 10
466.5306697566
 20
428.2957330416
 11
466.5306697566
 21
428.3957330416
  0
LINE
  5
323
100
AcDbEntity
  8
0
100
AcDbLine
 62
7
  6
BYLAYER
 10
467.3002010066
 20
428.2957330416
 11
467.3002010066
 21
428.3957330416
  0
LINE
  5
324
100
AcDbEntity
  8
0
100
AcDbLine
 62
7
  6
BYLAYER
 10
468.1927791316
 20
428.2957330416
 11
468.1927791316
 21
428.3957330416
  0
LINE
  5
325
100
AcDbEntity
  8
0
100
AcDbLine
 62
7
  6
BYLAYER
 10
468.5677791314
 20
428.2957330416
 11
468.5677791314
 21
428.3957330416
  0
LINE
  5
326
100
AcDbEntity
  8
0
100
AcDbLine
 62
7
  6
BYLAYER
 10
468.7889705376
 20
428.2957330416
 11
468.7889705376
 21
428.3957330416
  0
LINE
  5
327
100
AcDbEntity
  8
0
100
AcDbLine
 62
7
  6
BYLAYER
 10
469.0052791316
 20
428.2957330416
 11
469.0052791316
 21
428.3957330416
  0
LINE
  5
328
100
AcDbEntity
  8
0
100
AcDbLine
 62
7
  6
BYLAYER
 10
469.4740291316
 20
428.3957330416
 11
469.4740291316
 21
428.2957330416
  0
LINE
  5
329
100
AcDbEntity
  8
0
100
AcDbLine
 62
7
  6
BYLAYER
 10
469.6781306936
 20
428.2957330416
 11
469.6781306936
 21
428.3957330416
  0
LINE
  5
32A
100
AcDbEntity
  8
0
100
AcDbLine
 62
7
  6
BYLAYER
 10
469.8891609612
 20
428.3957330416
 11
469.8891609612
 21
428.2957330416
  0
LINE
  5
32B
100
AcDbEntity
  8
0
100
AcDbLine
 62
7
  6
BYLAYER
 10
470.4920955376
 20
428.2957330416
 11
470.4920955376
 21
428.3957330416
  0
LINE
  5
32C
100
AcDbEntity
  8
0
100
AcDbLine
 62
7
  6
BYLAYER
 10
470.9862361626
 20
428.2957330416
 11
470.9862361626
 21
428.3957330416
  0
LINE
  5
32D
100
AcDbEntity
  8
0
100
AcDbLine
 62
7
  6
BYLAYER
 10
471.0677791316
 20
428.2957330416
 11
471.0677791316
 21
428.3957330416
  0
LINE
  5
32E
100
AcDbEntity
  8
0
100
AcDbLine
 62
7
  6
BYLAYER
 10
471.5052791316
 20
428.3957330416
 11
471.5052791316
 21
428.2957330416
  0
LINE
  5
32F
100
AcDbEntity
  8
0
100
AcDbLine
 62
7
  6
BYLAYER
 10
471.7240291316
 20
428.2957330416
 11
471.7240291316
 21
428.3957330416
  0
LINE
  5
330
100
AcDbEntity
  8
0
100
AcDbLine
 62
7
  6
BYLAYER
 10
471.9441899486
 20
428.3957330416
 11
471.9441899486
 21
428.2957330416
  0
LINE
  5
331
100
AcDbEntity
  8
0
100
AcDbLine
 62
7
  6
BYLAYER
 10
472.5409236636
 20
428.2957330416
 11
472.5409236636
 21
428.3957330416
  0
LINE
  5
332
100
AcDbEntity
  8
0
100
AcDbLine
 62
7
  6
BYLAYER
 10
473.2865291316
 20
428.2957330416
 11
473.2865291316
 21
428.3957330416
  0
LINE
  5
333
100
AcDbEntity
  8
0
100
AcDbLine
 62
7
  6
BYLAYER
 10
473.5365291316
 20
428.2957330416
 11
473.5365291316
 21
428.3957330416
  0
LINE
  5
334
100
AcDbEntity
  8
0
100
AcDbLine
 62
7
  6
BYLAYER
 10
474.4295955386
 20
428.2957330416
 11
474.4295955386
 21
428.3957330416
  0
LINE
  5
335
100
AcDbEntity
  8
0
100
AcDbLine
 62
7
  6
BYLAYER
 10
475.3177791316
 20
428.2957330416
 11
475.3177791316
 21
428.3957330416
  0
LINE
  5
336
100
AcDbEntity
  8
0
100
AcDbLine
 62
7
  6
BYLAYER
 10
475.6927791314
 20
428.2957330416
 11
475.6927791314
 21
428.3957330416
  0
LINE
  5
337
100
AcDbEntity
  8
0
100
AcDbLine
 62
7
  6
BYLAYER
 10
475.9139705386
 20
428.2957330416
 11
475.9139705386
 21
428.3957330416
  0
LINE
  5
338
100
AcDbEntity
  8
0
100
AcDbLine
 62
7
  6
BYLAYER
 10
476.1302791316
 20
428.2957330416
 11
476.1302791316
 21
428.3957330416
  0
LINE
  5
339
100
AcDbEntity
  8
0
100
AcDbLine
 62
7
  6
BYLAYER
 10
476.5194392883
 20
428.3957330416
 11
476.5194392883
 21
428.2957330416
  0
LINE
  5
33A
100
AcDbEntity
  8
0
100
AcDbLine
 62
7
  6
BYLAYER
 10
476.8490291326
 20
428.2957330416
 11
476.8490291326
 21
428.3957330416
  0
LINE
  5
33B
100
AcDbEntity
  8
0
100
AcDbLine
 62
7
  6
BYLAYER
 10
477.1786189756
 20
428.2957330416
 11
477.1786189756
 21
428.3957330416
  0
LINE
  5
33C
100
AcDbEntity
  8
0
100
AcDbLine
 62
7
  6
BYLAYER
 10
477.567779132
 20
428.2957330416
 11
477.567779132
 21
428.3957330416
  0
LINE
  5
33D
100
AcDbEntity
  8
0
100
AcDbLine
 62
7
  6
BYLAYER
 10
477.7875056946
 20
428.2957330416
 11
477.7875056946
 21
428.3957330416
  0
LINE
  5
33E
100
AcDbEntity
  8
0
100
AcDbLine
 62
7
  6
BYLAYER
 10
478.0052791316
 20
428.2957330416
 11
478.0052791316
 21
428.3957330416
  0
LINE
  5
33F
100
AcDbEntity
  8
0
100
AcDbLine
 62
7
  6
BYLAYER
 10
479.2850642866
 20
428.2957330416
 11
479.2850642866
 21
428.3957330416
  0
LINE
  5
340
100
AcDbEntity
  8
0
100
AcDbLine
 62
7
  6
BYLAYER
 10
480.2738338186
 20
428.2957330416
 11
480.2738338186
 21
428.3957330416
  0
LINE
  5
341
100
AcDbEntity
  8
0
100
AcDbLine
 62
7
  6
BYLAYER
 10
481.1419978806
 20
428.2957330416
 11
481.1419978806
 21
428.3957330416
  0
LINE
  5
342
100
AcDbEntity
  8
0
100
AcDbLine
 62
7
  6
BYLAYER
 10
481.4427791306
 20
428.2957330416
 11
481.4427791306
 21
428.3957330416
  0
LINE
  5
343
100
AcDbEntity
  8
0
100
AcDbLine
 62
7
  6
BYLAYER
 10
481.7552791326
 20
428.2957330416
 11
481.7552791326
 21
428.3957330416
  0
LINE
  5
344
100
AcDbEntity
  8
0
100
AcDbLine
 62
7
  6
BYLAYER
 10
482.1156306946
 20
428.2957330416
 11
482.1156306946
 21
428.3957330416
  0
LINE
  5
345
100
AcDbEntity
  8
0
100
AcDbLine
 62
7
  6
BYLAYER
 10
482.8729549136
 20
428.2957330416
 11
482.8729549136
 21
428.3957330416
  0
LINE
  5
346
100
AcDbEntity
  8
0
100
AcDbLine
 62
7
  6
BYLAYER
 10
483.5086971016
 20
428.3957330416
 11
483.5086971016
 21
428.2957330416
  0
LINE
  5
347
100
AcDbEntity
  8
0
100
AcDbLine
 62
7
  6
BYLAYER
 10
483.8177791326
 20
428.2957330416
 11
483.8177791326
 21
428.3957330416
  0
LINE
  5
348
100
AcDbEntity
  8
0
100
AcDbLine
 62
7
  6
BYLAYER
 10
484.1302791316
 20
428.2957330416
 11
484.1302791316
 21
428.3957330416
  0
LINE
  5
349
100
AcDbEntity
  8
0
100
AcDbLine
 62
7
  6
BYLAYER
 10
484.1644588186
 20
428.2957330416
 11
484.1644588186
 21
428.3957330416
  0
LINE
  5
34A
100
AcDbEntity
  8
0
100
AcDbLine
 62
7
  6
BYLAYER
 10
484.616607256
 20
428.3957330416
 11
484.616607256
 21
428.2957330416
  0
LINE
  5
34B
100
AcDbEntity
  8
0
100
AcDbLine
 62
7
  6
BYLAYER
 10
484.8089900686
 20
428.2957330416
 11
484.8089900686
 21
428.3957330416
  0
LINE
  5
34C
100
AcDbEntity
  8
0
100
AcDbLine
 62
7
  6
BYLAYER
 10
484.9740291316
 20
428.2957330416
 11
484.9740291316
 21
428.3957330416
  0
LINE
  5
34D
100
AcDbEntity
  8
0
100
AcDbLine
 62
7
  6
BYLAYER
 10
485.2225642866
 20
428.2957330416
 11
485.2225642866
 21
428.3957330416
  0
LINE
  5
34E
100
AcDbEntity
  8
0
100
AcDbLine
 62
7
  6
BYLAYER
 10
486.2113338186
 20
428.2957330416
 11
486.2113338186
 21
428.3957330416
  0
LINE
  5
34F
100
AcDbEntity
  8
0
100
AcDbLine
 62
7
  6
BYLAYER
 10
487.0794978806
 20
428.2957330416
 11
487.0794978806
 21
428.3957330416
  0
LINE
  5
350
100
AcDbEntity
  8
0
100
AcDbLine
 62
7
  6
BYLAYER
 10
487.3802791306
 20
428.2957330416
 11
487.3802791306
 21
428.3957330416
  0
LINE
  5
351
100
AcDbEntity
  8
0
100
AcDbLine
 62
7
  6
BYLAYER
 10
487.6615291306
 20
428.2957330416
 11
487.6615291306
 21
428.3957330416
  0
LINE
  5
352
100
AcDbEntity
  8
0
100
AcDbLine
 62
7
  6
BYLAYER
 10
487.8978572556
 20
428.2957330416
 11
487.8978572556
 21
428.3957330416
  0
LINE
  5
353
100
AcDbEntity
  8
0
100
AcDbLine
 62
7
  6
BYLAYER
 10
488.1786189746
 20
428.2957330416
 11
488.1786189746
 21
428.3957330416
  0
LINE
  5
354
100
AcDbEntity
  8
0
100
AcDbLine
 62
7
  6
BYLAYER
 10
488.2928767869
 20
428.2957330416
 11
488.2928767869
 21
428.3957330416
  0
LINE
  5
355
100
AcDbEntity
  8
0
100
AcDbLine
 62
7
  6
BYLAYER
 10
488.9740291316
 20
428.4957330416
 11
488.9740291316
 21
428.3957330416
  0
LINE
  5
356
100
AcDbEntity
  8
0
100
AcDbLine
 62
7
  6
BYLAYER
 10
489.2650447556
 20
428.2957330416
 11
489.2650447556
 21
428.3957330416
  0
LINE
  5
357
100
AcDbEntity
  8
0
100
AcDbLine
 62
7
  6
BYLAYER
 10
489.379302568
 20
428.3957330416
 11
489.379302568
 21
428.2957330416
  0
LINE
  5
358
100
AcDbEntity
  8
0
100
AcDbLine
 62
7
  6
BYLAYER
 10
489.6488338186
 20
428.2957330416
 11
489.6488338186
 21
428.3957330416
  0
LINE
  5
359
100
AcDbEntity
  8
0
100
AcDbLine
 62
7
  6
BYLAYER
 10
489.8802791306
 20
428.2957330416
 11
489.8802791306
 21
428.3957330416
  0
LINE
  5
35A
100
AcDbEntity
  8
0
100
AcDbLine
 62
7
  6
BYLAYER
 10
490.9740291316
 20
428.3957330416
 11
490.9740291316
 21
428.4957330416
  0
LINE
  5
35B
100
AcDbEntity
  8
0
100
AcDbLine
 62
7
  6
BYLAYER
 10
560.6568396451
 20
456.4957330416
 11
560.974029132
 21
449.4957330416
  0
LINE
  5
35C
100
AcDbEntity
  8
0
100
AcDbLine
 62
7
  6
BYLAYER
 10
557.8568396451
 20
456.4957330416
 11
557.974029132
 21
449.4957330416
  0
LINE
  5
35D
100
AcDbEntity
  8
0
100
AcDbLine
 62
7
  6
BYLAYER
 10
549.7732671496
 20
433.9957330416
 11
549.7732671496
 21
433.4957330416
  0
LINE
  5
35E
100
AcDbEntity
  8
0
100
AcDbLine
 62
7
  6
BYLAYER
 10
554.3113310546
 20
433.4957330416
 11
554.3113310546
 21
433.9957330416
  0
LINE
  5
35F
100
AcDbEntity
  8
0
100
AcDbLine
 62
7
  6
BYLAYER
 10
554.8090291316
 20
433.4957330416
 11
554.8090291316
 21
428.4957330416
  0
LINE
  5
360
100
AcDbEntity
  8
0
100
AcDbLine
 62
7
  6
BYLAYER
 10
555.8789463276
 20
456.7957330416
 11
555.8789463276
 21
456.4957330416
  0
LINE
  5
361
100
AcDbEntity
  8
0
100
AcDbLine
 62
7
  6
BYLAYER
 10
557.9740291316
 20
456.4957330416
 11
557.9740291316
 21
456.7957330416
  0
LINE
  5
362
100
AcDbEntity
  8
0
100
AcDbLine
 62
7
  6
BYLAYER
 10
549.8576086786
 20
433.4957330416
 11
549.8050297276
 21
428.4957330416
  0
LINE
  5
363
100
AcDbEntity
  8
0
100
AcDbLine
 62
7
  6
BYLAYER
 10
549.8478475426
 20
449.4957330416
 11
549.6583753066
 21
433.9957330416
  0
LINE
  5
364
100
AcDbEntity
  8
0
100
AcDbLine
 62
7
  6
BYLAYER
 10
555.3526029825
 20
449.4957330416
 11
554.8113310547
 21
433.9957330416
  0
ARC
  5
365
100
AcDbEntity
  8
0
100
AcDbCircle
 62
7
  6
BYLAYER
 10
198.9740291316
 20
421.4957330416
 40
2.0
100
AcDbArc
 50
180.0
 51
360.0
  0
ARC
  5
366
100
AcDbEntity
  8
0
100
AcDbCircle
 62
7
  6
BYLAYER
 10
434.9740291316
 20
421.4957330416
 40
2.0
100
AcDbArc
 50
180.0
 51
360.0
  0
ENDSEC
  0
SECTION
  2
OBJECTS
  0
DICTIONARY
  5
C
100
AcDbDictionary
280
0
281
1
  3
ACAD_GROUP
350
D
  3
ACAD_MLINESTYLE
350
17
  3
ACAD_LAYOUT
350
1A
  3
ACAD_PLOTSETTINGS
350
19
  3
ACAD_PLOTSTYLENAME
350
E
  0
DICTIONARY
  5
D
102
{ACAD_REACTORS
330
C
102
}
100
AcDbDictionary
280
0
281
1
  0
ACDBDICTIONARYWDFLT
  5
E
102
{ACAD_REACTORS
330
C
102
}
100
AcDbDictionary
281
1
  3
Normal
350
F
100
AcDbDictionaryWithDefault
340
F
  0
DICTIONARY
  5
17
102
{ACAD_REACTORS
330
C
102
}
100
AcDbDictionary
280
0
281
1
  3
Standard
350
18
  0
DICTIONARY
  5
19
102
{ACAD_REACTORS
330
C
102
}
100
AcDbDictionary
281
1
  0
DICTIONARY
  5
1A
102
{ACAD_REACTORS
330
C
102
}
100
AcDbDictionary
281
1
  3
Model
350
367
  3
Layout1
350
368
  0
ACDBPLACEHOLDER
  5
F
102
{ACAD_REACTORS
330
E
102
}
  0
MLINESTYLE
  5
18
102
{ACAD_REACTORS
330
17
102
}
100
AcDbMlineStyle
  2
STANDARD
 70
0
  3

 62
256
 51
90.0
 52
90.0
 71
2
 49
0.5
 62
256
  6
BYLAYER
 49
-0.5
 62
256
  6
BYLAYER
  0
LAYOUT
  5
367
102
{ACAD_REACTORS
330
1A
102
}
100
AcDbPlotSettings
  1

  2
none_device
  4

  6

 40
0.0
 41
0.0
 42
0.0
 43
0.0
 44
210.0
 45
297.0
 46
0.0
 47
0.0
 48
0.0
 49
0.0
140
0.0
141
0.0
142
1.0
143
1.0
 70
1024
 72
1
 73
0
 74
0
  7

 75
0
147
1.0
148
0.0
149
0.0
100
AcDbLayout
  1
Model
 70
0
 71
0
 10
0.0
 20
0.0
 11
210.0
 21
297.0
 12
0.0
 22
0.0
 32
0.0
 14
0.0
 24
0.0
 34
0.0
 15
0.0
 25
0.0
 35
0.0
146
0.0
 13
0.0
 23
0.0
 33
0.0
 16
1.0
 26
0.0
 36
0.0
 17
0.0
 27
1.0
 37
0.0
 76
0
330
210
345
0
346
0
  0
LAYOUT
  5
368
102
{ACAD_REACTORS
330
1A
102
}
100
AcDbPlotSettings
  1

  2
none_device
  4

  6

 40
0.0
 41
0.0
 42
0.0
 43
0.0
 44
210.0
 45
297.0
 46
0.0
 47
0.0
 48
0.0
 49
0.0
140
0.0
141
0.0
142
1.0
143
1.0
 70
0
 72
1
 73
0
 74
0
  7

 75
0
147
1.0
148
0.0
149
0.0
100
AcDbLayout
  1
Layout1
 70
0
 71
1
 10
0.0
 20
0.0
 11
210.0
 21
297.0
 12
0.0
 22
0.0
 32
0.0
 14
0.0
 24
0.0
 34
0.0
 15
0.0
 25
0.0
 35
0.0
146
0.0
 13
0.0
 23
0.0
 33
0.0
 16
1.0
 26
0.0
 36
0.0
 17
0.0
 27
1.0
 37
0.0
 76
0
330
211
345
0
346
0
  0
ENDSEC
  0
EOF
