999
DXF file: C:\Users\sesa63760\Dev\_Creo\CAD\MCADID0002381_3D-CAD\drw0001_4.dxf
999
Pro/ENGINEER 2019471 by Parametric Technology Corporation
  0
SECTION
  2
HEADER
  9
$ACADVER
  1
AC1024
  9
$DWGCODEPAGE
  3
ANSI_1252
  9
$EXTMAX
 10
35.4823014815
 20
50.1821120952
 30
0.0
  9
$EXTMIN
 10
0.0
 20
0.0
 30
0.0
  9
$LIMMIN
 10
0.0
 20
0.0
  9
$LIMMAX
 10
35.4823014815
 20
50.1821120952
  9
$VIEWCTR
 10
17.7411507407
 20
25.0910560476
  9
$VIEWSIZE
 40
50.1821120952
  9
$CLAYER
  8
0
  9
$LTSCALE
 40
3.2711302699
  9
$CELTYPE
  6
BYLAYER
  9
$DIMSCALE
 40
1.0
  9
$DIMASZ
 40
0.422408351
  9
$DIMEXO
 40
1.0
  9
$DIMDLI
 40
2.260053641
  9
$DIMEXE
 40
1.0
  9
$DIMCEN
 40
0.5352758623
  9
$DIMLFAC
 40
1.0
  9
$DIMBLK
  1
_FILLED
  9
$DIMALT
 70
0
  9
$DIMALTF
 40
0.0393700787
  9
$DIMTXT
 40
0.5913716914
  9
$DIMTOL
 70
1
  9
$DIMLIM
 70
0
  9
$DIMTFAC
 40
1.0
  9
$DIMTP
 40
0.01
  9
$DIMTM
 40
0.01
  9
$DIMGAP
 40
0.625
  9
$DIMDSEP
 70
46
  9
$AUNITS
 70
0
  9
$PDMODE
 70
3
  9
$PDSIZE
 40
0.3125
  9
$HANDSEED
  5
2A9
  9
$TILEMODE
 70
1
  9
$MEASUREMENT
 70
1
  9
$INSUNITS
 70
4
  0
ENDSEC
  0
SECTION
  2
CLASSES
  0
CLASS
  1
ACDBDICTIONARYWDFLT
  2
AcDbDictionaryWithDefault
  3
AutoCAD 2000
 90
0
 91
1
280
0
281
0
  0
CLASS
  1
ACDBPLACEHOLDER
  2
AcDbPlaceHolder
  3
AutoCAD 2000
 90
0
 91
1
280
0
281
0
  0
CLASS
  1
LAYOUT
  2
AcDbLayout
  3
AutoCAD 2000
 90
0
 91
0
280
0
281
0
  0
ENDSEC
  0
SECTION
  2
TABLES
  0
TABLE
  2
VPORT
  5
8
100
AcDbSymbolTable
 70
2
  0
VPORT
  5
1F4
100
AcDbSymbolTableRecord
100
AcDbViewportTableRecord
  2
*ACTIVE
 70
0
 10
0.0
 20
0.0
 11
1.0
 21
1.0
 12
17.7411507407
 22
25.0910560476
 13
0.0
 23
0.0
 14
1.0
 24
1.0
 15
0.0
 25
0.0
 16
0.0
 26
0.0
 36
1.0
 17
0.0
 27
0.0
 37
0.0
 40
50.1821120952
 41
0.7070707071
 42
50.0
 43
0.0
 44
0.0
 50
0.0
 51
0.0
 71
0
 72
100
 73
1
 74
1
 75
0
 76
0
 77
0
 78
0
  0
ENDTAB
  0
TABLE
  2
LTYPE
  5
5
100
AcDbSymbolTable
 70
6
  0
LTYPE
  5
14
100
AcDbSymbolTableRecord
100
AcDbLinetypeTableRecord
  2
BYBLOCK
 70
0
  3

 72
65
 73
0
 40
0.0
  0
LTYPE
  5
15
100
AcDbSymbolTableRecord
100
AcDbLinetypeTableRecord
  2
BYLAYER
 70
0
  3

 72
65
 73
0
 40
0.0
  0
LTYPE
  5
16
100
AcDbSymbolTableRecord
100
AcDbLinetypeTableRecord
  2
CONTINUOUS
 70
64
  3
Solid line
 72
65
 73
0
 40
0.0
  0
LTYPE
  5
1F5
100
AcDbSymbolTableRecord
100
AcDbLinetypeTableRecord
  2
CENTER
 70
64
  3
____ _ ____ _ ____ _ ____ _ ____ _ ____ _ ____
 72
65
 73
4
 40
0.6
 49
0.375
 74
0
 49
-0.075
 74
0
 49
0.075
 74
0
 49
-0.075
 74
0
  0
LTYPE
  5
1F6
100
AcDbSymbolTableRecord
100
AcDbLinetypeTableRecord
  2
HIDDEN
 70
64
  3
- - - - - - - - - - - - - - - - - - - -
 72
65
 73
2
 40
0.2
 49
0.1
 74
0
 49
-0.1
 74
0
  0
LTYPE
  5
1F7
100
AcDbSymbolTableRecord
100
AcDbLinetypeTableRecord
  2
PHANTOM
 70
64
  3
_____ _ _ _____ _ _ _____ _ _ _____
 72
65
 73
6
 40
0.8
 49
0.45
 74
0
 49
-0.05
 74
0
 49
0.1
 74
0
 49
-0.05
 74
0
 49
0.1
 74
0
 49
-0.05
 74
0
  0
LTYPE
  5
1F8
100
AcDbSymbolTableRecord
100
AcDbLinetypeTableRecord
  2
DOT
 70
64
  3
. . . . . . . . . . . . . . . . . . . .
 72
65
 73
2
 40
0.2
 49
0.1
 74
0
 49
-0.1
 74
0
  0
LTYPE
  5
1F9
100
AcDbSymbolTableRecord
100
AcDbLinetypeTableRecord
  2
DASHED
 70
64
  3
- - - - - - - - - - - - - - - - - - - -
 72
65
 73
2
 40
0.2
 49
0.1
 74
0
 49
-0.1
 74
0
  0
ENDTAB
  0
TABLE
  2
LAYER
  5
2
100
AcDbSymbolTable
 70
36
  0
LAYER
  5
10
100
AcDbSymbolTableRecord
100
AcDbLayerTableRecord
  2
0
 70
0
 62
7
  6
CONTINUOUS
370
-3
390
F
  0
LAYER
  5
1FA
100
AcDbSymbolTableRecord
100
AcDbLayerTableRecord
  2
DEFAULT_1
 70
0
 62
7
  6
CENTER
370
-3
390
F
  0
LAYER
  5
1FB
100
AcDbSymbolTableRecord
100
AcDbLayerTableRecord
  2
DEFAULT_2
 70
0
 62
8
  6
HIDDEN
370
-3
390
F
  0
LAYER
  5
1FC
100
AcDbSymbolTableRecord
100
AcDbLayerTableRecord
  2
DEFAULT_3
 70
0
 62
7
  6
PHANTOM
370
-3
390
F
  0
LAYER
  5
1FD
100
AcDbSymbolTableRecord
100
AcDbLayerTableRecord
  2
00_COMPONENTS
 70
0
 62
7
  6
CONTINUOUS
370
-3
390
F
  0
LAYER
  5
1FE
100
AcDbSymbolTableRecord
100
AcDbLayerTableRecord
  2
01_1_DEFAULT_DATUMS
 70
0
 62
7
  6
CONTINUOUS
370
-3
390
F
  0
LAYER
  5
1FF
100
AcDbSymbolTableRecord
100
AcDbLayerTableRecord
  2
01_PLANES
 70
0
 62
7
  6
CONTINUOUS
370
-3
390
F
  0
LAYER
  5
200
100
AcDbSymbolTableRecord
100
AcDbLayerTableRecord
  2
02_COORD_SYS
 70
0
 62
7
  6
CONTINUOUS
370
-3
390
F
  0
LAYER
  5
201
100
AcDbSymbolTableRecord
100
AcDbLayerTableRecord
  2
03_AXES
 70
0
 62
7
  6
CONTINUOUS
370
-3
390
F
  0
LAYER
  5
202
100
AcDbSymbolTableRecord
100
AcDbLayerTableRecord
  2
04_POINTS
 70
0
 62
7
  6
CONTINUOUS
370
-3
390
F
  0
LAYER
  5
203
100
AcDbSymbolTableRecord
100
AcDbLayerTableRecord
  2
05_CURVES
 70
0
 62
7
  6
CONTINUOUS
370
-3
390
F
  0
LAYER
  5
204
100
AcDbSymbolTableRecord
100
AcDbLayerTableRecord
  2
06_SURFS
 70
0
 62
7
  6
CONTINUOUS
370
-3
390
F
  0
LAYER
  5
205
100
AcDbSymbolTableRecord
100
AcDbLayerTableRecord
  2
07_COSMETICS
 70
0
 62
7
  6
CONTINUOUS
370
-3
390
F
  0
LAYER
  5
206
100
AcDbSymbolTableRecord
100
AcDbLayerTableRecord
  2
10_NOTES
 70
0
 62
7
  6
CONTINUOUS
370
-3
390
F
  0
LAYER
  5
207
100
AcDbSymbolTableRecord
100
AcDbLayerTableRecord
  2
11_NOTES_PUB
 70
0
 62
7
  6
CONTINUOUS
370
-3
390
F
  0
LAYER
  5
208
100
AcDbSymbolTableRecord
100
AcDbLayerTableRecord
  2
13_REF_GTOL
 70
0
 62
7
  6
CONTINUOUS
370
-3
390
F
  0
LAYER
  5
209
100
AcDbSymbolTableRecord
100
AcDbLayerTableRecord
  2
16_MISC
 70
0
 62
7
  6
CONTINUOUS
370
-3
390
F
  0
LAYER
  5
20A
100
AcDbSymbolTableRecord
100
AcDbLayerTableRecord
  2
17_NO_PRINT
 70
0
 62
7
  6
CONTINUOUS
370
-3
390
F
  0
LAYER
  5
20B
100
AcDbSymbolTableRecord
100
AcDbLayerTableRecord
  2
18_DATUM_CAMS_JOINTS
 70
0
 62
7
  6
CONTINUOUS
370
-3
390
F
  0
LAYER
  5
20C
100
AcDbSymbolTableRecord
100
AcDbLayerTableRecord
  2
19_DATUM_FUNCTIONAL
 70
0
 62
7
  6
CONTINUOUS
370
-3
390
F
  0
LAYER
  5
20D
100
AcDbSymbolTableRecord
100
AcDbLayerTableRecord
  2
20_DATUM_KINEMATIC_SCHEME
 70
0
 62
7
  6
CONTINUOUS
370
-3
390
F
  0
ENDTAB
  0
TABLE
  2
STYLE
  5
3
100
AcDbSymbolTable
 70
1
  0
STYLE
  5
11
100
AcDbSymbolTableRecord
100
AcDbTextStyleTableRecord
  2
STANDARD
 70
0
 40
0.0
 41
0.8
 50
0.0
 71
0
 42
0.2
  3
txt
  4

  0
STYLE
  5
20E
100
AcDbSymbolTableRecord
100
AcDbTextStyleTableRecord
  2
TEXTSTYLE_1
 70
0
 40
0.0
 41
0.8
 50
0.0
 71
0
 42
0.2
  3
gdt
  4

  0
ENDTAB
  0
TABLE
  2
VIEW
  5
6
100
AcDbSymbolTable
 70
0
  0
ENDTAB
  0
TABLE
  2
UCS
  5
7
100
AcDbSymbolTable
 70
0
  0
ENDTAB
  0
TABLE
  2
APPID
  5
9
100
AcDbSymbolTable
 70
1
  0
APPID
  5
20F
100
AcDbSymbolTableRecord
100
AcDbRegAppTableRecord
  2
ACAD
 70
0
  0
ENDTAB
  0
TABLE
  2
BLOCK_RECORD
  5
1
100
AcDbSymbolTable
 70
0
  0
BLOCK_RECORD
  5
210
100
AcDbSymbolTableRecord
100
AcDbBlockTableRecord
  2
*Model_Space
  0
BLOCK_RECORD
  5
211
100
AcDbSymbolTableRecord
100
AcDbBlockTableRecord
  2
*Paper_Space
  0
BLOCK_RECORD
  5
212
100
AcDbSymbolTableRecord
100
AcDbBlockTableRecord
  2
_FILLED
  0
ENDTAB
  0
TABLE
  2
DIMSTYLE
  5
A
100
AcDbSymbolTable
 70
1
100
AcDbDimStyleTable
 71
0
  0
DIMSTYLE
105
213
100
AcDbSymbolTableRecord
100
AcDbDimStyleTableRecord
  2
STANDARD
 70
0
  3

  4

 40
1.0
 41
0.422408351
 42
1.0
 43
0.38
 44
1.0
 45
0.0
 46
0.0
 47
0.01
 48
0.01
140
0.5913716914
141
0.09
142
0.0
143
25.4
144
1.0
145
0.0
146
1.0
147
0.625
 71
1
 72
0
 73
0
 74
0
 75
0
 76
0
 77
1
 78
8
 79
2
170
0
171
1
172
0
173
0
174
0
175
0
176
0
177
0
178
0
270
2
179
2
271
2
272
2
273
2
274
2
275
0
280
0
281
0
282
0
283
1
284
8
285
0
286
0
287
3
288
0
340
11
278
46
341
212
342
212
343
212
344
212
  0
ENDTAB
  0
ENDSEC
  0
SECTION
  2
BLOCKS
  0
BLOCK
  5
20
100
AcDbEntity
  8
0
100
AcDbBlockBegin
  2
*Model_Space
 70
0
 10
0.0
 20
0.0
 30
0.0
  3
*Model_Space
  1

  0
ENDBLK
  5
21
100
AcDbEntity
  8
0
100
AcDbBlockEnd
  0
BLOCK
  5
1C
100
AcDbEntity
  8
0
100
AcDbBlockBegin
  2
*Paper_Space
 70
0
 10
0.0
 20
0.0
 30
0.0
  3
*Paper_Space
  1

  0
ENDBLK
  5
1D
100
AcDbEntity
  8
0
100
AcDbBlockEnd
  0
BLOCK
  5
214
100
AcDbEntity
  8
0
100
AcDbBlockBegin
  2
_FILLED
 70
64
 10
0.0
 20
0.0
  3
_FILLED
  1

  0
SOLID
  5
215
100
AcDbEntity
  8
0
  6
BYBLOCK
 62
0
100
AcDbTrace
 10
0.0
 20
0.0
 11
-1.0
 21
0.25
 12
-1.0
 22
-0.25
 13
-1.0
 23
-0.25
  0
ENDBLK
  5
216
100
AcDbEntity
  8
0
  6
BYBLOCK
 62
0
100
AcDbBlockEnd
  0
ENDSEC
  0
SECTION
  2
ENTITIES
  0
LINE
  5
217
100
AcDbEntity
  8
0
100
AcDbLine
 62
7
  6
CONTINUOUS
 10
9.8933141654
 20
35.0137716449
 11
9.8579588244
 21
34.9784163039
  0
LINE
  5
218
100
AcDbEntity
  8
0
100
AcDbLine
 62
7
  6
CONTINUOUS
 10
8.1609025516
 20
33.281360031
 11
8.1255472125
 21
33.246004692
  0
LINE
  5
219
100
AcDbEntity
  8
0
100
AcDbLine
 62
7
  6
CONTINUOUS
 10
17.3709683765
 20
24.000583528
 11
7.319540548
 21
34.0520113565
  0
LINE
  5
21A
100
AcDbEntity
  8
0
100
AcDbLine
 62
7
  6
CONTINUOUS
 10
17.353290707
 20
24.0889718756
 11
7.3518333644
 21
34.0904292182
  0
LINE
  5
21B
100
AcDbEntity
  8
0
100
AcDbLine
 62
7
  6
CONTINUOUS
 10
19.0503469818
 20
25.7860281505
 11
9.0488895879
 21
35.7874854603
  0
LINE
  5
21C
100
AcDbEntity
  8
0
100
AcDbLine
 62
7
  6
CONTINUOUS
 10
19.1387353295
 20
25.7683504809
 11
9.087307501
 21
35.8197783094
  0
ARC
  5
21D
100
AcDbEntity
  8
0
100
AcDbCircle
 62
7
  6
CONTINUOUS
 10
4.0246602031
 20
23.4474328499
 40
0.8350557405
100
AcDbArc
 50
334.8418136074
 51
37.1581926893
  0
ARC
  5
21E
100
AcDbEntity
  8
0
100
AcDbCircle
 62
7
  6
CONTINUOUS
 10
7.1234025132
 20
15.9663910307
 40
0.8350549508
100
AcDbArc
 50
7.858374724
 51
70.1415634756
  0
ARC
  5
21F
100
AcDbEntity
  8
0
100
AcDbCircle
 62
7
  6
CONTINUOUS
 10
9.2306909272
 20
13.8590990151
 40
0.8350549508
100
AcDbArc
 50
19.8583747439
 51
82.141563456
  0
ARC
  5
220
100
AcDbEntity
  8
0
100
AcDbCircle
 62
7
  6
CONTINUOUS
 10
16.7117275257
 20
10.7603447214
 40
0.835054934
100
AcDbArc
 50
52.8584181264
 51
115.1415202444
  0
ARC
  5
221
100
AcDbEntity
  8
0
100
AcDbCircle
 62
7
  6
CONTINUOUS
 10
4.0199366165
 20
23.4469241268
 40
0.605
100
AcDbArc
 50
280.9213454213
 51
91.0786545787
  0
ARC
  5
222
100
AcDbEntity
  8
0
100
AcDbCircle
 62
7
  6
CONTINUOUS
 10
7.119717434
 20
15.9633912367
 40
0.605
100
AcDbArc
 50
313.9213455177
 51
124.0786544823
  0
ARC
  5
223
100
AcDbEntity
  8
0
100
AcDbCircle
 62
7
  6
CONTINUOUS
 10
9.227710068
 20
13.8553986027
 40
0.605
100
AcDbArc
 50
325.9213455177
 51
136.0786544823
  0
ARC
  5
224
100
AcDbEntity
  8
0
100
AcDbCircle
 62
7
  6
CONTINUOUS
 10
16.7112429582
 20
10.7556177851
 40
0.605
100
AcDbArc
 50
358.9213455177
 51
169.0786544823
  0
ARC
  5
225
100
AcDbEntity
  8
0
100
AcDbCircle
 62
7
  6
CONTINUOUS
 10
4.0246635508
 20
26.427591332
 40
0.835054936
100
AcDbArc
 50
322.8583759684
 51
25.14156257
  0
ARC
  5
226
100
AcDbEntity
  8
0
100
AcDbCircle
 62
7
  6
CONTINUOUS
 10
16.711751765
 20
39.1146578523
 40
0.835054934
100
AcDbArc
 50
244.8584181265
 51
307.1415202443
  0
ARC
  5
227
100
AcDbEntity
  8
0
100
AcDbCircle
 62
7
  6
CONTINUOUS
 10
16.7112429582
 20
39.119382241
 40
0.605
100
AcDbArc
 50
190.9213455177
 51
1.0786544823
  0
ARC
  5
228
100
AcDbEntity
  8
0
100
AcDbCircle
 62
7
  6
CONTINUOUS
 10
4.0199366165
 20
26.4280758992
 40
0.605
100
AcDbArc
 50
268.9213455177
 51
79.0786544823
  0
ARC
  5
229
100
AcDbEntity
  8
0
100
AcDbCircle
 62
7
  6
CONTINUOUS
 10
18.2548260587
 20
24.8844927987
 40
1.2500000005
100
AcDbArc
 50
225.0016720563
 51
45.0
  0
ARC
  5
22A
100
AcDbEntity
  8
0
100
AcDbCircle
 62
7
  6
CONTINUOUS
 10
27.1729278267
 20
13.8590836819
 40
0.8350549508
100
AcDbArc
 50
97.858375997
 51
160.1415621976
  0
ARC
  5
22B
100
AcDbEntity
  8
0
100
AcDbCircle
 62
7
  6
CONTINUOUS
 10
29.2802198423
 20
15.9663720958
 40
0.8350549508
100
AcDbArc
 50
109.858375997
 51
172.1415621976
  0
ARC
  5
22C
100
AcDbEntity
  8
0
100
AcDbCircle
 62
7
  6
CONTINUOUS
 10
19.6918859238
 20
10.7603421738
 40
0.835054934
100
AcDbArc
 50
64.8584181463
 51
127.1415202248
  0
ARC
  5
22D
100
AcDbEntity
  8
0
100
AcDbCircle
 62
7
  6
CONTINUOUS
 10
32.378974136
 20
23.4474086943
 40
0.835054934
100
AcDbArc
 50
142.8584181265
 51
205.1415202443
  0
ARC
  5
22E
100
AcDbEntity
  8
0
100
AcDbCircle
 62
7
  6
CONTINUOUS
 10
19.6923947306
 20
10.7556177851
 40
0.605
100
AcDbArc
 50
10.9213455177
 51
181.0786544823
  0
ARC
  5
22F
100
AcDbEntity
  8
0
100
AcDbCircle
 62
7
  6
CONTINUOUS
 10
27.1759276208
 20
13.8553986027
 40
0.605
100
AcDbArc
 50
43.9213455177
 51
214.0786544823
  0
ARC
  5
230
100
AcDbEntity
  8
0
100
AcDbCircle
 62
7
  6
CONTINUOUS
 10
29.2839202548
 20
15.9633912367
 40
0.605
100
AcDbArc
 50
55.9213455177
 51
226.0786544823
  0
ARC
  5
231
100
AcDbEntity
  8
0
100
AcDbCircle
 62
7
  6
CONTINUOUS
 10
32.3837010724
 20
23.4469241268
 40
0.605
100
AcDbArc
 50
88.9213455177
 51
259.0786544823
  0
CIRCLE
  5
232
100
AcDbEntity
  8
0
100
AcDbCircle
 62
7
  6
CONTINUOUS
 10
18.2018188444
 20
24.937500013
 40
14.2500000075
  0
ARC
  5
233
100
AcDbEntity
  8
0
100
AcDbCircle
 62
7
  6
CONTINUOUS
 10
18.2018188444
 20
24.937500013
 40
14.238216338
100
AcDbArc
 50
132.4589640575
 51
137.5410359425
  0
ARC
  5
234
100
AcDbEntity
  8
0
100
AcDbCircle
 62
7
  6
CONTINUOUS
 10
18.2018188444
 20
24.937500013
 40
13.9119019732
100
AcDbArc
 50
177.0681130867
 51
182.9318871535
  0
ARC
  5
235
100
AcDbEntity
  8
0
100
AcDbCircle
 62
7
  6
CONTINUOUS
 10
18.2018188444
 20
24.937500013
 40
13.9119019732
100
AcDbArc
 50
189.0681128465
 51
215.9318869133
  0
ARC
  5
236
100
AcDbEntity
  8
0
100
AcDbCircle
 62
7
  6
CONTINUOUS
 10
18.2018188444
 20
24.937500013
 40
13.9119019732
100
AcDbArc
 50
222.0681130867
 51
227.9318869133
  0
ARC
  5
237
100
AcDbEntity
  8
0
100
AcDbCircle
 62
7
  6
CONTINUOUS
 10
18.2018188444
 20
24.937500013
 40
13.9119019732
100
AcDbArc
 50
234.0681130867
 51
260.9318869133
  0
ARC
  5
238
100
AcDbEntity
  8
0
100
AcDbCircle
 62
7
  6
CONTINUOUS
 10
18.2018188444
 20
24.937500013
 40
13.9119019732
100
AcDbArc
 50
267.0681130867
 51
272.9318869133
  0
ARC
  5
239
100
AcDbEntity
  8
0
100
AcDbCircle
 62
7
  6
CONTINUOUS
 10
18.2018188444
 20
24.937500013
 40
13.9119019732
100
AcDbArc
 50
279.0681130867
 51
305.9318869133
  0
ARC
  5
23A
100
AcDbEntity
  8
0
100
AcDbCircle
 62
7
  6
CONTINUOUS
 10
18.2018188444
 20
24.937500013
 40
13.9119019732
100
AcDbArc
 50
9.0681130867
 51
35.9318869133
  0
ARC
  5
23B
100
AcDbEntity
  8
0
100
AcDbCircle
 62
7
  6
CONTINUOUS
 10
18.2018188444
 20
24.937500013
 40
13.9119019732
100
AcDbArc
 50
312.0681130867
 51
317.9318869133
  0
ARC
  5
23C
100
AcDbEntity
  8
0
100
AcDbCircle
 62
7
  6
CONTINUOUS
 10
18.2018188444
 20
24.937500013
 40
13.9119019732
100
AcDbArc
 50
130.0516846393
 51
139.9483156063
  0
ARC
  5
23D
100
AcDbEntity
  8
0
100
AcDbCircle
 62
7
  6
CONTINUOUS
 10
18.2018188444
 20
24.937500013
 40
13.9119019732
100
AcDbArc
 50
324.0681130867
 51
350.9318869133
  0
ARC
  5
23E
100
AcDbEntity
  8
0
100
AcDbCircle
 62
7
  6
CONTINUOUS
 10
18.2018188444
 20
24.937500013
 40
13.9119019732
100
AcDbArc
 50
357.0681130867
 51
2.9318869133
  0
ARC
  5
23F
100
AcDbEntity
  8
0
100
AcDbCircle
 62
7
  6
CONTINUOUS
 10
18.2018188444
 20
24.937500013
 40
13.9119019732
100
AcDbArc
 50
42.0681130867
 51
47.9318869133
  0
ARC
  5
240
100
AcDbEntity
  8
0
100
AcDbCircle
 62
7
  6
CONTINUOUS
 10
18.2018188444
 20
24.937500013
 40
13.9119019732
100
AcDbArc
 50
54.0681130867
 51
80.9318869133
  0
ARC
  5
241
100
AcDbEntity
  8
0
100
AcDbCircle
 62
7
  6
CONTINUOUS
 10
18.2018188444
 20
24.937500013
 40
13.9119019732
100
AcDbArc
 50
87.0681130867
 51
92.9318869133
  0
ARC
  5
242
100
AcDbEntity
  8
0
100
AcDbCircle
 62
7
  6
CONTINUOUS
 10
18.2018188444
 20
24.937500013
 40
13.9119019732
100
AcDbArc
 50
99.0681130867
 51
129.8449576866
  0
ARC
  5
243
100
AcDbEntity
  8
0
100
AcDbCircle
 62
7
  6
CONTINUOUS
 10
18.2018188444
 20
24.937500013
 40
13.9119019732
100
AcDbArc
 50
140.1550423136
 51
170.9318869133
  0
ARC
  5
244
100
AcDbEntity
  8
0
100
AcDbCircle
 62
7
  6
CONTINUOUS
 10
18.2018188444
 20
24.937500013
 40
13.5475486237
100
AcDbArc
 50
175.8274055054
 51
184.1723543348
  0
ARC
  5
245
100
AcDbEntity
  8
0
100
AcDbCircle
 62
7
  6
CONTINUOUS
 10
18.2018188444
 20
24.937500013
 40
13.5475486237
100
AcDbArc
 50
187.8276456652
 51
217.1725979864
  0
ARC
  5
246
100
AcDbEntity
  8
0
100
AcDbCircle
 62
7
  6
CONTINUOUS
 10
18.2018188444
 20
24.937500013
 40
13.5475486237
100
AcDbArc
 50
220.8274055054
 51
229.1725979864
  0
ARC
  5
247
100
AcDbEntity
  8
0
100
AcDbCircle
 62
7
  6
CONTINUOUS
 10
18.2018188444
 20
24.937500013
 40
13.5475486237
100
AcDbArc
 50
232.8274055054
 51
262.1725986209
  0
ARC
  5
248
100
AcDbEntity
  8
0
100
AcDbCircle
 62
7
  6
CONTINUOUS
 10
18.2018188444
 20
24.937500013
 40
13.5475486237
100
AcDbArc
 50
265.8274048986
 51
274.1725986209
  0
ARC
  5
249
100
AcDbEntity
  8
0
100
AcDbCircle
 62
7
  6
CONTINUOUS
 10
18.2018188444
 20
24.937500013
 40
13.5475486237
100
AcDbArc
 50
7.8274048986
 51
37.172598005
  0
ARC
  5
24A
100
AcDbEntity
  8
0
100
AcDbCircle
 62
7
  6
CONTINUOUS
 10
18.2018188444
 20
24.937500013
 40
13.5475486237
100
AcDbArc
 50
277.8274048986
 51
307.172598005
  0
ARC
  5
24B
100
AcDbEntity
  8
0
100
AcDbCircle
 62
7
  6
CONTINUOUS
 10
18.2018188444
 20
24.937500013
 40
13.5475486237
100
AcDbArc
 50
310.8274054871
 51
319.172598005
  0
ARC
  5
24C
100
AcDbEntity
  8
0
100
AcDbCircle
 62
7
  6
CONTINUOUS
 10
18.2018188444
 20
24.937500013
 40
13.5475486237
100
AcDbArc
 50
322.8274054871
 51
352.1725986209
  0
ARC
  5
24D
100
AcDbEntity
  8
0
100
AcDbCircle
 62
7
  6
CONTINUOUS
 10
18.2018188444
 20
24.937500013
 40
13.5475486237
100
AcDbArc
 50
355.8274048986
 51
4.1725986209
  0
ARC
  5
24E
100
AcDbEntity
  8
0
100
AcDbCircle
 62
7
  6
CONTINUOUS
 10
18.2018188444
 20
24.937500013
 40
13.5475486237
100
AcDbArc
 50
129.9182577664
 51
140.0817463812
  0
ARC
  5
24F
100
AcDbEntity
  8
0
100
AcDbCircle
 62
7
  6
CONTINUOUS
 10
18.2018188444
 20
24.937500013
 40
13.5475486237
100
AcDbArc
 50
40.8274054871
 51
49.172598005
  0
ARC
  5
250
100
AcDbEntity
  8
0
100
AcDbCircle
 62
7
  6
CONTINUOUS
 10
18.2018188444
 20
24.937500013
 40
13.5475486237
100
AcDbArc
 50
52.8274054871
 51
82.1725986209
  0
ARC
  5
251
100
AcDbEntity
  8
0
100
AcDbCircle
 62
7
  6
CONTINUOUS
 10
18.2018188444
 20
24.937500013
 40
13.5475486237
100
AcDbArc
 50
85.8274048986
 51
94.1725986209
  0
ARC
  5
252
100
AcDbEntity
  8
0
100
AcDbCircle
 62
7
  6
CONTINUOUS
 10
18.2018188444
 20
24.937500013
 40
13.5475486237
100
AcDbArc
 50
97.8274048986
 51
129.7059217459
  0
ARC
  5
253
100
AcDbEntity
  8
0
100
AcDbCircle
 62
7
  6
CONTINUOUS
 10
18.2018188444
 20
24.937500013
 40
13.5475486237
100
AcDbArc
 50
140.2940782543
 51
172.1725980052
  0
ARC
  5
254
100
AcDbEntity
  8
0
100
AcDbCircle
 62
7
  6
CONTINUOUS
 10
18.2018188444
 20
24.937500013
 40
1.2
100
AcDbArc
 50
225.0
 51
45.0
  0
ARC
  5
255
100
AcDbEntity
  8
0
100
AcDbCircle
 62
7
  6
CONTINUOUS
 10
19.6919101631
 20
39.1146553046
 40
0.835054934
100
AcDbArc
 50
232.8584181265
 51
295.1415202443
  0
ARC
  5
256
100
AcDbEntity
  8
0
100
AcDbCircle
 62
7
  6
CONTINUOUS
 10
19.6923947306
 20
39.119382241
 40
0.605
100
AcDbArc
 50
178.9213455177
 51
349.0786544823
  0
ARC
  5
257
100
AcDbEntity
  8
0
100
AcDbCircle
 62
7
  6
CONTINUOUS
 10
32.3789766837
 20
26.4275670924
 40
0.835054934
100
AcDbArc
 50
154.8584181265
 51
217.1415202443
  0
ARC
  5
258
100
AcDbEntity
  8
0
100
AcDbCircle
 62
7
  6
CONTINUOUS
 10
32.3837010724
 20
26.4280758992
 40
0.605
100
AcDbArc
 50
100.9213455177
 51
271.0786544823
  0
ARC
  5
259
100
AcDbEntity
  8
0
100
AcDbCircle
 62
7
  6
CONTINUOUS
 10
29.2802351755
 20
33.9086089953
 40
0.8350549508
100
AcDbArc
 50
187.858375997
 51
250.1415621975
  0
ARC
  5
25A
100
AcDbEntity
  8
0
100
AcDbCircle
 62
7
  6
CONTINUOUS
 10
27.1729467616
 20
36.015901011
 40
0.8350549508
100
AcDbArc
 50
199.858375997
 51
262.1415621976
  0
ARC
  5
25B
100
AcDbEntity
  8
0
100
AcDbCircle
 62
7
  6
CONTINUOUS
 10
29.2839202548
 20
33.9116087894
 40
0.605
100
AcDbArc
 50
133.9213455177
 51
304.0786544823
  0
ARC
  5
25C
100
AcDbEntity
  8
0
100
AcDbCircle
 62
7
  6
CONTINUOUS
 10
27.1759276208
 20
36.0196014234
 40
0.605
100
AcDbArc
 50
145.9213455177
 51
316.0786544823
  0
SPLINE
  5
25D
100
AcDbEntity
  8
0
100
AcDbSpline
 62
7
  6
CONTINUOUS
 70
0
 71
3
 72
11
 73
7
 74
0
 42
0.0000001
 43
0.0000001
 44
0.0000000001
 40
0.0
 40
0.0
 40
0.0
 40
0.0
 40
0.2393587304
 40
0.4840051499
 40
0.7364733139
 40
1.0
 40
1.0
 40
1.0
 40
1.0
 10
4.4635216719
 20
27.1298004495
 30
0.0
 10
4.4363324295
 20
27.1245536184
 30
0.0
 10
4.3816165641
 20
27.1124945415
 30
0.0
 10
4.2996507871
 20
27.0890285164
 30
0.0
 10
4.2167346901
 20
27.0593941984
 30
0.0
 10
4.1619581158
 20
27.0354908257
 30
0.0
 10
4.1345606776
 20
27.0221182585
 30
0.0
  0
SPLINE
  5
25E
100
AcDbEntity
  8
0
100
AcDbSpline
 62
7
  6
CONTINUOUS
 70
0
 71
3
 72
11
 73
7
 74
0
 42
0.0000001
 43
0.0000001
 44
0.0000000001
 40
0.0
 40
0.0
 40
0.0
 40
0.0
 40
0.2635266833
 40
0.5159948145
 40
0.760641242
 40
1.0
 40
1.0
 40
1.0
 40
1.0
 10
4.0085475156
 20
25.8231831084
 30
0.0
 10
4.0325659905
 20
25.8044064774
 30
0.0
 10
4.0811758772
 20
25.7696366981
 30
0.0
 10
4.1561188937
 20
25.7234106464
 30
0.0
 10
4.2314148373
 20
25.6834157193
 30
0.0
 10
4.2824279355
 20
25.6602440871
 30
0.0
 10
4.3079322112
 20
25.6494589392
 30
0.0
  0
SPLINE
  5
25F
100
AcDbEntity
  8
0
100
AcDbSpline
 62
7
  6
CONTINUOUS
 70
0
 71
3
 72
22
 73
18
 74
0
 42
0.0000001
 43
0.0000001
 44
0.0000000001
 40
0.0
 40
0.0
 40
0.0
 40
0.0
 40
0.0023470078
 40
0.006967851
 40
0.0139142044
 40
0.0231931678
 40
0.0348032912
 40
0.0487406135
 40
0.0835313904
 40
0.1272037778
 40
0.179315887
 40
0.2394163143
 40
0.3067218382
 40
0.4593810761
 40
0.6302656407
 40
0.8123192741
 40
1.0
 40
1.0
 40
1.0
 40
1.0
 10
4.3079322112
 20
25.6494589392
 30
0.0
 10
4.3082767964
 20
25.6493132299
 30
0.0
 10
4.3094448874
 20
25.6494403862
 30
0.0
 10
4.3115927259
 20
25.6497706534
 30
0.0
 10
4.3148448988
 20
25.6505692863
 30
0.0
 10
4.3191125456
 20
25.6517475383
 30
0.0
 10
4.3244240291
 20
25.6533775857
 30
0.0
 10
4.3335603237
 20
25.6563795616
 30
0.0
 10
4.3474301964
 20
25.6613492974
 30
0.0
 10
4.3667816759
 20
25.6690244671
 30
0.0
 10
4.3895415742
 20
25.679011726
 30
0.0
 10
4.4153005228
 20
25.6914930084
 30
0.0
 10
4.4546792819
 20
25.7125494578
 30
0.0
 10
4.5075550193
 20
25.7456844444
 30
0.0
 10
4.5715311958
 20
25.7949284028
 30
0.0
 10
4.6340529439
 20
25.8544644332
 30
0.0
 10
4.6722573606
 20
25.8995231514
 30
0.0
 10
4.6903212331
 20
25.9233714904
 30
0.0
  0
SPLINE
  5
260
100
AcDbEntity
  8
0
100
AcDbSpline
 62
7
  6
CONTINUOUS
 70
0
 71
3
 72
38
 73
34
 74
0
 42
0.0000001
 43
0.0000001
 44
0.0000000001
 40
0.0
 40
0.0
 40
0.0
 40
0.0
 40
0.0008333496
 40
0.0026320282
 40
0.0055792146
 40
0.0097441201
 40
0.015127917
 40
0.0216962683
 40
0.0382465417
 40
0.0592012
 40
0.0844075039
 40
0.1136213945
 40
0.1465579434
 40
0.1829022552
 40
0.2223071827
 40
0.3087559306
 40
0.4025796491
 40
0.5001621872
 40
0.5977372368
 40
0.6915419349
 40
0.7779521861
 40
0.8173274303
 40
0.8536367624
 40
0.8865330869
 40
0.9157039639
 40
0.9408728516
 40
0.9618024461
 40
0.9782993685
 40
0.9902055381
 40
0.9944390613
 40
0.9974724562
 40
0.9992131288
 40
1.0
 40
1.0
 40
1.0
 40
1.0
 10
32.3951253031
 20
25.8235029377
 30
0.0
 10
32.3954608635
 20
25.8235092864
 30
0.0
 10
32.3961707297
 20
25.824607098
 30
0.0
 10
32.3966049383
 20
25.8266637767
 30
0.0
 10
32.3971766455
 20
25.8302893421
 30
0.0
 10
32.3975653815
 20
25.8352751139
 30
0.0
 10
32.3979048621
 20
25.8417704546
 30
0.0
 10
32.3982304108
 20
25.853239556
 30
0.0
 10
32.3983284332
 20
25.8709948857
 30
0.0
 10
32.3980188754
 20
25.8962481764
 30
0.0
 10
32.3972479238
 20
25.9265959433
 30
0.0
 10
32.3959890084
 20
25.9617554929
 30
0.0
 10
32.394216873
 20
26.0013838826
 30
0.0
 10
32.3919111059
 20
26.0450952991
 30
0.0
 10
32.3879823483
 20
26.1103006607
 30
0.0
 10
32.3816919467
 20
26.1985520942
 30
0.0
 10
32.3722271317
 20
26.3100568105
 30
0.0
 10
32.3608313471
 20
26.425884494
 30
0.0
 10
32.3478913482
 20
26.5415421348
 30
0.0
 10
32.3339640102
 20
26.6525513856
 30
0.0
 10
32.321769124
 20
26.7401468089
 30
0.0
 10
32.3120580665
 20
26.8047025273
 30
0.0
 10
32.3052296074
 20
26.8478961056
 30
0.0
 10
32.2987298217
 20
26.8869795181
 30
0.0
 10
32.292656974
 20
26.921584758
 30
0.0
 10
32.2871089271
 20
26.9513860759
 30
0.0
 10
32.2821654462
 20
26.9761101352
 30
0.0
 10
32.2779362661
 20
26.9955161475
 30
0.0
 10
32.2747405534
 20
27.0082868737
 30
0.0
 10
32.2725771498
 20
27.0156773835
 30
0.0
 10
32.2712759378
 20
27.0191118795
 30
0.0
 10
32.2704399337
 20
27.02110788
 30
0.0
 10
32.2694890373
 20
27.0218727344
 30
0.0
 10
32.2691778695
 20
27.0218127221
 30
0.0
  0
SPLINE
  5
261
100
AcDbEntity
  8
0
100
AcDbSpline
 62
7
  6
CONTINUOUS
 70
0
 71
3
 72
38
 73
34
 74
0
 42
0.0000001
 43
0.0000001
 44
0.0000000001
 40
0.0
 40
0.0
 40
0.0
 40
0.0
 40
0.0008333501
 40
0.0026320304
 40
0.0055792185
 40
0.0097441249
 40
0.0151279218
 40
0.0216962728
 40
0.0382465456
 40
0.0592012038
 40
0.0844075076
 40
0.1136213978
 40
0.1465579465
 40
0.182902258
 40
0.2223071852
 40
0.3087559323
 40
0.4025796501
 40
0.5001621874
 40
0.5977372362
 40
0.6915419336
 40
0.7779521842
 40
0.817327428
 40
0.8536367599
 40
0.8865330841
 40
0.9157039608
 40
0.9408728484
 40
0.9618024426
 40
0.9782993649
 40
0.9902055346
 40
0.9944390573
 40
0.9974724523
 40
0.9992131275
 40
1.0
 40
1.0
 40
1.0
 40
1.0
 10
4.0085123854
 20
24.0514970942
 30
0.0
 10
4.0081768247
 20
24.0514907456
 30
0.0
 10
4.007466959
 20
24.0503929319
 30
0.0
 10
4.0070327505
 20
24.0483362523
 30
0.0
 10
4.0064610434
 20
24.0447106847
 30
0.0
 10
4.0060723074
 20
24.039724912
 30
0.0
 10
4.0057328268
 20
24.0332295709
 30
0.0
 10
4.0054072781
 20
24.0217604699
 30
0.0
 10
4.0053092556
 20
24.0040051404
 30
0.0
 10
4.0056188135
 20
23.9787518499
 30
0.0
 10
4.006389765
 20
23.9484040829
 30
0.0
 10
4.0076486805
 20
23.9132445333
 30
0.0
 10
4.0094208158
 20
23.8736161437
 30
0.0
 10
4.0117265829
 20
23.8299047271
 30
0.0
 10
4.0156553406
 20
23.7646993655
 30
0.0
 10
4.0219457421
 20
23.676447932
 30
0.0
 10
4.0314105572
 20
23.5649432158
 30
0.0
 10
4.0428063418
 20
23.4491155322
 30
0.0
 10
4.0557463406
 20
23.3334578914
 30
0.0
 10
4.0696736786
 20
23.2224486405
 30
0.0
 10
4.0818685648
 20
23.1348532172
 30
0.0
 10
4.0915796224
 20
23.0702974988
 30
0.0
 10
4.0984080815
 20
23.0271039204
 30
0.0
 10
4.1049078672
 20
22.988020508
 30
0.0
 10
4.1109807149
 20
22.953415268
 30
0.0
 10
4.1165287618
 20
22.9236139502
 30
0.0
 10
4.1214722426
 20
22.8988898908
 30
0.0
 10
4.1257014228
 20
22.8794838787
 30
0.0
 10
4.1288971353
 20
22.8667131521
 30
0.0
 10
4.131060539
 20
22.8593226431
 30
0.0
 10
4.1323617515
 20
22.8558881451
 30
0.0
 10
4.1331977558
 20
22.8538921452
 30
0.0
 10
4.1341486519
 20
22.8531272857
 30
0.0
 10
4.1344598201
 20
22.8531872981
 30
0.0
  0
SPLINE
  5
262
100
AcDbEntity
  8
0
100
AcDbSpline
 62
7
  6
CONTINUOUS
 70
0
 71
3
 72
22
 73
18
 74
0
 42
0.0000001
 43
0.0000001
 44
0.0000000001
 40
0.0
 40
0.0
 40
0.0
 40
0.0
 40
0.1877196355
 40
0.3698019705
 40
0.5406960133
 40
0.6933436088
 40
0.7606361786
 40
0.8207301719
 40
0.8728296302
 40
0.9164843048
 40
0.9512669201
 40
0.965203253
 40
0.9768119141
 40
0.9860891904
 40
0.9930339057
 40
0.9976534732
 40
1.0
 40
1.0
 40
1.0
 40
1.0
 10
4.6901753005
 20
23.9518213359
 30
0.0
 10
4.6721099424
 20
23.9756572971
 30
0.0
 10
4.6339003196
 20
24.0206860195
 30
0.0
 10
4.5713951998
 20
24.0801936663
 30
0.0
 10
4.5074339008
 20
24.1293970221
 30
0.0
 10
4.4545833063
 20
24.1625075577
 30
0.0
 10
4.4152254057
 20
24.1835445981
 30
0.0
 10
4.389482632
 20
24.1960141858
 30
0.0
 10
4.3667395925
 20
24.2059938207
 30
0.0
 10
4.3474037639
 20
24.2136632692
 30
0.0
 10
4.3335438235
 20
24.2186259765
 30
0.0
 10
4.3244130838
 20
24.2216237957
 30
0.0
 10
4.3191048483
 20
24.2232525591
 30
0.0
 10
4.3148401971
 20
24.2244303268
 30
0.0
 10
4.3115905291
 20
24.2252289857
 30
0.0
 10
4.3094444365
 20
24.2255596026
 30
0.0
 10
4.308277202
 20
24.2256869208
 30
0.0
 10
4.307932862
 20
24.2255413154
 30
0.0
  0
SPLINE
  5
263
100
AcDbEntity
  8
0
100
AcDbSpline
 62
7
  6
CONTINUOUS
 70
0
 71
3
 72
11
 73
7
 74
0
 42
0.0000001
 43
0.0000001
 44
0.0000000001
 40
0.0
 40
0.0
 40
0.0
 40
0.0
 40
0.2393588108
 40
0.4840052638
 40
0.7364733432
 40
1.0
 40
1.0
 40
1.0
 40
1.0
 10
4.307932862
 20
24.2255413154
 30
0.0
 10
4.2824285249
 20
24.2147561559
 30
0.0
 10
4.2314152932
 20
24.1915845282
 30
0.0
 10
4.1561191733
 20
24.1515895631
 30
0.0
 10
4.0811760138
 20
24.105363422
 30
0.0
 10
4.0325660346
 20
24.070593584
 30
0.0
 10
4.0085475145
 20
24.0518169176
 30
0.0
  0
SPLINE
  5
264
100
AcDbEntity
  8
0
100
AcDbSpline
 62
7
  6
CONTINUOUS
 70
0
 71
3
 72
11
 73
7
 74
0
 42
0.0000001
 43
0.0000001
 44
0.0000000001
 40
0.0
 40
0.0
 40
0.0
 40
0.0
 40
0.2635266541
 40
0.5159947005
 40
0.7606411616
 40
1.0
 40
1.0
 40
1.0
 40
1.0
 10
4.1345606766
 20
22.8528817674
 30
0.0
 10
4.1619582793
 20
22.8395091198
 30
0.0
 10
4.2167351829
 20
22.8156056294
 30
0.0
 10
4.2996517808
 20
22.7859711452
 30
0.0
 10
4.381618103
 20
22.7625050998
 30
0.0
 10
4.4363343527
 20
22.7504460947
 30
0.0
 10
4.4635237815
 20
22.7451992685
 30
0.0
  0
SPLINE
  5
265
100
AcDbEntity
  8
0
100
AcDbSpline
 62
7
  6
CONTINUOUS
 70
0
 71
3
 72
22
 73
18
 74
0
 42
0.0000001
 43
0.0000001
 44
0.0000000001
 40
0.0
 40
0.0
 40
0.0
 40
0.0
 40
0.0023479723
 40
0.0069712448
 40
0.0139209711
 40
0.0232037188
 40
0.0348175063
 40
0.0487578412
 40
0.0835511328
 40
0.1272218661
 40
0.1793295756
 40
0.239424174
 40
0.3067234791
 40
0.4593727639
 40
0.6302530529
 40
0.8123077351
 40
1.0
 40
1.0
 40
1.0
 40
1.0
 10
4.4635237815
 20
22.7451992685
 30
0.0
 10
4.4638910958
 20
22.7451283939
 30
0.0
 10
4.4650071635
 20
22.7454958861
 30
0.0
 10
4.4670392722
 20
22.7462655805
 30
0.0
 10
4.4700541151
 20
22.7477230524
 30
0.0
 10
4.4739830022
 20
22.7497627039
 30
0.0
 10
4.4788384713
 20
22.7524609543
 30
0.0
 10
4.4871480149
 20
22.7572951509
 30
0.0
 10
4.4996757876
 20
22.7650362326
 30
0.0
 10
4.5169996496
 20
22.7765604787
 30
0.0
 10
4.5371745341
 20
22.7910522316
 30
0.0
 10
4.5597631413
 20
22.8086043984
 30
0.0
 10
4.5938858809
 20
22.8373682887
 30
0.0
 10
4.6386968877
 20
22.8807430828
 30
0.0
 10
4.6910189676
 20
22.9421705875
 30
0.0
 10
4.7397880782
 20
23.0133584961
 30
0.0
 10
4.7677900604
 20
23.0653434693
 30
0.0
 10
4.7805030096
 20
23.0924105913
 30
0.0
  0
SPLINE
  5
266
100
AcDbEntity
  8
0
100
AcDbSpline
 62
7
  6
CONTINUOUS
 70
0
 71
3
 72
22
 73
18
 74
0
 42
0.0000001
 43
0.0000001
 44
0.0000000001
 40
0.0
 40
0.0
 40
0.0
 40
0.0
 40
0.1877077166
 40
0.3697890823
 40
0.5406880456
 40
0.6933450977
 40
0.7606433951
 40
0.8207430138
 40
0.8728471634
 40
0.9165040374
 40
0.9512845995
 40
0.9652179805
 40
0.976822919
 40
0.9860962818
 40
0.9930374729
 40
0.9976544868
 40
1.0
 40
1.0
 40
1.0
 40
1.0
 10
31.7133154857
 20
25.9233727723
 30
0.0
 10
31.7313819833
 20
25.8995208722
 30
0.0
 10
31.7695976679
 20
25.8544602612
 30
0.0
 10
31.832120537
 20
25.7949088847
 30
0.0
 10
31.8961079925
 20
25.7456681042
 30
0.0
 10
31.9489844983
 20
25.7125326307
 30
0.0
 10
31.9883636966
 20
25.6914799693
 30
0.0
 10
32.0141211561
 20
25.6790012641
 30
0.0
 10
32.0368772378
 20
25.6690147676
 30
0.0
 10
32.0562234724
 20
25.6613406063
 30
0.0
 10
32.0700900105
 20
25.6563753186
 30
0.0
 10
32.0792240963
 20
25.6533763913
 30
0.0
 10
32.0845334495
 20
25.6517473603
 30
0.0
 10
32.0887986117
 20
25.6505695742
 30
0.0
 10
32.092048414
 20
25.6497711094
 30
0.0
 10
32.0941945748
 20
25.6494406144
 30
0.0
 10
32.0953617887
 20
25.6493135791
 30
0.0
 10
32.0957061557
 20
25.6494591963
 30
0.0
  0
SPLINE
  5
267
100
AcDbEntity
  8
0
100
AcDbSpline
 62
7
  6
CONTINUOUS
 70
0
 71
3
 72
38
 73
34
 74
0
 42
0.0000001
 43
0.0000001
 44
0.0000000001
 40
0.0
 40
0.0
 40
0.0
 40
0.0
 40
0.0008333496
 40
0.0026320282
 40
0.0055792146
 40
0.0097441201
 40
0.015127917
 40
0.0216962683
 40
0.0382465417
 40
0.0592012
 40
0.0844075039
 40
0.1136213945
 40
0.1465579434
 40
0.1829022552
 40
0.2223071827
 40
0.3087559306
 40
0.4025796491
 40
0.5001621872
 40
0.5977372368
 40
0.6915419349
 40
0.7779521861
 40
0.8173274303
 40
0.8536367624
 40
0.8865330869
 40
0.9157039639
 40
0.9408728516
 40
0.9618024461
 40
0.9782993685
 40
0.9902055381
 40
0.9944390613
 40
0.9974724562
 40
0.9992131288
 40
1.0
 40
1.0
 40
1.0
 40
1.0
 10
6.7808622336
 20
16.4642067037
 30
0.0
 10
6.7805842667
 20
16.4640186199
 30
0.0
 10
6.7805868339
 20
16.4627112968
 30
0.0
 10
6.7813428234
 20
16.460749934
 30
0.0
 10
6.7828379739
 20
16.4573979049
 30
0.0
 10
6.7852273983
 20
16.453004764
 30
0.0
 10
6.7884803021
 20
16.4473724186
 30
0.0
 10
6.7944537943
 20
16.4375763143
 30
0.0
 10
6.8040418314
 20
16.422632055
 30
0.0
 10
6.8180553763
 20
16.4016214607
 30
0.0
 10
6.8352305292
 20
16.376589572
 30
0.0
 10
6.8554356077
 20
16.3477879471
 30
0.0
 10
6.8785050134
 20
16.3155179571
 30
0.0
 10
6.9042457361
 20
16.2801142893
 30
0.0
 10
6.9430540547
 20
16.2275682265
 30
0.0
 10
6.9963948049
 20
16.1569803448
 30
0.0
 10
7.0650624878
 20
16.0686195289
 30
0.0
 10
7.1377040747
 20
15.9776848489
 30
0.0
 10
7.2115481368
 20
15.8877338181
 30
0.0
 10
7.2836885565
 20
15.8022189985
 30
0.0
 10
7.3416239354
 20
15.7353971062
 30
0.0
 10
7.3849278778
 20
15.6865451462
 30
0.0
 10
7.4141796143
 20
15.6540390087
 30
0.0
 10
7.4409171453
 20
15.624800938
 30
0.0
 10
7.4648576284
 20
15.5990860517
 30
0.0
 10
7.485741573
 20
15.5771142464
 30
0.0
 10
7.5033532127
 20
15.5590713182
 30
0.0
 10
7.5174693735
 20
15.5450994434
 30
0.0
 10
7.5271049596
 20
15.5361295211
 30
0.0
 10
7.5329445027
 20
15.5311095921
 30
0.0
 10
7.5359063514
 20
15.5289378722
 30
0.0
 10
7.5376945832
 20
15.5277192058
 30
0.0
 10
7.5389086416
 20
15.5275956402
 30
0.0
 10
7.5391369239
 20
15.5278154449
 30
0.0
  0
SPLINE
  5
268
100
AcDbEntity
  8
0
100
AcDbSpline
 62
7
  6
CONTINUOUS
 70
0
 71
3
 72
22
 73
18
 74
0
 42
0.0000001
 43
0.0000001
 44
0.0000000001
 40
0.0
 40
0.0
 40
0.0
 40
0.0
 40
0.1877076759
 40
0.3697892112
 40
0.5406888877
 40
0.6933464152
 40
0.7606447443
 40
0.8207442128
 40
0.8728481335
 40
0.9165047657
 40
0.9512850599
 40
0.96521831
 40
0.9768231352
 40
0.9860964053
 40
0.9930375275
 40
0.9976544993
 40
1.0
 40
1.0
 40
1.0
 40
1.0
 10
7.4070684733
 20
16.7517892698
 30
0.0
 10
7.3789259931
 20
16.7619533997
 30
0.0
 10
7.322333901
 20
16.7789306097
 30
0.0
 10
7.2374637722
 20
16.7948221204
 30
0.0
 10
7.1569808143
 20
16.8012688574
 30
0.0
 10
7.0945878603
 20
16.8002599111
 30
0.0
 10
7.0500955896
 20
16.7964686772
 30
0.0
 10
7.0216972713
 20
16.7929056724
 30
0.0
 10
6.997173514
 20
16.788887196
 30
0.0
 10
6.9767688964
 20
16.7847865764
 30
0.0
 10
6.9624352697
 20
16.7813985797
 30
0.0
 10
6.9531415397
 20
16.7789389335
 30
0.0
 10
6.9478015679
 20
16.7774134843
 30
0.0
 10
6.9435830826
 20
16.7760782937
 30
0.0
 10
6.940422732
 20
16.7749779782
 30
0.0
 10
6.938442831
 20
16.7740862757
 30
0.0
 10
6.9373947483
 20
16.7735571058
 30
0.0
 10
6.937185248
 20
16.7732474272
 30
0.0
  0
SPLINE
  5
269
100
AcDbEntity
  8
0
100
AcDbSpline
 62
7
  6
CONTINUOUS
 70
0
 71
3
 72
11
 73
7
 74
0
 42
0.0000001
 43
0.0000001
 44
0.0000000001
 40
0.0
 40
0.0
 40
0.0
 40
0.0
 40
0.2393587305
 40
0.48400515
 40
0.7364733139
 40
1.0
 40
1.0
 40
1.0
 40
1.0
 10
6.937185248
 20
16.7732474272
 30
0.0
 10
6.9216696201
 20
16.7503116595
 30
0.0
 10
6.8915067153
 20
16.7030946448
 30
0.0
 10
6.8501411437
 20
16.6285431022
 30
0.0
 10
6.8124652362
 20
16.5489579399
 30
0.0
 10
6.7906345858
 20
16.4933228156
 30
0.0
 10
6.7807175044
 20
16.4644940682
 30
0.0
  0
SPLINE
  5
26A
100
AcDbEntity
  8
0
100
AcDbSpline
 62
7
  6
CONTINUOUS
 70
0
 71
3
 72
11
 73
7
 74
0
 42
0.0000001
 43
0.0000001
 44
0.0000000001
 40
0.0
 40
0.0
 40
0.0
 40
0.0
 40
0.2635266833
 40
0.5159948145
 40
0.7606412421
 40
1.0
 40
1.0
 40
1.0
 40
1.0
 10
7.5393879178
 20
15.5276141319
 30
0.0
 10
7.5696486274
 20
15.5313206753
 30
0.0
 10
7.6286069545
 20
15.541107109
 30
0.0
 10
7.7142864242
 20
15.5614130695
 30
0.0
 10
7.7958093805
 20
15.5863746577
 30
0.0
 10
7.8482659063
 20
15.6060615469
 30
0.0
 10
7.8739264038
 20
15.616469542
 30
0.0
  0
SPLINE
  5
26B
100
AcDbEntity
  8
0
100
AcDbSpline
 62
7
  6
CONTINUOUS
 70
0
 71
3
 72
22
 73
18
 74
0
 42
0.0000001
 43
0.0000001
 44
0.0000000001
 40
0.0
 40
0.0
 40
0.0
 40
0.0
 40
0.0023470958
 40
0.0069681642
 40
0.0139147848
 40
0.0231939598
 40
0.0348041415
 40
0.0487412709
 40
0.0835307053
 40
0.1272012541
 40
0.1793123037
 40
0.2394134752
 40
0.3067209112
 40
0.45938245
 40
0.6302652753
 40
0.8123185335
 40
1.0
 40
1.0
 40
1.0
 40
1.0
 10
7.8739264038
 20
15.616469542
 30
0.0
 10
7.8742731073
 20
15.6166101738
 30
0.0
 10
7.8750091662
 20
15.6175261233
 30
0.0
 10
7.8762944154
 20
15.6192784892
 30
0.0
 10
7.878029363
 20
15.622142957
 30
0.0
 10
7.8802139247
 20
15.6259938684
 30
0.0
 10
7.8828170999
 20
15.6309022824
 30
0.0
 10
7.8871546422
 20
15.6394851095
 30
0.0
 10
7.893447854
 20
15.6528061925
 30
0.0
 10
7.9017040562
 20
15.6719162676
 30
0.0
 10
7.9107355485
 20
15.6950716855
 30
0.0
 10
7.9201242966
 20
15.7221118734
 30
0.0
 10
7.9330803185
 20
15.7648467823
 30
0.0
 10
7.9470394118
 20
15.8256658853
 30
0.0
 10
7.9574566744
 20
15.9057246469
 30
0.0
 10
7.9595676938
 20
15.9920323039
 30
0.0
 10
7.9547211055
 20
16.0509082952
 30
0.0
 10
7.9506308546
 20
16.0805448197
 30
0.0
  0
SPLINE
  5
26C
100
AcDbEntity
  8
0
100
AcDbSpline
 62
7
  6
CONTINUOUS
 70
0
 71
3
 72
11
 73
7
 74
0
 42
0.0000001
 43
0.0000001
 44
0.0000000001
 40
0.0
 40
0.0
 40
0.0
 40
0.0
 40
0.2393587302
 40
0.4840051497
 40
0.7364733139
 40
1.0
 40
1.0
 40
1.0
 40
1.0
 10
32.0957061557
 20
25.6494591963
 30
0.0
 10
32.1212103701
 20
25.660244333
 30
0.0
 10
32.1722233389
 20
25.6834159581
 30
0.0
 10
32.2475191052
 20
25.7234108373
 30
0.0
 10
32.3224619646
 20
25.7696367999
 30
0.0
 10
32.3710717482
 20
25.8044065163
 30
0.0
 10
32.3950901733
 20
25.8231831084
 30
0.0
  0
SPLINE
  5
26D
100
AcDbEntity
  8
0
100
AcDbSpline
 62
7
  6
CONTINUOUS
 70
0
 71
3
 72
11
 73
7
 74
0
 42
0.0000001
 43
0.0000001
 44
0.0000000001
 40
0.0
 40
0.0
 40
0.0
 40
0.0
 40
0.2635266833
 40
0.5159948146
 40
0.7606412422
 40
1.0
 40
1.0
 40
1.0
 40
1.0
 10
32.2690770112
 20
27.0221182585
 30
0.0
 10
32.2416795168
 20
27.0354908532
 30
0.0
 10
32.1869028296
 20
27.0593942655
 30
0.0
 10
32.1039865621
 20
27.0890286375
 30
0.0
 10
32.0220206035
 20
27.1124946724
 30
0.0
 10
31.9673046113
 20
27.1245537296
 30
0.0
 10
31.9401153071
 20
27.129800559
 30
0.0
  0
SPLINE
  5
26E
100
AcDbEntity
  8
0
100
AcDbSpline
 62
7
  6
CONTINUOUS
 70
0
 71
3
 72
38
 73
34
 74
0
 42
0.0000001
 43
0.0000001
 44
0.0000000001
 40
0.0
 40
0.0
 40
0.0
 40
0.0
 40
0.0008333496
 40
0.0026320282
 40
0.0055792146
 40
0.0097441201
 40
0.015127917
 40
0.0216962683
 40
0.0382465417
 40
0.0592012
 40
0.0844075039
 40
0.1136213945
 40
0.1465579434
 40
0.1829022552
 40
0.2223071827
 40
0.3087559306
 40
0.4025796491
 40
0.5001621872
 40
0.5977372368
 40
0.6915419349
 40
0.7779521861
 40
0.8173274303
 40
0.8536367624
 40
0.8865330869
 40
0.9157039639
 40
0.9408728516
 40
0.9618024461
 40
0.9782993685
 40
0.9902055381
 40
0.9944390613
 40
0.9974724562
 40
0.9992131288
 40
1.0
 40
1.0
 40
1.0
 40
1.0
 10
8.7921342762
 20
14.2748180925
 30
0.0
 10
8.7919014883
 20
14.2745763262
 30
0.0
 10
8.7921758073
 20
14.273298105
 30
0.0
 10
8.7933230668
 20
14.2715367817
 30
0.0
 10
8.7954824707
 20
14.2685688617
 30
0.0
 10
8.7987330658
 20
14.2647685109
 30
0.0
 10
8.8030859163
 20
14.2599355624
 30
0.0
 10
8.810965598
 20
14.2515954854
 30
0.0
 10
8.8234511997
 20
14.2389712589
 30
0.0
 10
8.8415268632
 20
14.2213333764
 30
0.0
 10
8.8635311201
 20
14.2004194096
 30
0.0
 10
8.8892828636
 20
14.1764480413
 30
0.0
 10
8.9185574557
 20
14.1496796272
 30
0.0
 10
8.9510965183
 20
14.1204014117
 30
0.0
 10
8.9999817228
 20
14.0770723095
 30
0.0
 10
9.0668328955
 20
14.019117108
 30
0.0
 10
9.1523712713
 20
13.9469640019
 30
0.0
 10
9.2423318484
 20
13.873119498
 30
0.0
 10
9.3332641114
 20
13.8004871568
 30
0.0
 10
9.4216076206
 20
13.731839878
 30
0.0
 10
9.4921700251
 20
13.6785236469
 30
0.0
 10
9.544684566
 20
13.6397426153
 30
0.0
 10
9.5800554879
 20
13.6140285929
 30
0.0
 10
9.6122876764
 20
13.5909884895
 30
0.0
 10
9.6410514281
 20
13.5708130414
 30
0.0
 10
9.6660472036
 20
13.553663389
 30
0.0
 10
9.6870253224
 20
13.5396764079
 30
0.0
 10
9.7037379273
 20
13.528944767
 30
0.0
 10
9.7150279044
 20
13.5221742099
 30
0.0
 10
9.7217835414
 20
13.5184780877
 30
0.0
 10
9.7251321926
 20
13.5169696281
 30
0.0
 10
9.7271347223
 20
13.5161493868
 30
0.0
 10
9.7283479413
 20
13.5162809383
 30
0.0
 10
9.7285255351
 20
13.5165434023
 30
0.0
  0
SPLINE
  5
26F
100
AcDbEntity
  8
0
100
AcDbSpline
 62
7
  6
CONTINUOUS
 70
0
 71
3
 72
22
 73
18
 74
0
 42
0.0000001
 43
0.0000001
 44
0.0000000001
 40
0.0
 40
0.0
 40
0.0
 40
0.0
 40
0.1877076759
 40
0.3697892111
 40
0.5406888877
 40
0.6933464151
 40
0.7606447442
 40
0.8207442128
 40
0.8728481334
 40
0.9165047657
 40
0.9512850599
 40
0.96521831
 40
0.9768231351
 40
0.9860964053
 40
0.9930375275
 40
0.9976544993
 40
1.0
 40
1.0
 40
1.0
 40
1.0
 10
9.3448646298
 20
14.6863118876
 30
0.0
 10
9.3152238889
 20
14.6904027562
 30
0.0
 10
9.2563387093
 20
14.6952428159
 30
0.0
 10
9.1700191655
 20
14.693141567
 30
0.0
 10
9.0899546013
 20
14.6827140795
 30
0.0
 10
9.0291348547
 20
14.6687549566
 30
0.0
 10
8.9864030888
 20
14.655796107
 30
0.0
 10
8.9593661322
 20
14.64640662
 30
0.0
 10
8.936213766
 20
14.6373771811
 30
0.0
 10
8.9171076051
 20
14.6291238114
 30
0.0
 10
8.9037916066
 20
14.6228297219
 30
0.0
 10
8.8952123561
 20
14.6184915498
 30
0.0
 10
8.8903062341
 20
14.6158891927
 30
0.0
 10
8.8864575346
 20
14.6137061068
 30
0.0
 10
8.8835950138
 20
14.6119727621
 30
0.0
 10
8.8818437737
 20
14.6106889008
 30
0.0
 10
8.8809286147
 20
14.6099533859
 30
0.0
 10
8.8807880783
 20
14.609606917
 30
0.0
  0
SPLINE
  5
270
100
AcDbEntity
  8
0
100
AcDbSpline
 62
7
  6
CONTINUOUS
 70
0
 71
3
 72
11
 73
7
 74
0
 42
0.0000001
 43
0.0000001
 44
0.0000000001
 40
0.0
 40
0.0
 40
0.0
 40
0.0
 40
0.2393587305
 40
0.48400515
 40
0.7364733139
 40
1.0
 40
1.0
 40
1.0
 40
1.0
 10
8.8807880783
 20
14.609606917
 30
0.0
 10
8.8703801184
 20
14.5839464704
 30
0.0
 10
8.8506933148
 20
14.5314900402
 30
0.0
 10
8.8257318174
 20
14.4499672417
 30
0.0
 10
8.8054259046
 20
14.3642879446
 30
0.0
 10
8.795639499
 20
14.3053297338
 30
0.0
 10
8.7919329633
 20
14.2750690865
 30
0.0
  0
SPLINE
  5
271
100
AcDbEntity
  8
0
100
AcDbSpline
 62
7
  6
CONTINUOUS
 70
0
 71
3
 72
11
 73
7
 74
0
 42
0.0000001
 43
0.0000001
 44
0.0000000001
 40
0.0
 40
0.0
 40
0.0
 40
0.0
 40
0.2635266833
 40
0.5159948145
 40
0.7606412421
 40
1.0
 40
1.0
 40
1.0
 40
1.0
 10
9.7288128995
 20
13.5163986731
 30
0.0
 10
9.7576417063
 20
13.5263157748
 30
0.0
 10
9.8132769385
 20
13.548146477
 30
0.0
 10
9.8928622596
 20
13.5858224669
 30
0.0
 10
9.9674139377
 20
13.6271881602
 30
0.0
 10
10.0146310282
 20
13.6573511687
 30
0.0
 10
10.0375668384
 20
13.6728668415
 30
0.0
  0
SPLINE
  5
272
100
AcDbEntity
  8
0
100
AcDbSpline
 62
7
  6
CONTINUOUS
 70
0
 71
3
 72
22
 73
18
 74
0
 42
0.0000001
 43
0.0000001
 44
0.0000000001
 40
0.0
 40
0.0
 40
0.0
 40
0.0
 40
0.0023470958
 40
0.0069681642
 40
0.0139147848
 40
0.0231939598
 40
0.0348041415
 40
0.0487412709
 40
0.0835307053
 40
0.1272012542
 40
0.1793123037
 40
0.2394134752
 40
0.3067209112
 40
0.4593824501
 40
0.6302652754
 40
0.8123185335
 40
1.0
 40
1.0
 40
1.0
 40
1.0
 10
10.0375668384
 20
13.6728668415
 30
0.0
 10
10.0378767266
 20
13.6730764839
 30
0.0
 10
10.0384062643
 20
13.674125453
 30
0.0
 10
10.0392990903
 20
13.6761067438
 30
0.0
 10
10.0404005688
 20
13.679269332
 30
0.0
 10
10.041736743
 20
13.6834902877
 30
0.0
 10
10.043262516
 20
13.6888326716
 30
0.0
 10
10.0457208025
 20
13.6981297691
 30
0.0
 10
10.0491068836
 20
13.7124681868
 30
0.0
 10
10.05320946
 20
13.7328772218
 30
0.0
 10
10.0572293104
 20
13.7574043911
 30
0.0
 10
10.0607909206
 20
13.7858057166
 30
0.0
 10
10.0645787352
 20
13.8303004736
 30
0.0
 10
10.0655877863
 20
13.8926927921
 30
0.0
 10
10.0591322542
 20
13.9731679484
 30
0.0
 10
10.0432527719
 20
14.0580284817
 30
0.0
 10
10.0262710862
 20
14.1146102289
 30
0.0
 10
10.0161084371
 20
14.1427487133
 30
0.0
  0
SPLINE
  5
273
100
AcDbEntity
  8
0
100
AcDbSpline
 62
7
  6
CONTINUOUS
 70
0
 71
3
 72
22
 73
18
 74
0
 42
0.0000001
 43
0.0000001
 44
0.0000000001
 40
0.0
 40
0.0
 40
0.0
 40
0.0
 40
0.0023470054
 40
0.0069678425
 40
0.0139141874
 40
0.0231931412
 40
0.0348032554
 40
0.0487405701
 40
0.0835313408
 40
0.1272037325
 40
0.179315853
 40
0.2394162952
 40
0.306721835
 40
0.4593810981
 40
0.6302656734
 40
0.8123193039
 40
1.0
 40
1.0
 40
1.0
 40
1.0
 10
31.9401153071
 20
27.129800559
 30
0.0
 10
31.9397479572
 20
27.1298714409
 30
0.0
 10
31.9386318289
 20
27.1295042041
 30
0.0
 10
31.936599592
 20
27.1287345935
 30
0.0
 10
31.9335845314
 20
27.1272772483
 30
0.0
 10
31.9296551138
 20
27.1252374498
 30
0.0
 10
31.9247986022
 20
27.122538702
 30
0.0
 10
31.9164860958
 20
27.1177027797
 30
0.0
 10
31.9039525646
 20
27.1099579262
 30
0.0
 10
31.886619696
 20
27.0984270617
 30
0.0
 10
31.8664335955
 20
27.0839259757
 30
0.0
 10
31.8438325146
 20
27.0663618222
 30
0.0
 10
31.809692113
 20
27.0375781521
 30
0.0
 10
31.7648609373
 20
26.9941736852
 30
0.0
 10
31.7125211436
 20
26.9327043242
 30
0.0
 10
31.6637438618
 20
26.8614701793
 30
0.0
 10
31.6357425393
 20
26.8094528753
 30
0.0
 10
31.6230317598
 20
26.7823699495
 30
0.0
  0
SPLINE
  5
274
100
AcDbEntity
  8
0
100
AcDbSpline
 62
7
  6
CONTINUOUS
 70
0
 71
3
 72
38
 73
34
 74
0
 42
0.0000001
 43
0.0000001
 44
0.0000000001
 40
0.0
 40
0.0
 40
0.0
 40
0.0
 40
0.0008333496
 40
0.0026320282
 40
0.0055792146
 40
0.0097441201
 40
0.015127917
 40
0.0216962683
 40
0.0382465417
 40
0.0592012
 40
0.0844075039
 40
0.1136213945
 40
0.1465579434
 40
0.1829022552
 40
0.2223071827
 40
0.3087559306
 40
0.4025796491
 40
0.5001621872
 40
0.5977372368
 40
0.6915419349
 40
0.7779521861
 40
0.8173274303
 40
0.8536367624
 40
0.8865330869
 40
0.9157039639
 40
0.9408728516
 40
0.9618024461
 40
0.9782993685
 40
0.9902055381
 40
0.9944390613
 40
0.9974724562
 40
0.9992131288
 40
1.0
 40
1.0
 40
1.0
 40
1.0
 10
16.1175061353
 20
10.8701409879
 30
0.0
 10
16.1174425783
 20
10.8698114403
 30
0.0
 10
16.1183688107
 20
10.8688888385
 30
0.0
 10
16.1202902689
 20
10.8680365109
 30
0.0
 10
16.1237177425
 20
10.8667234994
 30
0.0
 10
16.1285137404
 20
10.865306658
 30
0.0
 10
16.1347965604
 20
10.8636241386
 30
0.0
 10
16.1459473489
 20
10.8609211437
 30
0.0
 10
16.1632943021
 20
10.8571337226
 30
0.0
 10
16.1880601085
 20
10.8521860615
 30
0.0
 10
16.2179049937
 20
10.8466305104
 30
0.0
 10
16.252557966
 20
10.8405518341
 30
0.0
 10
16.291688828
 20
10.8340460386
 30
0.0
 10
16.3349244412
 20
10.8272133046
 30
0.0
 10
16.3995217438
 20
10.8174992525
 30
0.0
 10
16.4871525198
 20
10.8053036889
 30
0.0
 10
16.5981884361
 20
10.7913785409
 30
0.0
 10
16.7138543237
 20
10.7784433708
 30
0.0
 10
16.8296749446
 20
10.7670540239
 30
0.0
 10
16.9411540333
 20
10.7575968952
 30
0.0
 10
17.0293707458
 20
10.7513131813
 30
0.0
 10
17.0945348093
 20
10.7473901404
 30
0.0
 10
17.1382042208
 20
10.7450889314
 30
0.0
 10
17.1777849483
 20
10.7433207828
 30
0.0
 10
17.2128965968
 20
10.7420660902
 30
0.0
 10
17.2432001882
 20
10.7412968566
 30
0.0
 10
17.2684117749
 20
10.7409918896
 30
0.0
 10
17.2882730153
 20
10.7410939152
 30
0.0
 10
17.3014290965
 20
10.7415646105
 30
0.0
 10
17.3091079029
 20
10.7421441652
 30
0.0
 10
17.3127378841
 20
10.7427028707
 30
0.0
 10
17.3148640822
 20
10.7431056143
 30
0.0
 10
17.3158099252
 20
10.7438767091
 30
0.0
 10
17.3158159198
 20
10.7441935544
 30
0.0
  0
SPLINE
  5
275
100
AcDbEntity
  8
0
100
AcDbSpline
 62
7
  6
CONTINUOUS
 70
0
 71
3
 72
22
 73
18
 74
0
 42
0.0000001
 43
0.0000001
 44
0.0000000001
 40
0.0
 40
0.0
 40
0.0
 40
0.0
 40
0.1877077166
 40
0.3697890823
 40
0.5406880456
 40
0.6933450977
 40
0.7606433951
 40
0.8207430138
 40
0.8728471634
 40
0.9165040374
 40
0.9512845995
 40
0.9652179805
 40
0.976822919
 40
0.9860962818
 40
0.9930374729
 40
0.9976544868
 40
1.0
 40
1.0
 40
1.0
 40
1.0
 10
16.3569498063
 20
11.5162875187
 30
0.0
 10
16.3298628914
 20
11.5035749063
 30
0.0
 10
16.2778414753
 20
11.475562954
 30
0.0
 10
16.2065922038
 20
11.4267877869
 30
0.0
 10
16.1451237125
 20
11.3744363448
 30
0.0
 10
16.1017186848
 20
11.3296045698
 30
0.0
 10
16.0729386789
 20
11.2954629959
 30
0.0
 10
16.0553773864
 20
11.2728628674
 30
0.0
 10
16.0408778634
 20
11.25268037
 30
0.0
 10
16.0293490925
 20
11.235352445
 30
0.0
 10
16.0216092929
 20
11.2228212653
 30
0.0
 10
16.0167768161
 20
11.2145102933
 30
0.0
 10
16.0140795067
 20
11.2096556568
 30
0.0
 10
16.0120406811
 20
11.2057285741
 30
0.0
 10
16.0105839927
 20
11.2027157979
 30
0.0
 10
16.0098145079
 20
11.2006852497
 30
0.0
 10
16.0094475712
 20
11.1995699544
 30
0.0
 10
16.0095184085
 20
11.199202837
 30
0.0
  0
SPLINE
  5
276
100
AcDbEntity
  8
0
100
AcDbSpline
 62
7
  6
CONTINUOUS
 70
0
 71
3
 72
11
 73
7
 74
0
 42
0.0000001
 43
0.0000001
 44
0.0000000001
 40
0.0
 40
0.0
 40
0.0
 40
0.0
 40
0.2393587302
 40
0.4840051497
 40
0.7364733139
 40
1.0
 40
1.0
 40
1.0
 40
1.0
 10
16.0095184085
 20
11.199202837
 30
0.0
 10
16.0147652396
 20
11.172013595
 30
0.0
 10
16.0268243166
 20
11.1172977301
 30
0.0
 10
16.0502903416
 20
11.035331954
 30
0.0
 10
16.0799246594
 20
10.9524158579
 30
0.0
 10
16.1038280318
 20
10.8976392841
 30
0.0
 10
16.117200599
 20
10.8702418463
 30
0.0
  0
SPLINE
  5
277
100
AcDbEntity
  8
0
100
AcDbSpline
 62
7
  6
CONTINUOUS
 70
0
 71
3
 72
11
 73
7
 74
0
 42
0.0000001
 43
0.0000001
 44
0.0000000001
 40
0.0
 40
0.0
 40
0.0
 40
0.0
 40
0.2635266833
 40
0.5159948146
 40
0.7606412422
 40
1.0
 40
1.0
 40
1.0
 40
1.0
 10
17.316135749
 20
10.7442286842
 30
0.0
 10
17.3349123799
 20
10.7682471588
 30
0.0
 10
17.3696821589
 20
10.8168570451
 30
0.0
 10
17.4159082102
 20
10.8918000608
 30
0.0
 10
17.455903137
 20
10.9670960036
 30
0.0
 10
17.4790747692
 20
11.0181091011
 30
0.0
 10
17.489859917
 20
11.0436133766
 30
0.0
  0
SPLINE
  5
278
100
AcDbEntity
  8
0
100
AcDbSpline
 62
7
  6
CONTINUOUS
 70
0
 71
3
 72
22
 73
18
 74
0
 42
0.0000001
 43
0.0000001
 44
0.0000000001
 40
0.0
 40
0.0
 40
0.0
 40
0.0
 40
0.0023470054
 40
0.0069678425
 40
0.0139141874
 40
0.0231931412
 40
0.0348032554
 40
0.0487405701
 40
0.0835313408
 40
0.1272037325
 40
0.179315853
 40
0.2394162952
 40
0.306721835
 40
0.4593810981
 40
0.6302656734
 40
0.8123193039
 40
1.0
 40
1.0
 40
1.0
 40
1.0
 10
17.489859917
 20
11.0436133766
 30
0.0
 10
17.4900056263
 20
11.0439579619
 30
0.0
 10
17.4898784707
 20
11.0451260529
 30
0.0
 10
17.4895482037
 20
11.0472738916
 30
0.0
 10
17.4887495713
 20
11.050526065
 30
0.0
 10
17.4875713192
 20
11.0547937133
 30
0.0
 10
17.485941271
 20
11.0601051997
 30
0.0
 10
17.4829392925
 20
11.0692415027
 30
0.0
 10
17.4779695503
 20
11.0831113917
 30
0.0
 10
17.4702943689
 20
11.1024628971
 30
0.0
 10
17.4603070927
 20
11.1252228282
 30
0.0
 10
17.4478257871
 20
11.1509818141
 30
0.0
 10
17.4267692978
 20
11.1903606275
 30
0.0
 10
17.3936342482
 20
11.2432364306
 30
0.0
 10
17.3443901952
 20
11.3072126731
 30
0.0
 10
17.2848540544
 20
11.3697344657
 30
0.0
 10
17.2397952556
 20
11.4079388977
 30
0.0
 10
17.2159468763
 20
11.4260027731
 30
0.0
  0
SPLINE
  5
279
100
AcDbEntity
  8
0
100
AcDbSpline
 62
7
  6
CONTINUOUS
 70
0
 71
3
 72
38
 73
34
 74
0
 42
0.0000001
 43
0.0000001
 44
0.0000000001
 40
0.0
 40
0.0
 40
0.0
 40
0.0
 40
0.0008333496
 40
0.0026320282
 40
0.0055792146
 40
0.0097441201
 40
0.015127917
 40
0.0216962683
 40
0.0382465417
 40
0.0592012
 40
0.0844075039
 40
0.1136213945
 40
0.1465579434
 40
0.1829022552
 40
0.2223071827
 40
0.3087559306
 40
0.4025796491
 40
0.5001621872
 40
0.5977372368
 40
0.6915419349
 40
0.7779521861
 40
0.8173274303
 40
0.8536367624
 40
0.8865330869
 40
0.9157039639
 40
0.9408728516
 40
0.9618024461
 40
0.9782993685
 40
0.9902055381
 40
0.9944390613
 40
0.9974724562
 40
0.9992131288
 40
1.0
 40
1.0
 40
1.0
 40
1.0
 10
19.0878217691
 20
10.7441935544
 30
0.0
 10
19.0878281177
 20
10.7438579939
 30
0.0
 10
19.0889259294
 20
10.7431481278
 30
0.0
 10
19.0909826081
 20
10.7427139192
 30
0.0
 10
19.0946081735
 20
10.7421422119
 30
0.0
 10
19.0995939453
 20
10.741753476
 30
0.0
 10
19.106089286
 20
10.7414139954
 30
0.0
 10
19.1175583874
 20
10.7410884467
 30
0.0
 10
19.1353137171
 20
10.7409904242
 30
0.0
 10
19.1605670077
 20
10.7412999821
 30
0.0
 10
19.1909147747
 20
10.7420709336
 30
0.0
 10
19.2260743243
 20
10.7433298491
 30
0.0
 10
19.265702714
 20
10.7451019845
 30
0.0
 10
19.3094141305
 20
10.7474077515
 30
0.0
 10
19.3746194921
 20
10.7513365092
 30
0.0
 10
19.4628709256
 20
10.7576269108
 30
0.0
 10
19.5743756418
 20
10.7670917258
 30
0.0
 10
19.6902033253
 20
10.7784875104
 30
0.0
 10
19.8058609662
 20
10.7914275092
 30
0.0
 10
19.916870217
 20
10.8053548472
 30
0.0
 10
20.0044656403
 20
10.8175497334
 30
0.0
 10
20.0690213587
 20
10.827260791
 30
0.0
 10
20.112214937
 20
10.8340892501
 30
0.0
 10
20.1512983494
 20
10.8405890358
 30
0.0
 10
20.1859035894
 20
10.8466618835
 30
0.0
 10
20.2157049073
 20
10.8522099304
 30
0.0
 10
20.2404289666
 20
10.8571534112
 30
0.0
 10
20.2598349789
 20
10.8613825914
 30
0.0
 10
20.2726057051
 20
10.864578304
 30
0.0
 10
20.2799962149
 20
10.8667417077
 30
0.0
 10
20.2834307109
 20
10.8680429196
 30
0.0
 10
20.2854267114
 20
10.8688789237
 30
0.0
 10
20.2861915658
 20
10.8698298201
 30
0.0
 10
20.2861315535
 20
10.8701409879
 30
0.0
  0
SPLINE
  5
27A
100
AcDbEntity
  8
0
100
AcDbSpline
 62
7
  6
CONTINUOUS
 70
0
 71
3
 72
22
 73
18
 74
0
 42
0.0000001
 43
0.0000001
 44
0.0000000001
 40
0.0
 40
0.0
 40
0.0
 40
0.0
 40
0.1877077166
 40
0.3697890822
 40
0.5406880455
 40
0.6933450976
 40
0.7606433951
 40
0.8207430138
 40
0.8728471634
 40
0.9165040374
 40
0.9512845995
 40
0.9652179805
 40
0.976822919
 40
0.9860962818
 40
0.9930374729
 40
0.9976544868
 40
1.0
 40
1.0
 40
1.0
 40
1.0
 10
19.1876916039
 20
11.4260033719
 30
0.0
 10
19.1638397038
 20
11.4079368743
 30
0.0
 10
19.1187790928
 20
11.3697211898
 30
0.0
 10
19.0592277162
 20
11.3071983206
 30
0.0
 10
19.0099869357
 20
11.2432108651
 30
0.0
 10
18.9768514621
 20
11.1903343592
 30
0.0
 10
18.9557988007
 20
11.1509551609
 30
0.0
 10
18.9433200955
 20
11.1251977014
 30
0.0
 10
18.933333599
 20
11.1024416197
 30
0.0
 10
18.9256594376
 20
11.0830953851
 30
0.0
 10
18.92069415
 20
11.069228847
 30
0.0
 10
18.9176952226
 20
11.0600947612
 30
0.0
 10
18.9160661916
 20
11.054785408
 30
0.0
 10
18.9148884056
 20
11.0505202458
 30
0.0
 10
18.9140899408
 20
11.0472704434
 30
0.0
 10
18.9137594458
 20
11.0451242826
 30
0.0
 10
18.9136324105
 20
11.0439570688
 30
0.0
 10
18.9137780277
 20
11.0436127017
 30
0.0
  0
SPLINE
  5
27B
100
AcDbEntity
  8
0
100
AcDbSpline
 62
7
  6
CONTINUOUS
 70
0
 71
3
 72
11
 73
7
 74
0
 42
0.0000001
 43
0.0000001
 44
0.0000000001
 40
0.0
 40
0.0
 40
0.0
 40
0.0
 40
0.2393587302
 40
0.4840051497
 40
0.7364733139
 40
1.0
 40
1.0
 40
1.0
 40
1.0
 10
18.9137780277
 20
11.0436127017
 30
0.0
 10
18.9245631643
 20
11.0181084874
 30
0.0
 10
18.9477347895
 20
10.9670955186
 30
0.0
 10
18.9877296687
 20
10.8917997523
 30
0.0
 10
19.0339556313
 20
10.8168568928
 30
0.0
 10
19.0687253477
 20
10.7682471093
 30
0.0
 10
19.0875019398
 20
10.7442286842
 30
0.0
  0
SPLINE
  5
27C
100
AcDbEntity
  8
0
100
AcDbSpline
 62
7
  6
CONTINUOUS
 70
0
 71
3
 72
11
 73
7
 74
0
 42
0.0000001
 43
0.0000001
 44
0.0000000001
 40
0.0
 40
0.0
 40
0.0
 40
0.0
 40
0.2635266833
 40
0.5159948146
 40
0.7606412422
 40
1.0
 40
1.0
 40
1.0
 40
1.0
 10
20.2864370899
 20
10.8702418463
 30
0.0
 10
20.2998096846
 20
10.8976393407
 30
0.0
 10
20.3237130969
 20
10.9524160278
 30
0.0
 10
20.3533474689
 20
11.0353322953
 30
0.0
 10
20.3768135038
 20
11.117298254
 30
0.0
 10
20.388872561
 20
11.1720142462
 30
0.0
 10
20.3941193903
 20
11.1992035503
 30
0.0
  0
SPLINE
  5
27D
100
AcDbEntity
  8
0
100
AcDbSpline
 62
7
  6
CONTINUOUS
 70
0
 71
3
 72
22
 73
18
 74
0
 42
0.0000001
 43
0.0000001
 44
0.0000000001
 40
0.0
 40
0.0
 40
0.0
 40
0.0
 40
0.0023470054
 40
0.0069678425
 40
0.0139141874
 40
0.0231931412
 40
0.0348032554
 40
0.0487405701
 40
0.0835313409
 40
0.1272037325
 40
0.1793158531
 40
0.2394162952
 40
0.306721835
 40
0.4593810982
 40
0.6302656735
 40
0.8123193039
 40
1.0
 40
1.0
 40
1.0
 40
1.0
 10
20.3941193903
 20
11.1992035503
 30
0.0
 10
20.3941902723
 20
11.1995709003
 30
0.0
 10
20.3938230355
 20
11.2006870286
 30
0.0
 10
20.3930534249
 20
11.2027192655
 30
0.0
 10
20.3915960796
 20
11.2057343261
 30
0.0
 10
20.3895562812
 20
11.2096637436
 30
0.0
 10
20.3868575334
 20
11.2145202553
 30
0.0
 10
20.382021611
 20
11.2228327616
 30
0.0
 10
20.3742767576
 20
11.2353662928
 30
0.0
 10
20.3627458931
 20
11.2526991615
 30
0.0
 10
20.348244807
 20
11.272885262
 30
0.0
 10
20.3306806536
 20
11.2954863429
 30
0.0
 10
20.3018969834
 20
11.3296267445
 30
0.0
 10
20.2584925165
 20
11.3744579203
 30
0.0
 10
20.1970231554
 20
11.426797714
 30
0.0
 10
20.1257890104
 20
11.4755749958
 30
0.0
 10
20.0737717065
 20
11.5035763183
 30
0.0
 10
20.0466887806
 20
11.5162870977
 30
0.0
  0
SPLINE
  5
27E
100
AcDbEntity
  8
0
100
AcDbSpline
 62
7
  6
CONTINUOUS
 70
0
 71
3
 72
38
 73
34
 74
0
 42
0.0000001
 43
0.0000001
 44
0.0000000001
 40
0.0
 40
0.0
 40
0.0
 40
0.0
 40
0.0008333496
 40
0.0026320282
 40
0.0055792146
 40
0.0097441201
 40
0.015127917
 40
0.0216962683
 40
0.0382465417
 40
0.0592012
 40
0.0844075039
 40
0.1136213945
 40
0.1465579434
 40
0.1829022552
 40
0.2223071827
 40
0.3087559306
 40
0.4025796491
 40
0.5001621872
 40
0.5977372368
 40
0.6915419349
 40
0.7779521861
 40
0.8173274303
 40
0.8536367624
 40
0.8865330869
 40
0.9157039639
 40
0.9408728516
 40
0.9618024461
 40
0.9782993685
 40
0.9902055381
 40
0.9944390613
 40
0.9974724562
 40
0.9992131288
 40
1.0
 40
1.0
 40
1.0
 40
1.0
 10
26.6751121538
 20
13.5165434023
 30
0.0
 10
26.6753002375
 20
13.5162654353
 30
0.0
 10
26.6766075607
 20
13.5162680026
 30
0.0
 10
26.6785689235
 20
13.5170239921
 30
0.0
 10
26.6819209526
 20
13.5185191425
 30
0.0
 10
26.6863140934
 20
13.520908567
 30
0.0
 10
26.6919464389
 20
13.5241614707
 30
0.0
 10
26.7017425432
 20
13.5301349629
 30
0.0
 10
26.7166868025
 20
13.539723
 30
0.0
 10
26.7376973968
 20
13.5537365449
 30
0.0
 10
26.7627292854
 20
13.5709116978
 30
0.0
 10
26.7915309104
 20
13.5911167763
 30
0.0
 10
26.8238009003
 20
13.614186182
 30
0.0
 10
26.8592045681
 20
13.6399269047
 30
0.0
 10
26.911750631
 20
13.6787352233
 30
0.0
 10
26.9823385126
 20
13.7320759736
 30
0.0
 10
27.0706993286
 20
13.8007436564
 30
0.0
 10
27.1616340086
 20
13.8733852433
 30
0.0
 10
27.2515850394
 20
13.9472293054
 30
0.0
 10
27.3370998589
 20
14.0193697251
 30
0.0
 10
27.4039217512
 20
14.077305104
 30
0.0
 10
27.4527737113
 20
14.1206090464
 30
0.0
 10
27.4852798487
 20
14.1498607829
 30
0.0
 10
27.5145179194
 20
14.1765983139
 30
0.0
 10
27.5402328058
 20
14.200538797
 30
0.0
 10
27.562204611
 20
14.2214227417
 30
0.0
 10
27.5802475392
 20
14.2390343813
 30
0.0
 10
27.594219414
 20
14.2531505421
 30
0.0
 10
27.6031893364
 20
14.2627861282
 30
0.0
 10
27.6082092654
 20
14.2686256713
 30
0.0
 10
27.6103809853
 20
14.27158752
 30
0.0
 10
27.6115996517
 20
14.2733757519
 30
0.0
 10
27.6117232172
 20
14.2745898103
 30
0.0
 10
27.6115034126
 20
14.2748180925
 30
0.0
  0
SPLINE
  5
27F
100
AcDbEntity
  8
0
100
AcDbSpline
 62
7
  6
CONTINUOUS
 70
0
 71
3
 72
22
 73
18
 74
0
 42
0.0000001
 43
0.0000001
 44
0.0000000001
 40
0.0
 40
0.0
 40
0.0
 40
0.0
 40
0.187707675
 40
0.3697892102
 40
0.5406888871
 40
0.6933464153
 40
0.7606447448
 40
0.8207442137
 40
0.8728481348
 40
0.9165047672
 40
0.9512850613
 40
0.9652183111
 40
0.976823136
 40
0.9860964058
 40
0.9930375278
 40
0.9976544993
 40
1.0
 40
1.0
 40
1.0
 40
1.0
 10
26.387529594
 20
14.1427496595
 30
0.0
 10
26.3773654632
 20
14.1146071785
 30
0.0
 10
26.3603882513
 20
14.0580150847
 30
0.0
 10
26.3444967386
 20
13.9731449529
 30
0.0
 10
26.3380500002
 20
13.8926619918
 30
0.0
 10
26.339058946
 20
13.8302690351
 30
0.0
 10
26.3428501798
 20
13.7857767624
 30
0.0
 10
26.3464131847
 20
13.7573784428
 30
0.0
 10
26.3504316612
 20
13.7328546843
 30
0.0
 10
26.3545322808
 20
13.7124500659
 30
0.0
 10
26.3579202777
 20
13.6981164386
 30
0.0
 10
26.3603799239
 20
13.6888227084
 30
0.0
 10
26.3619053731
 20
13.6834827364
 30
0.0
 10
26.3632405638
 20
13.6792642511
 30
0.0
 10
26.3643408793
 20
13.6761039006
 30
0.0
 10
26.3652325818
 20
13.6741239995
 30
0.0
 10
26.3657617517
 20
13.6730759169
 30
0.0
 10
26.3660714303
 20
13.6728664166
 30
0.0
  0
SPLINE
  5
280
100
AcDbEntity
  8
0
100
AcDbSpline
 62
7
  6
CONTINUOUS
 70
0
 71
3
 72
11
 73
7
 74
0
 42
0.0000001
 43
0.0000001
 44
0.0000000001
 40
0.0
 40
0.0
 40
0.0
 40
0.0
 40
0.2393587305
 40
0.48400515
 40
0.7364733139
 40
1.0
 40
1.0
 40
1.0
 40
1.0
 10
26.3660714303
 20
13.6728664166
 30
0.0
 10
26.389007198
 20
13.6573507887
 30
0.0
 10
26.4362242127
 20
13.6271878839
 30
0.0
 10
26.5107757553
 20
13.5858223123
 30
0.0
 10
26.5903609175
 20
13.5481464048
 30
0.0
 10
26.6459960418
 20
13.5263157544
 30
0.0
 10
26.6748247893
 20
13.5163986731
 30
0.0
  0
SPLINE
  5
281
100
AcDbEntity
  8
0
100
AcDbSpline
 62
7
  6
CONTINUOUS
 70
0
 71
3
 72
11
 73
7
 74
0
 42
0.0000001
 43
0.0000001
 44
0.0000000001
 40
0.0
 40
0.0
 40
0.0
 40
0.0
 40
0.2635266833
 40
0.5159948145
 40
0.7606412421
 40
1.0
 40
1.0
 40
1.0
 40
1.0
 10
27.6117047255
 20
14.2750690865
 30
0.0
 10
27.6079981822
 20
14.305329796
 30
0.0
 10
27.5982117484
 20
14.3642881231
 30
0.0
 10
27.577905788
 20
14.4499675927
 30
0.0
 10
27.5529441998
 20
14.531490549
 30
0.0
 10
27.5332573106
 20
14.5839470749
 30
0.0
 10
27.5228493155
 20
14.6096075723
 30
0.0
  0
SPLINE
  5
282
100
AcDbEntity
  8
0
100
AcDbSpline
 62
7
  6
CONTINUOUS
 70
0
 71
3
 72
22
 73
18
 74
0
 42
0.0000001
 43
0.0000001
 44
0.0000000001
 40
0.0
 40
0.0
 40
0.0
 40
0.0
 40
0.0023470957
 40
0.006968164
 40
0.0139147843
 40
0.023193959
 40
0.0348041404
 40
0.0487412696
 40
0.0835307038
 40
0.1272012528
 40
0.1793123027
 40
0.2394134746
 40
0.3067209111
 40
0.4593824507
 40
0.6302652763
 40
0.8123185344
 40
1.0
 40
1.0
 40
1.0
 40
1.0
 10
27.5228493155
 20
14.6096075723
 30
0.0
 10
27.5227086837
 20
14.6099542758
 30
0.0
 10
27.5217927342
 20
14.6106903348
 30
0.0
 10
27.5200403683
 20
14.6119755839
 30
0.0
 10
27.5171759005
 20
14.6137105315
 30
0.0
 10
27.513324989
 20
14.6158950933
 30
0.0
 10
27.508416575
 20
14.6184982685
 30
0.0
 10
27.4998337477
 20
14.622835811
 30
0.0
 10
27.4865126642
 20
14.6291290229
 30
0.0
 10
27.4674025883
 20
14.6373852255
 30
0.0
 10
27.4442471693
 20
14.6464167181
 30
0.0
 10
27.4172069801
 20
14.6558054665
 30
0.0
 10
27.3744720692
 20
14.6687614887
 30
0.0
 10
27.3136529635
 20
14.6827205821
 30
0.0
 10
27.2335941984
 20
14.693137844
 30
0.0
 10
27.1472865381
 20
14.6952488621
 30
0.0
 10
27.0884105448
 20
14.6904022723
 30
0.0
 10
27.0587740193
 20
14.6863120207
 30
0.0
  0
SPLINE
  5
283
100
AcDbEntity
  8
0
100
AcDbSpline
 62
7
  6
CONTINUOUS
 70
0
 71
3
 72
38
 73
34
 74
0
 42
0.0000001
 43
0.0000001
 44
0.0000000001
 40
0.0
 40
0.0
 40
0.0
 40
0.0
 40
0.0008333496
 40
0.0026320282
 40
0.0055792146
 40
0.0097441201
 40
0.015127917
 40
0.0216962683
 40
0.0382465417
 40
0.0592012
 40
0.0844075039
 40
0.1136213945
 40
0.1465579434
 40
0.1829022552
 40
0.2223071827
 40
0.3087559306
 40
0.4025796491
 40
0.5001621872
 40
0.5977372368
 40
0.6915419349
 40
0.7779521861
 40
0.8173274303
 40
0.8536367624
 40
0.8865330869
 40
0.9157039639
 40
0.9408728516
 40
0.9618024461
 40
0.9782993685
 40
0.9902055381
 40
0.9944390613
 40
0.9974724562
 40
0.9992131288
 40
1.0
 40
1.0
 40
1.0
 40
1.0
 10
29.6227754552
 20
33.4107933224
 30
0.0
 10
29.6230534222
 20
33.4109814061
 30
0.0
 10
29.6230508549
 20
33.4122887293
 30
0.0
 10
29.6222948654
 20
33.4142500921
 30
0.0
 10
29.620799715
 20
33.4176021212
 30
0.0
 10
29.6184102905
 20
33.421995262
 30
0.0
 10
29.6151573867
 20
33.4276276075
 30
0.0
 10
29.6091838946
 20
33.4374237118
 30
0.0
 10
29.5995958575
 20
33.4523679711
 30
0.0
 10
29.5855823125
 20
33.4733785654
 30
0.0
 10
29.5684071597
 20
33.498410454
 30
0.0
 10
29.5482020812
 20
33.527212079
 30
0.0
 10
29.5251326755
 20
33.559482069
 30
0.0
 10
29.4993919527
 20
33.5948857368
 30
0.0
 10
29.4605836341
 20
33.6474317996
 30
0.0
 10
29.4072428839
 20
33.7180196812
 30
0.0
 10
29.3385752011
 20
33.8063804972
 30
0.0
 10
29.2659336141
 20
33.8973151772
 30
0.0
 10
29.1920895521
 20
33.987266208
 30
0.0
 10
29.1199491323
 20
34.0727810275
 30
0.0
 10
29.0620137534
 20
34.1396029199
 30
0.0
 10
29.0187098111
 20
34.1884548799
 30
0.0
 10
28.9894580746
 20
34.2209610174
 30
0.0
 10
28.9627205436
 20
34.250199088
 30
0.0
 10
28.9387800604
 20
34.2759139744
 30
0.0
 10
28.9178961158
 20
34.2978857797
 30
0.0
 10
28.9002844761
 20
34.3159287079
 30
0.0
 10
28.8861683154
 20
34.3299005826
 30
0.0
 10
28.8765327293
 20
34.338870505
 30
0.0
 10
28.8706931862
 20
34.343890434
 30
0.0
 10
28.8677313374
 20
34.3460621539
 30
0.0
 10
28.8659431056
 20
34.3472808203
 30
0.0
 10
28.8647290472
 20
34.3474043859
 30
0.0
 10
28.864500765
 20
34.3471845812
 30
0.0
  0
SPLINE
  5
284
100
AcDbEntity
  8
0
100
AcDbSpline
 62
7
  6
CONTINUOUS
 70
0
 71
3
 72
38
 73
34
 74
0
 42
0.0000001
 43
0.0000001
 44
0.0000000001
 40
0.0
 40
0.0
 40
0.0
 40
0.0
 40
0.0008333496
 40
0.0026320282
 40
0.0055792146
 40
0.0097441201
 40
0.015127917
 40
0.0216962683
 40
0.0382465417
 40
0.0592012
 40
0.0844075039
 40
0.1136213945
 40
0.1465579434
 40
0.1829022552
 40
0.2223071827
 40
0.3087559306
 40
0.4025796491
 40
0.5001621872
 40
0.5977372368
 40
0.6915419349
 40
0.7779521861
 40
0.8173274303
 40
0.8536367624
 40
0.8865330869
 40
0.9157039639
 40
0.9408728516
 40
0.9618024461
 40
0.9782993685
 40
0.9902055381
 40
0.9944390613
 40
0.9974724562
 40
0.9992131288
 40
1.0
 40
1.0
 40
1.0
 40
1.0
 10
28.864500765
 20
15.5278154449
 30
0.0
 10
28.8647425312
 20
15.5275826569
 30
0.0
 10
28.8660207525
 20
15.5278569759
 30
0.0
 10
28.8677820757
 20
15.5290042354
 30
0.0
 10
28.8707499957
 20
15.5311636393
 30
0.0
 10
28.8745503466
 20
15.5344142345
 30
0.0
 10
28.8793832951
 20
15.5387670849
 30
0.0
 10
28.8877233721
 20
15.5466467666
 30
0.0
 10
28.9003475985
 20
15.5591323683
 30
0.0
 10
28.9179854811
 20
15.5772080318
 30
0.0
 10
28.9388994478
 20
15.5992122887
 30
0.0
 10
28.9628708161
 20
15.6249640323
 30
0.0
 10
28.9896392303
 20
15.6542386243
 30
0.0
 10
29.0189174458
 20
15.6867776869
 30
0.0
 10
29.062246548
 20
15.7356628914
 30
0.0
 10
29.1202017494
 20
15.8025140641
 30
0.0
 10
29.1923548555
 20
15.88805244
 30
0.0
 10
29.2661993594
 20
15.978013017
 30
0.0
 10
29.3388317006
 20
16.06894528
 30
0.0
 10
29.4074789795
 20
16.1572887892
 30
0.0
 10
29.4607952106
 20
16.2278511937
 30
0.0
 10
29.4995762422
 20
16.2803657347
 30
0.0
 10
29.5252902646
 20
16.3157366565
 30
0.0
 10
29.548330368
 20
16.347968845
 30
0.0
 10
29.5685058161
 20
16.3767325967
 30
0.0
 10
29.5856554684
 20
16.4017283722
 30
0.0
 10
29.5996424496
 20
16.422706491
 30
0.0
 10
29.6103740905
 20
16.4394190959
 30
0.0
 10
29.6171446476
 20
16.4507090731
 30
0.0
 10
29.6208407698
 20
16.4574647101
 30
0.0
 10
29.6223492294
 20
16.4608133612
 30
0.0
 10
29.6231694707
 20
16.4628158909
 30
0.0
 10
29.6230379191
 20
16.4640291099
 30
0.0
 10
29.6227754552
 20
16.4642067037
 30
0.0
  0
SPLINE
  5
285
100
AcDbEntity
  8
0
100
AcDbSpline
 62
7
  6
CONTINUOUS
 70
0
 71
3
 72
22
 73
18
 74
0
 42
0.0000001
 43
0.0000001
 44
0.0000000001
 40
0.0
 40
0.0
 40
0.0
 40
0.0
 40
0.187707675
 40
0.3697892102
 40
0.5406888871
 40
0.6933464153
 40
0.7606447448
 40
0.8207442137
 40
0.8728481348
 40
0.9165047672
 40
0.9512850613
 40
0.9652183111
 40
0.976823136
 40
0.9860964058
 40
0.9930375278
 40
0.9976544993
 40
1.0
 40
1.0
 40
1.0
 40
1.0
 10
28.4530069723
 20
16.0805458167
 30
0.0
 10
28.448916103
 20
16.0509050748
 30
0.0
 10
28.4440760419
 20
15.9920198932
 30
0.0
 10
28.4461772894
 20
15.9057003461
 30
0.0
 10
28.4566047763
 20
15.8256357785
 30
0.0
 10
28.4705638993
 20
15.7648160292
 30
0.0
 10
28.4835227492
 20
15.7220842613
 30
0.0
 10
28.4929122365
 20
15.6950473035
 30
0.0
 10
28.5019416757
 20
15.6718949362
 30
0.0
 10
28.5101950457
 20
15.6527887744
 30
0.0
 10
28.5164891354
 20
15.6394727755
 30
0.0
 10
28.5208273076
 20
15.6308935247
 30
0.0
 10
28.5234296647
 20
15.6259874027
 30
0.0
 10
28.5256127507
 20
15.6221387032
 30
0.0
 10
28.5273460955
 20
15.6192761823
 30
0.0
 10
28.5286299567
 20
15.6175249423
 30
0.0
 10
28.5293654716
 20
15.6166097833
 30
0.0
 10
28.5297119406
 20
15.6164692469
 30
0.0
  0
SPLINE
  5
286
100
AcDbEntity
  8
0
100
AcDbSpline
 62
7
  6
CONTINUOUS
 70
0
 71
3
 72
11
 73
7
 74
0
 42
0.0000001
 43
0.0000001
 44
0.0000000001
 40
0.0
 40
0.0
 40
0.0
 40
0.0
 40
0.2393587305
 40
0.48400515
 40
0.7364733139
 40
1.0
 40
1.0
 40
1.0
 40
1.0
 10
28.5297119406
 20
15.6164692469
 30
0.0
 10
28.5553723871
 20
15.606061287
 30
0.0
 10
28.6078288173
 20
15.5863744834
 30
0.0
 10
28.6893516158
 20
15.5614129861
 30
0.0
 10
28.7750309129
 20
15.5411070732
 30
0.0
 10
28.8339891237
 20
15.5313206676
 30
0.0
 10
28.864249771
 20
15.5276141319
 30
0.0
  0
SPLINE
  5
287
100
AcDbEntity
  8
0
100
AcDbSpline
 62
7
  6
CONTINUOUS
 70
0
 71
3
 72
11
 73
7
 74
0
 42
0.0000001
 43
0.0000001
 44
0.0000000001
 40
0.0
 40
0.0
 40
0.0
 40
0.0
 40
0.2635266833
 40
0.5159948145
 40
0.7606412421
 40
1.0
 40
1.0
 40
1.0
 40
1.0
 10
29.6229201844
 20
16.4644940682
 30
0.0
 10
29.6130030826
 20
16.4933228749
 30
0.0
 10
29.5911723804
 20
16.5489581071
 30
0.0
 10
29.5534963905
 20
16.6285434282
 30
0.0
 10
29.5121306973
 20
16.7030951063
 30
0.0
 10
29.4819676889
 20
16.7503121968
 30
0.0
 10
29.466452016
 20
16.7732480069
 30
0.0
  0
SPLINE
  5
288
100
AcDbEntity
  8
0
100
AcDbSpline
 62
7
  6
CONTINUOUS
 70
0
 71
3
 72
22
 73
18
 74
0
 42
0.0000001
 43
0.0000001
 44
0.0000000001
 40
0.0
 40
0.0
 40
0.0
 40
0.0
 40
0.0023470957
 40
0.006968164
 40
0.0139147843
 40
0.023193959
 40
0.0348041404
 40
0.0487412696
 40
0.0835307038
 40
0.1272012528
 40
0.1793123027
 40
0.2394134746
 40
0.3067209111
 40
0.4593824507
 40
0.6302652763
 40
0.8123185343
 40
1.0
 40
1.0
 40
1.0
 40
1.0
 10
29.466452016
 20
16.7732480069
 30
0.0
 10
29.4662423737
 20
16.7735578951
 30
0.0
 10
29.4651934046
 20
16.7740874328
 30
0.0
 10
29.4632121138
 20
16.7749802589
 30
0.0
 10
29.4600495256
 20
16.7760817373
 30
0.0
 10
29.4558285698
 20
16.7774179116
 30
0.0
 10
29.4504861858
 20
16.7789436846
 30
0.0
 10
29.4411890881
 20
16.7814019712
 30
0.0
 10
29.4268506699
 20
16.7847880524
 30
0.0
 10
29.406441634
 20
16.7888906289
 30
0.0
 10
29.3819144636
 20
16.7929104794
 30
0.0
 10
29.3535131368
 20
16.7964720897
 30
0.0
 10
29.3090183778
 20
16.8002599042
 30
0.0
 10
29.2466260567
 20
16.8012689547
 30
0.0
 10
29.1661508972
 20
16.7948134213
 30
0.0
 10
29.081290361
 20
16.778933937
 30
0.0
 10
29.0247086121
 20
16.7619522495
 30
0.0
 10
28.996570127
 20
16.7517895995
 30
0.0
  0
SPLINE
  5
289
100
AcDbEntity
  8
0
100
AcDbSpline
 62
7
  6
CONTINUOUS
 70
0
 71
3
 72
22
 73
18
 74
0
 42
0.0000001
 43
0.0000001
 44
0.0000000001
 40
0.0
 40
0.0
 40
0.0
 40
0.0
 40
0.187707675
 40
0.3697892102
 40
0.5406888871
 40
0.6933464153
 40
0.7606447448
 40
0.8207442137
 40
0.8728481348
 40
0.9165047672
 40
0.9512850613
 40
0.9652183111
 40
0.976823136
 40
0.9860964058
 40
0.9930375278
 40
0.9976544993
 40
1.0
 40
1.0
 40
1.0
 40
1.0
 10
28.996569198
 20
33.1232107626
 30
0.0
 10
29.024711679
 20
33.1130466318
 30
0.0
 10
29.0813037728
 20
33.0960694199
 30
0.0
 10
29.1661739045
 20
33.0801779072
 30
0.0
 10
29.2466568657
 20
33.0737311688
 30
0.0
 10
29.3090498224
 20
33.0747401146
 30
0.0
 10
29.3535420951
 20
33.0785313484
 30
0.0
 10
29.3819404147
 20
33.0820943533
 30
0.0
 10
29.4064641731
 20
33.0861128298
 30
0.0
 10
29.4268687916
 20
33.0902134494
 30
0.0
 10
29.4412024188
 20
33.0936014463
 30
0.0
 10
29.4504961491
 20
33.0960610925
 30
0.0
 10
29.455836121
 20
33.0975865418
 30
0.0
 10
29.4600546063
 20
33.0989217324
 30
0.0
 10
29.4632149569
 20
33.1000220479
 30
0.0
 10
29.4651948579
 20
33.1009137504
 30
0.0
 10
29.4662429406
 20
33.1014429203
 30
0.0
 10
29.4664524409
 20
33.101752599
 30
0.0
  0
SPLINE
  5
28A
100
AcDbEntity
  8
0
100
AcDbSpline
 62
7
  6
CONTINUOUS
 70
0
 71
3
 72
38
 73
34
 74
0
 42
0.0000001
 43
0.0000001
 44
0.0000000001
 40
0.0
 40
0.0
 40
0.0
 40
0.0
 40
0.0008333496
 40
0.0026320282
 40
0.0055792146
 40
0.0097441201
 40
0.015127917
 40
0.0216962683
 40
0.0382465417
 40
0.0592012
 40
0.0844075039
 40
0.1136213945
 40
0.1465579434
 40
0.1829022552
 40
0.2223071827
 40
0.3087559306
 40
0.4025796491
 40
0.5001621872
 40
0.5977372368
 40
0.6915419349
 40
0.7779521861
 40
0.8173274303
 40
0.8536367624
 40
0.8865330869
 40
0.9157039639
 40
0.9408728516
 40
0.9618024461
 40
0.9782993685
 40
0.9902055381
 40
0.9944390613
 40
0.9974724562
 40
0.9992131288
 40
1.0
 40
1.0
 40
1.0
 40
1.0
 10
32.2691778695
 20
22.8531873039
 30
0.0
 10
32.2695074172
 20
22.8531237469
 30
0.0
 10
32.2704300189
 20
22.8540499793
 30
0.0
 10
32.2712823465
 20
22.8559714375
 30
0.0
 10
32.2725953581
 20
22.8593989111
 30
0.0
 10
32.2740121995
 20
22.864194909
 30
0.0
 10
32.2756947189
 20
22.870477729
 30
0.0
 10
32.2783977138
 20
22.8816285176
 30
0.0
 10
32.2821851349
 20
22.8989754707
 30
0.0
 10
32.2871327959
 20
22.9237412771
 30
0.0
 10
32.2926883471
 20
22.9535861623
 30
0.0
 10
32.2987670233
 20
22.9882391347
 30
0.0
 10
32.3052728189
 20
23.0273699966
 30
0.0
 10
32.3121055529
 20
23.0706056098
 30
0.0
 10
32.321819605
 20
23.1352029124
 30
0.0
 10
32.3340151685
 20
23.2228336884
 30
0.0
 10
32.3479403165
 20
23.3338696047
 30
0.0
 10
32.3608754867
 20
23.4495354923
 30
0.0
 10
32.3722648335
 20
23.5653561132
 30
0.0
 10
32.3817219623
 20
23.676835202
 30
0.0
 10
32.3880056762
 20
23.7650519145
 30
0.0
 10
32.3919287171
 20
23.830215978
 30
0.0
 10
32.3942299261
 20
23.8738853894
 30
0.0
 10
32.3959980747
 20
23.913466117
 30
0.0
 10
32.3972527672
 20
23.9485777655
 30
0.0
 10
32.3980220008
 20
23.9788813568
 30
0.0
 10
32.3983269679
 20
24.0040929436
 30
0.0
 10
32.3982249423
 20
24.0239541839
 30
0.0
 10
32.3977542469
 20
24.0371102652
 30
0.0
 10
32.3971746923
 20
24.0447890715
 30
0.0
 10
32.3966159868
 20
24.0484190527
 30
0.0
 10
32.3962132432
 20
24.0505452508
 30
0.0
 10
32.3954421483
 20
24.0514910938
 30
0.0
 10
32.3951253031
 20
24.0514970884
 30
0.0
  0
SPLINE
  5
28B
100
AcDbEntity
  8
0
100
AcDbSpline
 62
7
  6
CONTINUOUS
 70
0
 71
3
 72
22
 73
18
 74
0
 42
0.0000001
 43
0.0000001
 44
0.0000000001
 40
0.0
 40
0.0
 40
0.0
 40
0.0
 40
0.1877077166
 40
0.3697890823
 40
0.5406880456
 40
0.6933450977
 40
0.7606433951
 40
0.8207430138
 40
0.8728471634
 40
0.9165040374
 40
0.9512845995
 40
0.9652179805
 40
0.976822919
 40
0.9860962818
 40
0.9930374729
 40
0.9976544868
 40
1.0
 40
1.0
 40
1.0
 40
1.0
 10
31.6230313388
 20
23.092630975
 30
0.0
 10
31.6357439512
 20
23.06554406
 30
0.0
 10
31.6637559035
 20
23.013522644
 30
0.0
 10
31.7125310705
 20
22.9422733725
 30
0.0
 10
31.7648825127
 20
22.8808048811
 30
0.0
 10
31.8097142876
 20
22.8373998534
 30
0.0
 10
31.8438558616
 20
22.8086198475
 30
0.0
 10
31.8664559901
 20
22.791058555
 30
0.0
 10
31.8866384874
 20
22.776559032
 30
0.0
 10
31.9039664125
 20
22.7650302611
 30
0.0
 10
31.9164975921
 20
22.7572904615
 30
0.0
 10
31.9248085641
 20
22.7524579847
 30
0.0
 10
31.9296632007
 20
22.7497606754
 30
0.0
 10
31.9335902834
 20
22.7477218497
 30
0.0
 10
31.9366030596
 20
22.7462651613
 30
0.0
 10
31.9386336078
 20
22.7454956766
 30
0.0
 10
31.9397489031
 20
22.7451287398
 30
0.0
 10
31.9401160204
 20
22.7451995771
 30
0.0
  0
SPLINE
  5
28C
100
AcDbEntity
  8
0
100
AcDbSpline
 62
7
  6
CONTINUOUS
 70
0
 71
3
 72
11
 73
7
 74
0
 42
0.0000001
 43
0.0000001
 44
0.0000000001
 40
0.0
 40
0.0
 40
0.0
 40
0.0
 40
0.2393587302
 40
0.4840051497
 40
0.7364733139
 40
1.0
 40
1.0
 40
1.0
 40
1.0
 10
31.9401160204
 20
22.7451995771
 30
0.0
 10
31.9673052625
 20
22.7504464083
 30
0.0
 10
32.0220211273
 20
22.7625054852
 30
0.0
 10
32.1039869034
 20
22.7859715103
 30
0.0
 10
32.1869029996
 20
22.815605828
 30
0.0
 10
32.2416795733
 20
22.8395092005
 30
0.0
 10
32.2690770112
 20
22.8528817676
 30
0.0
  0
SPLINE
  5
28D
100
AcDbEntity
  8
0
100
AcDbSpline
 62
7
  6
CONTINUOUS
 70
0
 71
3
 72
11
 73
7
 74
0
 42
0.0000001
 43
0.0000001
 44
0.0000000001
 40
0.0
 40
0.0
 40
0.0
 40
0.0
 40
0.2635266833
 40
0.5159948146
 40
0.7606412422
 40
1.0
 40
1.0
 40
1.0
 40
1.0
 10
32.3950901733
 20
24.0518169177
 30
0.0
 10
32.3710716986
 20
24.0705935485
 30
0.0
 10
32.3224618124
 20
24.1053633275
 30
0.0
 10
32.2475187967
 20
24.1515893788
 30
0.0
 10
32.1722228539
 20
24.1915843056
 30
0.0
 10
32.1212097563
 20
24.2147559378
 30
0.0
 10
32.0957054809
 20
24.2255410856
 30
0.0
  0
SPLINE
  5
28E
100
AcDbEntity
  8
0
100
AcDbSpline
 62
7
  6
CONTINUOUS
 70
0
 71
3
 72
22
 73
18
 74
0
 42
0.0000001
 43
0.0000001
 44
0.0000000001
 40
0.0
 40
0.0
 40
0.0
 40
0.0
 40
0.0023470054
 40
0.0069678425
 40
0.0139141874
 40
0.0231931412
 40
0.0348032554
 40
0.0487405701
 40
0.0835313408
 40
0.1272037325
 40
0.179315853
 40
0.2394162952
 40
0.306721835
 40
0.4593810981
 40
0.6302656734
 40
0.8123193039
 40
1.0
 40
1.0
 40
1.0
 40
1.0
 10
32.0957054809
 20
24.2255410856
 30
0.0
 10
32.0953608956
 20
24.2256867949
 30
0.0
 10
32.0941928046
 20
24.2255596393
 30
0.0
 10
32.0920449658
 20
24.2252293724
 30
0.0
 10
32.0887927924
 20
24.2244307399
 30
0.0
 10
32.0845251442
 20
24.2232524878
 30
0.0
 10
32.0792136577
 20
24.2216224397
 30
0.0
 10
32.0700773548
 20
24.2186204611
 30
0.0
 10
32.0562074658
 20
24.2136507189
 30
0.0
 10
32.0368559604
 20
24.2059755375
 30
0.0
 10
32.0140960292
 20
24.1959882613
 30
0.0
 10
31.9883370433
 20
24.1835069557
 30
0.0
 10
31.9489582299
 20
24.1624504664
 30
0.0
 10
31.8960824269
 20
24.1293154168
 30
0.0
 10
31.8321061844
 20
24.0800713638
 30
0.0
 10
31.7695843918
 20
24.020535223
 30
0.0
 10
31.7313799597
 20
23.9754764242
 30
0.0
 10
31.7133160844
 20
23.9516280449
 30
0.0
  0
SPLINE
  5
28F
100
AcDbEntity
  8
0
100
AcDbSpline
 62
7
  6
CONTINUOUS
 70
0
 71
3
 72
11
 73
7
 74
0
 42
0.0000001
 43
0.0000001
 44
0.0000000001
 40
0.0
 40
0.0
 40
0.0
 40
0.0
 40
0.2393587305
 40
0.48400515
 40
0.7364733139
 40
1.0
 40
1.0
 40
1.0
 40
1.0
 10
29.4664524409
 20
33.101752599
 30
0.0
 10
29.4819680688
 20
33.1246883666
 30
0.0
 10
29.5121309735
 20
33.1719053813
 30
0.0
 10
29.5534965451
 20
33.246456924
 30
0.0
 10
29.5911724526
 20
33.3260420862
 30
0.0
 10
29.613003103
 20
33.3816772105
 30
0.0
 10
29.6229201844
 20
33.4105059579
 30
0.0
  0
SPLINE
  5
290
100
AcDbEntity
  8
0
100
AcDbSpline
 62
7
  6
CONTINUOUS
 70
0
 71
3
 72
11
 73
7
 74
0
 42
0.0000001
 43
0.0000001
 44
0.0000000001
 40
0.0
 40
0.0
 40
0.0
 40
0.0
 40
0.2635266833
 40
0.5159948145
 40
0.7606412421
 40
1.0
 40
1.0
 40
1.0
 40
1.0
 10
28.864249771
 20
34.3473858942
 30
0.0
 10
28.8339890615
 20
34.3436793508
 30
0.0
 10
28.7750307343
 20
34.3338929171
 30
0.0
 10
28.6893512647
 20
34.3135869566
 30
0.0
 10
28.6078283084
 20
34.2886253684
 30
0.0
 10
28.5553717826
 20
34.2689384792
 30
0.0
 10
28.5297112852
 20
34.2585304841
 30
0.0
  0
SPLINE
  5
291
100
AcDbEntity
  8
0
100
AcDbSpline
 62
7
  6
CONTINUOUS
 70
0
 71
3
 72
22
 73
18
 74
0
 42
0.0000001
 43
0.0000001
 44
0.0000000001
 40
0.0
 40
0.0
 40
0.0
 40
0.0
 40
0.0023470957
 40
0.006968164
 40
0.0139147843
 40
0.023193959
 40
0.0348041404
 40
0.0487412696
 40
0.0835307038
 40
0.1272012528
 40
0.1793123027
 40
0.2394134746
 40
0.3067209111
 40
0.4593824507
 40
0.6302652763
 40
0.8123185344
 40
1.0
 40
1.0
 40
1.0
 40
1.0
 10
28.5297112852
 20
34.2585304841
 30
0.0
 10
28.5293645816
 20
34.2583898523
 30
0.0
 10
28.5286285227
 20
34.2574739028
 30
0.0
 10
28.5273432735
 20
34.255721537
 30
0.0
 10
28.5256083259
 20
34.2528570691
 30
0.0
 10
28.5234237642
 20
34.2490061577
 30
0.0
 10
28.5208205889
 20
34.2440977436
 30
0.0
 10
28.5164830465
 20
34.2355149163
 30
0.0
 10
28.5101898345
 20
34.2221938328
 30
0.0
 10
28.501933632
 20
34.2030837569
 30
0.0
 10
28.4929021394
 20
34.179928338
 30
0.0
 10
28.483513391
 20
34.1528881488
 30
0.0
 10
28.4705573687
 20
34.1101532379
 30
0.0
 10
28.4565982754
 20
34.0493341321
 30
0.0
 10
28.4461810134
 20
33.969275367
 30
0.0
 10
28.4440699954
 20
33.8829677067
 30
0.0
 10
28.4489165851
 20
33.8240917134
 30
0.0
 10
28.4530068368
 20
33.794455188
 30
0.0
  0
SPLINE
  5
292
100
AcDbEntity
  8
0
100
AcDbSpline
 62
7
  6
CONTINUOUS
 70
0
 71
3
 72
38
 73
34
 74
0
 42
0.0000001
 43
0.0000001
 44
0.0000000001
 40
0.0
 40
0.0
 40
0.0
 40
0.0
 40
0.0008333496
 40
0.0026320282
 40
0.0055792146
 40
0.0097441201
 40
0.015127917
 40
0.0216962683
 40
0.0382465417
 40
0.0592012
 40
0.0844075039
 40
0.1136213945
 40
0.1465579434
 40
0.1829022552
 40
0.2223071827
 40
0.3087559306
 40
0.4025796491
 40
0.5001621872
 40
0.5977372368
 40
0.6915419349
 40
0.7779521861
 40
0.8173274303
 40
0.8536367624
 40
0.8865330869
 40
0.9157039639
 40
0.9408728516
 40
0.9618024461
 40
0.9782993685
 40
0.9902055381
 40
0.9944390613
 40
0.9974724562
 40
0.9992131288
 40
1.0
 40
1.0
 40
1.0
 40
1.0
 10
27.6115034126
 20
35.6001819336
 30
0.0
 10
27.6117362005
 20
35.6004236998
 30
0.0
 10
27.6114618816
 20
35.6017019211
 30
0.0
 10
27.610314622
 20
35.6034632443
 30
0.0
 10
27.6081552182
 20
35.6064311643
 30
0.0
 10
27.604904623
 20
35.6102315152
 30
0.0
 10
27.6005517725
 20
35.6150644637
 30
0.0
 10
27.5926720909
 20
35.6234045407
 30
0.0
 10
27.5801864892
 20
35.6360287671
 30
0.0
 10
27.5621108256
 20
35.6536666497
 30
0.0
 10
27.5401065688
 20
35.6745806165
 30
0.0
 10
27.5143548252
 20
35.6985519848
 30
0.0
 10
27.4850802332
 20
35.7253203989
 30
0.0
 10
27.4525411706
 20
35.7545986144
 30
0.0
 10
27.4036559661
 20
35.7979277166
 30
0.0
 10
27.3368047934
 20
35.8558829181
 30
0.0
 10
27.2512664175
 20
35.9280360242
 30
0.0
 10
27.1613058405
 20
36.001880528
 30
0.0
 10
27.0703735774
 20
36.0745128692
 30
0.0
 10
26.9820300682
 20
36.1431601481
 30
0.0
 10
26.9114676637
 20
36.1964763792
 30
0.0
 10
26.8589531228
 20
36.2352574108
 30
0.0
 10
26.8235822009
 20
36.2609714332
 30
0.0
 10
26.7913500124
 20
36.2840115366
 30
0.0
 10
26.7625862608
 20
36.3041869847
 30
0.0
 10
26.7375904853
 20
36.321336637
 30
0.0
 10
26.7166123664
 20
36.3353236182
 30
0.0
 10
26.6998997616
 20
36.3460552591
 30
0.0
 10
26.6886097844
 20
36.3528258162
 30
0.0
 10
26.6818541474
 20
36.3565219384
 30
0.0
 10
26.6785054962
 20
36.358030398
 30
0.0
 10
26.6765029665
 20
36.3588506393
 30
0.0
 10
26.6752897475
 20
36.3587190877
 30
0.0
 10
26.6751121538
 20
36.3584566238
 30
0.0
  0
SPLINE
  5
293
100
AcDbEntity
  8
0
100
AcDbSpline
 62
7
  6
CONTINUOUS
 70
0
 71
3
 72
22
 73
18
 74
0
 42
0.0000001
 43
0.0000001
 44
0.0000000001
 40
0.0
 40
0.0
 40
0.0
 40
0.0
 40
0.187707675
 40
0.3697892102
 40
0.5406888871
 40
0.6933464153
 40
0.7606447448
 40
0.8207442137
 40
0.8728481348
 40
0.9165047672
 40
0.9512850613
 40
0.9652183111
 40
0.976823136
 40
0.9860964058
 40
0.9930375278
 40
0.9976544993
 40
1.0
 40
1.0
 40
1.0
 40
1.0
 10
27.0587730408
 20
35.188688141
 30
0.0
 10
27.0884137827
 20
35.1845972716
 30
0.0
 10
27.1472989643
 20
35.1797572105
 30
0.0
 10
27.2336185113
 20
35.1818584581
 30
0.0
 10
27.3136830789
 20
35.1922859449
 30
0.0
 10
27.3745028282
 20
35.2062450679
 30
0.0
 10
27.4172345962
 20
35.2192039178
 30
0.0
 10
27.444271554
 20
35.2285934051
 30
0.0
 10
27.4674239212
 20
35.2376228444
 30
0.0
 10
27.486530083
 20
35.2458762144
 30
0.0
 10
27.499846082
 20
35.252170304
 30
0.0
 10
27.5084253327
 20
35.2565084763
 30
0.0
 10
27.5133314547
 20
35.2591108334
 30
0.0
 10
27.5171801543
 20
35.2612939193
 30
0.0
 10
27.5200426751
 20
35.2630272641
 30
0.0
 10
27.5217939152
 20
35.2643111254
 30
0.0
 10
27.5227090741
 20
35.2650466403
 30
0.0
 10
27.5228496105
 20
35.2653931092
 30
0.0
  0
SPLINE
  5
294
100
AcDbEntity
  8
0
100
AcDbSpline
 62
7
  6
CONTINUOUS
 70
0
 71
3
 72
11
 73
7
 74
0
 42
0.0000001
 43
0.0000001
 44
0.0000000001
 40
0.0
 40
0.0
 40
0.0
 40
0.0
 40
0.2393587305
 40
0.48400515
 40
0.7364733139
 40
1.0
 40
1.0
 40
1.0
 40
1.0
 10
27.5228496105
 20
35.2653931092
 30
0.0
 10
27.5332575705
 20
35.2910535558
 30
0.0
 10
27.5529443741
 20
35.343509986
 30
0.0
 10
27.5779058714
 20
35.4250327844
 30
0.0
 10
27.5982117843
 20
35.5107120815
 30
0.0
 10
27.6079981898
 20
35.5696702923
 30
0.0
 10
27.6117047255
 20
35.5999309396
 30
0.0
  0
SPLINE
  5
295
100
AcDbEntity
  8
0
100
AcDbSpline
 62
7
  6
CONTINUOUS
 70
0
 71
3
 72
11
 73
7
 74
0
 42
0.0000001
 43
0.0000001
 44
0.0000000001
 40
0.0
 40
0.0
 40
0.0
 40
0.0
 40
0.2635266833
 40
0.5159948145
 40
0.7606412421
 40
1.0
 40
1.0
 40
1.0
 40
1.0
 10
26.6748247893
 20
36.358601353
 30
0.0
 10
26.6459959826
 20
36.3486842513
 30
0.0
 10
26.5903607503
 20
36.3268535491
 30
0.0
 10
26.5107754293
 20
36.2891775592
 30
0.0
 10
26.4362237512
 20
36.2478118659
 30
0.0
 10
26.3890066607
 20
36.2176488575
 30
0.0
 10
26.3660708506
 20
36.2021331846
 30
0.0
  0
SPLINE
  5
296
100
AcDbEntity
  8
0
100
AcDbSpline
 62
7
  6
CONTINUOUS
 70
0
 71
3
 72
22
 73
18
 74
0
 42
0.0000001
 43
0.0000001
 44
0.0000000001
 40
0.0
 40
0.0
 40
0.0
 40
0.0
 40
0.0023470957
 40
0.006968164
 40
0.0139147843
 40
0.023193959
 40
0.0348041404
 40
0.0487412696
 40
0.0835307038
 40
0.1272012528
 40
0.1793123027
 40
0.2394134746
 40
0.3067209111
 40
0.4593824507
 40
0.6302652763
 40
0.8123185343
 40
1.0
 40
1.0
 40
1.0
 40
1.0
 10
26.3660708506
 20
36.2021331846
 30
0.0
 10
26.3657609623
 20
36.2019235423
 30
0.0
 10
26.3652314246
 20
36.2008745732
 30
0.0
 10
26.3643385986
 20
36.1988932824
 30
0.0
 10
26.3632371201
 20
36.1957306942
 30
0.0
 10
26.3619009458
 20
36.1915097384
 30
0.0
 10
26.3603751729
 20
36.1861673544
 30
0.0
 10
26.3579168863
 20
36.1768702567
 30
0.0
 10
26.3545308051
 20
36.1625318385
 30
0.0
 10
26.3504282285
 20
36.1421228026
 30
0.0
 10
26.346408378
 20
36.1175956322
 30
0.0
 10
26.3428467678
 20
36.0891943055
 30
0.0
 10
26.3390589533
 20
36.0446995464
 30
0.0
 10
26.3380499027
 20
35.9823072253
 30
0.0
 10
26.3445054361
 20
35.9018320658
 30
0.0
 10
26.3603849205
 20
35.8169715296
 30
0.0
 10
26.3773666079
 20
35.7603897807
 30
0.0
 10
26.3875292579
 20
35.7322512956
 30
0.0
  0
SPLINE
  5
297
100
AcDbEntity
  8
0
100
AcDbSpline
 62
7
  6
CONTINUOUS
 70
0
 71
3
 72
38
 73
34
 74
0
 42
0.0000001
 43
0.0000001
 44
0.0000000001
 40
0.0
 40
0.0
 40
0.0
 40
0.0
 40
0.0008333496
 40
0.0026320282
 40
0.0055792146
 40
0.0097441201
 40
0.015127917
 40
0.0216962683
 40
0.0382465417
 40
0.0592012
 40
0.0844075039
 40
0.1136213945
 40
0.1465579434
 40
0.1829022552
 40
0.2223071827
 40
0.3087559306
 40
0.4025796491
 40
0.5001621872
 40
0.5977372368
 40
0.6915419349
 40
0.7779521861
 40
0.8173274303
 40
0.8536367624
 40
0.8865330869
 40
0.9157039639
 40
0.9408728516
 40
0.9618024461
 40
0.9782993685
 40
0.9902055381
 40
0.9944390613
 40
0.9974724562
 40
0.9992131288
 40
1.0
 40
1.0
 40
1.0
 40
1.0
 10
20.2861315535
 20
39.0048590382
 30
0.0
 10
20.2861951106
 20
39.0051885858
 30
0.0
 10
20.2852688781
 20
39.0061111875
 30
0.0
 10
20.2833474199
 20
39.0069635152
 30
0.0
 10
20.2799199464
 20
39.0082765267
 30
0.0
 10
20.2751239485
 20
39.0096933681
 30
0.0
 10
20.2688411285
 20
39.0113758875
 30
0.0
 10
20.2576903399
 20
39.0140788824
 30
0.0
 10
20.2403433867
 20
39.0178663035
 30
0.0
 10
20.2155775804
 20
39.0228139645
 30
0.0
 10
20.1857326951
 20
39.0283695157
 30
0.0
 10
20.1510797228
 20
39.034448192
 30
0.0
 10
20.1119488608
 20
39.0409539875
 30
0.0
 10
20.0687132477
 20
39.0477867215
 30
0.0
 10
20.0041159451
 20
39.0575007736
 30
0.0
 10
19.9164851691
 20
39.0696963371
 30
0.0
 10
19.8054492527
 20
39.0836214851
 30
0.0
 10
19.6897833652
 20
39.0965566553
 30
0.0
 10
19.5739627443
 20
39.1079460021
 30
0.0
 10
19.4624836555
 20
39.1174031309
 30
0.0
 10
19.374266943
 20
39.1236868448
 30
0.0
 10
19.3091028795
 20
39.1276098857
 30
0.0
 10
19.265433468
 20
39.1299110947
 30
0.0
 10
19.2258527405
 20
39.1316792433
 30
0.0
 10
19.190741092
 20
39.1329339358
 30
0.0
 10
19.1604375006
 20
39.1337031695
 30
0.0
 10
19.1352259139
 20
39.1340081365
 30
0.0
 10
19.1153646735
 20
39.1339061109
 30
0.0
 10
19.1022085923
 20
39.1334354156
 30
0.0
 10
19.0945297859
 20
39.1328558609
 30
0.0
 10
19.0908998048
 20
39.1322971554
 30
0.0
 10
19.0887736066
 20
39.1318944118
 30
0.0
 10
19.0878277637
 20
39.131123317
 30
0.0
 10
19.0878217691
 20
39.1308064717
 30
0.0
  0
SPLINE
  5
298
100
AcDbEntity
  8
0
100
AcDbSpline
 62
7
  6
CONTINUOUS
 70
0
 71
3
 72
22
 73
18
 74
0
 42
0.0000001
 43
0.0000001
 44
0.0000000001
 40
0.0
 40
0.0
 40
0.0
 40
0.0
 40
0.1877077166
 40
0.3697890823
 40
0.5406880456
 40
0.6933450977
 40
0.7606433951
 40
0.8207430138
 40
0.8728471634
 40
0.9165040374
 40
0.9512845995
 40
0.9652179805
 40
0.976822919
 40
0.9860962818
 40
0.9930374729
 40
0.9976544868
 40
1.0
 40
1.0
 40
1.0
 40
1.0
 10
20.0466878825
 20
38.3587125074
 30
0.0
 10
20.0737747974
 20
38.3714251198
 30
0.0
 10
20.1257962135
 20
38.3994370721
 30
0.0
 10
20.197045485
 20
38.4482122392
 30
0.0
 10
20.2585139764
 20
38.5005636813
 30
0.0
 10
20.301919004
 20
38.5453954563
 30
0.0
 10
20.3306990099
 20
38.5795370302
 30
0.0
 10
20.3482603025
 20
38.6021371587
 30
0.0
 10
20.3627598255
 20
38.622319656
 30
0.0
 10
20.3742885963
 20
38.6396475811
 30
0.0
 10
20.3820283959
 20
38.6521787607
 30
0.0
 10
20.3868608727
 20
38.6604897328
 30
0.0
 10
20.3895581821
 20
38.6653443693
 30
0.0
 10
20.3915970077
 20
38.669271452
 30
0.0
 10
20.3930536961
 20
38.6722842282
 30
0.0
 10
20.3938231809
 20
38.6743147764
 30
0.0
 10
20.3941901176
 20
38.6754300717
 30
0.0
 10
20.3941192804
 20
38.6757971891
 30
0.0
  0
SPLINE
  5
299
100
AcDbEntity
  8
0
100
AcDbSpline
 62
7
  6
CONTINUOUS
 70
0
 71
3
 72
11
 73
7
 74
0
 42
0.0000001
 43
0.0000001
 44
0.0000000001
 40
0.0
 40
0.0
 40
0.0
 40
0.0
 40
0.2393587302
 40
0.4840051497
 40
0.7364733139
 40
1.0
 40
1.0
 40
1.0
 40
1.0
 10
20.3941192804
 20
38.6757971891
 30
0.0
 10
20.3888724492
 20
38.7029864311
 30
0.0
 10
20.3768133723
 20
38.7577022959
 30
0.0
 10
20.3533473472
 20
38.839668072
 30
0.0
 10
20.3237130294
 20
38.9225841682
 30
0.0
 10
20.299809657
 20
38.9773607419
 30
0.0
 10
20.2864370899
 20
39.0047581798
 30
0.0
  0
SPLINE
  5
29A
100
AcDbEntity
  8
0
100
AcDbSpline
 62
7
  6
CONTINUOUS
 70
0
 71
3
 72
11
 73
7
 74
0
 42
0.0000001
 43
0.0000001
 44
0.0000000001
 40
0.0
 40
0.0
 40
0.0
 40
0.0
 40
0.2635266833
 40
0.5159948146
 40
0.7606412422
 40
1.0
 40
1.0
 40
1.0
 40
1.0
 10
19.0875019398
 20
39.1307713419
 30
0.0
 10
19.068725309
 20
39.1067528672
 30
0.0
 10
19.0339555299
 20
39.058142981
 30
0.0
 10
18.9877294787
 20
38.9831999653
 30
0.0
 10
18.9477345519
 20
38.9079040225
 30
0.0
 10
18.9245629196
 20
38.8568909249
 30
0.0
 10
18.9137777719
 20
38.8313866495
 30
0.0
  0
SPLINE
  5
29B
100
AcDbEntity
  8
0
100
AcDbSpline
 62
7
  6
CONTINUOUS
 70
0
 71
3
 72
22
 73
18
 74
0
 42
0.0000001
 43
0.0000001
 44
0.0000000001
 40
0.0
 40
0.0
 40
0.0
 40
0.0
 40
0.0023470054
 40
0.0069678425
 40
0.0139141874
 40
0.0231931412
 40
0.0348032554
 40
0.0487405701
 40
0.0835313408
 40
0.1272037325
 40
0.179315853
 40
0.2394162952
 40
0.306721835
 40
0.4593810981
 40
0.6302656734
 40
0.8123193039
 40
1.0
 40
1.0
 40
1.0
 40
1.0
 10
18.9137777719
 20
38.8313866495
 30
0.0
 10
18.9136320625
 20
38.8310420642
 30
0.0
 10
18.9137592182
 20
38.8298739732
 30
0.0
 10
18.9140894851
 20
38.8277261345
 30
0.0
 10
18.9148881175
 20
38.824473961
 30
0.0
 10
18.9160663696
 20
38.8202063128
 30
0.0
 10
18.9176964178
 20
38.8148948264
 30
0.0
 10
18.9206983964
 20
38.8057585234
 30
0.0
 10
18.9256681385
 20
38.7918886344
 30
0.0
 10
18.9333433199
 20
38.772537129
 30
0.0
 10
18.9433305962
 20
38.7497771978
 30
0.0
 10
18.9558119018
 20
38.724018212
 30
0.0
 10
18.976868391
 20
38.6846393986
 30
0.0
 10
19.0100034406
 20
38.6317635955
 30
0.0
 10
19.0592474937
 20
38.567787353
 30
0.0
 10
19.1187836345
 20
38.5052655604
 30
0.0
 10
19.1638424332
 20
38.4670611284
 30
0.0
 10
19.1876908125
 20
38.448997253
 30
0.0
  0
SPLINE
  5
29C
100
AcDbEntity
  8
0
100
AcDbSpline
 62
7
  6
CONTINUOUS
 70
0
 71
3
 72
38
 73
34
 74
0
 42
0.0000001
 43
0.0000001
 44
0.0000000001
 40
0.0
 40
0.0
 40
0.0
 40
0.0
 40
0.0008333496
 40
0.0026320282
 40
0.0055792146
 40
0.0097441201
 40
0.015127917
 40
0.0216962683
 40
0.0382465417
 40
0.0592012
 40
0.0844075039
 40
0.1136213945
 40
0.1465579434
 40
0.1829022552
 40
0.2223071827
 40
0.3087559306
 40
0.4025796491
 40
0.5001621872
 40
0.5977372368
 40
0.6915419349
 40
0.7779521861
 40
0.8173274303
 40
0.8536367624
 40
0.8865330869
 40
0.9157039639
 40
0.9408728516
 40
0.9618024461
 40
0.9782993685
 40
0.9902055381
 40
0.9944390613
 40
0.9974724562
 40
0.9992131288
 40
1.0
 40
1.0
 40
1.0
 40
1.0
 10
17.3158159198
 20
39.1308064717
 30
0.0
 10
17.3158095711
 20
39.1311420322
 30
0.0
 10
17.3147117594
 20
39.1318518983
 30
0.0
 10
17.3126550808
 20
39.1322861069
 30
0.0
 10
17.3090295153
 20
39.1328578141
 30
0.0
 10
17.3040437436
 20
39.1332465501
 30
0.0
 10
17.2975484028
 20
39.1335860307
 30
0.0
 10
17.2860793015
 20
39.1339115794
 30
0.0
 10
17.2683239717
 20
39.1340096019
 30
0.0
 10
17.2430706811
 20
39.133700044
 30
0.0
 10
17.2127229142
 20
39.1329290924
 30
0.0
 10
17.1775633646
 20
39.131670177
 30
0.0
 10
17.1379349749
 20
39.1298980416
 30
0.0
 10
17.0942235583
 20
39.1275922745
 30
0.0
 10
17.0290181967
 20
39.1236635169
 30
0.0
 10
16.9407667632
 20
39.1173731153
 30
0.0
 10
16.829262047
 20
39.1079083003
 30
0.0
 10
16.7134343635
 20
39.0965125157
 30
0.0
 10
16.5977767227
 20
39.0835725169
 30
0.0
 10
16.4867674718
 20
39.0696451788
 30
0.0
 10
16.3991720486
 20
39.0574502926
 30
0.0
 10
16.3346163301
 20
39.0477392351
 30
0.0
 10
16.2914227518
 20
39.040910776
 30
0.0
 10
16.2523393394
 20
39.0344109903
 30
0.0
 10
16.2177340994
 20
39.0283381426
 30
0.0
 10
16.1879327816
 20
39.0227900957
 30
0.0
 10
16.1632087223
 20
39.0178466148
 30
0.0
 10
16.14380271
 20
39.0136174347
 30
0.0
 10
16.1310319837
 20
39.0104217221
 30
0.0
 10
16.1236414739
 20
39.0082583184
 30
0.0
 10
16.120206978
 20
39.0069571065
 30
0.0
 10
16.1182109774
 20
39.0061211024
 30
0.0
 10
16.117446123
 20
39.005170206
 30
0.0
 10
16.1175061353
 20
39.0048590382
 30
0.0
  0
SPLINE
  5
29D
100
AcDbEntity
  8
0
100
AcDbSpline
 62
7
  6
CONTINUOUS
 70
0
 71
3
 72
22
 73
18
 74
0
 42
0.0000001
 43
0.0000001
 44
0.0000000001
 40
0.0
 40
0.0
 40
0.0
 40
0.0
 40
0.1877077166
 40
0.3697890823
 40
0.5406880456
 40
0.6933450977
 40
0.7606433951
 40
0.8207430138
 40
0.8728471634
 40
0.9165040374
 40
0.9512845995
 40
0.9652179805
 40
0.976822919
 40
0.9860962818
 40
0.9930374729
 40
0.9976544868
 40
1.0
 40
1.0
 40
1.0
 40
1.0
 10
17.2159460852
 20
38.4489966544
 30
0.0
 10
17.2397979853
 20
38.467063152
 30
0.0
 10
17.2848585962
 20
38.5052788365
 30
0.0
 10
17.3444099727
 20
38.5678017056
 30
0.0
 10
17.3936507533
 20
38.6317891611
 30
0.0
 10
17.4267862268
 20
38.6846656669
 30
0.0
 10
17.4478388881
 20
38.7240448653
 30
0.0
 10
17.4603175934
 20
38.7498023248
 30
0.0
 10
17.4703040899
 20
38.7725584064
 30
0.0
 10
17.4779782512
 20
38.791904641
 30
0.0
 10
17.4829435389
 20
38.8057711791
 30
0.0
 10
17.4859424662
 20
38.8149052649
 30
0.0
 10
17.4875714972
 20
38.8202146181
 30
0.0
 10
17.4887492832
 20
38.8244797803
 30
0.0
 10
17.4895477481
 20
38.8277295827
 30
0.0
 10
17.489878243
 20
38.8298757434
 30
0.0
 10
17.4900052784
 20
38.8310429573
 30
0.0
 10
17.4898596611
 20
38.8313873244
 30
0.0
  0
SPLINE
  5
29E
100
AcDbEntity
  8
0
100
AcDbSpline
 62
7
  6
CONTINUOUS
 70
0
 71
3
 72
11
 73
7
 74
0
 42
0.0000001
 43
0.0000001
 44
0.0000000001
 40
0.0
 40
0.0
 40
0.0
 40
0.0
 40
0.2393587302
 40
0.4840051497
 40
0.7364733139
 40
1.0
 40
1.0
 40
1.0
 40
1.0
 10
17.4898596611
 20
38.8313873244
 30
0.0
 10
17.4790745245
 20
38.8568915387
 30
0.0
 10
17.4559028994
 20
38.9079045075
 30
0.0
 10
17.4159080201
 20
38.9832002738
 30
0.0
 10
17.3696820575
 20
39.0581431332
 30
0.0
 10
17.3349123411
 20
39.1067529168
 30
0.0
 10
17.316135749
 20
39.1307713419
 30
0.0
  0
SPLINE
  5
29F
100
AcDbEntity
  8
0
100
AcDbSpline
 62
7
  6
CONTINUOUS
 70
0
 71
3
 72
11
 73
7
 74
0
 42
0.0000001
 43
0.0000001
 44
0.0000000001
 40
0.0
 40
0.0
 40
0.0
 40
0.0
 40
0.2635266833
 40
0.5159948146
 40
0.7606412422
 40
1.0
 40
1.0
 40
1.0
 40
1.0
 10
16.117200599
 20
39.0047581798
 30
0.0
 10
16.1038280042
 20
38.9773606854
 30
0.0
 10
16.0799245919
 20
38.9225839983
 30
0.0
 10
16.0502902199
 20
38.8396677308
 30
0.0
 10
16.026824185
 20
38.7577017721
 30
0.0
 10
16.0147651279
 20
38.7029857799
 30
0.0
 10
16.0095182985
 20
38.6757964758
 30
0.0
  0
SPLINE
  5
2A0
100
AcDbEntity
  8
0
100
AcDbSpline
 62
7
  6
CONTINUOUS
 70
0
 71
3
 72
22
 73
18
 74
0
 42
0.0000001
 43
0.0000001
 44
0.0000000001
 40
0.0
 40
0.0
 40
0.0
 40
0.0
 40
0.0023470054
 40
0.0069678425
 40
0.0139141874
 40
0.0231931412
 40
0.0348032554
 40
0.0487405701
 40
0.0835313408
 40
0.1272037325
 40
0.179315853
 40
0.2394162952
 40
0.306721835
 40
0.4593810981
 40
0.6302656734
 40
0.8123193039
 40
1.0
 40
1.0
 40
1.0
 40
1.0
 10
16.0095182985
 20
38.6757964758
 30
0.0
 10
16.0094474166
 20
38.6754291258
 30
0.0
 10
16.0098146533
 20
38.6743129975
 30
0.0
 10
16.0105842639
 20
38.6722807606
 30
0.0
 10
16.0120416092
 20
38.6692657
 30
0.0
 10
16.0140814076
 20
38.6653362825
 30
0.0
 10
16.0167801555
 20
38.6604797708
 30
0.0
 10
16.0216160778
 20
38.6521672645
 30
0.0
 10
16.0293609312
 20
38.6396337333
 30
0.0
 10
16.0408917957
 20
38.6223008646
 30
0.0
 10
16.0553928818
 20
38.6021147641
 30
0.0
 10
16.0729570352
 20
38.5795136832
 30
0.0
 10
16.1017407053
 20
38.5453732817
 30
0.0
 10
16.1451451722
 20
38.5005421059
 30
0.0
 10
16.2066145333
 20
38.4482023122
 30
0.0
 10
16.2778486782
 20
38.3994250304
 30
0.0
 10
16.3298659821
 20
38.3714237079
 30
0.0
 10
16.356948908
 20
38.3587129285
 30
0.0
  0
SPLINE
  5
2A1
100
AcDbEntity
  8
0
100
AcDbSpline
 62
7
  6
CONTINUOUS
 70
0
 71
3
 72
38
 73
34
 74
0
 42
0.0000001
 43
0.0000001
 44
0.0000000001
 40
0.0
 40
0.0
 40
0.0
 40
0.0
 40
0.0008333496
 40
0.0026320282
 40
0.0055792146
 40
0.0097441201
 40
0.015127917
 40
0.0216962683
 40
0.0382465417
 40
0.0592012
 40
0.0844075039
 40
0.1136213945
 40
0.1465579434
 40
0.1829022552
 40
0.2223071827
 40
0.3087559306
 40
0.4025796491
 40
0.5001621872
 40
0.5977372368
 40
0.6915419349
 40
0.7779521861
 40
0.8173274303
 40
0.8536367624
 40
0.8865330869
 40
0.9157039639
 40
0.9408728516
 40
0.9618024461
 40
0.9782993685
 40
0.9902055381
 40
0.9944390613
 40
0.9974724562
 40
0.9992131288
 40
1.0
 40
1.0
 40
1.0
 40
1.0
 10
4.1344598193
 20
27.0218127221
 30
0.0
 10
4.1341302716
 20
27.0218762792
 30
0.0
 10
4.1332076699
 20
27.0209500468
 30
0.0
 10
4.1323553423
 20
27.0190285885
 30
0.0
 10
4.1310423308
 20
27.015601115
 30
0.0
 10
4.1296254894
 20
27.0108051171
 30
0.0
 10
4.12794297
 20
27.0045222971
 30
0.0
 10
4.1252399751
 20
26.9933715085
 30
0.0
 10
4.121452554
 20
26.9760245554
 30
0.0
 10
4.1165048929
 20
26.951258749
 30
0.0
 10
4.1109493418
 20
26.9214138637
 30
0.0
 10
4.1048706655
 20
26.8867608914
 30
0.0
 10
4.09836487
 20
26.8476300295
 30
0.0
 10
4.091532136
 20
26.8043944163
 30
0.0
 10
4.0818180839
 20
26.7397971137
 30
0.0
 10
4.0696225203
 20
26.6521663377
 30
0.0
 10
4.0556973723
 20
26.5411304214
 30
0.0
 10
4.0427622022
 20
26.4254645338
 30
0.0
 10
4.0313728553
 20
26.3096439129
 30
0.0
 10
4.0219157266
 20
26.1981648241
 30
0.0
 10
4.0156320127
 20
26.1099481116
 30
0.0
 10
4.0117089718
 20
26.0447840481
 30
0.0
 10
4.0094077627
 20
26.0011146366
 30
0.0
 10
4.0076396142
 20
25.9615339091
 30
0.0
 10
4.0063849216
 20
25.9264222606
 30
0.0
 10
4.005615688
 20
25.8961186693
 30
0.0
 10
4.005310721
 20
25.8709070825
 30
0.0
 10
4.0054127466
 20
25.8510458421
 30
0.0
 10
4.0058834419
 20
25.8378897609
 30
0.0
 10
4.0064629966
 20
25.8302109545
 30
0.0
 10
4.0070217021
 20
25.8265809734
 30
0.0
 10
4.0074244456
 20
25.8244547752
 30
0.0
 10
4.0081955405
 20
25.8235089323
 30
0.0
 10
4.0085123858
 20
25.8235029377
 30
0.0
  0
SPLINE
  5
2A2
100
AcDbEntity
  8
0
100
AcDbSpline
 62
7
  6
CONTINUOUS
 70
0
 71
3
 72
22
 73
18
 74
0
 42
0.0000001
 43
0.0000001
 44
0.0000000001
 40
0.0
 40
0.0
 40
0.0
 40
0.0
 40
0.1877077472
 40
0.3697891157
 40
0.5406880667
 40
0.6933450948
 40
0.7606433777
 40
0.8207429821
 40
0.8728471197
 40
0.916503988
 40
0.9512845551
 40
0.9652179435
 40
0.9768228914
 40
0.986096264
 40
0.993037464
 40
0.9976544842
 40
1.0
 40
1.0
 40
1.0
 40
1.0
 10
4.7806060878
 20
26.7823696106
 30
0.0
 10
4.7678934698
 20
26.8094564854
 30
0.0
 10
4.7398815156
 20
26.8614778192
 30
0.0
 10
4.6911063694
 20
26.9327269729
 30
0.0
 10
4.6387549724
 20
26.9941953576
 30
0.0
 10
4.5939232485
 20
27.0376003096
 30
0.0
 10
4.5597817192
 20
27.0663802655
 30
0.0
 10
4.5371816223
 20
27.0839415276
 30
0.0
 10
4.5169991538
 20
27.0984410266
 30
0.0
 10
4.4996712521
 20
27.1099697802
 30
0.0
 10
4.4871400875
 20
27.1177095699
 30
0.0
 10
4.4788291233
 20
27.1225420421
 30
0.0
 10
4.4739744894
 20
27.1252393502
 30
0.0
 10
4.470047408
 20
27.1272781755
 30
0.0
 10
4.4670346323
 20
27.1287348643
 30
0.0
 10
4.4650040843
 20
27.1295043493
 30
0.0
 10
4.4638887891
 20
27.1298712868
 30
0.0
 10
4.4635216719
 20
27.1298004495
 30
0.0
  0
ELLIPSE
  5
2A3
100
AcDbEntity
  8
0
100
AcDbEllipse
 62
7
  6
CONTINUOUS
 10
17.4933254696
 20
24.2290066383
 30
0.0
 11
10.1461128856
 21
10.1461128856
 31
0.0
 40
0.9975589729
 41
1.416727624
 42
1.4589186076
  0
ELLIPSE
  5
2A4
100
AcDbEntity
  8
0
100
AcDbEllipse
 62
7
  6
CONTINUOUS
 10
18.9103122192
 20
25.6459933878
 30
0.0
 11
10.1461128856
 21
10.1461128856
 31
0.0
 40
0.9975589729
 41
-4.6005112611
 42
-4.5583202693
  0
ELLIPSE
  5
2A5
100
AcDbEntity
  8
0
100
AcDbEllipse
 62
7
  6
CONTINUOUS
 10
17.4931521699
 20
24.2288333385
 30
0.0
 11
10.1485938214
 21
10.1485938214
 31
0.0
 40
0.9975589725
 41
7.6964071235
 42
7.7399228765
  0
ELLIPSE
  5
2A6
100
AcDbEntity
  8
0
100
AcDbEllipse
 62
7
  6
CONTINUOUS
 10
18.910485519
 20
25.6461666876
 30
0.0
 11
10.1485938214
 21
10.1485938214
 31
0.0
 40
0.9975589725
 41
1.6848550843
 42
1.7283708372
  0
ENDSEC
  0
SECTION
  2
OBJECTS
  0
DICTIONARY
  5
C
100
AcDbDictionary
280
0
281
1
  3
ACAD_GROUP
350
D
  3
ACAD_MLINESTYLE
350
17
  3
ACAD_LAYOUT
350
1A
  3
ACAD_PLOTSETTINGS
350
19
  3
ACAD_PLOTSTYLENAME
350
E
  0
DICTIONARY
  5
D
102
{ACAD_REACTORS
330
C
102
}
100
AcDbDictionary
280
0
281
1
  0
ACDBDICTIONARYWDFLT
  5
E
102
{ACAD_REACTORS
330
C
102
}
100
AcDbDictionary
281
1
  3
Normal
350
F
100
AcDbDictionaryWithDefault
340
F
  0
DICTIONARY
  5
17
102
{ACAD_REACTORS
330
C
102
}
100
AcDbDictionary
280
0
281
1
  3
Standard
350
18
  0
DICTIONARY
  5
19
102
{ACAD_REACTORS
330
C
102
}
100
AcDbDictionary
281
1
  0
DICTIONARY
  5
1A
102
{ACAD_REACTORS
330
C
102
}
100
AcDbDictionary
281
1
  3
Model
350
2A7
  3
Layout1
350
2A8
  0
ACDBPLACEHOLDER
  5
F
102
{ACAD_REACTORS
330
E
102
}
  0
MLINESTYLE
  5
18
102
{ACAD_REACTORS
330
17
102
}
100
AcDbMlineStyle
  2
STANDARD
 70
0
  3

 62
256
 51
90.0
 52
90.0
 71
2
 49
0.5
 62
256
  6
BYLAYER
 49
-0.5
 62
256
  6
BYLAYER
  0
LAYOUT
  5
2A7
102
{ACAD_REACTORS
330
1A
102
}
100
AcDbPlotSettings
  1

  2
none_device
  4

  6

 40
0.0
 41
0.0
 42
0.0
 43
0.0
 44
210.0
 45
297.0
 46
0.0
 47
0.0
 48
0.0
 49
0.0
140
0.0
141
0.0
142
1.0
143
1.0
 70
1024
 72
1
 73
0
 74
0
  7

 75
0
147
1.0
148
0.0
149
0.0
100
AcDbLayout
  1
Model
 70
0
 71
0
 10
0.0
 20
0.0
 11
210.0
 21
297.0
 12
0.0
 22
0.0
 32
0.0
 14
0.0
 24
0.0
 34
0.0
 15
0.0
 25
0.0
 35
0.0
146
0.0
 13
0.0
 23
0.0
 33
0.0
 16
1.0
 26
0.0
 36
0.0
 17
0.0
 27
1.0
 37
0.0
 76
0
330
210
345
0
346
0
  0
LAYOUT
  5
2A8
102
{ACAD_REACTORS
330
1A
102
}
100
AcDbPlotSettings
  1

  2
none_device
  4

  6

 40
0.0
 41
0.0
 42
0.0
 43
0.0
 44
210.0
 45
297.0
 46
0.0
 47
0.0
 48
0.0
 49
0.0
140
0.0
141
0.0
142
1.0
143
1.0
 70
0
 72
1
 73
0
 74
0
  7

 75
0
147
1.0
148
0.0
149
0.0
100
AcDbLayout
  1
Layout1
 70
0
 71
1
 10
0.0
 20
0.0
 11
210.0
 21
297.0
 12
0.0
 22
0.0
 32
0.0
 14
0.0
 24
0.0
 34
0.0
 15
0.0
 25
0.0
 35
0.0
146
0.0
 13
0.0
 23
0.0
 33
0.0
 16
1.0
 26
0.0
 36
0.0
 17
0.0
 27
1.0
 37
0.0
 76
0
330
211
345
0
346
0
  0
ENDSEC
  0
EOF
