999
DXF file: C:\Users\sesa63760\Dev\_Creo\CAD\MCADUE0002366_3D-CAD\drw0001_1.dxf
999
Pro/ENGINEER 2019471 by Parametric Technology Corporation
  0
SECTION
  2
HEADER
  9
$ACADVER
  1
AC1024
  9
$DWGCODEPAGE
  3
ANSI_1252
  9
$EXTMAX
 10
89.563484196
 20
126.6683562201
 30
0.0
  9
$EXTMIN
 10
0.0
 20
0.0
 30
0.0
  9
$LIMMIN
 10
0.0
 20
0.0
  9
$LIMMAX
 10
89.563484196
 20
126.6683562201
  9
$VIEWCTR
 10
44.781742098
 20
63.33417811
  9
$VIEWSIZE
 40
126.6683562201
  9
$CLAYER
  8
0
  9
$LTSCALE
 40
8.2569002573
  9
$CELTYPE
  6
BYLAYER
  9
$DIMSCALE
 40
1.0
  9
$DIMASZ
 40
1.0662319547
  9
$DIMEXO
 40
1.0
  9
$DIMDLI
 40
5.7047674505
  9
$DIMEXE
 40
1.0
  9
$DIMCEN
 40
1.351129133
  9
$DIMLFAC
 40
1.0
  9
$DIMBLK
  1
_FILLED
  9
$DIMALT
 70
0
  9
$DIMALTF
 40
0.0393700787
  9
$DIMTXT
 40
1.4927247366
  9
$DIMTOL
 70
1
  9
$DIMLIM
 70
0
  9
$DIMTFAC
 40
1.0
  9
$DIMTP
 40
0.01
  9
$DIMTM
 40
0.01
  9
$DIMGAP
 40
0.625
  9
$DIMDSEP
 70
46
  9
$AUNITS
 70
0
  9
$PDMODE
 70
3
  9
$PDSIZE
 40
0.3125
  9
$HANDSEED
  5
309
  9
$TILEMODE
 70
1
  9
$MEASUREMENT
 70
1
  9
$INSUNITS
 70
4
  0
ENDSEC
  0
SECTION
  2
CLASSES
  0
CLASS
  1
ACDBDICTIONARYWDFLT
  2
AcDbDictionaryWithDefault
  3
AutoCAD 2000
 90
0
 91
1
280
0
281
0
  0
CLASS
  1
ACDBPLACEHOLDER
  2
AcDbPlaceHolder
  3
AutoCAD 2000
 90
0
 91
1
280
0
281
0
  0
CLASS
  1
LAYOUT
  2
AcDbLayout
  3
AutoCAD 2000
 90
0
 91
0
280
0
281
0
  0
ENDSEC
  0
SECTION
  2
TABLES
  0
TABLE
  2
VPORT
  5
8
100
AcDbSymbolTable
 70
2
  0
VPORT
  5
1F4
100
AcDbSymbolTableRecord
100
AcDbViewportTableRecord
  2
*ACTIVE
 70
0
 10
0.0
 20
0.0
 11
1.0
 21
1.0
 12
44.781742098
 22
63.33417811
 13
0.0
 23
0.0
 14
1.0
 24
1.0
 15
0.0
 25
0.0
 16
0.0
 26
0.0
 36
1.0
 17
0.0
 27
0.0
 37
0.0
 40
126.6683562201
 41
0.7070707071
 42
50.0
 43
0.0
 44
0.0
 50
0.0
 51
0.0
 71
0
 72
100
 73
1
 74
1
 75
0
 76
0
 77
0
 78
0
  0
ENDTAB
  0
TABLE
  2
LTYPE
  5
5
100
AcDbSymbolTable
 70
6
  0
LTYPE
  5
14
100
AcDbSymbolTableRecord
100
AcDbLinetypeTableRecord
  2
BYBLOCK
 70
0
  3

 72
65
 73
0
 40
0.0
  0
LTYPE
  5
15
100
AcDbSymbolTableRecord
100
AcDbLinetypeTableRecord
  2
BYLAYER
 70
0
  3

 72
65
 73
0
 40
0.0
  0
LTYPE
  5
16
100
AcDbSymbolTableRecord
100
AcDbLinetypeTableRecord
  2
CONTINUOUS
 70
64
  3
Solid line
 72
65
 73
0
 40
0.0
  0
LTYPE
  5
1F5
100
AcDbSymbolTableRecord
100
AcDbLinetypeTableRecord
  2
CENTER
 70
64
  3
____ _ ____ _ ____ _ ____ _ ____ _ ____ _ ____
 72
65
 73
4
 40
0.6
 49
0.375
 74
0
 49
-0.075
 74
0
 49
0.075
 74
0
 49
-0.075
 74
0
  0
LTYPE
  5
1F6
100
AcDbSymbolTableRecord
100
AcDbLinetypeTableRecord
  2
HIDDEN
 70
64
  3
- - - - - - - - - - - - - - - - - - - -
 72
65
 73
2
 40
0.2
 49
0.1
 74
0
 49
-0.1
 74
0
  0
LTYPE
  5
1F7
100
AcDbSymbolTableRecord
100
AcDbLinetypeTableRecord
  2
PHANTOM
 70
64
  3
_____ _ _ _____ _ _ _____ _ _ _____
 72
65
 73
6
 40
0.8
 49
0.45
 74
0
 49
-0.05
 74
0
 49
0.1
 74
0
 49
-0.05
 74
0
 49
0.1
 74
0
 49
-0.05
 74
0
  0
LTYPE
  5
1F8
100
AcDbSymbolTableRecord
100
AcDbLinetypeTableRecord
  2
DOT
 70
64
  3
. . . . . . . . . . . . . . . . . . . .
 72
65
 73
2
 40
0.2
 49
0.1
 74
0
 49
-0.1
 74
0
  0
LTYPE
  5
1F9
100
AcDbSymbolTableRecord
100
AcDbLinetypeTableRecord
  2
DASHED
 70
64
  3
- - - - - - - - - - - - - - - - - - - -
 72
65
 73
2
 40
0.2
 49
0.1
 74
0
 49
-0.1
 74
0
  0
ENDTAB
  0
TABLE
  2
LAYER
  5
2
100
AcDbSymbolTable
 70
36
  0
LAYER
  5
10
100
AcDbSymbolTableRecord
100
AcDbLayerTableRecord
  2
0
 70
0
 62
7
  6
CONTINUOUS
370
-3
390
F
  0
LAYER
  5
1FA
100
AcDbSymbolTableRecord
100
AcDbLayerTableRecord
  2
DEFAULT_1
 70
0
 62
7
  6
CENTER
370
-3
390
F
  0
LAYER
  5
1FB
100
AcDbSymbolTableRecord
100
AcDbLayerTableRecord
  2
DEFAULT_2
 70
0
 62
8
  6
HIDDEN
370
-3
390
F
  0
LAYER
  5
1FC
100
AcDbSymbolTableRecord
100
AcDbLayerTableRecord
  2
DEFAULT_3
 70
0
 62
7
  6
PHANTOM
370
-3
390
F
  0
LAYER
  5
1FD
100
AcDbSymbolTableRecord
100
AcDbLayerTableRecord
  2
00_COMPONENTS
 70
0
 62
7
  6
CONTINUOUS
370
-3
390
F
  0
LAYER
  5
1FE
100
AcDbSymbolTableRecord
100
AcDbLayerTableRecord
  2
01_1_DEFAULT_DATUMS
 70
0
 62
7
  6
CONTINUOUS
370
-3
390
F
  0
LAYER
  5
1FF
100
AcDbSymbolTableRecord
100
AcDbLayerTableRecord
  2
01_PLANES
 70
0
 62
7
  6
CONTINUOUS
370
-3
390
F
  0
LAYER
  5
200
100
AcDbSymbolTableRecord
100
AcDbLayerTableRecord
  2
02_COORD_SYS
 70
0
 62
7
  6
CONTINUOUS
370
-3
390
F
  0
LAYER
  5
201
100
AcDbSymbolTableRecord
100
AcDbLayerTableRecord
  2
03_AXES
 70
0
 62
7
  6
CONTINUOUS
370
-3
390
F
  0
LAYER
  5
202
100
AcDbSymbolTableRecord
100
AcDbLayerTableRecord
  2
04_POINTS
 70
0
 62
7
  6
CONTINUOUS
370
-3
390
F
  0
LAYER
  5
203
100
AcDbSymbolTableRecord
100
AcDbLayerTableRecord
  2
05_CURVES
 70
0
 62
7
  6
CONTINUOUS
370
-3
390
F
  0
LAYER
  5
204
100
AcDbSymbolTableRecord
100
AcDbLayerTableRecord
  2
06_SURFS
 70
0
 62
7
  6
CONTINUOUS
370
-3
390
F
  0
LAYER
  5
205
100
AcDbSymbolTableRecord
100
AcDbLayerTableRecord
  2
07_COSMETICS
 70
0
 62
7
  6
CONTINUOUS
370
-3
390
F
  0
LAYER
  5
206
100
AcDbSymbolTableRecord
100
AcDbLayerTableRecord
  2
10_NOTES
 70
0
 62
7
  6
CONTINUOUS
370
-3
390
F
  0
LAYER
  5
207
100
AcDbSymbolTableRecord
100
AcDbLayerTableRecord
  2
11_NOTES_PUB
 70
0
 62
7
  6
CONTINUOUS
370
-3
390
F
  0
LAYER
  5
208
100
AcDbSymbolTableRecord
100
AcDbLayerTableRecord
  2
13_REF_GTOL
 70
0
 62
7
  6
CONTINUOUS
370
-3
390
F
  0
LAYER
  5
209
100
AcDbSymbolTableRecord
100
AcDbLayerTableRecord
  2
16_MISC
 70
0
 62
7
  6
CONTINUOUS
370
-3
390
F
  0
LAYER
  5
20A
100
AcDbSymbolTableRecord
100
AcDbLayerTableRecord
  2
17_NO_PRINT
 70
0
 62
7
  6
CONTINUOUS
370
-3
390
F
  0
LAYER
  5
20B
100
AcDbSymbolTableRecord
100
AcDbLayerTableRecord
  2
18_DATUM_CAMS_JOINTS
 70
0
 62
7
  6
CONTINUOUS
370
-3
390
F
  0
LAYER
  5
20C
100
AcDbSymbolTableRecord
100
AcDbLayerTableRecord
  2
19_DATUM_FUNCTIONAL
 70
0
 62
7
  6
CONTINUOUS
370
-3
390
F
  0
LAYER
  5
20D
100
AcDbSymbolTableRecord
100
AcDbLayerTableRecord
  2
20_DATUM_KINEMATIC_SCHEME
 70
0
 62
7
  6
CONTINUOUS
370
-3
390
F
  0
ENDTAB
  0
TABLE
  2
STYLE
  5
3
100
AcDbSymbolTable
 70
1
  0
STYLE
  5
11
100
AcDbSymbolTableRecord
100
AcDbTextStyleTableRecord
  2
STANDARD
 70
0
 40
0.0
 41
0.8
 50
0.0
 71
0
 42
0.2
  3
txt
  4

  0
STYLE
  5
20E
100
AcDbSymbolTableRecord
100
AcDbTextStyleTableRecord
  2
TEXTSTYLE_1
 70
0
 40
0.0
 41
0.8
 50
0.0
 71
0
 42
0.2
  3
gdt
  4

  0
ENDTAB
  0
TABLE
  2
VIEW
  5
6
100
AcDbSymbolTable
 70
0
  0
ENDTAB
  0
TABLE
  2
UCS
  5
7
100
AcDbSymbolTable
 70
0
  0
ENDTAB
  0
TABLE
  2
APPID
  5
9
100
AcDbSymbolTable
 70
1
  0
APPID
  5
20F
100
AcDbSymbolTableRecord
100
AcDbRegAppTableRecord
  2
ACAD
 70
0
  0
ENDTAB
  0
TABLE
  2
BLOCK_RECORD
  5
1
100
AcDbSymbolTable
 70
0
  0
BLOCK_RECORD
  5
210
100
AcDbSymbolTableRecord
100
AcDbBlockTableRecord
  2
*Model_Space
  0
BLOCK_RECORD
  5
211
100
AcDbSymbolTableRecord
100
AcDbBlockTableRecord
  2
*Paper_Space
  0
BLOCK_RECORD
  5
212
100
AcDbSymbolTableRecord
100
AcDbBlockTableRecord
  2
_FILLED
  0
ENDTAB
  0
TABLE
  2
DIMSTYLE
  5
A
100
AcDbSymbolTable
 70
1
100
AcDbDimStyleTable
 71
0
  0
DIMSTYLE
105
213
100
AcDbSymbolTableRecord
100
AcDbDimStyleTableRecord
  2
STANDARD
 70
0
  3

  4

 40
1.0
 41
1.0662319547
 42
1.0
 43
0.38
 44
1.0
 45
0.0
 46
0.0
 47
0.01
 48
0.01
140
1.4927247366
141
0.09
142
0.0
143
25.4
144
1.0
145
0.0
146
1.0
147
0.625
 71
1
 72
0
 73
0
 74
0
 75
0
 76
0
 77
1
 78
8
 79
2
170
0
171
1
172
0
173
0
174
0
175
0
176
0
177
0
178
0
270
2
179
2
271
2
272
2
273
2
274
2
275
0
280
0
281
0
282
0
283
1
284
8
285
0
286
0
287
3
288
0
340
11
278
46
341
212
342
212
343
212
344
212
  0
ENDTAB
  0
ENDSEC
  0
SECTION
  2
BLOCKS
  0
BLOCK
  5
20
100
AcDbEntity
  8
0
100
AcDbBlockBegin
  2
*Model_Space
 70
0
 10
0.0
 20
0.0
 30
0.0
  3
*Model_Space
  1

  0
ENDBLK
  5
21
100
AcDbEntity
  8
0
100
AcDbBlockEnd
  0
BLOCK
  5
1C
100
AcDbEntity
  8
0
100
AcDbBlockBegin
  2
*Paper_Space
 70
0
 10
0.0
 20
0.0
 30
0.0
  3
*Paper_Space
  1

  0
ENDBLK
  5
1D
100
AcDbEntity
  8
0
100
AcDbBlockEnd
  0
BLOCK
  5
214
100
AcDbEntity
  8
0
100
AcDbBlockBegin
  2
_FILLED
 70
64
 10
0.0
 20
0.0
  3
_FILLED
  1

  0
SOLID
  5
215
100
AcDbEntity
  8
0
  6
BYBLOCK
 62
0
100
AcDbTrace
 10
0.0
 20
0.0
 11
-1.0
 21
0.25
 12
-1.0
 22
-0.25
 13
-1.0
 23
-0.25
  0
ENDBLK
  5
216
100
AcDbEntity
  8
0
  6
BYBLOCK
 62
0
100
AcDbBlockEnd
  0
ENDSEC
  0
SECTION
  2
ENTITIES
  0
LINE
  5
217
100
AcDbEntity
  8
0
100
AcDbLine
 62
7
  6
CONTINUOUS
 10
17.2439930183
 20
89.1063677796
 11
17.6251026684
 21
89.5502460063
  0
LINE
  5
218
100
AcDbEntity
  8
0
100
AcDbLine
 62
7
  6
CONTINUOUS
 10
13.1487172738
 20
85.0245685183
 11
13.4922456138
 21
85.3581499323
  0
LINE
  5
219
100
AcDbEntity
  8
0
100
AcDbLine
 62
7
  6
CONTINUOUS
 10
10.3990233571
 20
76.7407202162
 11
10.3944917252
 21
76.8894529467
  0
LINE
  5
21A
100
AcDbEntity
  8
0
100
AcDbLine
 62
7
  6
CONTINUOUS
 10
10.3942538752
 20
68.5575398386
 11
10.4084426998
 21
68.7647433025
  0
LINE
  5
21B
100
AcDbEntity
  8
0
100
AcDbLine
 62
7
  6
CONTINUOUS
 10
23.2295716432
 20
92.7915088666
 11
17.9262928641
 21
89.7296777126
  0
LINE
  5
21C
100
AcDbEntity
  8
0
100
AcDbLine
 62
7
  6
CONTINUOUS
 10
15.1467581191
 20
86.3133774707
 11
13.4922456138
 21
85.3581499323
  0
LINE
  5
21D
100
AcDbEntity
  8
0
100
AcDbLine
 62
7
  6
CONTINUOUS
 10
28.8765882975
 20
93.8410988322
 11
24.6339652743
 21
91.391633909
  0
LWPOLYLINE
  5
21E
100
AcDbEntity
  8
0
100
AcDbPolyline
 62
7
  6
CONTINUOUS
 90
5
 70
0
 10
42.3262152706
 20
98.5579017875
 10
43.1144208057
 20
99.1153085243
 10
48.3684599807
 20
99.9058462305
 10
54.3272046673
 20
98.4812969536
 10
57.419637524
 20
96.9732605015
  0
LWPOLYLINE
  5
21F
100
AcDbEntity
  8
0
100
AcDbPolyline
 62
7
  6
CONTINUOUS
 90
5
 70
0
 10
39.7062664202
 20
96.8427841131
 10
42.1156547719
 20
98.527230198
 10
47.3608388512
 20
99.2912772717
 10
53.2772653398
 20
97.8630096609
 10
56.3577056076
 20
96.3590301314
  0
LINE
  5
220
100
AcDbEntity
  8
0
100
AcDbLine
 62
7
  6
CONTINUOUS
 10
14.5225312954
 20
85.8396599707
 11
13.4922456138
 21
85.3581499323
  0
LINE
  5
221
100
AcDbEntity
  8
0
100
AcDbLine
 62
7
  6
CONTINUOUS
 10
23.8952737171
 20
39.2603199821
 11
23.9491209285
 21
39.2135784865
  0
LINE
  5
222
100
AcDbEntity
  8
0
100
AcDbLine
 62
7
  6
CONTINUOUS
 10
30.661642233
 20
32.8165461481
 11
30.692276297
 21
32.7856623312
  0
LINE
  5
223
100
AcDbEntity
  8
0
100
AcDbLine
 62
7
  6
CONTINUOUS
 10
12.9806168161
 20
57.8575773015
 11
12.9794613195
 21
57.859892914
  0
LINE
  5
224
100
AcDbEntity
  8
0
100
AcDbLine
 62
7
  6
CONTINUOUS
 10
17.1667768833
 20
48.7877162573
 11
17.1626559372
 21
48.7975169176
  0
LINE
  5
225
100
AcDbEntity
  8
0
100
AcDbLine
 62
7
  6
CONTINUOUS
 10
13.2605612605
 20
57.9498989758
 11
13.2724974247
 21
57.9163921253
  0
LINE
  5
226
100
AcDbEntity
  8
0
100
AcDbLine
 62
7
  6
CONTINUOUS
 10
13.2618119365
 20
57.9499237722
 11
13.2724974247
 21
57.9163921253
  0
LINE
  5
227
100
AcDbEntity
  8
0
100
AcDbLine
 62
7
  6
CONTINUOUS
 10
35.6016014159
 20
92.4816297626
 11
31.3589783926
 21
90.0321648394
  0
LINE
  5
228
100
AcDbEntity
  8
0
100
AcDbLine
 62
7
  6
CONTINUOUS
 10
44.2360714297
 20
87.4966289516
 11
39.9934484064
 21
85.0471640284
  0
LINE
  5
229
100
AcDbEntity
  8
0
100
AcDbLine
 62
7
  6
CONTINUOUS
 10
50.9610845481
 20
81.0908974251
 11
46.7184615248
 21
78.6414325019
  0
LINE
  5
22A
100
AcDbEntity
  8
0
100
AcDbLine
 62
7
  6
CONTINUOUS
 10
49.5074234675
 20
91.6539505796
 11
49.9952605484
 21
92.6866708088
  0
LINE
  5
22B
100
AcDbEntity
  8
0
100
AcDbLine
 62
7
  6
CONTINUOUS
 10
72.0134556509
 20
45.8004625123
 11
72.60613572
 21
45.5641559219
  0
LINE
  5
22C
100
AcDbEntity
  8
0
100
AcDbLine
 62
7
  6
CONTINUOUS
 10
57.9465175267
 20
71.1975770675
 11
53.7038945034
 21
68.7481121443
  0
LINE
  5
22D
100
AcDbEntity
  8
0
100
AcDbLine
 62
7
  6
CONTINUOUS
 10
62.1028042086
 20
62.1923548045
 11
57.8601811853
 21
59.7428898813
  0
LINE
  5
22E
100
AcDbEntity
  8
0
100
AcDbLine
 62
7
  6
CONTINUOUS
 10
64.7710021803
 20
51.1696270152
 11
60.528379157
 21
48.720162092
  0
LWPOLYLINE
  5
22F
100
AcDbEntity
  8
0
100
AcDbPolyline
 62
7
  6
CONTINUOUS
 90
9
 70
0
 10
43.7595865718
 20
89.2087300331
 10
44.3980937511
 20
88.7896568763
 10
50.9854223072
 20
82.854335405
 10
56.8197146694
 20
75.3885430822
 10
61.4852646981
 20
66.9278416773
 10
64.6301458366
 20
58.1075275423
 10
66.0235937084
 20
49.5627195956
 10
66.0229642606
 20
45.6043635911
 10
64.6307975563
 20
38.6805297244
  0
LINE
  5
230
100
AcDbEntity
  8
0
100
AcDbLine
 62
7
  6
CONTINUOUS
 10
49.4340290162
 20
85.7026698523
 11
42.7901352092
 21
90.6177767561
  0
LINE
  5
231
100
AcDbEntity
  8
0
100
AcDbLine
 62
7
  6
CONTINUOUS
 10
55.4960878733
 20
79.076614731
 11
49.4340290162
 21
85.7026698523
  0
LWPOLYLINE
  5
232
100
AcDbEntity
  8
0
100
AcDbPolyline
 62
7
  6
CONTINUOUS
 90
4
 70
0
 10
64.8597461195
 20
63.483198458
 10
66.7447395043
 20
55.2787545208
 10
66.7762808227
 20
48.1020186882
 10
66.2079250123
 20
46.1623558275
  0
LINE
  5
233
100
AcDbEntity
  8
0
100
AcDbLine
 62
7
  6
CONTINUOUS
 10
42.7113138501
 20
90.4221773678
 11
44.6915936116
 21
89.6241772127
  0
LWPOLYLINE
  5
234
100
AcDbEntity
  8
0
100
AcDbPolyline
 62
7
  6
CONTINUOUS
 90
3
 70
0
 10
42.7901352092
 20
90.6177767561
 10
36.2585656593
 20
93.360173057
 10
34.504671629
 20
93.5112198854
  0
LWPOLYLINE
  5
235
100
AcDbEntity
  8
0
100
AcDbPolyline
 62
7
  6
CONTINUOUS
 90
7
 70
0
 10
65.1168082622
 20
41.0976665335
 10
65.8624507437
 20
42.7767530968
 10
66.616595148
 20
50.1672698052
 10
65.481226355
 20
58.4661306138
 10
64.2414802768
 20
62.7587836792
 10
60.5526881562
 20
71.2391529969
 10
55.4960878733
 20
79.076614731
  0
LINE
  5
236
100
AcDbEntity
  8
0
100
AcDbLine
 62
7
  6
CONTINUOUS
 10
64.7710021803
 20
43.0046028439
 11
60.528379157
 21
40.5551379207
  0
LWPOLYLINE
  5
237
100
AcDbEntity
  8
0
100
AcDbPolyline
 62
7
  6
CONTINUOUS
 90
4
 70
0
 10
47.8739492602
 20
91.4621600581
 10
41.6343633987
 20
93.9837381131
 10
35.9090159059
 20
94.2506905797
 10
34.2798933482
 20
93.5680741749
  0
LWPOLYLINE
  5
238
100
AcDbEntity
  8
0
100
AcDbPolyline
 62
7
  6
CONTINUOUS
 90
3
 70
0
 10
64.6307975563
 20
38.6805297244
 10
61.4925542868
 20
33.4975089207
 10
58.7293188086
 20
31.3037761253
  0
LWPOLYLINE
  5
239
100
AcDbEntity
  8
0
100
AcDbPolyline
 62
7
  6
CONTINUOUS
 90
5
 70
0
 10
65.071890352
 20
40.8742707669
 10
67.2025323294
 20
43.5091476161
 10
68.9065129487
 20
49.3931403931
 10
68.858583576
 20
56.5675208379
 10
66.9749563076
 20
64.7271124204
  0
LWPOLYLINE
  5
23A
100
AcDbEntity
  8
0
100
AcDbPolyline
 62
7
  6
CONTINUOUS
 90
5
 70
0
 10
65.6286665495
 20
42.2503025406
 10
66.1200328148
 20
42.85402092
 10
67.8372976827
 20
48.7143734669
 10
67.805816569
 20
55.8911055826
 10
65.9207916239
 20
64.0957987037
  0
LWPOLYLINE
  5
23B
100
AcDbEntity
  8
0
100
AcDbPolyline
 62
7
  6
CONTINUOUS
 90
6
 70
0
 10
65.3085368858
 20
40.4902780306
 10
67.0770412951
 20
41.2464809788
 10
70.4063276052
 20
45.388822925
 10
72.0996419446
 20
51.3170808672
 10
72.0240149591
 20
58.5377898384
 10
70.1586318681
 20
66.5584274813
  0
LWPOLYLINE
  5
23C
100
AcDbEntity
  8
0
100
AcDbPolyline
 62
7
  6
CONTINUOUS
 90
6
 70
0
 10
64.9298895625
 20
40.1680407783
 10
66.0105485393
 20
40.6295596984
 10
69.3381256095
 20
44.7618125774
 10
71.0349172417
 20
50.6733209566
 10
70.970371494
 20
57.8691111981
 10
69.1009185449
 20
65.9375102458
  0
LWPOLYLINE
  5
23D
100
AcDbEntity
  8
0
100
AcDbPolyline
 62
7
  6
CONTINUOUS
 90
6
 70
0
 10
70.2998009577
 20
43.4173212713
 10
72.3476946546
 20
44.2842616354
 10
75.6899068724
 20
48.411508967
 10
77.3984144826
 20
54.3386656625
 10
77.3305782814
 20
61.5769019688
 10
75.4664156632
 20
69.6071032144
  0
LWPOLYLINE
  5
23E
100
AcDbEntity
  8
0
100
AcDbPolyline
 62
7
  6
CONTINUOUS
 90
6
 70
0
 10
72.544550014
 20
44.5273553422
 10
73.3985765553
 20
44.888710805
 10
76.7265903731
 20
48.977683228
 10
78.4438552409
 20
54.8380357749
 10
78.4123741272
 20
62.0147678906
 10
76.5294254565
 20
70.2132388797
  0
LWPOLYLINE
  5
23F
100
AcDbEntity
  8
0
100
AcDbPolyline
 62
7
  6
CONTINUOUS
 90
6
 70
0
 10
73.5984726956
 20
45.134313693
 10
74.446288446
 20
45.492641847
 10
77.7833995265
 20
49.5835693957
 10
79.5113569555
 20
55.4938075988
 10
79.460531427
 20
62.7316887992
 10
77.5756701881
 20
70.8666812902
  0
LINE
  5
240
100
AcDbEntity
  8
0
100
AcDbLine
 62
7
  6
CONTINUOUS
 10
69.2319720791
 20
42.7955304147
 11
71.2458225175
 21
43.6405692599
  0
LWPOLYLINE
  5
241
100
AcDbEntity
  8
0
100
AcDbPolyline
 62
7
  6
CONTINUOUS
 90
6
 70
0
 10
67.2404412361
 20
41.4497853409
 10
68.0233817915
 20
41.7736693841
 10
71.384571278
 20
45.8403294766
 10
73.1327365194
 20
51.713665265
 10
73.1133932043
 20
58.921238228
 10
71.221599834
 20
67.1658824095
  0
LWPOLYLINE
  5
242
100
AcDbEntity
  8
0
100
AcDbPolyline
 62
7
  6
CONTINUOUS
 90
4
 70
0
 10
48.9346051674
 20
92.074112441
 10
42.6666700038
 20
94.6017309001
 10
36.9008263886
 20
94.8508912932
 10
34.0466743002
 20
93.6270634297
  0
LWPOLYLINE
  5
243
100
AcDbEntity
  8
0
100
AcDbPolyline
 62
7
  6
CONTINUOUS
 90
5
 70
0
 10
71.2458225175
 20
43.6405692599
 10
74.581775391
 20
47.7071326324
 10
76.3162454798
 20
53.5647357076
 10
76.295578138
 20
60.7537653666
 10
74.4009879765
 20
69.010328033
  0
LWPOLYLINE
  5
244
100
AcDbEntity
  8
0
100
AcDbPolyline
 62
7
  6
CONTINUOUS
 90
3
 70
0
 10
72.6055490035
 20
45.564758477
 10
69.1441738204
 20
42.3410385808
 10
68.5494005711
 20
42.1591071676
  0
LINE
  5
245
100
AcDbEntity
  8
0
100
AcDbLine
 62
7
  6
CONTINUOUS
 10
53.4261339349
 20
28.2417822863
 11
53.7038945034
 21
28.4072457014
  0
LINE
  5
246
100
AcDbEntity
  8
0
100
AcDbLine
 62
7
  6
CONTINUOUS
 10
62.1028042086
 20
35.0627749898
 11
57.8601811853
 21
32.6133100666
  0
LINE
  5
247
100
AcDbEntity
  8
0
100
AcDbLine
 62
7
  6
CONTINUOUS
 10
57.7040462484
 20
32.5403767164
 11
57.8601811853
 21
32.6133100666
  0
LWPOLYLINE
  5
248
100
AcDbEntity
  8
0
100
AcDbPolyline
 62
7
  6
CONTINUOUS
 90
4
 70
0
 10
35.4289679824
 20
93.4316187064
 10
37.7780766035
 20
93.7818753095
 10
43.7272719741
 20
92.3562174167
 10
46.8129034683
 20
90.8495663052
  0
LWPOLYLINE
  5
249
100
AcDbEntity
  8
0
100
AcDbPolyline
 62
7
  6
CONTINUOUS
 90
4
 70
0
 10
46.9009539405
 20
97.0535972105
 10
41.1388886563
 20
97.3004637384
 10
36.3559508535
 20
95.2502976379
 10
36.1647298523
 20
95.0173694848
  0
LINE
  5
24A
100
AcDbEntity
  8
0
100
AcDbLine
 62
7
  6
CONTINUOUS
 10
53.1772265838
 20
94.5234202574
 11
46.9009539405
 21
97.0535972105
  0
LINE
  5
24B
100
AcDbEntity
  8
0
100
AcDbLine
 62
7
  6
CONTINUOUS
 10
57.9465175267
 20
30.8567106247
 11
53.7038945034
 21
28.4072457014
  0
LINE
  5
24C
100
AcDbEntity
  8
0
100
AcDbLine
 62
7
  6
CONTINUOUS
 10
58.729412714
 20
31.3036134403
 11
53.4261339349
 21
28.2417822863
  0
LWPOLYLINE
  5
24D
100
AcDbEntity
  8
0
100
AcDbPolyline
 62
7
  6
CONTINUOUS
 90
4
 70
0
 10
58.4804700401
 20
97.58560901
 10
52.2279920276
 20
100.1090097527
 10
46.4540954796
 20
100.3634527155
 10
43.7640983675
 20
99.2130608615
  0
ARC
  5
24E
100
AcDbEntity
  8
0
100
AcDbCircle
 62
7
  6
CONTINUOUS
 10
-12.5342405856
 20
39.9840991266
 40
31.287433939
100
AcDbArc
 50
16.3049691929
 51
16.5613342483
  0
ARC
  5
24F
100
AcDbEntity
  8
0
100
AcDbCircle
 62
7
  6
CONTINUOUS
 10
24.3447912399
 20
78.6125008975
 40
12.8370067281
100
AcDbArc
 50
119.9999742911
 51
121.5647465262
  0
ARC
  5
250
100
AcDbEntity
  8
0
100
AcDbCircle
 62
7
  6
CONTINUOUS
 10
51.7306411536
 20
40.9735912159
 40
11.8738532913
100
AcDbArc
 50
301.5668327149
 51
305.8799719956
  0
ARC
  5
251
100
AcDbEntity
  8
0
100
AcDbCircle
 62
7
  6
CONTINUOUS
 10
59.6453472838
 20
27.2472736993
 40
5.6378512027
100
AcDbArc
 50
110.141312009
 51
119.9592435146
  0
SPLINE
  5
252
100
AcDbEntity
  8
0
100
AcDbSpline
 62
7
  6
CONTINUOUS
 70
0
 71
3
 72
10
 73
6
 74
0
 42
0.0000001
 43
0.0000001
 44
0.0000000001
 40
0.0
 40
0.0
 40
0.0
 40
0.0
 40
0.479222224
 40
0.7353209608
 40
1.0
 40
1.0
 40
1.0
 40
1.0
 10
52.1161837872
 20
93.9108243914
 30
0.0
 10
53.8898388059
 20
92.9026524506
 30
0.0
 10
56.4572442501
 20
91.0738275991
 30
0.0
 10
59.6125724383
 20
88.2136713447
 30
0.0
 10
61.1419300553
 20
86.6047412352
 30
0.0
 10
61.8890822019
 20
85.7612693121
 30
0.0
  0
SPLINE
  5
253
100
AcDbEntity
  8
0
100
AcDbSpline
 62
7
  6
CONTINUOUS
 70
0
 71
3
 72
10
 73
6
 74
0
 42
0.0000001
 43
0.0000001
 44
0.0000000001
 40
0.0
 40
0.0
 40
0.0
 40
0.0
 40
0.4792147505
 40
0.7353146614
 40
1.0
 40
1.0
 40
1.0
 40
1.0
 10
53.1768403009
 20
94.5231060095
 30
0.0
 10
54.9509312894
 20
93.5145999407
 30
0.0
 10
57.519220257
 20
91.6855183514
 30
0.0
 10
60.6750969291
 20
88.824145889
 30
0.0
 10
62.2047051608
 20
87.214560473
 30
0.0
 10
62.9520942585
 20
86.3708376428
 30
0.0
  0
SPLINE
  5
254
100
AcDbEntity
  8
0
100
AcDbSpline
 62
7
  6
CONTINUOUS
 70
0
 71
3
 72
11
 73
7
 74
0
 42
0.0000001
 43
0.0000001
 44
0.0000000001
 40
0.0
 40
0.0
 40
0.0
 40
0.0
 40
0.2573296895
 40
0.5081520245
 40
0.7547934548
 40
1.0
 40
1.0
 40
1.0
 40
1.0
 10
71.5450398308
 20
44.9522130074
 30
0.0
 10
71.2790265554
 20
44.5706508505
 30
0.0
 10
70.7103141871
 20
43.8461776005
 30
0.0
 10
69.7411441931
 20
42.8810212331
 30
0.0
 10
68.6742632792
 20
42.0602630625
 30
0.0
 10
67.9017701201
 20
41.6140663239
 30
0.0
 10
67.504213365
 20
41.4181167712
 30
0.0
  0
SPLINE
  5
255
100
AcDbEntity
  8
0
100
AcDbSpline
 62
7
  6
CONTINUOUS
 70
0
 71
3
 72
18
 73
14
 74
0
 42
0.0000001
 43
0.0000001
 44
0.0000000001
 40
0.0
 40
0.0
 40
0.0
 40
0.0
 40
0.1496594244
 40
0.2213513527
 40
0.2909013128
 40
0.4236540405
 40
0.5485716537
 40
0.6667656851
 40
0.779898541
 40
0.835267014
 40
0.8901945661
 40
0.9450005274
 40
1.0
 40
1.0
 40
1.0
 40
1.0
 10
55.2985406764
 20
95.7489700524
 30
0.0
 10
54.5136977365
 20
96.1952479726
 30
0.0
 10
53.3209423065
 20
96.8022296618
 30
0.0
 10
51.6976794411
 20
97.4710397958
 30
0.0
 10
50.1359678179
 20
98.0146930035
 30
0.0
 10
48.2164101425
 20
98.4987291802
 30
0.0
 10
45.9552582787
 20
98.7518781331
 30
0.0
 10
43.7989761679
 20
98.663856886
 30
0.0
 10
42.0976544143
 20
98.3020580741
 30
0.0
 10
40.8285708884
 20
97.8430404704
 30
0.0
 10
39.9262297028
 20
97.417754737
 30
0.0
 10
39.0697046396
 20
96.9111045432
 30
0.0
 10
38.532447286
 20
96.5216974686
 30
0.0
 10
38.2729587048
 20
96.3149263623
 30
0.0
  0
SPLINE
  5
256
100
AcDbEntity
  8
0
100
AcDbSpline
 62
7
  6
CONTINUOUS
 70
0
 71
3
 72
14
 73
10
 74
0
 42
0.0000001
 43
0.0000001
 44
0.0000000001
 40
0.0
 40
0.0
 40
0.0
 40
0.0
 40
0.1080450818
 40
0.2181305855
 40
0.3321105807
 40
0.4514933734
 40
0.5774392396
 40
0.7107400216
 40
1.0
 40
1.0
 40
1.0
 40
1.0
 10
31.3655851519
 20
64.0025148472
 30
0.0
 10
31.4721569033
 20
64.0640295406
 30
0.0
 10
31.6984068661
 20
64.1700037505
 30
0.0
 10
32.0645218831
 20
64.2712368814
 30
0.0
 10
32.4547931214
 20
64.3147257722
 30
0.0
 10
32.8650528131
 20
64.3005385378
 30
0.0
 10
33.2914604887
 20
64.2289931878
 30
0.0
 10
33.8921934513
 20
64.0538205197
 30
0.0
 10
34.3302573244
 20
63.8453439698
 30
0.0
 10
34.6155576437
 20
63.68062948
 30
0.0
  0
SPLINE
  5
257
100
AcDbEntity
  8
0
100
AcDbSpline
 62
7
  6
CONTINUOUS
 70
0
 71
3
 72
18
 73
14
 74
0
 42
0.0000001
 43
0.0000001
 44
0.0000000001
 40
0.0
 40
0.0
 40
0.0
 40
0.0
 40
0.1497276528
 40
0.290911937
 40
0.4236199105
 40
0.5485056862
 40
0.66666284
 40
0.7237639123
 40
0.7798506941
 40
0.8352121149
 40
0.8901491696
 40
0.9449719676
 40
1.0
 40
1.0
 40
1.0
 40
1.0
 10
54.2378828388
 20
95.1357035733
 30
0.0
 10
53.4504440814
 20
95.5833978524
 30
0.0
 10
51.879487962
 20
96.384302874
 30
0.0
 10
49.4809852489
 20
97.3018227229
 30
0.0
 10
47.1343820119
 20
97.8896221074
 30
0.0
 10
44.867578415
 20
98.1409125191
 30
0.0
 10
43.0446302478
 20
98.0630900374
 30
0.0
 10
41.6641274461
 20
97.8235354093
 30
0.0
 10
40.6774484359
 20
97.5607136698
 30
0.0
 10
39.7309531785
 20
97.2140695127
 30
0.0
 10
38.8273332265
 20
96.7848028751
 30
0.0
 10
37.9695914416
 20
96.2740010257
 30
0.0
 10
37.4321918349
 20
95.881082938
 30
0.0
 10
37.1728860234
 20
95.6723118659
 30
0.0
  0
SPLINE
  5
258
100
AcDbEntity
  8
0
100
AcDbSpline
 62
7
  6
CONTINUOUS
 70
0
 71
3
 72
12
 73
8
 74
0
 42
0.0000001
 43
0.0000001
 44
0.0000000001
 40
0.0
 40
0.0
 40
0.0
 40
0.0
 40
0.1081595404
 40
0.2183675057
 40
0.4513491913
 40
0.7104488814
 40
1.0
 40
1.0
 40
1.0
 40
1.0
 10
45.3098623594
 20
62.9942107929
 30
0.0
 10
45.3758494127
 20
63.0323104681
 30
0.0
 10
45.5159616278
 20
63.0979502026
 30
0.0
 10
45.8236496693
 20
63.1830356349
 30
0.0
 10
46.2546061457
 20
63.19459595
 30
0.0
 10
46.7942882735
 20
63.0640300565
 30
0.0
 10
47.1456829924
 20
62.8968909896
 30
0.0
 10
47.3223385875
 20
62.7949011416
 30
0.0
  0
SPLINE
  5
259
100
AcDbEntity
  8
0
100
AcDbSpline
 62
7
  6
CONTINUOUS
 70
0
 71
3
 72
12
 73
8
 74
0
 42
0.0000001
 43
0.0000001
 44
0.0000000001
 40
0.0
 40
0.0
 40
0.0
 40
0.0
 40
0.1081595404
 40
0.2183675057
 40
0.4513491913
 40
0.7104488814
 40
1.0
 40
1.0
 40
1.0
 40
1.0
 10
45.3098623594
 20
46.0517856375
 30
0.0
 10
45.3758494127
 20
46.0898853127
 30
0.0
 10
45.5159616278
 20
46.1555250472
 30
0.0
 10
45.8236496693
 20
46.2406104794
 30
0.0
 10
46.2546061457
 20
46.2521707946
 30
0.0
 10
46.7942882735
 20
46.121604901
 30
0.0
 10
47.1456829924
 20
45.9544658342
 30
0.0
 10
47.3223385875
 20
45.8524759862
 30
0.0
  0
SPLINE
  5
25A
100
AcDbEntity
  8
0
100
AcDbSpline
 62
7
  6
CONTINUOUS
 70
0
 71
3
 72
12
 73
8
 74
0
 42
0.0000001
 43
0.0000001
 44
0.0000000001
 40
0.0
 40
0.0
 40
0.0
 40
0.0
 40
0.1081595404
 40
0.2183675057
 40
0.4513491913
 40
0.7104488814
 40
1.0
 40
1.0
 40
1.0
 40
1.0
 10
32.6030814156
 20
78.8015208043
 30
0.0
 10
32.6690684689
 20
78.8396204795
 30
0.0
 10
32.8091806841
 20
78.905260214
 30
0.0
 10
33.1168687255
 20
78.9903456463
 30
0.0
 10
33.547825202
 20
79.0019059614
 30
0.0
 10
34.0875073298
 20
78.8713400679
 30
0.0
 10
34.4389020487
 20
78.7042010011
 30
0.0
 10
34.6155576437
 20
78.602211153
 30
0.0
  0
SPLINE
  5
25B
100
AcDbEntity
  8
0
100
AcDbSpline
 62
7
  6
CONTINUOUS
 70
0
 71
3
 72
12
 73
8
 74
0
 42
0.0000001
 43
0.0000001
 44
0.0000000001
 40
0.0
 40
0.0
 40
0.0
 40
0.0
 40
0.1081595404
 40
0.2183675057
 40
0.4513491913
 40
0.7104488814
 40
1.0
 40
1.0
 40
1.0
 40
1.0
 10
19.8963004719
 20
77.6664056603
 30
0.0
 10
19.9622875252
 20
77.7045053355
 30
0.0
 10
20.1023997404
 20
77.77014507
 30
0.0
 10
20.4100877818
 20
77.8552305023
 30
0.0
 10
20.8410442583
 20
77.8667908174
 30
0.0
 10
21.380726386
 20
77.7362249239
 30
0.0
 10
21.7321211049
 20
77.569085857
 30
0.0
 10
21.9087767
 20
77.467096009
 30
0.0
  0
SPLINE
  5
25C
100
AcDbEntity
  8
0
100
AcDbSpline
 62
7
  6
CONTINUOUS
 70
0
 71
3
 72
12
 73
8
 74
0
 42
0.0000001
 43
0.0000001
 44
0.0000000001
 40
0.0
 40
0.0
 40
0.0
 40
0.0
 40
0.1081595404
 40
0.2183675057
 40
0.4513491913
 40
0.7104488814
 40
1.0
 40
1.0
 40
1.0
 40
1.0
 10
19.8963004719
 20
60.7239805049
 30
0.0
 10
19.9622875252
 20
60.7620801801
 30
0.0
 10
20.1023997404
 20
60.8277199146
 30
0.0
 10
20.4100877818
 20
60.9128053468
 30
0.0
 10
20.8410442583
 20
60.924365662
 30
0.0
 10
21.380726386
 20
60.7937997684
 30
0.0
 10
21.7321211049
 20
60.6266607016
 30
0.0
 10
21.9087767
 20
60.5246708536
 30
0.0
  0
SPLINE
  5
25D
100
AcDbEntity
  8
0
100
AcDbSpline
 62
7
  6
CONTINUOUS
 70
0
 71
3
 72
12
 73
8
 74
0
 42
0.0000001
 43
0.0000001
 44
0.0000000001
 40
0.0
 40
0.0
 40
0.0
 40
0.0
 40
0.1081595404
 40
0.2183675057
 40
0.4513491913
 40
0.7104488814
 40
1.0
 40
1.0
 40
1.0
 40
1.0
 10
32.6030814156
 20
44.9166704935
 30
0.0
 10
32.6690684689
 20
44.9547701687
 30
0.0
 10
32.8091806841
 20
45.0204099032
 30
0.0
 10
33.1168687255
 20
45.1054953354
 30
0.0
 10
33.547825202
 20
45.1170556505
 30
0.0
 10
34.0875073298
 20
44.986489757
 30
0.0
 10
34.4389020487
 20
44.8193506902
 30
0.0
 10
34.6155576437
 20
44.7173608421
 30
0.0
  0
SPLINE
  5
25E
100
AcDbEntity
  8
0
100
AcDbSpline
 62
7
  6
CONTINUOUS
 70
0
 71
3
 72
13
 73
9
 74
0
 42
0.0000001
 43
0.0000001
 44
0.0000000001
 40
0.0
 40
0.0
 40
0.0
 40
0.0
 40
0.1080938607
 40
0.2182341751
 40
0.3322595384
 40
0.4516900345
 40
0.7106291046
 40
1.0
 40
1.0
 40
1.0
 40
1.0
 10
22.8110267731
 20
67.9598632461
 30
0.0
 10
22.8897202792
 20
68.0052991453
 30
0.0
 10
23.0567902406
 20
68.0835942778
 30
0.0
 10
23.3271710841
 20
68.1582639675
 30
0.0
 10
23.6153613671
 20
68.1904630075
 30
0.0
 10
24.0303075332
 20
68.176046004
 30
0.0
 10
24.5816165071
 20
68.0432014615
 30
0.0
 10
25.0003294196
 20
67.8438043888
 30
0.0
 10
25.2109982993
 20
67.722177406
 30
0.0
  0
SPLINE
  5
25F
100
AcDbEntity
  8
0
100
AcDbSpline
 62
7
  6
CONTINUOUS
 70
0
 71
3
 72
21
 73
17
 74
0
 42
0.0000001
 43
0.0000001
 44
0.0000000001
 40
0.0
 40
0.0
 40
0.0
 40
0.0
 40
0.0623897526
 40
0.1287873139
 40
0.1984024284
 40
0.2704091021
 40
0.4174462395
 40
0.5616783798
 40
0.630307224
 40
0.695422681
 40
0.7563975196
 40
0.8128606336
 40
0.8647831048
 40
0.9125797999
 40
0.9571747165
 40
1.0
 40
1.0
 40
1.0
 40
1.0
 10
29.9132779715
 20
55.6027889765
 30
0.0
 10
30.0856771503
 20
55.5032565159
 30
0.0
 10
30.4282578753
 20
55.2742360078
 30
0.0
 10
30.9134826846
 20
54.8660334689
 30
0.0
 10
31.377309456
 20
54.3897927887
 30
0.0
 10
31.9576195262
 20
53.6732343281
 30
0.0
 10
32.5676357587
 20
52.6808195114
 30
0.0
 10
33.0004500702
 20
51.6102649691
 30
0.0
 10
33.2142982755
 20
50.7481784975
 30
0.0
 10
33.3014942081
 20
50.131782449
 30
0.0
 10
33.3163730795
 20
49.5480333678
 30
0.0
 10
33.2582366942
 20
49.0089120689
 30
0.0
 10
33.1275771419
 20
48.5255355913
 30
0.0
 10
32.9258799498
 20
48.1080542377
 30
0.0
 10
32.6559269424
 20
47.7666800448
 30
0.0
 10
32.4315848492
 20
47.5950041605
 30
0.0
 10
32.3132494976
 20
47.5266799319
 30
0.0
  0
SPLINE
  5
260
100
AcDbEntity
  8
0
100
AcDbSpline
 62
7
  6
CONTINUOUS
 70
0
 71
3
 72
21
 73
17
 74
0
 42
0.0000001
 43
0.0000001
 44
0.0000000001
 40
0.0
 40
0.0
 40
0.0
 40
0.0
 40
0.0623897526
 40
0.1287873139
 40
0.1984024284
 40
0.2704091021
 40
0.4174462395
 40
0.5616783798
 40
0.630307224
 40
0.695422681
 40
0.7563975196
 40
0.8128606336
 40
0.8647831048
 40
0.9125797999
 40
0.9571747165
 40
1.0
 40
1.0
 40
1.0
 40
1.0
 10
39.3178373159
 20
50.1731869413
 30
0.0
 10
39.4902364947
 20
50.0736544808
 30
0.0
 10
39.8328172198
 20
49.8446339727
 30
0.0
 10
40.3180420291
 20
49.4364314338
 30
0.0
 10
40.7818688005
 20
48.9601907536
 30
0.0
 10
41.3621788707
 20
48.243632293
 30
0.0
 10
41.9721951032
 20
47.2512174762
 30
0.0
 10
42.4050094146
 20
46.180662934
 30
0.0
 10
42.6188576199
 20
45.3185764624
 30
0.0
 10
42.7060535526
 20
44.7021804139
 30
0.0
 10
42.720932424
 20
44.1184313327
 30
0.0
 10
42.6627960387
 20
43.5793100338
 30
0.0
 10
42.5321364863
 20
43.0959335562
 30
0.0
 10
42.3304392943
 20
42.6784522026
 30
0.0
 10
42.0604862869
 20
42.3370780097
 30
0.0
 10
41.8361441936
 20
42.1654021254
 30
0.0
 10
41.7178088421
 20
42.0970778968
 30
0.0
  0
SPLINE
  5
261
100
AcDbEntity
  8
0
100
AcDbSpline
 62
7
  6
CONTINUOUS
 70
0
 71
3
 72
21
 73
17
 74
0
 42
0.0000001
 43
0.0000001
 44
0.0000000001
 40
0.0
 40
0.0
 40
0.0
 40
0.0
 40
0.0623897526
 40
0.1287873139
 40
0.1984024284
 40
0.2704091021
 40
0.4174462395
 40
0.5616783798
 40
0.630307224
 40
0.695422681
 40
0.7563975196
 40
0.8128606336
 40
0.8647831048
 40
0.9125797999
 40
0.9571747165
 40
1.0
 40
1.0
 40
1.0
 40
1.0
 10
39.3178373159
 20
68.9823617652
 30
0.0
 10
39.4902364947
 20
68.8828293047
 30
0.0
 10
39.8328172198
 20
68.6538087966
 30
0.0
 10
40.3180420291
 20
68.2456062577
 30
0.0
 10
40.7818688005
 20
67.7693655775
 30
0.0
 10
41.3621788707
 20
67.0528071169
 30
0.0
 10
41.9721951032
 20
66.0603923001
 30
0.0
 10
42.4050094146
 20
64.9898377579
 30
0.0
 10
42.6188576199
 20
64.1277512863
 30
0.0
 10
42.7060535526
 20
63.5113552378
 30
0.0
 10
42.720932424
 20
62.9276061566
 30
0.0
 10
42.6627960387
 20
62.3884848577
 30
0.0
 10
42.5321364863
 20
61.9051083801
 30
0.0
 10
42.3304392943
 20
61.4876270265
 30
0.0
 10
42.0604862869
 20
61.1462528336
 30
0.0
 10
41.8361441936
 20
60.9745769493
 30
0.0
 10
41.7178088421
 20
60.9062527207
 30
0.0
  0
SPLINE
  5
262
100
AcDbEntity
  8
0
100
AcDbSpline
 62
7
  6
CONTINUOUS
 70
0
 71
3
 72
15
 73
11
 74
0
 42
0.0000001
 43
0.0000001
 44
0.0000000001
 40
0.0
 40
0.0
 40
0.0
 40
0.0
 40
0.1126083552
 40
0.2335666382
 40
0.360782386
 40
0.4918486996
 40
0.6240210035
 40
0.7545131277
 40
0.8806356295
 40
1.0
 40
1.0
 40
1.0
 40
1.0
 10
29.9132779715
 20
74.4119638004
 30
0.0
 10
30.1238336482
 20
74.2904021738
 30
0.0
 10
30.5407343372
 20
74.0030876727
 30
0.0
 10
31.1207478886
 20
73.4805081086
 30
0.0
 10
31.6630423336
 20
72.8647590193
 30
0.0
 10
32.1507821917
 20
72.1753211677
 30
0.0
 10
32.5687990911
 20
71.4334137318
 30
0.0
 10
32.9040887775
 20
70.6621536118
 30
0.0
 10
33.1461916384
 20
69.8856946055
 30
0.0
 10
33.243738411
 20
69.3630087989
 30
0.0
 10
33.2732812825
 20
69.1069937407
 30
0.0
  0
SPLINE
  5
263
100
AcDbEntity
  8
0
100
AcDbSpline
 62
7
  6
CONTINUOUS
 70
0
 71
3
 72
14
 73
10
 74
0
 42
0.0000001
 43
0.0000001
 44
0.0000000001
 40
0.0
 40
0.0
 40
0.0
 40
0.0
 40
0.2964689143
 40
0.4319635253
 40
0.5587666572
 40
0.6774802524
 40
0.7892791968
 40
0.8959966351
 40
1.0
 40
1.0
 40
1.0
 40
1.0
 10
33.2732812825
 20
69.1069937407
 30
0.0
 10
33.3083661317
 20
68.8029525539
 30
0.0
 10
33.3233473811
 20
68.3533671526
 30
0.0
 10
33.2458365294
 20
67.7806408287
 30
0.0
 10
33.1444823842
 20
67.3993431921
 30
0.0
 10
32.9994581
 20
67.0586292637
 30
0.0
 10
32.8118251687
 20
66.7632923408
 30
0.0
 10
32.584079387
 20
66.5177891667
 30
0.0
 10
32.4062314193
 20
66.3895404717
 30
0.0
 10
32.3132494976
 20
66.3358547558
 30
0.0
  0
SPLINE
  5
264
100
AcDbEntity
  8
0
100
AcDbSpline
 62
7
  6
CONTINUOUS
 70
0
 71
3
 72
21
 73
17
 74
0
 42
0.0000001
 43
0.0000001
 44
0.0000000001
 40
0.0
 40
0.0
 40
0.0
 40
0.0
 40
0.0623897526
 40
0.1287873139
 40
0.1984024284
 40
0.2704091021
 40
0.4174462395
 40
0.5616783798
 40
0.630307224
 40
0.695422681
 40
0.7563975196
 40
0.8128606336
 40
0.8647831048
 40
0.9125797999
 40
0.9571747165
 40
1.0
 40
1.0
 40
1.0
 40
1.0
 10
44.0201169882
 20
56.8629733357
 30
0.0
 10
44.1925161669
 20
56.7634408752
 30
0.0
 10
44.535096892
 20
56.5344203671
 30
0.0
 10
45.0203217013
 20
56.1262178282
 30
0.0
 10
45.4841484727
 20
55.649977148
 30
0.0
 10
46.0644585429
 20
54.9334186874
 30
0.0
 10
46.6744747754
 20
53.9410038706
 30
0.0
 10
47.1072890869
 20
52.8704493284
 30
0.0
 10
47.3211372922
 20
52.0083628568
 30
0.0
 10
47.4083332248
 20
51.3919668083
 30
0.0
 10
47.4232120962
 20
50.8082177271
 30
0.0
 10
47.3650757109
 20
50.2690964282
 30
0.0
 10
47.2344161586
 20
49.7857199506
 30
0.0
 10
47.0327189665
 20
49.368238597
 30
0.0
 10
46.7627659591
 20
49.0268644041
 30
0.0
 10
46.5384238658
 20
48.8551885198
 30
0.0
 10
46.4200885143
 20
48.7868642912
 30
0.0
  0
SPLINE
  5
265
100
AcDbEntity
  8
0
100
AcDbSpline
 62
7
  6
CONTINUOUS
 70
0
 71
3
 72
21
 73
17
 74
0
 42
0.0000001
 43
0.0000001
 44
0.0000000001
 40
0.0
 40
0.0
 40
0.0
 40
0.0
 40
0.0623897526
 40
0.1287873139
 40
0.1984024284
 40
0.2704091021
 40
0.4174462395
 40
0.5616783798
 40
0.630307224
 40
0.695422681
 40
0.7563975196
 40
0.8128606336
 40
0.8647831048
 40
0.9125797999
 40
0.9571747165
 40
1.0
 40
1.0
 40
1.0
 40
1.0
 10
25.2109982993
 20
67.722177406
 30
0.0
 10
25.383397478
 20
67.6226449454
 30
0.0
 10
25.7259782031
 20
67.3936244374
 30
0.0
 10
26.2112030124
 20
66.9854218984
 30
0.0
 10
26.6750297838
 20
66.5091812182
 30
0.0
 10
27.255339854
 20
65.7926227576
 30
0.0
 10
27.8653560865
 20
64.8002079409
 30
0.0
 10
28.298170398
 20
63.7296533987
 30
0.0
 10
28.5120186032
 20
62.867566927
 30
0.0
 10
28.5992145359
 20
62.2511708785
 30
0.0
 10
28.6140934073
 20
61.6674217973
 30
0.0
 10
28.555957022
 20
61.1283004984
 30
0.0
 10
28.4252974696
 20
60.6449240208
 30
0.0
 10
28.2236002776
 20
60.2274426672
 30
0.0
 10
27.9536472702
 20
59.8860684743
 30
0.0
 10
27.7293051769
 20
59.71439259
 30
0.0
 10
27.6109698254
 20
59.6460683614
 30
0.0
  0
SPLINE
  5
266
100
AcDbEntity
  8
0
100
AcDbSpline
 62
7
  6
CONTINUOUS
 70
0
 71
3
 72
20
 73
16
 74
0
 42
0.0000001
 43
0.0000001
 44
0.0000000001
 40
0.0
 40
0.0
 40
0.0
 40
0.0
 40
0.0623999369
 40
0.1288084686
 40
0.2703011465
 40
0.4173587208
 40
0.5616108779
 40
0.630250226
 40
0.6953761046
 40
0.756360852
 40
0.8128330713
 40
0.864763586
 40
0.9125673584
 40
0.9571686289
 40
1.0
 40
1.0
 40
1.0
 40
1.0
 10
34.6155576437
 20
44.7173608421
 30
0.0
 10
34.7601234177
 20
44.6338976418
 30
0.0
 10
35.0474171169
 20
44.4418501294
 30
0.0
 10
35.6015166187
 20
43.9755821734
 30
0.0
 10
36.232360318
 20
43.2577840422
 30
0.0
 10
36.8412529237
 20
42.2673543757
 30
0.0
 10
37.2042875259
 20
41.3694489222
 30
0.0
 10
37.3835974627
 20
40.6465819048
 30
0.0
 10
37.4567181585
 20
40.1296992426
 30
0.0
 10
37.4691944589
 20
39.6401970956
 30
0.0
 10
37.420444585
 20
39.1881167687
 30
0.0
 10
37.3108794507
 20
38.7827837835
 30
0.0
 10
37.1417472531
 20
38.432709235
 30
0.0
 10
36.9153809626
 20
38.1464550278
 30
0.0
 10
36.7272620608
 20
38.0024992105
 30
0.0
 10
36.6280338718
 20
37.9452067329
 30
0.0
  0
SPLINE
  5
267
100
AcDbEntity
  8
0
100
AcDbSpline
 62
7
  6
CONTINUOUS
 70
0
 71
3
 72
20
 73
16
 74
0
 42
0.0000001
 43
0.0000001
 44
0.0000000001
 40
0.0
 40
0.0
 40
0.0
 40
0.0
 40
0.0623999369
 40
0.1288084686
 40
0.2703011465
 40
0.4173587208
 40
0.5616108779
 40
0.630250226
 40
0.6953761046
 40
0.756360852
 40
0.8128330713
 40
0.864763586
 40
0.9125673584
 40
0.9571686289
 40
1.0
 40
1.0
 40
1.0
 40
1.0
 10
21.9087767
 20
60.5246708536
 30
0.0
 10
22.053342474
 20
60.4412076532
 30
0.0
 10
22.3406361731
 20
60.2491601408
 30
0.0
 10
22.894735675
 20
59.7828921848
 30
0.0
 10
23.5255793743
 20
59.0650940536
 30
0.0
 10
24.13447198
 20
58.0746643871
 30
0.0
 10
24.4975065822
 20
57.1767589337
 30
0.0
 10
24.676816519
 20
56.4538919162
 30
0.0
 10
24.7499372148
 20
55.937009254
 30
0.0
 10
24.7624135152
 20
55.447507107
 30
0.0
 10
24.7136636412
 20
54.9954267801
 30
0.0
 10
24.604098507
 20
54.5900937949
 30
0.0
 10
24.4349663093
 20
54.2400192465
 30
0.0
 10
24.2086000189
 20
53.9537650392
 30
0.0
 10
24.020481117
 20
53.8098092219
 30
0.0
 10
23.9212529281
 20
53.7525167443
 30
0.0
  0
SPLINE
  5
268
100
AcDbEntity
  8
0
100
AcDbSpline
 62
7
  6
CONTINUOUS
 70
0
 71
3
 72
20
 73
16
 74
0
 42
0.0000001
 43
0.0000001
 44
0.0000000001
 40
0.0
 40
0.0
 40
0.0
 40
0.0
 40
0.0623999369
 40
0.1288084686
 40
0.2703011465
 40
0.4173587208
 40
0.5616108779
 40
0.630250226
 40
0.6953761046
 40
0.756360852
 40
0.8128330713
 40
0.864763586
 40
0.9125673584
 40
0.9571686289
 40
1.0
 40
1.0
 40
1.0
 40
1.0
 10
21.9087767
 20
77.467096009
 30
0.0
 10
22.053342474
 20
77.3836328086
 30
0.0
 10
22.3406361731
 20
77.1915852962
 30
0.0
 10
22.894735675
 20
76.7253173403
 30
0.0
 10
23.5255793743
 20
76.007519209
 30
0.0
 10
24.13447198
 20
75.0170895426
 30
0.0
 10
24.4975065822
 20
74.1191840891
 30
0.0
 10
24.676816519
 20
73.3963170717
 30
0.0
 10
24.7499372148
 20
72.8794344095
 30
0.0
 10
24.7624135152
 20
72.3899322625
 30
0.0
 10
24.7136636412
 20
71.9378519355
 30
0.0
 10
24.604098507
 20
71.5325189504
 30
0.0
 10
24.4349663093
 20
71.1824444019
 30
0.0
 10
24.2086000189
 20
70.8961901947
 30
0.0
 10
24.020481117
 20
70.7522343773
 30
0.0
 10
23.9212529281
 20
70.6949418998
 30
0.0
  0
SPLINE
  5
269
100
AcDbEntity
  8
0
100
AcDbSpline
 62
7
  6
CONTINUOUS
 70
0
 71
3
 72
20
 73
16
 74
0
 42
0.0000001
 43
0.0000001
 44
0.0000000001
 40
0.0
 40
0.0
 40
0.0
 40
0.0
 40
0.0623999369
 40
0.1288084686
 40
0.2703011465
 40
0.4173587208
 40
0.5616108779
 40
0.630250226
 40
0.6953761046
 40
0.756360852
 40
0.8128330713
 40
0.864763586
 40
0.9125673584
 40
0.9571686289
 40
1.0
 40
1.0
 40
1.0
 40
1.0
 10
34.6155576437
 20
78.602211153
 30
0.0
 10
34.7601234177
 20
78.5187479527
 30
0.0
 10
35.0474171169
 20
78.3267004402
 30
0.0
 10
35.6015166187
 20
77.8604324843
 30
0.0
 10
36.232360318
 20
77.142634353
 30
0.0
 10
36.8412529237
 20
76.1522046866
 30
0.0
 10
37.2042875259
 20
75.2542992331
 30
0.0
 10
37.3835974627
 20
74.5314322157
 30
0.0
 10
37.4567181585
 20
74.0145495535
 30
0.0
 10
37.4691944589
 20
73.5250474065
 30
0.0
 10
37.420444585
 20
73.0729670796
 30
0.0
 10
37.3108794507
 20
72.6676340944
 30
0.0
 10
37.1417472531
 20
72.3175595459
 30
0.0
 10
36.9153809626
 20
72.0313053387
 30
0.0
 10
36.7272620608
 20
71.8873495213
 30
0.0
 10
36.6280338718
 20
71.8300570438
 30
0.0
  0
SPLINE
  5
26A
100
AcDbEntity
  8
0
100
AcDbSpline
 62
7
  6
CONTINUOUS
 70
0
 71
3
 72
20
 73
16
 74
0
 42
0.0000001
 43
0.0000001
 44
0.0000000001
 40
0.0
 40
0.0
 40
0.0
 40
0.0
 40
0.0623999369
 40
0.1288084686
 40
0.2703011465
 40
0.4173587208
 40
0.5616108779
 40
0.630250226
 40
0.6953761046
 40
0.756360852
 40
0.8128330713
 40
0.864763586
 40
0.9125673584
 40
0.9571686289
 40
1.0
 40
1.0
 40
1.0
 40
1.0
 10
47.3223385875
 20
45.8524759862
 30
0.0
 10
47.4669043615
 20
45.7690127858
 30
0.0
 10
47.7541980606
 20
45.5769652734
 30
0.0
 10
48.3082975625
 20
45.1106973174
 30
0.0
 10
48.9391412618
 20
44.3928991862
 30
0.0
 10
49.5480338675
 20
43.4024695197
 30
0.0
 10
49.9110684697
 20
42.5045640663
 30
0.0
 10
50.0903784064
 20
41.7816970488
 30
0.0
 10
50.1634991023
 20
41.2648143866
 30
0.0
 10
50.1759754027
 20
40.7753122396
 30
0.0
 10
50.1272255287
 20
40.3232319127
 30
0.0
 10
50.0176603945
 20
39.9178989275
 30
0.0
 10
49.8485281968
 20
39.567824379
 30
0.0
 10
49.6221619064
 20
39.2815701718
 30
0.0
 10
49.4340430045
 20
39.1376143545
 30
0.0
 10
49.3348148155
 20
39.0803218769
 30
0.0
  0
SPLINE
  5
26B
100
AcDbEntity
  8
0
100
AcDbSpline
 62
7
  6
CONTINUOUS
 70
0
 71
3
 72
20
 73
16
 74
0
 42
0.0000001
 43
0.0000001
 44
0.0000000001
 40
0.0
 40
0.0
 40
0.0
 40
0.0
 40
0.0623999369
 40
0.1288084686
 40
0.2703011465
 40
0.4173587208
 40
0.5616108779
 40
0.630250226
 40
0.6953761046
 40
0.756360852
 40
0.8128330713
 40
0.864763586
 40
0.9125673584
 40
0.9571686289
 40
1.0
 40
1.0
 40
1.0
 40
1.0
 10
47.3223385875
 20
62.7949011416
 30
0.0
 10
47.4669043615
 20
62.7114379412
 30
0.0
 10
47.7541980606
 20
62.5193904288
 30
0.0
 10
48.3082975625
 20
62.0531224729
 30
0.0
 10
48.9391412618
 20
61.3353243416
 30
0.0
 10
49.5480338675
 20
60.3448946752
 30
0.0
 10
49.9110684697
 20
59.4469892217
 30
0.0
 10
50.0903784064
 20
58.7241222043
 30
0.0
 10
50.1634991023
 20
58.2072395421
 30
0.0
 10
50.1759754027
 20
57.7177373951
 30
0.0
 10
50.1272255287
 20
57.2656570681
 30
0.0
 10
50.0176603945
 20
56.860324083
 30
0.0
 10
49.8485281968
 20
56.5102495345
 30
0.0
 10
49.6221619064
 20
56.2239953273
 30
0.0
 10
49.4340430045
 20
56.0800395099
 30
0.0
 10
49.3348148155
 20
56.0227470324
 30
0.0
  0
SPLINE
  5
26C
100
AcDbEntity
  8
0
100
AcDbSpline
 62
7
  6
CONTINUOUS
 70
0
 71
3
 72
23
 73
19
 74
0
 42
0.0000001
 43
0.0000001
 44
0.0000000001
 40
0.0
 40
0.0
 40
0.0
 40
0.0
 40
0.062378625
 40
0.1287503917
 40
0.1983463928
 40
0.2703355704
 40
0.3437243015
 40
0.4174660398
 40
0.4905033341
 40
0.561801714
 40
0.6304100321
 40
0.6955088862
 40
0.7564656958
 40
0.8129112742
 40
0.8648209239
 40
0.9126040691
 40
0.9571858536
 40
1.0
 40
1.0
 40
1.0
 40
1.0
 10
34.6155576437
 20
63.68062948
 30
0.0
 10
34.8490377176
 20
63.545832746
 30
0.0
 10
35.312960185
 20
63.2357307054
 30
0.0
 10
35.9700126267
 20
62.6829177435
 30
0.0
 10
36.5980493548
 20
62.0380402952
 30
0.0
 10
37.1836498345
 20
61.3151562948
 30
0.0
 10
37.7144590739
 20
60.529477981
 30
0.0
 10
38.1791504084
 20
59.6978040685
 30
0.0
 10
38.5678213319
 20
58.8378688551
 30
0.0
 10
38.8721268851
 20
57.9679683774
 30
0.0
 10
39.0856510472
 20
57.1066110088
 30
0.0
 10
39.2038239622
 20
56.2719643581
 30
0.0
 10
39.2239206428
 20
55.4814622155
 30
0.0
 10
39.1451494422
 20
54.7514226835
 30
0.0
 10
38.9683021277
 20
54.0968314916
 30
0.0
 10
38.6951409958
 20
53.5314904685
 30
0.0
 10
38.3295260764
 20
53.0692778257
 30
0.0
 10
38.0257899026
 20
52.8367168508
 30
0.0
 10
37.8655301355
 20
52.7442126901
 30
0.0
  0
SPLINE
  5
26D
100
AcDbEntity
  8
0
100
AcDbSpline
 62
7
  6
CONTINUOUS
 70
0
 71
3
 72
13
 73
9
 74
0
 42
0.0000001
 43
0.0000001
 44
0.0000000001
 40
0.0
 40
0.0
 40
0.0
 40
0.0
 40
0.1080938607
 40
0.2182341751
 40
0.3322595384
 40
0.4516900345
 40
0.7106291046
 40
1.0
 40
1.0
 40
1.0
 40
1.0
 10
41.620145462
 20
57.1006591759
 30
0.0
 10
41.6988389681
 20
57.146095075
 30
0.0
 10
41.8659089295
 20
57.2243902076
 30
0.0
 10
42.136289773
 20
57.2990598973
 30
0.0
 10
42.424480056
 20
57.3312589373
 30
0.0
 10
42.8394262221
 20
57.3168419337
 30
0.0
 10
43.390735196
 20
57.1839973913
 30
0.0
 10
43.8094481085
 20
56.9846003186
 30
0.0
 10
44.0201169882
 20
56.8629733357
 30
0.0
  0
SPLINE
  5
26E
100
AcDbEntity
  8
0
100
AcDbSpline
 62
7
  6
CONTINUOUS
 70
0
 71
3
 72
13
 73
9
 74
0
 42
0.0000001
 43
0.0000001
 44
0.0000000001
 40
0.0
 40
0.0
 40
0.0
 40
0.0
 40
0.1080938607
 40
0.2182341751
 40
0.3322595384
 40
0.4516900345
 40
0.7106291046
 40
1.0
 40
1.0
 40
1.0
 40
1.0
 10
27.5133064454
 20
74.6496496405
 30
0.0
 10
27.5919999514
 20
74.6950855396
 30
0.0
 10
27.7590699128
 20
74.7733806722
 30
0.0
 10
28.0294507563
 20
74.8480503619
 30
0.0
 10
28.3176410393
 20
74.8802494019
 30
0.0
 10
28.7325872054
 20
74.8658323984
 30
0.0
 10
29.2838961793
 20
74.7329878559
 30
0.0
 10
29.7026090918
 20
74.5335907832
 30
0.0
 10
29.9132779715
 20
74.4119638004
 30
0.0
  0
SPLINE
  5
26F
100
AcDbEntity
  8
0
100
AcDbSpline
 62
7
  6
CONTINUOUS
 70
0
 71
3
 72
13
 73
9
 74
0
 42
0.0000001
 43
0.0000001
 44
0.0000000001
 40
0.0
 40
0.0
 40
0.0
 40
0.0
 40
0.1080938607
 40
0.2182341751
 40
0.3322595384
 40
0.4516900345
 40
0.7106291046
 40
1.0
 40
1.0
 40
1.0
 40
1.0
 10
36.9178657898
 20
69.2200476054
 30
0.0
 10
36.9965592959
 20
69.2654835045
 30
0.0
 10
37.1636292573
 20
69.3437786371
 30
0.0
 10
37.4340101008
 20
69.4184483268
 30
0.0
 10
37.7222003838
 20
69.4506473668
 30
0.0
 10
38.1371465499
 20
69.4362303632
 30
0.0
 10
38.6884555238
 20
69.3033858208
 30
0.0
 10
39.1071684362
 20
69.1039887481
 30
0.0
 10
39.3178373159
 20
68.9823617652
 30
0.0
  0
SPLINE
  5
270
100
AcDbEntity
  8
0
100
AcDbSpline
 62
7
  6
CONTINUOUS
 70
0
 71
3
 72
13
 73
9
 74
0
 42
0.0000001
 43
0.0000001
 44
0.0000000001
 40
0.0
 40
0.0
 40
0.0
 40
0.0
 40
0.1080938607
 40
0.2182341751
 40
0.3322595384
 40
0.4516900345
 40
0.7106291046
 40
1.0
 40
1.0
 40
1.0
 40
1.0
 10
36.9178657898
 20
50.4108727815
 30
0.0
 10
36.9965592959
 20
50.4563086806
 30
0.0
 10
37.1636292573
 20
50.5346038132
 30
0.0
 10
37.4340101008
 20
50.6092735029
 30
0.0
 10
37.7222003838
 20
50.6414725429
 30
0.0
 10
38.1371465499
 20
50.6270555393
 30
0.0
 10
38.6884555238
 20
50.4942109969
 30
0.0
 10
39.1071684362
 20
50.2948139242
 30
0.0
 10
39.3178373159
 20
50.1731869413
 30
0.0
  0
SPLINE
  5
271
100
AcDbEntity
  8
0
100
AcDbSpline
 62
7
  6
CONTINUOUS
 70
0
 71
3
 72
9
 73
5
 74
0
 42
0.0000001
 43
0.0000001
 44
0.0000000001
 40
0.0
 40
0.0
 40
0.0
 40
0.0
 40
0.2449846086
 40
1.0
 40
1.0
 40
1.0
 40
1.0
 10
40.9794921786
 20
91.0333969616
 30
0.0
 10
41.2134674998
 20
90.8983143029
 30
0.0
 10
42.1618087014
 20
90.335330618
 30
0.0
 10
43.0833736437
 20
89.7275054099
 30
0.0
 10
43.7635245827
 20
89.2472205688
 30
0.0
  0
SPLINE
  5
272
100
AcDbEntity
  8
0
100
AcDbSpline
 62
7
  6
CONTINUOUS
 70
0
 71
3
 72
11
 73
7
 74
0
 42
0.0000001
 43
0.0000001
 44
0.0000000001
 40
0.0
 40
0.0
 40
0.0
 40
0.0
 40
0.2338109157
 40
0.4794573702
 40
0.7354346709
 40
1.0
 40
1.0
 40
1.0
 40
1.0
 10
44.6915936116
 20
89.6241772127
 30
0.0
 10
45.557591104
 20
89.1317531363
 30
0.0
 10
47.2836724197
 20
88.0325121913
 30
0.0
 10
49.7698892008
 20
86.1194955345
 30
0.0
 10
52.1906625751
 20
83.9245320375
 30
0.0
 10
53.7198659315
 20
82.3149805564
 30
0.0
 10
54.4673351266
 20
81.4711951807
 30
0.0
  0
SPLINE
  5
273
100
AcDbEntity
  8
0
100
AcDbSpline
 62
7
  6
CONTINUOUS
 70
0
 71
3
 72
10
 73
6
 74
0
 42
0.0000001
 43
0.0000001
 44
0.0000000001
 40
0.0
 40
0.0
 40
0.0
 40
0.0
 40
0.2646899367
 40
0.5207890184
 40
1.0
 40
1.0
 40
1.0
 40
1.0
 10
55.5274948883
 20
82.0847916871
 30
0.0
 10
54.7800824846
 20
82.9284648817
 30
0.0
 10
53.2506309632
 20
84.53809271
 30
0.0
 10
50.0949684873
 20
87.3995299975
 30
0.0
 10
47.5264296473
 20
89.227926433
 30
0.0
 10
45.7526361495
 20
90.2367720229
 30
0.0
  0
SPLINE
  5
274
100
AcDbEntity
  8
0
100
AcDbSpline
 62
7
  6
CONTINUOUS
 70
0
 71
3
 72
16
 73
12
 74
0
 42
0.0000001
 43
0.0000001
 44
0.0000000001
 40
0.0
 40
0.0
 40
0.0
 40
0.0
 40
0.1488433489
 40
0.220317723
 40
0.2897972336
 40
0.4227790118
 40
0.5482991703
 40
0.6672735365
 40
0.7809919914
 40
0.8912014957
 40
1.0
 40
1.0
 40
1.0
 40
1.0
 10
49.9952605484
 20
92.6866708088
 30
0.0
 10
49.2548716322
 20
93.1073451802
 30
0.0
 10
48.1309714287
 20
93.6833425765
 30
0.0
 10
46.6026611508
 20
94.3276261581
 30
0.0
 10
45.1282323648
 20
94.8606095895
 30
0.0
 10
43.3127317732
 20
95.3528798816
 30
0.0
 10
41.1680804501
 20
95.6544909985
 30
0.0
 10
39.1114214996
 20
95.6566050718
 30
0.0
 10
37.164022544
 20
95.3553914208
 30
0.0
 10
35.3500626424
 20
94.7489457272
 30
0.0
 10
34.2425522806
 20
94.1468707092
 30
0.0
 10
33.7238483201
 20
93.8027899821
 30
0.0
  0
SPLINE
  5
275
100
AcDbEntity
  8
0
100
AcDbSpline
 62
7
  6
CONTINUOUS
 70
0
 71
3
 72
19
 73
15
 74
0
 42
0.0000001
 43
0.0000001
 44
0.0000000001
 40
0.0
 40
0.0
 40
0.0
 40
0.0
 40
0.0477173891
 40
0.0963863856
 40
0.1464384525
 40
0.1982478937
 40
0.2520985855
 40
0.3082030108
 40
0.4276516155
 40
0.4912276281
 40
0.5573123724
 40
0.6966188625
 40
0.8446924063
 40
1.0
 40
1.0
 40
1.0
 40
1.0
 10
64.8958083705
 20
39.9774144884
 30
0.0
 10
65.2395900858
 20
40.2372271279
 30
0.0
 10
65.9018370242
 20
40.8060631995
 30
0.0
 10
66.7958616078
 20
41.7844730154
 30
0.0
 10
67.5923921514
 20
42.8896551819
 30
0.0
 10
68.286757138
 20
44.1153482699
 30
0.0
 10
68.8770408565
 20
45.4541249458
 30
0.0
 10
69.5354586975
 20
47.4208588166
 30
0.0
 10
69.9516254279
 20
49.5508238021
 30
0.0
 10
70.1463312747
 20
51.7930038816
 30
0.0
 10
70.1956849287
 20
54.2231139383
 30
0.0
 10
69.9615479665
 20
57.4144530274
 30
0.0
 10
69.2379971125
 20
61.3526296139
 30
0.0
 10
68.4851284984
 20
63.9916760385
 30
0.0
 10
68.0415803547
 20
65.3222106067
 30
0.0
  0
SPLINE
  5
276
100
AcDbEntity
  8
0
100
AcDbSpline
 62
7
  6
CONTINUOUS
 70
0
 71
3
 72
16
 73
12
 74
0
 42
0.0000001
 43
0.0000001
 44
0.0000000001
 40
0.0
 40
0.0
 40
0.0
 40
0.0
 40
0.1497084543
 40
0.2909331326
 40
0.4236894747
 40
0.5486235298
 40
0.6668540458
 40
0.7239853989
 40
0.7800950643
 40
0.8902954431
 40
1.0
 40
1.0
 40
1.0
 40
1.0
 10
51.0559159525
 20
93.2988448343
 30
0.0
 10
50.2707837309
 20
93.7454422277
 30
0.0
 10
48.7035894463
 20
94.5435821799
 30
0.0
 10
46.3118436662
 20
95.4602997875
 30
0.0
 10
43.9713815709
 20
96.0494866166
 30
0.0
 10
41.7098920405
 20
96.3018511029
 30
0.0
 10
39.8909072764
 20
96.2286777572
 30
0.0
 10
38.5126286606
 20
95.993349545
 30
0.0
 10
37.2074552468
 20
95.6496758574
 30
0.0
 10
35.6598871536
 20
95.0085485553
 30
0.0
 10
34.5431394909
 20
94.275572119
 30
0.0
 10
34.0257454145
 20
93.8627596224
 30
0.0
  0
SPLINE
  5
277
100
AcDbEntity
  8
0
100
AcDbSpline
 62
7
  6
CONTINUOUS
 70
0
 71
3
 72
17
 73
13
 74
0
 42
0.0000001
 43
0.0000001
 44
0.0000000001
 40
0.0
 40
0.0
 40
0.0
 40
0.0
 40
0.1496916686
 40
0.2908713783
 40
0.4236288981
 40
0.5485590312
 40
0.6667405896
 40
0.7798733072
 40
0.83524486
 40
0.8901773571
 40
0.9449903877
 40
1.0
 40
1.0
 40
1.0
 40
1.0
 10
52.1165742994
 20
93.9116277143
 30
0.0
 10
51.3311062016
 20
94.3580994849
 30
0.0
 10
49.763761316
 20
95.1565226366
 30
0.0
 10
47.371053642
 20
96.0725264932
 30
0.0
 10
45.0302644477
 20
96.6618565459
 30
0.0
 10
42.7679122684
 20
96.915946537
 30
0.0
 10
40.6105963949
 20
96.8257447834
 30
0.0
 10
38.9087767184
 20
96.462741971
 30
0.0
 10
37.6392091697
 20
96.002958001
 30
0.0
 10
36.7365722854
 20
95.5769193131
 30
0.0
 10
35.8799048198
 20
95.0692683408
 30
0.0
 10
35.3427204945
 20
94.6790149819
 30
0.0
 10
35.0833103385
 20
94.4717854327
 30
0.0
  0
SPLINE
  5
278
100
AcDbEntity
  8
0
100
AcDbSpline
 62
7
  6
CONTINUOUS
 70
0
 71
3
 72
11
 73
7
 74
0
 42
0.0000001
 43
0.0000001
 44
0.0000000001
 40
0.0
 40
0.0
 40
0.0
 40
0.0
 40
0.2645610633
 40
0.5205467461
 40
0.7661375081
 40
1.0
 40
1.0
 40
1.0
 40
1.0
 10
56.5765963053
 20
82.7100775442
 30
0.0
 10
55.829824094
 20
83.5522632153
 30
0.0
 10
54.3023414224
 20
85.1589746423
 30
0.0
 10
51.8850840839
 20
87.3504473658
 30
0.0
 10
49.4015116487
 20
89.2594179791
 30
0.0
 10
47.6781659493
 20
90.357312879
 30
0.0
 10
46.8132932934
 20
90.8492245315
 30
0.0
  0
SPLINE
  5
279
100
AcDbEntity
  8
0
100
AcDbSpline
 62
7
  6
CONTINUOUS
 70
0
 71
3
 72
16
 73
12
 74
0
 42
0.0000001
 43
0.0000001
 44
0.0000000001
 40
0.0
 40
0.0
 40
0.0
 40
0.0
 40
0.149248769
 40
0.292944157
 40
0.4300265194
 40
0.5596367703
 40
0.6215046561
 40
0.6813636561
 40
0.794963996
 40
0.9008589586
 40
1.0
 40
1.0
 40
1.0
 40
1.0
 10
72.2823595469
 20
67.7762787699
 30
0.0
 10
72.6539008049
 20
66.6627876058
 30
0.0
 10
73.302668937
 20
64.4492201663
 30
0.0
 10
73.9939110423
 20
61.1346447859
 30
0.0
 10
74.3785784912
 20
57.9256024275
 30
0.0
 10
74.4379781171
 20
55.3371668222
 30
0.0
 10
74.3205591584
 20
53.3628823244
 30
0.0
 10
74.1047617453
 20
51.5238975583
 30
0.0
 10
73.6502499659
 20
49.3670972611
 30
0.0
 10
72.7867657664
 20
47.0050658709
 30
0.0
 10
71.9906129622
 20
45.5914906376
 30
0.0
 10
71.5450861394
 20
44.9515627901
 30
0.0
  0
SPLINE
  5
27A
100
AcDbEntity
  8
0
100
AcDbSpline
 62
7
  6
CONTINUOUS
 70
0
 71
3
 72
10
 73
6
 74
0
 42
0.0000001
 43
0.0000001
 44
0.0000000001
 40
0.0
 40
0.0
 40
0.0
 40
0.0
 40
0.2646732224
 40
0.5207613847
 40
1.0
 40
1.0
 40
1.0
 40
1.0
 10
60.8240584764
 20
85.1546561059
 30
0.0
 10
60.0772808538
 20
85.9975805158
 30
0.0
 10
58.5484847769
 20
87.6052218397
 30
0.0
 10
55.3946381708
 20
90.463483689
 30
0.0
 10
52.8283274756
 20
92.2906651361
 30
0.0
 10
51.0559159525
 20
93.2988448343
 30
0.0
  0
SPLINE
  5
27B
100
AcDbEntity
  8
0
100
AcDbSpline
 62
7
  6
CONTINUOUS
 70
0
 71
3
 72
11
 73
7
 74
0
 42
0.0000001
 43
0.0000001
 44
0.0000000001
 40
0.0
 40
0.0
 40
0.0
 40
0.0
 40
0.2645762486
 40
0.5205260467
 40
0.7661514901
 40
1.0
 40
1.0
 40
1.0
 40
1.0
 10
59.763557686
 20
84.5412434867
 30
0.0
 10
59.0164889909
 20
85.3841862081
 30
0.0
 10
57.4889174883
 20
86.9926132417
 30
0.0
 10
55.0696221547
 20
89.185000062
 30
0.0
 10
52.5847204975
 20
91.0952009549
 30
0.0
 10
50.8607825761
 20
92.1947702805
 30
0.0
 10
49.9952605808
 20
92.6866687169
 30
0.0
  0
SPLINE
  5
27C
100
AcDbEntity
  8
0
100
AcDbSpline
 62
7
  6
CONTINUOUS
 70
0
 71
3
 72
10
 73
6
 74
0
 42
0.0000001
 43
0.0000001
 44
0.0000000001
 40
0.0
 40
0.0
 40
0.0
 40
0.0
 40
0.5203356652
 40
0.7660724794
 40
1.0
 40
1.0
 40
1.0
 40
1.0
 10
57.6469935514
 20
83.3117303447
 30
0.0
 10
56.1782328751
 20
84.9704473319
 30
0.0
 10
53.8421758921
 20
87.2708485712
 30
0.0
 10
50.4652738218
 20
89.8701401058
 30
0.0
 10
48.7399528569
 20
90.9700904522
 30
0.0
 10
47.8739489256
 20
91.4621593424
 30
0.0
  0
SPLINE
  5
27D
100
AcDbEntity
  8
0
100
AcDbSpline
 62
7
  6
CONTINUOUS
 70
0
 71
3
 72
11
 73
7
 74
0
 42
0.0000001
 43
0.0000001
 44
0.0000000001
 40
0.0
 40
0.0
 40
0.0
 40
0.0
 40
0.2645722755
 40
0.520550142
 40
0.7661357994
 40
1.0
 40
1.0
 40
1.0
 40
1.0
 10
58.7050565019
 20
83.9265480065
 30
0.0
 10
57.9578382865
 20
84.7696975891
 30
0.0
 10
56.4295631429
 20
86.3783151747
 30
0.0
 10
54.010453321
 20
88.5719518281
 30
0.0
 10
51.5247769075
 20
90.4825137109
 30
0.0
 10
49.8001900258
 20
91.5817050911
 30
0.0
 10
48.9346054838
 20
92.0741131172
 30
0.0
  0
SPLINE
  5
27E
100
AcDbEntity
  8
0
100
AcDbSpline
 62
7
  6
CONTINUOUS
 70
0
 71
3
 72
11
 73
7
 74
0
 42
0.0000001
 43
0.0000001
 44
0.0000000001
 40
0.0
 40
0.0
 40
0.0
 40
0.0
 40
0.2645729257
 40
0.5205154904
 40
0.7661487997
 40
1.0
 40
1.0
 40
1.0
 40
1.0
 10
65.0742209452
 20
87.5949760031
 30
0.0
 10
64.3268660005
 20
88.4389650178
 30
0.0
 10
62.7980871903
 20
90.0489001181
 30
0.0
 10
60.3767423973
 20
92.2432420875
 30
0.0
 10
57.8900604303
 20
94.1556541748
 30
0.0
 10
56.1647214354
 20
95.2564417668
 30
0.0
 10
55.2985406764
 20
95.7489700524
 30
0.0
  0
SPLINE
  5
27F
100
AcDbEntity
  8
0
100
AcDbSpline
 62
7
  6
CONTINUOUS
 70
0
 71
3
 72
10
 73
6
 74
0
 42
0.0000001
 43
0.0000001
 44
0.0000000001
 40
0.0
 40
0.0
 40
0.0
 40
0.0
 40
0.2646754946
 40
0.5207704431
 40
1.0
 40
1.0
 40
1.0
 40
1.0
 10
64.0018305181
 20
86.9962288164
 30
0.0
 10
63.2551917222
 20
87.8385521739
 30
0.0
 10
61.7270971504
 20
89.445394758
 30
0.0
 10
58.5747965973
 20
92.302259034
 30
0.0
 10
56.0096007334
 20
94.1284024236
 30
0.0
 10
54.2378828388
 20
95.1357035733
 30
0.0
  0
SPLINE
  5
280
100
AcDbEntity
  8
0
100
AcDbSpline
 62
7
  6
CONTINUOUS
 70
0
 71
3
 72
15
 73
11
 74
0
 42
0.0000001
 43
0.0000001
 44
0.0000000001
 40
0.0
 40
0.0
 40
0.0
 40
0.0
 40
0.1492629179
 40
0.292960993
 40
0.430056169
 40
0.5596763933
 40
0.6813541317
 40
0.7949711381
 40
0.9008704664
 40
1.0
 40
1.0
 40
1.0
 40
1.0
 10
73.3443810298
 20
68.3841964798
 30
0.0
 10
73.7158229019
 20
67.2708932428
 30
0.0
 10
74.3646304252
 20
65.0578273327
 30
0.0
 10
75.0547988605
 20
61.7437894609
 30
0.0
 10
75.4395207768
 20
58.5352777109
 30
0.0
 10
75.5093927363
 20
55.4769004129
 30
0.0
 10
75.2653330041
 20
52.6118104988
 30
0.0
 10
74.7106069639
 20
49.9788685511
 30
0.0
 10
73.8477970357
 20
47.6169667513
 30
0.0
 10
73.0507182569
 20
46.20456518
 30
0.0
 10
72.6055490035
 20
45.564758477
 30
0.0
  0
SPLINE
  5
281
100
AcDbEntity
  8
0
100
AcDbSpline
 62
7
  6
CONTINUOUS
 70
0
 71
3
 72
11
 73
7
 74
0
 42
0.0000001
 43
0.0000001
 44
0.0000000001
 40
0.0
 40
0.0
 40
0.0
 40
0.0
 40
0.2285863118
 40
0.4709298787
 40
0.7280332369
 40
1.0
 40
1.0
 40
1.0
 40
1.0
 10
36.713007929
 20
93.1703939644
 30
0.0
 10
37.441841023
 20
93.128525103
 30
0.0
 10
38.938326133
 20
92.9305574465
 30
0.0
 10
41.1912033793
 20
92.3348966588
 30
0.0
 10
43.4907555938
 20
91.4377819184
 30
0.0
 10
44.9972430188
 20
90.6660379663
 30
0.0
 10
45.75224995
 20
90.2366275452
 30
0.0
  0
SPLINE
  5
282
100
AcDbEntity
  8
0
100
AcDbSpline
 62
7
  6
CONTINUOUS
 70
0
 71
3
 72
11
 73
7
 74
0
 42
0.0000001
 43
0.0000001
 44
0.0000000001
 40
0.0
 40
0.0
 40
0.0
 40
0.0
 40
0.2645620244
 40
0.5204198665
 40
0.766012117
 40
1.0
 40
1.0
 40
1.0
 40
1.0
 10
68.2211314724
 20
89.4690341518
 30
0.0
 10
67.4764316925
 20
90.3093227062
 30
0.0
 10
65.9536518027
 20
91.9122780343
 30
0.0
 10
63.5392894651
 20
94.0941651166
 30
0.0
 10
61.0604742435
 20
95.996345618
 30
0.0
 10
59.341323869
 20
97.0922657623
 30
0.0
 10
58.4784319931
 20
97.5837324484
 30
0.0
  0
SPLINE
  5
283
100
AcDbEntity
  8
0
100
AcDbSpline
 62
7
  6
CONTINUOUS
 70
0
 71
3
 72
11
 73
7
 74
0
 42
0.0000001
 43
0.0000001
 44
0.0000000001
 40
0.0
 40
0.0
 40
0.0
 40
0.0
 40
0.2645469906
 40
0.5205362421
 40
0.7662103123
 40
1.0
 40
1.0
 40
1.0
 40
1.0
 10
67.2036161403
 20
88.8113727279
 30
0.0
 10
66.4556456558
 20
89.6559773111
 30
0.0
 10
64.9248262643
 20
91.2667473624
 30
0.0
 10
62.5023177599
 20
93.4642716798
 30
0.0
 10
60.0146614437
 20
95.380284758
 30
0.0
 10
58.2867289969
 20
96.4801533456
 30
0.0
 10
57.4200703017
 20
96.9730619484
 30
0.0
  0
SPLINE
  5
284
100
AcDbEntity
  8
0
100
AcDbSpline
 62
7
  6
CONTINUOUS
 70
0
 71
3
 72
11
 73
7
 74
0
 42
0.0000001
 43
0.0000001
 44
0.0000000001
 40
0.0
 40
0.0
 40
0.0
 40
0.0
 40
0.2645638213
 40
0.5205361118
 40
0.7661873341
 40
1.0
 40
1.0
 40
1.0
 40
1.0
 10
66.1319464097
 20
88.2108195318
 30
0.0
 10
65.3846700629
 20
89.0542385679
 30
0.0
 10
63.8559758451
 20
90.6631626603
 30
0.0
 10
61.435687697
 20
92.8569610619
 30
0.0
 10
58.9504559561
 20
94.7693527836
 30
0.0
 10
57.2253035372
 20
95.8689008502
 30
0.0
 10
56.3591937077
 20
96.360434331
 30
0.0
  0
SPLINE
  5
285
100
AcDbEntity
  8
0
100
AcDbSpline
 62
7
  6
CONTINUOUS
 70
0
 71
3
 72
22
 73
18
 74
0
 42
0.0000001
 43
0.0000001
 44
0.0000000001
 40
0.0
 40
0.0
 40
0.0
 40
0.0
 40
0.047160543
 40
0.095402294
 40
0.1451682706
 40
0.1968435202
 40
0.2507227712
 40
0.3069894066
 40
0.3657591943
 40
0.4270920345
 40
0.5573722277
 40
0.6262201484
 40
0.6973057569
 40
0.7704441478
 40
0.8454316682
 40
0.9220438391
 40
1.0
 40
1.0
 40
1.0
 40
1.0
 10
75.4190471389
 20
46.5689417122
 30
0.0
 10
75.778926583
 20
46.8536150737
 30
0.0
 10
76.4698881371
 20
47.4779404558
 30
0.0
 10
77.3934616347
 20
48.550980233
 30
0.0
 10
78.2078230016
 20
49.7623586996
 30
0.0
 10
78.9068266128
 20
51.1055074816
 30
0.0
 10
79.4865365531
 20
52.572110446
 30
0.0
 10
79.9461521032
 20
54.1522822537
 30
0.0
 10
80.2837462116
 20
55.8367658567
 30
0.0
 10
80.5748323113
 20
58.257483326
 30
0.0
 10
80.5973597703
 20
60.800837091
 30
0.0
 10
80.3816528519
 20
63.4219234553
 30
0.0
 10
80.0935113255
 20
65.4761637811
 30
0.0
 10
79.6835343286
 20
67.5702043423
 30
0.0
 10
79.1540512217
 20
69.6927672876
 30
0.0
 10
78.5053905144
 20
71.8308671053
 30
0.0
 10
78.0027630267
 20
73.2489694866
 30
0.0
 10
77.7325688989
 20
73.9577053258
 30
0.0
  0
SPLINE
  5
286
100
AcDbEntity
  8
0
100
AcDbSpline
 62
7
  6
CONTINUOUS
 70
0
 71
3
 72
13
 73
9
 74
0
 42
0.0000001
 43
0.0000001
 44
0.0000000001
 40
0.0
 40
0.0
 40
0.0
 40
0.0
 40
0.1080938607
 40
0.2182341751
 40
0.3322595384
 40
0.4516900345
 40
0.7106291046
 40
1.0
 40
1.0
 40
1.0
 40
1.0
 10
27.5133064454
 20
55.8404748166
 30
0.0
 10
27.5919999514
 20
55.8859107157
 30
0.0
 10
27.7590699128
 20
55.9642058483
 30
0.0
 10
28.0294507563
 20
56.038875538
 30
0.0
 10
28.3176410393
 20
56.071074578
 30
0.0
 10
28.7325872054
 20
56.0566575745
 30
0.0
 10
29.2838961793
 20
55.923813032
 30
0.0
 10
29.7026090918
 20
55.7244159593
 30
0.0
 10
29.9132779715
 20
55.6027889765
 30
0.0
  0
SPLINE
  5
287
100
AcDbEntity
  8
0
100
AcDbSpline
 62
7
  6
CONTINUOUS
 70
0
 71
3
 72
11
 73
7
 74
0
 42
0.0000001
 43
0.0000001
 44
0.0000000001
 40
0.0
 40
0.0
 40
0.0
 40
0.0
 40
0.2432218294
 40
0.492830336
 40
0.7460431812
 40
1.0
 40
1.0
 40
1.0
 40
1.0
 10
17.1626404624
 20
48.7975427322
 30
0.0
 10
16.9391527485
 20
49.5779627072
 30
0.0
 10
16.4211726756
 20
51.1412818181
 30
0.0
 10
15.4598377074
 20
53.4406340091
 30
0.0
 10
14.3166590878
 20
55.6953941898
 30
0.0
 10
13.4434807219
 20
57.1475880462
 30
0.0
 10
12.9805742806
 20
57.8576413788
 30
0.0
  0
SPLINE
  5
288
100
AcDbEntity
  8
0
100
AcDbSpline
 62
7
  6
CONTINUOUS
 70
0
 71
3
 72
9
 73
5
 74
0
 42
0.0000001
 43
0.0000001
 44
0.0000000001
 40
0.0
 40
0.0
 40
0.0
 40
0.0
 40
0.5123858057
 40
1.0
 40
1.0
 40
1.0
 40
1.0
 10
12.9794319799
 20
57.8599380622
 30
0.0
 10
12.341423117
 20
59.6312761664
 30
0.0
 10
11.2709932291
 20
63.1543806801
 30
0.0
 10
10.6029174234
 20
66.7779865664
 30
0.0
 10
10.3942577371
 20
68.5575087635
 30
0.0
  0
SPLINE
  5
289
100
AcDbEntity
  8
0
100
AcDbSpline
 62
7
  6
CONTINUOUS
 70
0
 71
3
 72
15
 73
11
 74
0
 42
0.0000001
 43
0.0000001
 44
0.0000000001
 40
0.0
 40
0.0
 40
0.0
 40
0.0
 40
0.1080130348
 40
0.2180627756
 40
0.3320000758
 40
0.4513584249
 40
0.5772794322
 40
0.7104944322
 40
0.8514113784
 40
1.0
 40
1.0
 40
1.0
 40
1.0
 10
23.2295856259
 20
92.7914846163
 30
0.0
 10
23.8116258083
 20
93.1274981052
 30
0.0
 10
25.0473490729
 20
93.7062435966
 30
0.0
 10
27.0468782179
 20
94.259094418
 30
0.0
 10
29.1783896028
 20
94.4968587491
 30
0.0
 10
31.4192440047
 20
94.4189438417
 30
0.0
 10
33.7477847653
 20
94.0282895034
 30
0.0
 10
36.1424161024
 20
93.3302414805
 30
0.0
 10
38.5804662232
 20
92.3323801765
 30
0.0
 10
40.178817852
 20
91.4956560419
 30
0.0
 10
40.9794921786
 20
91.0333969616
 30
0.0
  0
SPLINE
  5
28A
100
AcDbEntity
  8
0
100
AcDbSpline
 62
7
  6
CONTINUOUS
 70
0
 71
3
 72
11
 73
7
 74
0
 42
0.0000001
 43
0.0000001
 44
0.0000000001
 40
0.0
 40
0.0
 40
0.0
 40
0.0
 40
0.2210397621
 40
0.4624134233
 40
0.722763203
 40
1.0
 40
1.0
 40
1.0
 40
1.0
 10
10.4084418325
 20
68.764747993
 30
0.0
 10
10.5566664698
 20
69.3380248018
 30
0.0
 10
10.7759163005
 20
70.5617828159
 30
0.0
 10
10.8780724355
 20
72.4992671053
 30
0.0
 10
10.7614343013
 20
74.5863068537
 30
0.0
 10
10.5426927033
 20
76.0120618117
 30
0.0
 10
10.3990257855
 20
76.7407050857
 30
0.0
  0
SPLINE
  5
28B
100
AcDbEntity
  8
0
100
AcDbSpline
 62
7
  6
CONTINUOUS
 70
0
 71
3
 72
9
 73
5
 74
0
 42
0.0000001
 43
0.0000001
 44
0.0000000001
 40
0.0
 40
0.0
 40
0.0
 40
0.0
 40
0.4957928956
 40
1.0
 40
1.0
 40
1.0
 40
1.0
 10
23.8952367433
 20
39.2603454375
 30
0.0
 10
22.6274855478
 20
40.7155835026
 30
0.0
 10
20.2244758322
 20
43.7877594401
 30
0.0
 10
18.1361933036
 20
47.0811489454
 30
0.0
 10
17.1667423887
 20
48.7877775643
 30
0.0
  0
SPLINE
  5
28C
100
AcDbEntity
  8
0
100
AcDbSpline
 62
7
  6
CONTINUOUS
 70
0
 71
3
 72
11
 73
7
 74
0
 42
0.0000001
 43
0.0000001
 44
0.0000000001
 40
0.0
 40
0.0
 40
0.0
 40
0.0
 40
0.2653480445
 40
0.5198780274
 40
0.7643516311
 40
1.0
 40
1.0
 40
1.0
 40
1.0
 10
10.3944773648
 20
76.8895166082
 30
0.0
 10
10.4966109357
 20
77.6476358607
 30
0.0
 10
10.7599399101
 20
79.1254971101
 30
0.0
 10
11.3521976797
 20
81.2517138474
 30
0.0
 10
12.1332504758
 20
83.2247148511
 30
0.0
 10
12.7897551722
 20
84.4478262181
 30
0.0
 10
13.1487278736
 20
85.0245855198
 30
0.0
  0
SPLINE
  5
28D
100
AcDbEntity
  8
0
100
AcDbSpline
 62
7
  6
CONTINUOUS
 70
0
 71
3
 72
11
 73
7
 74
0
 42
0.0000001
 43
0.0000001
 44
0.0000000001
 40
0.0
 40
0.0
 40
0.0
 40
0.0
 40
0.2308461584
 40
0.4703952482
 40
0.724968794
 40
1.0
 40
1.0
 40
1.0
 40
1.0
 10
14.5225312954
 20
85.8396599707
 30
0.0
 10
14.8106686398
 20
86.006015151
 30
0.0
 10
15.3681480011
 20
86.3992473625
 30
0.0
 10
16.1063989234
 20
87.1456484876
 30
0.0
 10
16.747273636
 20
88.0557481151
 30
0.0
 10
17.0899466243
 20
88.7411350733
 30
0.0
 10
17.2439945084
 20
89.1063717472
 30
0.0
  0
SPLINE
  5
28E
100
AcDbEntity
  8
0
100
AcDbSpline
 62
7
  6
CONTINUOUS
 70
0
 71
3
 72
11
 73
7
 74
0
 42
0.0000001
 43
0.0000001
 44
0.0000000001
 40
0.0
 40
0.0
 40
0.0
 40
0.0
 40
0.2651588191
 40
0.5219787162
 40
0.7677404824
 40
1.0
 40
1.0
 40
1.0
 40
1.0
 10
30.6615958904
 20
32.8165823082
 30
0.0
 10
30.1618930826
 20
33.4708076817
 30
0.0
 10
29.1303168346
 20
34.7230305069
 30
0.0
 10
27.4740880159
 20
36.4407278143
 30
0.0
 10
25.7568541203
 20
37.9468827934
 30
0.0
 10
24.5540578313
 20
38.8210260111
 30
0.0
 10
23.9491629499
 20
39.21355071
 30
0.0
  0
SPLINE
  5
28F
100
AcDbEntity
  8
0
100
AcDbSpline
 62
7
  6
CONTINUOUS
 70
0
 71
3
 72
11
 73
7
 74
0
 42
0.0000001
 43
0.0000001
 44
0.0000000001
 40
0.0
 40
0.0
 40
0.0
 40
0.0
 40
0.235632925
 40
0.4810017376
 40
0.7359328401
 40
1.0
 40
1.0
 40
1.0
 40
1.0
 10
39.2350588121
 20
27.8651965361
 30
0.0
 10
38.5082682928
 20
28.1399485549
 30
0.0
 10
37.0493473631
 20
28.767902842
 30
0.0
 10
34.9025222298
 20
29.9041178216
 30
0.0
 10
32.7659890635
 20
31.2451563917
 30
0.0
 10
31.3804198327
 20
32.2520712097
 30
0.0
 10
30.6923012084
 20
32.7856433108
 30
0.0
  0
SPLINE
  5
290
100
AcDbEntity
  8
0
100
AcDbSpline
 62
7
  6
CONTINUOUS
 70
0
 71
3
 72
11
 73
7
 74
0
 42
0.0000001
 43
0.0000001
 44
0.0000000001
 40
0.0
 40
0.0
 40
0.0
 40
0.0
 40
0.2872213473
 40
0.548898698
 40
0.785543346
 40
1.0
 40
1.0
 40
1.0
 40
1.0
 10
45.9186690764
 20
26.5306803723
 30
0.0
 10
45.365396438
 20
26.8109224816
 30
0.0
 10
44.2768250912
 20
27.2885836373
 30
0.0
 10
42.6410640223
 20
27.758858569
 30
0.0
 10
41.1072567393
 20
27.9513526375
 30
0.0
 10
40.1275194678
 20
27.896527782
 30
0.0
 10
39.6705214506
 20
27.8217382899
 30
0.0
  0
SPLINE
  5
291
100
AcDbEntity
  8
0
100
AcDbSpline
 62
7
  6
CONTINUOUS
 70
0
 71
3
 72
9
 73
5
 74
0
 42
0.0000001
 43
0.0000001
 44
0.0000000001
 40
0.0
 40
0.0
 40
0.0
 40
0.0
 40
0.4994705575
 40
1.0
 40
1.0
 40
1.0
 40
1.0
 10
45.9186715039
 20
26.5306841674
 30
0.0
 10
45.9700817261
 20
26.5046527714
 30
0.0
 10
46.0792455546
 20
26.4639072717
 30
0.0
 10
46.1949007593
 20
26.4496011911
 30
0.0
 10
46.2526447336
 20
26.4489908578
 30
0.0
  0
SPLINE
  5
292
100
AcDbEntity
  8
0
100
AcDbSpline
 62
7
  6
CONTINUOUS
 70
0
 71
3
 72
9
 73
5
 74
0
 42
0.0000001
 43
0.0000001
 44
0.0000000001
 40
0.0
 40
0.0
 40
0.0
 40
0.0
 40
0.5009399299
 40
1.0
 40
1.0
 40
1.0
 40
1.0
 10
39.6705196932
 20
27.8217343408
 30
0.0
 10
39.5977726443
 20
27.8098285057
 30
0.0
 10
39.4487647076
 20
27.8046451488
 30
0.0
 10
39.3037611795
 20
27.8392611389
 30
0.0
 10
39.2350628127
 20
27.8652170607
 30
0.0
  0
SPLINE
  5
293
100
AcDbEntity
  8
0
100
AcDbSpline
 62
7
  6
CONTINUOUS
 70
0
 71
3
 72
11
 73
7
 74
0
 42
0.0000001
 43
0.0000001
 44
0.0000000001
 40
0.0
 40
0.0
 40
0.0
 40
0.0
 40
0.2443808804
 40
0.4910077714
 40
0.7422046806
 40
1.0
 40
1.0
 40
1.0
 40
1.0
 10
53.4261339349
 20
28.2417822863
 30
0.0
 10
52.8985528617
 20
27.9371850298
 30
0.0
 10
51.7931911275
 20
27.4002499449
 30
0.0
 10
50.0263162552
 20
26.8324114121
 30
0.0
 10
48.1663678691
 20
26.5026377226
 30
0.0
 10
46.8952421384
 20
26.4421591302
 30
0.0
 10
46.2526414138
 20
26.448987685
 30
0.0
  0
SPLINE
  5
294
100
AcDbEntity
  8
0
100
AcDbSpline
 62
7
  6
CONTINUOUS
 70
0
 71
3
 72
11
 73
7
 74
0
 42
0.0000001
 43
0.0000001
 44
0.0000000001
 40
0.0
 40
0.0
 40
0.0
 40
0.0
 40
0.2896894973
 40
0.5506321272
 40
0.7848828668
 40
1.0
 40
1.0
 40
1.0
 40
1.0
 10
10.8436370557
 20
76.2451758416
 30
0.0
 10
10.7849223969
 20
76.2759411024
 30
0.0
 10
10.6770275641
 20
76.3421339999
 30
0.0
 10
10.5415701683
 20
76.4617397707
 30
0.0
 10
10.4449665973
 20
76.5943465658
 30
0.0
 10
10.4085813264
 20
76.6924123823
 30
0.0
 10
10.3990464524
 20
76.7407030488
 30
0.0
  0
SPLINE
  5
295
100
AcDbEntity
  8
0
100
AcDbSpline
 62
7
  6
CONTINUOUS
 70
0
 71
3
 72
11
 73
7
 74
0
 42
0.0000001
 43
0.0000001
 44
0.0000000001
 40
0.0
 40
0.0
 40
0.0
 40
0.0
 40
0.260214939
 40
0.5117935105
 40
0.7573821815
 40
1.0
 40
1.0
 40
1.0
 40
1.0
 10
23.8536813735
 20
89.4110346915
 30
0.0
 10
23.2770283625
 20
89.4106355778
 30
0.0
 10
22.141475247
 20
89.3437442645
 30
0.0
 10
20.4876127134
 20
89.0308752179
 30
0.0
 10
18.9282332083
 20
88.5086739913
 30
0.0
 10
17.9571119868
 20
88.0220919379
 30
0.0
 10
17.4948423734
 20
87.7475347866
 30
0.0
  0
SPLINE
  5
296
100
AcDbEntity
  8
0
100
AcDbSpline
 62
7
  6
CONTINUOUS
 70
0
 71
3
 72
11
 73
7
 74
0
 42
0.0000001
 43
0.0000001
 44
0.0000000001
 40
0.0
 40
0.0
 40
0.0
 40
0.0
 40
0.2682952528
 40
0.5262252122
 40
0.7700274392
 40
1.0
 40
1.0
 40
1.0
 40
1.0
 10
13.2724974247
 20
83.4746210093
 30
0.0
 10
13.1914118084
 20
83.5963008904
 30
0.0
 10
13.0594692726
 20
83.8545842222
 30
0.0
 10
12.9652924652
 20
84.2683196504
 30
0.0
 10
12.986262676
 20
84.6721359878
 30
0.0
 10
13.082503731
 20
84.9181706551
 30
0.0
 10
13.1487294348
 20
85.0245814697
 30
0.0
  0
SPLINE
  5
297
100
AcDbEntity
  8
0
100
AcDbSpline
 62
7
  6
CONTINUOUS
 70
0
 71
3
 72
11
 73
7
 74
0
 42
0.0000001
 43
0.0000001
 44
0.0000000001
 40
0.0
 40
0.0
 40
0.0
 40
0.0
 40
0.2697259109
 40
0.5273404112
 40
0.7703137461
 40
1.0
 40
1.0
 40
1.0
 40
1.0
 10
17.4948423734
 20
87.7475347866
 30
0.0
 10
17.4172751944
 20
87.8512733716
 30
0.0
 10
17.2859183151
 20
88.0704615388
 30
0.0
 10
17.1701900537
 20
88.4254091288
 30
0.0
 10
17.1480126213
 20
88.7795371451
 30
0.0
 10
17.2011373933
 20
89.0047345788
 30
0.0
 10
17.2439941521
 20
89.1063713724
 30
0.0
  0
SPLINE
  5
298
100
AcDbEntity
  8
0
100
AcDbSpline
 62
7
  6
CONTINUOUS
 70
0
 71
3
 72
14
 73
10
 74
0
 42
0.0000001
 43
0.0000001
 44
0.0000000001
 40
0.0
 40
0.0
 40
0.0
 40
0.0
 40
0.1233139253
 40
0.2483015037
 40
0.374375012
 40
0.5009418932
 40
0.6274023787
 40
0.7531473375
 40
1.0
 40
1.0
 40
1.0
 40
1.0
 10
56.802397388
 20
82.4554944525
 30
0.0
 10
57.3539958511
 20
81.832942283
 30
0.0
 10
58.4315328732
 20
80.5496245007
 30
0.0
 10
59.9557494718
 20
78.5350792334
 30
0.0
 10
61.3905335729
 20
76.4291958816
 30
0.0
 10
62.724389284
 20
74.2464020753
 30
0.0
 10
63.9485882264
 20
72.0026516025
 30
0.0
 10
65.4146435531
 20
68.9715826833
 30
0.0
 10
66.3404142614
 20
66.6287800829
 30
0.0
 10
66.8675802405
 20
65.0493904283
 30
0.0
  0
SPLINE
  5
299
100
AcDbEntity
  8
0
100
AcDbSpline
 62
7
  6
CONTINUOUS
 70
0
 71
3
 72
13
 73
9
 74
0
 42
0.0000001
 43
0.0000001
 44
0.0000000001
 40
0.0
 40
0.0
 40
0.0
 40
0.0
 40
0.1080938607
 40
0.2182341751
 40
0.3322595384
 40
0.4516900345
 40
0.7106291046
 40
1.0
 40
1.0
 40
1.0
 40
1.0
 10
41.7178088421
 20
42.0970778968
 30
0.0
 10
41.639115336
 20
42.0516419976
 30
0.0
 10
41.4720453746
 20
41.9733468651
 30
0.0
 10
41.2016645311
 20
41.8986771754
 30
0.0
 10
40.9134742481
 20
41.8664781353
 30
0.0
 10
40.498528082
 20
41.8808951389
 30
0.0
 10
39.9472191081
 20
42.0137396814
 30
0.0
 10
39.5285061956
 20
42.2131367541
 30
0.0
 10
39.3178373159
 20
42.3347637369
 30
0.0
  0
SPLINE
  5
29A
100
AcDbEntity
  8
0
100
AcDbSpline
 62
7
  6
CONTINUOUS
 70
0
 71
3
 72
11
 73
7
 74
0
 42
0.0000001
 43
0.0000001
 44
0.0000000001
 40
0.0
 40
0.0
 40
0.0
 40
0.0
 40
0.2606218537
 40
0.5123542044
 40
0.7577956058
 40
1.0
 40
1.0
 40
1.0
 40
1.0
 10
24.6339652743
 20
91.391633909
 30
0.0
 10
24.0267820195
 20
91.3987590736
 30
0.0
 10
22.8308132205
 20
91.3435255221
 30
0.0
 10
21.0869141218
 20
91.037101138
 30
0.0
 10
19.4412840654
 20
90.509834705
 30
0.0
 10
18.4150203449
 20
90.0118050132
 30
0.0
 10
17.9262969795
 20
89.7296705842
 30
0.0
  0
SPLINE
  5
29B
100
AcDbEntity
  8
0
100
AcDbSpline
 62
7
  6
CONTINUOUS
 70
0
 71
3
 72
12
 73
8
 74
0
 42
0.0000001
 43
0.0000001
 44
0.0000000001
 40
0.0
 40
0.0
 40
0.0
 40
0.0
 40
0.2517063065
 40
0.5143939306
 40
0.6443587134
 40
0.7699609774
 40
1.0
 40
1.0
 40
1.0
 40
1.0
 10
23.8536813735
 20
89.4110346915
 30
0.0
 10
23.8150559121
 20
89.5957634841
 30
0.0
 10
23.7994030783
 20
89.9877911997
 30
0.0
 10
23.9131010348
 20
90.463527228
 30
0.0
 10
24.0801040532
 20
90.8159636035
 30
0.0
 10
24.2828678758
 20
91.1189591371
 30
0.0
 10
24.4845946316
 20
91.305395243
 30
0.0
 10
24.6339652743
 20
91.391633909
 30
0.0
  0
SPLINE
  5
29C
100
AcDbEntity
  8
0
100
AcDbSpline
 62
7
  6
CONTINUOUS
 70
0
 71
3
 72
11
 73
7
 74
0
 42
0.0000001
 43
0.0000001
 44
0.0000000001
 40
0.0
 40
0.0
 40
0.0
 40
0.0
 40
0.22452281
 40
0.46434722
 40
0.7224101706
 40
1.0
 40
1.0
 40
1.0
 40
1.0
 10
31.3589783926
 20
90.0321648394
 30
0.0
 10
30.8443410926
 20
89.9473924657
 30
0.0
 10
29.7594214158
 20
89.8841938167
 30
0.0
 10
28.0866825219
 20
90.0926039564
 30
0.0
 10
26.3497501795
 20
90.5936068134
 30
0.0
 10
25.20811873
 20
91.0980737172
 30
0.0
 10
24.6339652743
 20
91.391633909
 30
0.0
  0
SPLINE
  5
29D
100
AcDbEntity
  8
0
100
AcDbSpline
 62
7
  6
CONTINUOUS
 70
0
 71
3
 72
12
 73
8
 74
0
 42
0.0000001
 43
0.0000001
 44
0.0000000001
 40
0.0
 40
0.0
 40
0.0
 40
0.0
 40
0.2567306484
 40
0.5196140578
 40
0.6482984226
 40
0.7722165044
 40
1.0
 40
1.0
 40
1.0
 40
1.0
 10
30.6855790127
 20
88.0299587941
 30
0.0
 10
30.6346624683
 20
88.2153943626
 30
0.0
 10
30.5920515112
 20
88.6088345164
 30
0.0
 10
30.6759356396
 20
89.093924479
 30
0.0
 10
30.824554313
 20
89.452059705
 30
0.0
 10
31.0135741414
 20
89.7589887276
 30
0.0
 10
31.2112198891
 20
89.9468569368
 30
0.0
 10
31.3589783926
 20
90.0321648394
 30
0.0
  0
SPLINE
  5
29E
100
AcDbEntity
  8
0
100
AcDbSpline
 62
7
  6
CONTINUOUS
 70
0
 71
3
 72
12
 73
8
 74
0
 42
0.0000001
 43
0.0000001
 44
0.0000000001
 40
0.0
 40
0.0
 40
0.0
 40
0.0
 40
0.2482482274
 40
0.3743449674
 40
0.5009374754
 40
0.753091232
 40
1.0
 40
1.0
 40
1.0
 40
1.0
 10
61.8890822019
 20
85.7612693121
 30
0.0
 10
63.0359285974
 20
84.4665762041
 30
0.0
 10
64.6623042705
 20
82.4199993525
 30
0.0
 10
66.6264621619
 20
79.533944958
 30
0.0
 10
68.4614135434
 20
76.5315882864
 30
0.0
 10
70.4578461073
 20
72.6485851075
 30
0.0
 10
71.7378678738
 20
69.408093956
 30
0.0
 10
72.2823595469
 20
67.7762787699
 30
0.0
  0
SPLINE
  5
29F
100
AcDbEntity
  8
0
100
AcDbSpline
 62
7
  6
CONTINUOUS
 70
0
 71
3
 72
11
 73
7
 74
0
 42
0.0000001
 43
0.0000001
 44
0.0000000001
 40
0.0
 40
0.0
 40
0.0
 40
0.0
 40
0.2469331455
 40
0.4991109008
 40
0.7517364519
 40
1.0
 40
1.0
 40
1.0
 40
1.0
 10
71.2215744522
 20
67.1658834275
 30
0.0
 10
70.6767793619
 20
68.7981123251
 30
0.0
 10
69.3964188782
 20
72.0396658831
 30
0.0
 10
66.9964941541
 20
76.7050537235
 30
0.0
 10
64.1475509192
 20
81.1216780332
 30
0.0
 10
61.9712831578
 20
83.859727524
 30
0.0
 10
60.8240584764
 20
85.1546561059
 30
0.0
  0
SPLINE
  5
2A0
100
AcDbEntity
  8
0
100
AcDbSpline
 62
7
  6
CONTINUOUS
 70
0
 71
3
 72
14
 73
10
 74
0
 42
0.0000001
 43
0.0000001
 44
0.0000000001
 40
0.0
 40
0.0
 40
0.0
 40
0.0
 40
0.1225439307
 40
0.2469729748
 40
0.3727099344
 40
0.4991696242
 40
0.6257460581
 40
0.7518251333
 40
1.0
 40
1.0
 40
1.0
 40
1.0
 10
66.9749563076
 20
64.7271124204
 30
0.0
 10
66.7042669776
 20
65.5370344738
 30
0.0
 10
66.1149920336
 20
67.1550435195
 30
0.0
 10
65.1025885456
 20
69.5479915731
 30
0.0
 10
63.9599637656
 20
71.9119991255
 30
0.0
 10
62.6942124748
 20
74.2294083266
 30
0.0
 10
61.3155310594
 20
76.4844023307
 30
0.0
 10
59.3512922069
 20
79.3703027369
 30
0.0
 10
57.7239896953
 20
81.4160841986
 30
0.0
 10
56.5765963053
 20
82.7100775442
 30
0.0
  0
SPLINE
  5
2A1
100
AcDbEntity
  8
0
100
AcDbSpline
 62
7
  6
CONTINUOUS
 70
0
 71
3
 72
11
 73
7
 74
0
 42
0.0000001
 43
0.0000001
 44
0.0000000001
 40
0.0
 40
0.0
 40
0.0
 40
0.0
 40
0.2775896749
 40
0.5356525245
 40
0.775477069
 40
1.0
 40
1.0
 40
1.0
 40
1.0
 10
28.8765882976
 20
93.8410988322
 30
0.0
 10
29.4507413186
 20
93.5475388626
 30
0.0
 10
30.5923729395
 20
93.0430741751
 30
0.0
 10
32.3293052088
 20
92.5420739524
 30
0.0
 10
34.0020435443
 20
92.333661738
 30
0.0
 10
35.0869639417
 20
92.3968573602
 30
0.0
 10
35.6016014159
 20
92.4816297626
 30
0.0
  0
SPLINE
  5
2A2
100
AcDbEntity
  8
0
100
AcDbSpline
 62
7
  6
CONTINUOUS
 70
0
 71
3
 72
11
 73
7
 74
0
 42
0.0000001
 43
0.0000001
 44
0.0000000001
 40
0.0
 40
0.0
 40
0.0
 40
0.0
 40
0.2482740452
 40
0.5009188147
 40
0.7531031337
 40
1.0
 40
1.0
 40
1.0
 40
1.0
 10
61.0483701879
 20
84.8984584466
 30
0.0
 10
62.1588961917
 20
83.6451988301
 30
0.0
 10
64.2669824978
 20
80.9961797624
 30
0.0
 10
67.0220564362
 20
76.7197356407
 30
0.0
 10
69.3475693868
 20
72.2057603396
 30
0.0
 10
70.5847297642
 20
69.0677069966
 30
0.0
 10
71.1118731883
 20
67.4881415745
 30
0.0
  0
SPLINE
  5
2A3
100
AcDbEntity
  8
0
100
AcDbSpline
 62
7
  6
CONTINUOUS
 70
0
 71
3
 72
10
 73
6
 74
0
 42
0.0000001
 43
0.0000001
 44
0.0000000001
 40
0.0
 40
0.0
 40
0.0
 40
0.0
 40
0.2654446174
 40
0.5203195461
 40
1.0
 40
1.0
 40
1.0
 40
1.0
 10
35.6016014159
 20
92.4816297626
 30
0.0
 10
35.0309398287
 20
92.6960510619
 30
0.0
 10
33.8963662432
 20
93.0762283095
 30
0.0
 10
31.666588939
 20
93.6307350374
 30
0.0
 10
29.9781383813
 20
93.8281723794
 30
0.0
 10
28.8765882976
 20
93.8410988322
 30
0.0
  0
SPLINE
  5
2A4
100
AcDbEntity
  8
0
100
AcDbSpline
 62
7
  6
CONTINUOUS
 70
0
 71
3
 72
14
 73
10
 74
0
 42
0.0000001
 43
0.0000001
 44
0.0000000001
 40
0.0
 40
0.0
 40
0.0
 40
0.0
 40
0.1003073339
 40
0.2153715829
 40
0.3419574752
 40
0.4763253344
 40
0.7502909583
 40
0.8805619787
 40
1.0
 40
1.0
 40
1.0
 40
1.0
 10
38.5455362748
 20
83.4921130128
 30
0.0
 10
38.5724036062
 20
83.5589395019
 30
0.0
 10
38.6411677214
 20
83.6979925232
 30
0.0
 10
38.7722048485
 20
83.9059751676
 30
0.0
 10
38.934791023
 20
84.121905909
 30
0.0
 10
39.1873845488
 20
84.4115272999
 30
0.0
 10
39.4697454502
 20
84.6778560366
 30
0.0
 10
39.7684727293
 20
84.9065966968
 30
0.0
 10
39.9191762865
 20
85.0042832559
 30
0.0
 10
39.9934484064
 20
85.0471640284
 30
0.0
  0
SPLINE
  5
2A5
100
AcDbEntity
  8
0
100
AcDbSpline
 62
7
  6
CONTINUOUS
 70
0
 71
3
 72
12
 73
8
 74
0
 42
0.0000001
 43
0.0000001
 44
0.0000000001
 40
0.0
 40
0.0
 40
0.0
 40
0.0
 40
0.2469069222
 40
0.4990767439
 40
0.6256703884
 40
0.7517712054
 40
1.0
 40
1.0
 40
1.0
 40
1.0
 10
70.158635332
 20
66.5584273466
 30
0.0
 10
69.6138221306
 20
68.1900522687
 30
0.0
 10
68.3353439707
 20
71.4311540227
 30
0.0
 10
66.3363058296
 20
75.3128085285
 30
0.0
 10
64.501715446
 20
78.3153496608
 30
0.0
 10
62.5379434937
 20
81.2014235953
 30
0.0
 10
60.910601898
 20
83.2469949443
 30
0.0
 10
59.763557686
 20
84.5412434867
 30
0.0
  0
SPLINE
  5
2A6
100
AcDbEntity
  8
0
100
AcDbSpline
 62
7
  6
CONTINUOUS
 70
0
 71
3
 72
9
 73
5
 74
0
 42
0.0000001
 43
0.0000001
 44
0.0000000001
 40
0.0
 40
0.0
 40
0.0
 40
0.0
 40
0.2587957572
 40
1.0
 40
1.0
 40
1.0
 40
1.0
 10
35.6762133995
 20
87.9715658075
 30
0.0
 10
35.3186051323
 20
88.1780263662
 30
0.0
 10
33.9222722329
 20
88.9500902449
 30
0.0
 10
32.4660553154
 20
89.6161899822
 30
0.0
 10
31.3589783926
 20
90.0321648394
 30
0.0
  0
SPLINE
  5
2A7
100
AcDbEntity
  8
0
100
AcDbSpline
 62
7
  6
CONTINUOUS
 70
0
 71
3
 72
9
 73
5
 74
0
 42
0.0000001
 43
0.0000001
 44
0.0000000001
 40
0.0
 40
0.0
 40
0.0
 40
0.0
 40
0.2573278066
 40
1.0
 40
1.0
 40
1.0
 40
1.0
 10
39.9934484064
 20
85.0471640284
 30
0.0
 10
39.6404337224
 20
85.3221387495
 30
0.0
 10
38.251795832
 20
86.3688273928
 30
0.0
 10
36.7946428918
 20
87.3258548471
 30
0.0
 10
35.6762133995
 20
87.9715658075
 30
0.0
  0
SPLINE
  5
2A8
100
AcDbEntity
  8
0
100
AcDbSpline
 62
7
  6
CONTINUOUS
 70
0
 71
3
 72
11
 73
7
 74
0
 42
0.0000001
 43
0.0000001
 44
0.0000000001
 40
0.0
 40
0.0
 40
0.0
 40
0.0
 40
0.2482842829
 40
0.5009140526
 40
0.7530868233
 40
1.0
 40
1.0
 40
1.0
 40
1.0
 10
59.9883983817
 20
84.286286224
 30
0.0
 10
61.0986051795
 20
83.033225345
 30
0.0
 10
63.2042266637
 20
80.3835181585
 30
0.0
 10
65.9617906895
 20
76.110328148
 30
0.0
 10
68.283597016
 20
71.5959814116
 30
0.0
 10
69.523133925
 20
68.4598476624
 30
0.0
 10
70.050277911
 20
66.8806167334
 30
0.0
  0
SPLINE
  5
2A9
100
AcDbEntity
  8
0
100
AcDbSpline
 62
7
  6
CONTINUOUS
 70
0
 71
3
 72
11
 73
7
 74
0
 42
0.0000001
 43
0.0000001
 44
0.0000000001
 40
0.0
 40
0.0
 40
0.0
 40
0.0
 40
0.2339361469
 40
0.4800266577
 40
0.7362021219
 40
1.0
 40
1.0
 40
1.0
 40
1.0
 10
46.7184615248
 20
78.6414325019
 30
0.0
 10
46.1065365133
 20
79.035134163
 30
0.0
 10
44.8938337601
 20
79.9111427562
 30
0.0
 10
43.1689533988
 20
81.4215771579
 30
0.0
 10
41.5150872518
 20
83.1405622526
 30
0.0
 10
40.4890679514
 20
84.3932450992
 30
0.0
 10
39.9934484064
 20
85.0471640284
 30
0.0
  0
SPLINE
  5
2AA
100
AcDbEntity
  8
0
100
AcDbSpline
 62
7
  6
CONTINUOUS
 70
0
 71
3
 72
14
 73
10
 74
0
 42
0.0000001
 43
0.0000001
 44
0.0000000001
 40
0.0
 40
0.0
 40
0.0
 40
0.0
 40
0.1180504045
 40
0.2465668815
 40
0.5177271299
 40
0.6518208239
 40
0.7791952632
 40
0.8962883757
 40
1.0
 40
1.0
 40
1.0
 40
1.0
 10
46.7184615248
 20
78.6414325019
 30
0.0
 10
46.6444041615
 20
78.5986757185
 30
0.0
 10
46.4954453746
 20
78.4992893073
 30
0.0
 10
46.2053441334
 20
78.2610233111
 30
0.0
 10
45.9391663562
 20
77.977671101
 30
0.0
 10
45.7092545844
 20
77.6674968641
 30
0.0
 10
45.5646461017
 20
77.4340349597
 30
0.0
 10
45.4522654724
 20
77.2078354547
 30
0.0
 10
45.3973976066
 20
77.0569975918
 30
0.0
 10
45.3774339139
 20
76.9845714925
 30
0.0
  0
SPLINE
  5
2AB
100
AcDbEntity
  8
0
100
AcDbSpline
 62
7
  6
CONTINUOUS
 70
0
 71
3
 72
13
 73
9
 74
0
 42
0.0000001
 43
0.0000001
 44
0.0000000001
 40
0.0
 40
0.0
 40
0.0
 40
0.0
 40
0.1225403789
 40
0.2469680201
 40
0.4991061116
 40
0.6256962845
 40
0.7517887633
 40
1.0
 40
1.0
 40
1.0
 40
1.0
 10
69.1009185449
 20
65.9375102458
 30
0.0
 10
68.8304993718
 20
66.7476052484
 30
0.0
 10
68.2417698915
 20
68.3660514669
 30
0.0
 10
66.8871597792
 20
71.5711093533
 30
0.0
 10
65.2788007207
 20
74.6949671733
 30
0.0
 10
63.4439348296
 20
77.6982619982
 30
0.0
 10
61.4800129259
 20
80.5855612951
 30
0.0
 10
59.8524053607
 20
82.6318971379
 30
0.0
 10
58.7050565019
 20
83.9265480065
 30
0.0
  0
SPLINE
  5
2AC
100
AcDbEntity
  8
0
100
AcDbSpline
 62
7
  6
CONTINUOUS
 70
0
 71
3
 72
9
 73
5
 74
0
 42
0.0000001
 43
0.0000001
 44
0.0000000001
 40
0.0
 40
0.0
 40
0.0
 40
0.0
 40
0.5045247377
 40
1.0
 40
1.0
 40
1.0
 40
1.0
 10
53.7038945034
 20
68.7481121443
 30
0.0
 10
52.7003171108
 20
70.5234752231
 30
0.0
 10
50.5354975417
 20
73.9459183245
 30
0.0
 10
48.0372626183
 20
77.1341224659
 30
0.0
 10
46.7184615248
 20
78.6414325019
 30
0.0
  0
SPLINE
  5
2AD
100
AcDbEntity
  8
0
100
AcDbSpline
 62
7
  6
CONTINUOUS
 70
0
 71
3
 72
12
 73
8
 74
0
 42
0.0000001
 43
0.0000001
 44
0.0000000001
 40
0.0
 40
0.0
 40
0.0
 40
0.0
 40
0.0940714138
 40
0.2058396533
 40
0.4664819694
 40
0.7451890129
 40
1.0
 40
1.0
 40
1.0
 40
1.0
 10
51.736272914
 20
67.9786828777
 30
0.0
 10
51.8016617128
 20
67.9906312863
 30
0.0
 10
51.9435823308
 20
68.0230789918
 30
0.0
 10
52.2606572394
 20
68.1134365485
 30
0.0
 10
52.6947807904
 20
68.267253323
 30
0.0
 10
53.2112611391
 20
68.4873007342
 30
0.0
 10
53.5479653945
 20
68.6580869687
 30
0.0
 10
53.7038945034
 20
68.7481121443
 30
0.0
  0
SPLINE
  5
2AE
100
AcDbEntity
  8
0
100
AcDbSpline
 62
7
  6
CONTINUOUS
 70
0
 71
3
 72
12
 73
8
 74
0
 42
0.0000001
 43
0.0000001
 44
0.0000000001
 40
0.0
 40
0.0
 40
0.0
 40
0.0
 40
0.2482556179
 40
0.3743613657
 40
0.5009640834
 40
0.7531213928
 40
1.0
 40
1.0
 40
1.0
 40
1.0
 10
58.9295593238
 20
83.670947396
 30
0.0
 10
60.0400869106
 20
82.4176848219
 30
0.0
 10
61.6158290733
 20
80.4371581181
 30
0.0
 10
63.5167934697
 20
77.6424675207
 30
0.0
 10
65.2925406575
 20
74.7352890614
 30
0.0
 10
67.2277885918
 20
70.9774095096
 30
0.0
 10
68.4646230873
 20
67.8394407572
 30
0.0
 10
68.9917676571
 20
66.2598718272
 30
0.0
  0
SPLINE
  5
2AF
100
AcDbEntity
  8
0
100
AcDbSpline
 62
7
  6
CONTINUOUS
 70
0
 71
3
 72
11
 73
7
 74
0
 42
0.0000001
 43
0.0000001
 44
0.0000000001
 40
0.0
 40
0.0
 40
0.0
 40
0.0
 40
0.2258117491
 40
0.4662684678
 40
0.7239368472
 40
1.0
 40
1.0
 40
1.0
 40
1.0
 10
30.6855790127
 20
88.0299587941
 30
0.0
 10
30.1588110217
 20
87.9557174633
 30
0.0
 10
29.0541981704
 20
87.9090576733
 30
0.0
 10
27.3560309754
 20
88.127746319
 30
0.0
 10
25.5957281356
 20
88.6263960273
 30
0.0
 10
24.4367184349
 20
89.1228803711
 30
0.0
 10
23.8536813735
 20
89.4110346915
 30
0.0
  0
SPLINE
  5
2B0
100
AcDbEntity
  8
0
100
AcDbSpline
 62
7
  6
CONTINUOUS
 70
0
 71
3
 72
14
 73
10
 74
0
 42
0.0000001
 43
0.0000001
 44
0.0000000001
 40
0.0
 40
0.0
 40
0.0
 40
0.0
 40
0.2468488642
 40
0.3725907748
 40
0.4990542223
 40
0.6256269302
 40
0.751704834
 40
0.8766902714
 40
1.0
 40
1.0
 40
1.0
 40
1.0
 10
75.4664100961
 20
69.6071034447
 30
0.0
 10
74.9222474507
 20
71.2390610278
 30
0.0
 10
73.967843744
 20
73.6604086236
 30
0.0
 10
72.4536930471
 20
76.7923730758
 30
0.0
 10
71.1894180394
 20
79.1109399931
 30
0.0
 10
69.812401074
 20
81.366975169
 30
0.0
 10
68.3310075015
 20
83.5435326365
 30
0.0
 10
66.7568719307
 20
85.6254548512
 30
0.0
 10
65.6439213495
 20
86.9516125166
 30
0.0
 10
65.0742209452
 20
87.5949760031
 30
0.0
  0
SPLINE
  5
2B1
100
AcDbEntity
  8
0
100
AcDbSpline
 62
7
  6
CONTINUOUS
 70
0
 71
3
 72
13
 73
9
 74
0
 42
0.0000001
 43
0.0000001
 44
0.0000000001
 40
0.0
 40
0.0
 40
0.0
 40
0.0
 40
0.2482380949
 40
0.3743373844
 40
0.5009298144
 40
0.7530587687
 40
0.8774752006
 40
1.0
 40
1.0
 40
1.0
 40
1.0
 10
57.8722622138
 20
83.0570057893
 30
0.0
 10
58.9828082754
 20
81.8037078113
 30
0.0
 10
60.5581778477
 20
79.8227949081
 30
0.0
 10
62.4590308176
 20
77.0278896703
 30
0.0
 10
64.2348377828
 20
74.1209262659
 30
0.0
 10
65.7913393103
 20
71.0973845643
 30
0.0
 10
67.1021806766
 20
67.9953719795
 30
0.0
 10
67.6718455288
 20
66.429019493
 30
0.0
 10
67.9334941639
 20
65.645014198
 30
0.0
  0
SPLINE
  5
2B2
100
AcDbEntity
  8
0
100
AcDbSpline
 62
7
  6
CONTINUOUS
 70
0
 71
3
 72
14
 73
10
 74
0
 42
0.0000001
 43
0.0000001
 44
0.0000000001
 40
0.0
 40
0.0
 40
0.0
 40
0.0
 40
0.2482266432
 40
0.374318453
 40
0.5008963427
 40
0.6273484227
 40
0.7530740062
 40
0.8774853391
 40
1.0
 40
1.0
 40
1.0
 40
1.0
 10
65.2986634027
 20
87.3398511696
 30
0.0
 10
66.409054331
 20
86.0866642541
 30
0.0
 10
67.9833728529
 20
84.1052441679
 30
0.0
 10
69.8841666678
 20
81.3109848286
 30
0.0
 10
71.2180888665
 20
79.1278572104
 30
0.0
 10
72.4421842179
 20
76.8842598703
 30
0.0
 10
73.5470501055
 20
74.5957542973
 30
0.0
 10
74.5261653773
 20
72.2795802438
 30
0.0
 10
75.0959253112
 20
70.7135351246
 30
0.0
 10
75.3575551868
 20
69.9296522576
 30
0.0
  0
SPLINE
  5
2B3
100
AcDbEntity
  8
0
100
AcDbSpline
 62
7
  6
CONTINUOUS
 70
0
 71
3
 72
14
 73
10
 74
0
 42
0.0000001
 43
0.0000001
 44
0.0000000001
 40
0.0
 40
0.0
 40
0.0
 40
0.0
 40
0.1225369612
 40
0.2469676337
 40
0.3727057494
 40
0.4991634841
 40
0.6257364843
 40
0.7518105408
 40
1.0
 40
1.0
 40
1.0
 40
1.0
 10
74.4010167077
 20
69.0103268704
 30
0.0
 10
74.1304309091
 20
69.8203577977
 30
0.0
 10
73.5409301868
 20
71.4385117293
 30
0.0
 10
72.528093933
 20
73.8316275045
 30
0.0
 10
71.3856907959
 20
76.1961442955
 30
0.0
 10
70.1202297817
 20
78.5141048093
 30
0.0
 10
68.741329049
 20
80.7693221031
 30
0.0
 10
66.7764905334
 20
83.6554492103
 30
0.0
 10
65.1492314776
 20
85.7017841213
 30
0.0
 10
64.0018305181
 20
86.9962288164
 30
0.0
  0
SPLINE
  5
2B4
100
AcDbEntity
  8
0
100
AcDbSpline
 62
7
  6
CONTINUOUS
 70
0
 71
3
 72
11
 73
7
 74
0
 42
0.0000001
 43
0.0000001
 44
0.0000000001
 40
0.0
 40
0.0
 40
0.0
 40
0.0
 40
0.2650616958
 40
0.520415293
 40
0.7655009228
 40
1.0
 40
1.0
 40
1.0
 40
1.0
 10
38.5455362748
 20
83.4921130128
 30
0.0
 10
37.9077443426
 20
83.9823608815
 30
0.0
 10
36.6261836057
 20
84.9075749589
 30
0.0
 10
34.6560719252
 20
86.1421758813
 30
0.0
 10
32.6851512406
 20
87.1905168256
 30
0.0
 10
31.3495152129
 20
87.7736726831
 30
0.0
 10
30.6855790127
 20
88.0299587941
 30
0.0
  0
SPLINE
  5
2B5
100
AcDbEntity
  8
0
100
AcDbSpline
 62
7
  6
CONTINUOUS
 70
0
 71
3
 72
14
 73
10
 74
0
 42
0.0000001
 43
0.0000001
 44
0.0000000001
 40
0.0
 40
0.0
 40
0.0
 40
0.0
 40
0.1233152634
 40
0.2482985668
 40
0.3743718637
 40
0.5009462029
 40
0.627412498
 40
0.7531564059
 40
1.0
 40
1.0
 40
1.0
 40
1.0
 10
64.226419288
 20
86.7401724838
 30
0.0
 10
64.7780867088
 20
86.1175793395
 30
0.0
 10
65.8558641297
 20
84.8343193642
 30
0.0
 10
67.3804820994
 20
82.8198343375
 30
0.0
 10
68.814930705
 20
80.7134363722
 30
0.0
 10
70.1485472792
 20
78.5301625616
 30
0.0
 10
71.3731428471
 20
76.2863114057
 30
0.0
 10
72.8396584645
 20
73.2551674743
 30
0.0
 10
73.7644597996
 20
70.911833163
 30
0.0
 10
74.2916029465
 20
69.3323581951
 30
0.0
  0
SPLINE
  5
2B6
100
AcDbEntity
  8
0
100
AcDbSpline
 62
7
  6
CONTINUOUS
 70
0
 71
3
 72
11
 73
7
 74
0
 42
0.0000001
 43
0.0000001
 44
0.0000000001
 40
0.0
 40
0.0
 40
0.0
 40
0.0
 40
0.2349019143
 40
0.4811579301
 40
0.7369171823
 40
1.0
 40
1.0
 40
1.0
 40
1.0
 10
45.3774339139
 20
76.9845714925
 30
0.0
 10
44.7583967606
 20
77.3934112156
 30
0.0
 10
43.5317660841
 20
78.2947480547
 30
0.0
 10
41.7825086543
 20
79.833721538
 30
0.0
 10
40.1011769093
 20
81.5724716359
 30
0.0
 10
39.053196799
 20
82.8343820199
 30
0.0
 10
38.5455362748
 20
83.4921130128
 30
0.0
  0
SPLINE
  5
2B7
100
AcDbEntity
  8
0
100
AcDbSpline
 62
7
  6
CONTINUOUS
 70
0
 71
3
 72
9
 73
5
 74
0
 42
0.0000001
 43
0.0000001
 44
0.0000000001
 40
0.0
 40
0.0
 40
0.0
 40
0.0
 40
0.5042984829
 40
1.0
 40
1.0
 40
1.0
 40
1.0
 10
51.736272914
 20
67.9786828778
 30
0.0
 10
50.8151927341
 20
69.5892904575
 30
0.0
 10
48.8372900271
 20
72.6988113381
 30
0.0
 10
46.5709673725
 20
75.6056028734
 30
0.0
 10
45.3774339139
 20
76.9845714925
 30
0.0
  0
SPLINE
  5
2B8
100
AcDbEntity
  8
0
100
AcDbSpline
 62
7
  6
CONTINUOUS
 70
0
 71
3
 72
10
 73
6
 74
0
 42
0.0000001
 43
0.0000001
 44
0.0000000001
 40
0.0
 40
0.0
 40
0.0
 40
0.0
 40
0.3128491063
 40
0.5830751088
 40
1.0
 40
1.0
 40
1.0
 40
1.0
 10
30.6855790127
 20
33.2546145244
 30
0.0
 10
30.6699072278
 20
33.2156344581
 30
0.0
 10
30.6438400526
 20
33.1413797879
 30
0.0
 10
30.6150306045
 20
33.0108848774
 30
0.0
 10
30.6158662106
 20
32.9135063004
 30
0.0
 10
30.6365006896
 20
32.8614585494
 30
0.0
  0
SPLINE
  5
2B9
100
AcDbEntity
  8
0
100
AcDbSpline
 62
7
  6
CONTINUOUS
 70
0
 71
3
 72
9
 73
5
 74
0
 42
0.0000001
 43
0.0000001
 44
0.0000000001
 40
0.0
 40
0.0
 40
0.0
 40
0.0
 40
0.2571739233
 40
1.0
 40
1.0
 40
1.0
 40
1.0
 10
30.6365006896
 20
32.8614585494
 30
0.0
 10
30.6381278717
 20
32.8573541972
 30
0.0
 10
30.6449508824
 20
32.841598672
 30
0.0
 10
30.6538716741
 20
32.8267293714
 30
0.0
 10
30.6616141756
 20
32.8165959283
 30
0.0
  0
SPLINE
  5
2BA
100
AcDbEntity
  8
0
100
AcDbSpline
 62
7
  6
CONTINUOUS
 70
0
 71
3
 72
14
 73
10
 74
0
 42
0.0000001
 43
0.0000001
 44
0.0000000001
 40
0.0
 40
0.0
 40
0.0
 40
0.0
 40
0.246850827
 40
0.3725957648
 40
0.4990566414
 40
0.6256241228
 40
0.7516982115
 40
0.8766861539
 40
1.0
 40
1.0
 40
1.0
 40
1.0
 10
68.0415803547
 20
65.3222106067
 30
0.0
 10
67.4974653062
 20
66.9544209796
 30
0.0
 10
66.5417208962
 20
69.3756255225
 30
0.0
 10
65.0278838588
 20
72.5082019712
 30
0.0
 10
63.7636563655
 20
74.8271434798
 30
0.0
 10
62.386080736
 20
77.0831293494
 30
0.0
 10
60.9041712835
 20
79.2596644324
 30
0.0
 10
59.3298099618
 20
81.3418340562
 30
0.0
 10
58.2167745187
 20
82.6682590258
 30
0.0
 10
57.6469935514
 20
83.3117303447
 30
0.0
  0
SPLINE
  5
2BB
100
AcDbEntity
  8
0
100
AcDbSpline
 62
7
  6
CONTINUOUS
 70
0
 71
3
 72
11
 73
7
 74
0
 42
0.0000001
 43
0.0000001
 44
0.0000000001
 40
0.0
 40
0.0
 40
0.0
 40
0.0
 40
0.2535298452
 40
0.5063252904
 40
0.7559342071
 40
1.0
 40
1.0
 40
1.0
 40
1.0
 10
55.9586178627
 20
58.830335412
 30
0.0
 10
55.4955756066
 20
59.5481720629
 30
0.0
 10
54.6208974709
 20
61.0147543661
 30
0.0
 10
53.4709550598
 20
63.2896289701
 30
0.0
 10
52.4971294939
 20
65.6107891988
 30
0.0
 10
51.9671418529
 20
67.1894199586
 30
0.0
 10
51.736272914
 20
67.9786828778
 30
0.0
  0
SPLINE
  5
2BC
100
AcDbEntity
  8
0
100
AcDbSpline
 62
7
  6
CONTINUOUS
 70
0
 71
3
 72
12
 73
8
 74
0
 42
0.0000001
 43
0.0000001
 44
0.0000000001
 40
0.0
 40
0.0
 40
0.0
 40
0.0
 40
0.2482508011
 40
0.3743520436
 40
0.5009457308
 40
0.7530984199
 40
1.0
 40
1.0
 40
1.0
 40
1.0
 10
62.9520942585
 20
86.3708376428
 30
0.0
 10
64.0990193615
 20
85.0760811407
 30
0.0
 10
65.7254739688
 20
83.0293209319
 30
0.0
 10
67.6892248529
 20
80.1427230888
 30
0.0
 10
69.5242274566
 20
77.1401755521
 30
0.0
 10
71.5205611486
 20
73.2569099617
 30
0.0
 10
72.7999278634
 20
70.0160573926
 30
0.0
 10
73.3443810298
 20
68.3841964798
 30
0.0
  0
SPLINE
  5
2BD
100
AcDbEntity
  8
0
100
AcDbSpline
 62
7
  6
CONTINUOUS
 70
0
 71
3
 72
13
 73
9
 74
0
 42
0.0000001
 43
0.0000001
 44
0.0000000001
 40
0.0
 40
0.0
 40
0.0
 40
0.0
 40
0.1107666035
 40
0.226388517
 40
0.3472799271
 40
0.4732104314
 40
0.7347767606
 40
1.0
 40
1.0
 40
1.0
 40
1.0
 10
53.7038945034
 20
28.4072457014
 30
0.0
 10
53.6327106431
 20
28.3661479259
 30
0.0
 10
53.4762891533
 20
28.3000203284
 30
0.0
 10
53.2207260609
 20
28.2547023664
 30
0.0
 10
52.9501338501
 20
28.2622657735
 30
0.0
 10
52.5795978333
 20
28.3420355554
 30
0.0
 10
52.1392282211
 20
28.5639778901
 30
0.0
 10
51.8541301411
 20
28.8415701308
 30
0.0
 10
51.736272914
 20
28.9991927506
 30
0.0
  0
SPLINE
  5
2BE
100
AcDbEntity
  8
0
100
AcDbSpline
 62
7
  6
CONTINUOUS
 70
0
 71
3
 72
9
 73
5
 74
0
 42
0.0000001
 43
0.0000001
 44
0.0000000001
 40
0.0
 40
0.0
 40
0.0
 40
0.0
 40
0.4871766039
 40
1.0
 40
1.0
 40
1.0
 40
1.0
 10
58.3874782318
 20
48.7963473158
 30
0.0
 10
58.1847037587
 20
50.4631006992
 30
0.0
 10
57.5509795011
 20
53.8599194666
 30
0.0
 10
56.552276675
 20
57.1655858021
 30
0.0
 10
55.9586178627
 20
58.830335412
 30
0.0
  0
SPLINE
  5
2BF
100
AcDbEntity
  8
0
100
AcDbSpline
 62
7
  6
CONTINUOUS
 70
0
 71
3
 72
11
 73
7
 74
0
 42
0.0000001
 43
0.0000001
 44
0.0000000001
 40
0.0
 40
0.0
 40
0.0
 40
0.0
 40
0.2758939247
 40
0.5337797234
 40
0.773787504
 40
1.0
 40
1.0
 40
1.0
 40
1.0
 10
45.3774339139
 20
27.3356928458
 30
0.0
 10
45.3962696312
 20
27.2456097975
 30
0.0
 10
45.44697247
 20
27.0738051812
 30
0.0
 10
45.5660722446
 20
26.8428181761
 30
0.0
 10
45.7224996434
 20
26.6559296086
 30
0.0
 10
45.8513509351
 20
26.5647717148
 30
0.0
 10
45.9186715039
 20
26.5306841674
 30
0.0
  0
SPLINE
  5
2C0
100
AcDbEntity
  8
0
100
AcDbSpline
 62
7
  6
CONTINUOUS
 70
0
 71
3
 72
11
 73
7
 74
0
 42
0.0000001
 43
0.0000001
 44
0.0000000001
 40
0.0
 40
0.0
 40
0.0
 40
0.0
 40
0.2657840371
 40
0.5185101234
 40
0.7617241992
 40
1.0
 40
1.0
 40
1.0
 40
1.0
 10
53.7038945034
 20
28.4072457014
 30
0.0
 10
53.8731119047
 20
28.8113994627
 30
0.0
 10
54.2557980916
 20
29.5795130952
 30
0.0
 10
54.981861207
 20
30.6103893684
 30
0.0
 10
55.8368501627
 20
31.4751964201
 30
0.0
 10
56.4897162755
 20
31.9354047198
 30
0.0
 10
56.829904463
 20
32.1317845095
 30
0.0
  0
SPLINE
  5
2C1
100
AcDbEntity
  8
0
100
AcDbSpline
 62
7
  6
CONTINUOUS
 70
0
 71
3
 72
13
 73
9
 74
0
 42
0.0000001
 43
0.0000001
 44
0.0000000001
 40
0.0
 40
0.0
 40
0.0
 40
0.0
 40
0.1150440845
 40
0.2396619608
 40
0.5041343064
 40
0.7658630845
 40
0.8877430914
 40
1.0
 40
1.0
 40
1.0
 40
1.0
 10
60.528379157
 20
40.5551379207
 30
0.0
 10
60.4548074128
 20
40.5126615079
 30
0.0
 10
60.2938416208
 20
40.4372040526
 30
0.0
 10
59.9378810632
 20
40.3255072473
 30
0.0
 10
59.4571264318
 20
40.2640066058
 30
0.0
 10
58.9758718449
 20
40.3019370659
 30
0.0
 10
58.6211484953
 20
40.3960435019
 30
0.0
 10
58.4609041524
 20
40.4630780394
 30
0.0
 10
58.3874782318
 20
40.5015516957
 30
0.0
  0
SPLINE
  5
2C2
100
AcDbEntity
  8
0
100
AcDbSpline
 62
7
  6
CONTINUOUS
 70
0
 71
3
 72
11
 73
7
 74
0
 42
0.0000001
 43
0.0000001
 44
0.0000000001
 40
0.0
 40
0.0
 40
0.0
 40
0.0
 40
0.2322254739
 40
0.4755992285
 40
0.7313051667
 40
1.0
 40
1.0
 40
1.0
 40
1.0
 10
57.8601811853
 20
32.6133100666
 30
0.0
 10
58.2058315258
 20
33.1674636018
 30
0.0
 10
58.8401396458
 20
34.3495993133
 30
0.0
 10
59.5963649982
 20
36.2665612456
 30
0.0
 10
60.1729873745
 20
38.3511733811
 30
0.0
 10
60.4290173365
 20
39.8060157137
 30
0.0
 10
60.528379157
 20
40.5551379207
 30
0.0
  0
SPLINE
  5
2C3
100
AcDbEntity
  8
0
100
AcDbSpline
 62
7
  6
CONTINUOUS
 70
0
 71
3
 72
13
 73
9
 74
0
 42
0.0000001
 43
0.0000001
 44
0.0000000001
 40
0.0
 40
0.0
 40
0.0
 40
0.0
 40
0.2661423833
 40
0.5260013463
 40
0.6510484068
 40
0.77163858
 40
0.8877265652
 40
1.0
 40
1.0
 40
1.0
 40
1.0
 10
55.9586178627
 20
33.272106528
 30
0.0
 10
56.0583616975
 20
33.1224274786
 30
0.0
 10
56.2980602758
 20
32.8528794209
 30
0.0
 10
56.6762218019
 20
32.6146529824
 30
0.0
 10
57.0014690592
 20
32.5056130864
 30
0.0
 10
57.2444713104
 20
32.4684603143
 30
0.0
 10
57.4815839863
 20
32.4769922445
 30
0.0
 10
57.6327808392
 20
32.5142345495
 30
0.0
 10
57.7040090305
 20
32.5403892687
 30
0.0
  0
SPLINE
  5
2C4
100
AcDbEntity
  8
0
100
AcDbSpline
 62
7
  6
CONTINUOUS
 70
0
 71
3
 72
11
 73
7
 74
0
 42
0.0000001
 43
0.0000001
 44
0.0000000001
 40
0.0
 40
0.0
 40
0.0
 40
0.0
 40
0.2731718182
 40
0.5317013316
 40
0.7741630999
 40
1.0
 40
1.0
 40
1.0
 40
1.0
 10
60.528379157
 20
40.5551379207
 30
0.0
 10
60.3805832897
 20
41.2897636799
 30
0.0
 10
60.1547929286
 20
42.733183279
 30
0.0
 10
60.0335364292
 20
44.8571333937
 30
0.0
 10
60.1402267686
 20
46.8523513958
 30
0.0
 10
60.3713340681
 20
48.1208986226
 30
0.0
 10
60.528379157
 20
48.720162092
 30
0.0
  0
SPLINE
  5
2C5
100
AcDbEntity
  8
0
100
AcDbSpline
 62
7
  6
CONTINUOUS
 70
0
 71
3
 72
12
 73
8
 74
0
 42
0.0000001
 43
0.0000001
 44
0.0000000001
 40
0.0
 40
0.0
 40
0.0
 40
0.0
 40
0.256198204
 40
0.5360689629
 40
0.7965414639
 40
0.9074480985
 40
1.0
 40
1.0
 40
1.0
 40
1.0
 10
57.8601811853
 20
59.7428898813
 30
0.0
 10
57.7040305922
 20
59.6527368325
 30
0.0
 10
57.3725801306
 20
59.472268224
 30
0.0
 10
56.871796603
 20
59.2201912617
 30
0.0
 10
56.4555820994
 20
59.0278717133
 30
0.0
 10
56.1541565669
 20
58.9023027475
 30
0.0
 10
56.020174236
 20
58.851631466
 30
0.0
 10
55.9586178627
 20
58.830335412
 30
0.0
  0
SPLINE
  5
2C6
100
AcDbEntity
  8
0
100
AcDbSpline
 62
7
  6
CONTINUOUS
 70
0
 71
3
 72
10
 73
6
 74
0
 42
0.0000001
 43
0.0000001
 44
0.0000000001
 40
0.0
 40
0.0
 40
0.0
 40
0.0
 40
0.2394293847
 40
0.4866202471
 40
1.0
 40
1.0
 40
1.0
 40
1.0
 10
60.528379157
 20
48.720162092
 30
0.0
 10
60.4247540648
 20
49.6210797819
 30
0.0
 10
60.1529634861
 20
51.4456197828
 30
0.0
 10
59.3666589809
 20
55.1522440025
 30
0.0
 10
58.5230082218
 20
57.9148829054
 30
0.0
 10
57.8601811853
 20
59.7428898813
 30
0.0
  0
SPLINE
  5
2C7
100
AcDbEntity
  8
0
100
AcDbSpline
 62
7
  6
CONTINUOUS
 70
0
 71
3
 72
13
 73
9
 74
0
 42
0.0000001
 43
0.0000001
 44
0.0000000001
 40
0.0
 40
0.0
 40
0.0
 40
0.0
 40
0.1158951108
 40
0.2400469983
 40
0.5023254928
 40
0.7635662771
 40
0.8862699617
 40
1.0
 40
1.0
 40
1.0
 40
1.0
 10
58.3874782318
 20
48.7963473158
 30
0.0
 10
58.4603554762
 20
48.7503839874
 30
0.0
 10
58.6194947746
 20
48.6678268452
 30
0.0
 10
58.9723315277
 20
48.5428266792
 30
0.0
 10
59.4528042281
 20
48.4684433427
 30
0.0
 10
59.9371602898
 20
48.5039248891
 30
0.0
 10
60.2943053914
 20
48.6045215002
 30
0.0
 10
60.4551553758
 20
48.6778865746
 30
0.0
 10
60.528379157
 20
48.720162092
 30
0.0
  0
SPLINE
  5
2C8
100
AcDbEntity
  8
0
100
AcDbSpline
 62
7
  6
CONTINUOUS
 70
0
 71
3
 72
11
 73
7
 74
0
 42
0.0000001
 43
0.0000001
 44
0.0000000001
 40
0.0
 40
0.0
 40
0.0
 40
0.0
 40
0.2536634638
 40
0.5067070445
 40
0.7563685445
 40
1.0
 40
1.0
 40
1.0
 40
1.0
 10
57.8601811853
 20
59.7428898813
 30
0.0
 10
57.3979320661
 20
60.4462304052
 30
0.0
 10
56.5266981529
 20
61.8862258342
 30
0.0
 10
55.3886925369
 20
64.1254709851
 30
0.0
 10
54.4345916049
 20
66.4130763894
 30
0.0
 10
53.923469443
 20
67.970148385
 30
0.0
 10
53.7038945034
 20
68.7481121443
 30
0.0
  0
SPLINE
  5
2C9
100
AcDbEntity
  8
0
100
AcDbSpline
 62
7
  6
CONTINUOUS
 70
0
 71
3
 72
11
 73
7
 74
0
 42
0.0000001
 43
0.0000001
 44
0.0000000001
 40
0.0
 40
0.0
 40
0.0
 40
0.0
 40
0.2436314896
 40
0.4932930058
 40
0.7463365582
 40
1.0
 40
1.0
 40
1.0
 40
1.0
 10
57.9465175266
 20
71.1975770675
 30
0.0
 10
58.1660924867
 20
70.4196132357
 30
0.0
 10
58.677216479
 20
68.8625416961
 30
0.0
 10
59.6313187802
 20
66.5749369991
 30
0.0
 10
60.7693228422
 20
64.3356913979
 30
0.0
 10
61.640555151
 20
62.8956952346
 30
0.0
 10
62.1028042086
 20
62.1923548045
 30
0.0
  0
SPLINE
  5
2CA
100
AcDbEntity
  8
0
100
AcDbSpline
 62
7
  6
CONTINUOUS
 70
0
 71
3
 72
9
 73
5
 74
0
 42
0.0000001
 43
0.0000001
 44
0.0000000001
 40
0.0
 40
0.0
 40
0.0
 40
0.0
 40
0.4963009947
 40
1.0
 40
1.0
 40
1.0
 40
1.0
 10
62.1028042086
 20
62.1923548045
 30
0.0
 10
61.5430122308
 20
63.7362019686
 30
0.0
 10
60.2788238985
 20
66.7988871361
 30
0.0
 10
58.7666895858
 20
69.7466643597
 30
0.0
 10
57.9465175266
 20
71.1975770675
 30
0.0
  0
SPLINE
  5
2CB
100
AcDbEntity
  8
0
100
AcDbSpline
 62
7
  6
CONTINUOUS
 70
0
 71
3
 72
11
 73
7
 74
0
 42
0.0000001
 43
0.0000001
 44
0.0000000001
 40
0.0
 40
0.0
 40
0.0
 40
0.0
 40
0.2258370267
 40
0.4682989022
 40
0.726828313
 40
1.0
 40
1.0
 40
1.0
 40
1.0
 10
64.7710021803
 20
51.1696270152
 30
0.0
 10
64.6139570192
 20
50.5703632706
 30
0.0
 10
64.3828521504
 20
49.3018149795
 30
0.0
 10
64.2761635571
 20
47.3065969156
 30
0.0
 10
64.3974179741
 20
45.1826473429
 30
0.0
 10
64.623206399
 20
43.7392281757
 30
0.0
 10
64.7710021803
 20
43.0046028439
 30
0.0
  0
SPLINE
  5
2CC
100
AcDbEntity
  8
0
100
AcDbSpline
 62
7
  6
CONTINUOUS
 70
0
 71
3
 72
9
 73
5
 74
0
 42
0.0000001
 43
0.0000001
 44
0.0000000001
 40
0.0
 40
0.0
 40
0.0
 40
0.0
 40
0.4823726869
 40
1.0
 40
1.0
 40
1.0
 40
1.0
 10
64.7710021803
 20
43.0046028439
 30
0.0
 10
64.9439496017
 20
44.3085116631
 30
0.0
 10
65.1041471449
 20
47.0397842061
 30
0.0
 10
64.9322873728
 20
49.7674117799
 30
0.0
 10
64.7710021803
 20
51.1696270152
 30
0.0
  0
SPLINE
  5
2CD
100
AcDbEntity
  8
0
100
AcDbSpline
 62
7
  6
CONTINUOUS
 70
0
 71
3
 72
11
 73
7
 74
0
 42
0.0000001
 43
0.0000001
 44
0.0000000001
 40
0.0
 40
0.0
 40
0.0
 40
0.0
 40
0.2719151946
 40
0.5299314346
 40
0.7728002834
 40
1.0
 40
1.0
 40
1.0
 40
1.0
 10
58.3874782318
 20
40.5015516957
 30
0.0
 10
58.2457952439
 20
41.2452596525
 30
0.0
 10
58.0295266943
 20
42.7070601786
 30
0.0
 10
57.9138334148
 20
44.859059733
 30
0.0
 10
58.0163734606
 20
46.8875098119
 30
0.0
 10
58.2373909124
 20
48.1818261829
 30
0.0
 10
58.3874782318
 20
48.7963473158
 30
0.0
  0
SPLINE
  5
2CE
100
AcDbEntity
  8
0
100
AcDbSpline
 62
7
  6
CONTINUOUS
 70
0
 71
3
 72
11
 73
7
 74
0
 42
0.0000001
 43
0.0000001
 44
0.0000000001
 40
0.0
 40
0.0
 40
0.0
 40
0.0
 40
0.2330617179
 40
0.4767869438
 40
0.7322317091
 40
1.0
 40
1.0
 40
1.0
 40
1.0
 10
55.9586178627
 20
33.272106528
 30
0.0
 10
56.2677236068
 20
33.7819903844
 30
0.0
 10
56.8363994284
 20
34.8647730109
 30
0.0
 10
57.5206632578
 20
36.6121762832
 30
0.0
 10
58.0497954215
 20
38.5046750569
 30
0.0
 10
58.2914715301
 20
39.8232580817
 30
0.0
 10
58.3874782318
 20
40.5015516957
 30
0.0
  0
SPLINE
  5
2CF
100
AcDbEntity
  8
0
100
AcDbSpline
 62
7
  6
CONTINUOUS
 70
0
 71
3
 72
11
 73
7
 74
0
 42
0.0000001
 43
0.0000001
 44
0.0000000001
 40
0.0
 40
0.0
 40
0.0
 40
0.0
 40
0.2434840902
 40
0.4902943255
 40
0.7420254823
 40
1.0
 40
1.0
 40
1.0
 40
1.0
 10
58.6897779396
 20
31.3528424313
 30
0.0
 10
59.0232737696
 20
31.5940150951
 30
0.0
 10
59.6701718962
 20
32.114751134
 30
0.0
 10
60.5643211261
 20
32.9971434566
 30
0.0
 10
61.3838802935
 20
33.9811893963
 30
0.0
 10
61.8720291712
 20
34.6927918368
 30
0.0
 10
62.1028042086
 20
35.0627749898
 30
0.0
  0
SPLINE
  5
2D0
100
AcDbEntity
  8
0
100
AcDbSpline
 62
7
  6
CONTINUOUS
 70
0
 71
3
 72
13
 73
9
 74
0
 42
0.0000001
 43
0.0000001
 44
0.0000000001
 40
0.0
 40
0.0
 40
0.0
 40
0.0
 40
0.2654168787
 40
0.5165735153
 40
0.6386295646
 40
0.7593198926
 40
0.8795046314
 40
1.0
 40
1.0
 40
1.0
 40
1.0
 10
51.736272914
 20
28.9991927506
 30
0.0
 10
51.9565020828
 20
29.497788903
 30
0.0
 10
52.4619078943
 20
30.4371877319
 30
0.0
 10
53.2890084917
 20
31.4662126675
 30
0.0
 10
54.0381245957
 20
32.1523658913
 30
0.0
 10
54.6377660892
 20
32.5973767664
 30
0.0
 10
55.2779425084
 20
32.9753268943
 30
0.0
 10
55.7285152141
 20
33.1810808582
 30
0.0
 10
55.9586178627
 20
33.272106528
 30
0.0
  0
SPLINE
  5
2D1
100
AcDbEntity
  8
0
100
AcDbSpline
 62
7
  6
CONTINUOUS
 70
0
 71
3
 72
11
 73
7
 74
0
 42
0.0000001
 43
0.0000001
 44
0.0000000001
 40
0.0
 40
0.0
 40
0.0
 40
0.0
 40
0.260214939
 40
0.5117935105
 40
0.7573821815
 40
1.0
 40
1.0
 40
1.0
 40
1.0
 10
45.3774339139
 20
27.3356928458
 30
0.0
 10
45.9540869249
 20
27.3360919595
 30
0.0
 10
47.0896400404
 20
27.4029832728
 30
0.0
 10
48.743502574
 20
27.7158523194
 30
0.0
 10
50.3028820791
 20
28.238053546
 30
0.0
 10
51.2740033006
 20
28.7246355993
 30
0.0
 10
51.736272914
 20
28.9991927506
 30
0.0
  0
SPLINE
  5
2D2
100
AcDbEntity
  8
0
100
AcDbSpline
 62
7
  6
CONTINUOUS
 70
0
 71
3
 72
11
 73
7
 74
0
 42
0.0000001
 43
0.0000001
 44
0.0000000001
 40
0.0
 40
0.0
 40
0.0
 40
0.0
 40
0.2258117491
 40
0.4662684678
 40
0.7239368472
 40
1.0
 40
1.0
 40
1.0
 40
1.0
 10
38.5455362748
 20
28.7167687431
 30
0.0
 10
39.0723042657
 20
28.791010074
 30
0.0
 10
40.176917117
 20
28.837669864
 30
0.0
 10
41.875084312
 20
28.6189812183
 30
0.0
 10
43.6353871518
 20
28.1203315099
 30
0.0
 10
44.7943968525
 20
27.6238471661
 30
0.0
 10
45.3774339139
 20
27.3356928458
 30
0.0
  0
SPLINE
  5
2D3
100
AcDbEntity
  8
0
100
AcDbSpline
 62
7
  6
CONTINUOUS
 70
0
 71
3
 72
13
 73
9
 74
0
 42
0.0000001
 43
0.0000001
 44
0.0000000001
 40
0.0
 40
0.0
 40
0.0
 40
0.0
 40
0.1593068578
 40
0.3081278087
 40
0.5113064676
 40
0.6914624557
 40
0.8522516978
 40
1.0
 40
1.0
 40
1.0
 40
1.0
 10
23.8536813735
 20
39.7621560448
 30
0.0
 10
23.8463082222
 20
39.7354070561
 30
0.0
 10
23.8336695011
 20
39.6831941224
 30
0.0
 10
23.8191356771
 20
39.5952639916
 30
0.0
 10
23.8135109185
 20
39.5024280056
 30
0.0
 10
23.8231481917
 20
39.407620807
 30
0.0
 10
23.8490530868
 20
39.3257904312
 30
0.0
 10
23.8783509602
 20
39.2797609631
 30
0.0
 10
23.8952558545
 20
39.2603590926
 30
0.0
  0
SPLINE
  5
2D4
100
AcDbEntity
  8
0
100
AcDbSpline
 62
7
  6
CONTINUOUS
 70
0
 71
3
 72
12
 73
8
 74
0
 42
0.0000001
 43
0.0000001
 44
0.0000000001
 40
0.0
 40
0.0
 40
0.0
 40
0.0
 40
0.2469099444
 40
0.499065677
 40
0.625652736
 40
0.7517496343
 40
1.0
 40
1.0
 40
1.0
 40
1.0
 10
77.5756708912
 20
70.8666812798
 30
0.0
 10
77.0312723381
 20
72.4945228391
 30
0.0
 10
75.7552721721
 20
75.7283215521
 30
0.0
 10
73.7600877443
 20
79.6011834026
 30
0.0
 10
71.9289140356
 20
82.5966287206
 30
0.0
 10
69.9702365419
 20
85.4770381258
 30
0.0
 10
68.3477760946
 20
87.5193929487
 30
0.0
 10
67.2036161403
 20
88.8113727279
 30
0.0
  0
SPLINE
  5
2D5
100
AcDbEntity
  8
0
100
AcDbSpline
 62
7
  6
CONTINUOUS
 70
0
 71
3
 72
11
 73
7
 74
0
 42
0.0000001
 43
0.0000001
 44
0.0000000001
 40
0.0
 40
0.0
 40
0.0
 40
0.0
 40
0.2650616958
 40
0.520415293
 40
0.7655009228
 40
1.0
 40
1.0
 40
1.0
 40
1.0
 10
30.6855790127
 20
33.2546145244
 30
0.0
 10
31.3233709448
 20
32.7643666558
 30
0.0
 10
32.6049316817
 20
31.8391525783
 30
0.0
 10
34.5750433622
 20
30.604551656
 30
0.0
 10
36.5459640468
 20
29.5562107117
 30
0.0
 10
37.8816000745
 20
28.9730548542
 30
0.0
 10
38.5455362748
 20
28.7167687431
 30
0.0
  0
SPLINE
  5
2D6
100
AcDbEntity
  8
0
100
AcDbSpline
 62
7
  6
CONTINUOUS
 70
0
 71
3
 72
14
 73
10
 74
0
 42
0.0000001
 43
0.0000001
 44
0.0000000001
 40
0.0
 40
0.0
 40
0.0
 40
0.0
 40
0.1233257382
 40
0.2483123209
 40
0.3743796701
 40
0.500942703
 40
0.7530399035
 40
0.8774624886
 40
1.0
 40
1.0
 40
1.0
 40
1.0
 10
67.4284651801
 20
88.5571559118
 30
0.0
 10
67.9784355617
 20
87.9355390713
 30
0.0
 10
69.0527285118
 20
86.6542972801
 30
0.0
 10
70.5728124295
 20
84.6437067557
 30
0.0
 10
72.0041360991
 20
82.5423714093
 30
0.0
 10
73.7754697694
 20
79.6427769628
 30
0.0
 10
75.3272273885
 20
76.6261341322
 30
0.0
 10
76.6378681089
 20
73.5326780007
 30
0.0
 10
77.2079298896
 20
71.9704396804
 30
0.0
 10
77.4696305456
 20
71.1883846665
 30
0.0
  0
SPLINE
  5
2D7
100
AcDbEntity
  8
0
100
AcDbSpline
 62
7
  6
CONTINUOUS
 70
0
 71
3
 72
11
 73
7
 74
0
 42
0.0000001
 43
0.0000001
 44
0.0000000001
 40
0.0
 40
0.0
 40
0.0
 40
0.0
 40
0.2349019143
 40
0.4811579301
 40
0.7369171823
 40
1.0
 40
1.0
 40
1.0
 40
1.0
 10
23.8536813735
 20
39.7621560448
 30
0.0
 10
24.4727185268
 20
39.3533163217
 30
0.0
 10
25.6993492033
 20
38.4519794826
 30
0.0
 10
27.4486066332
 20
36.9130059993
 30
0.0
 10
29.1299383781
 20
35.1742559014
 30
0.0
 10
30.1779184884
 20
33.9123455173
 30
0.0
 10
30.6855790127
 20
33.2546145244
 30
0.0
  0
SPLINE
  5
2D8
100
AcDbEntity
  8
0
100
AcDbSpline
 62
7
  6
CONTINUOUS
 70
0
 71
3
 72
11
 73
7
 74
0
 42
0.0000001
 43
0.0000001
 44
0.0000000001
 40
0.0
 40
0.0
 40
0.0
 40
0.0
 40
0.3497797445
 40
0.6332911319
 40
0.848285018
 40
1.0
 40
1.0
 40
1.0
 40
1.0
 10
17.4948423734
 20
48.7680446595
 30
0.0
 10
17.4585366798
 20
48.7614105682
 30
0.0
 10
17.3924774069
 20
48.7511727717
 30
0.0
 10
17.3029056715
 20
48.7449924818
 30
0.0
 10
17.2344405891
 20
48.7492415216
 30
0.0
 10
17.1963252137
 20
48.7612015945
 30
0.0
 10
17.1831919524
 20
48.7703546107
 30
0.0
  0
SPLINE
  5
2D9
100
AcDbEntity
  8
0
100
AcDbSpline
 62
7
  6
CONTINUOUS
 70
0
 71
3
 72
9
 73
5
 74
0
 42
0.0000001
 43
0.0000001
 44
0.0000000001
 40
0.0
 40
0.0
 40
0.0
 40
0.0
 40
0.2667880936
 40
1.0
 40
1.0
 40
1.0
 40
1.0
 10
17.1831919524
 20
48.7703546107
 30
0.0
 10
17.1814365101
 20
48.7715780381
 30
0.0
 10
17.1750683345
 20
48.7764478855
 30
0.0
 10
17.1696635804
 20
48.7826675333
 30
0.0
 10
17.1667621633
 20
48.7877824726
 30
0.0
  0
SPLINE
  5
2DA
100
AcDbEntity
  8
0
100
AcDbSpline
 62
7
  6
CONTINUOUS
 70
0
 71
3
 72
14
 73
10
 74
0
 42
0.0000001
 43
0.0000001
 44
0.0000000001
 40
0.0
 40
0.0
 40
0.0
 40
0.0
 40
0.1225191168
 40
0.2469371828
 40
0.3726709487
 40
0.4991283778
 40
0.6257063066
 40
0.751790769
 40
1.0
 40
1.0
 40
1.0
 40
1.0
 10
76.5294568042
 20
70.2132375799
 30
0.0
 10
76.2591726522
 20
71.0236478123
 30
0.0
 10
75.6703282191
 20
72.642647725
 30
0.0
 10
74.6582573016
 20
75.0371125281
 30
0.0
 10
73.5162803271
 20
77.4030325445
 30
0.0
 10
72.2509682765
 20
79.722449059
 30
0.0
 10
70.8720809941
 20
81.9792012764
 30
0.0
 10
68.9074718074
 20
84.8677066421
 30
0.0
 10
67.2796740482
 20
86.9154281511
 30
0.0
 10
66.1319464097
 20
88.2108195318
 30
0.0
  0
SPLINE
  5
2DB
100
AcDbEntity
  8
0
100
AcDbSpline
 62
7
  6
CONTINUOUS
 70
0
 71
3
 72
9
 73
5
 74
0
 42
0.0000001
 43
0.0000001
 44
0.0000000001
 40
0.0
 40
0.0
 40
0.0
 40
0.0
 40
0.5042984829
 40
1.0
 40
1.0
 40
1.0
 40
1.0
 10
17.4948423734
 20
48.7680446595
 30
0.0
 10
18.4159225534
 20
47.1574370798
 30
0.0
 10
20.3938252603
 20
44.0479161991
 30
0.0
 10
22.660147915
 20
41.1411246639
 30
0.0
 10
23.8536813735
 20
39.7621560448
 30
0.0
  0
SPLINE
  5
2DC
100
AcDbEntity
  8
0
100
AcDbSpline
 62
7
  6
CONTINUOUS
 70
0
 71
3
 72
21
 73
17
 74
0
 42
0.0000001
 43
0.0000001
 44
0.0000000001
 40
0.0
 40
0.0
 40
0.0
 40
0.0
 40
0.0623897526
 40
0.1287873139
 40
0.1984024284
 40
0.2704091021
 40
0.4174462395
 40
0.5616783798
 40
0.630307224
 40
0.695422681
 40
0.7563975196
 40
0.8128606336
 40
0.8647831048
 40
0.9125797999
 40
0.9571747165
 40
1.0
 40
1.0
 40
1.0
 40
1.0
 10
29.9132779715
 20
47.764365772
 30
0.0
 10
29.7408787927
 20
47.8638982326
 30
0.0
 10
29.3982980677
 20
48.0929187406
 30
0.0
 10
28.9130732584
 20
48.5011212795
 30
0.0
 10
28.4492464869
 20
48.9773619598
 30
0.0
 10
27.8689364167
 20
49.6939204204
 30
0.0
 10
27.2589201843
 20
50.6863352371
 30
0.0
 10
26.8261058728
 20
51.7568897793
 30
0.0
 10
26.6122576675
 20
52.618976251
 30
0.0
 10
26.5250617349
 20
53.2353722995
 30
0.0
 10
26.5101828634
 20
53.8191213806
 30
0.0
 10
26.5683192488
 20
54.3582426796
 30
0.0
 10
26.6989788011
 20
54.8416191572
 30
0.0
 10
26.9006759931
 20
55.2591005108
 30
0.0
 10
27.1706290005
 20
55.6004747037
 30
0.0
 10
27.3949710938
 20
55.772150588
 30
0.0
 10
27.5133064454
 20
55.8404748166
 30
0.0
  0
SPLINE
  5
2DD
100
AcDbEntity
  8
0
100
AcDbSpline
 62
7
  6
CONTINUOUS
 70
0
 71
3
 72
13
 73
9
 74
0
 42
0.0000001
 43
0.0000001
 44
0.0000000001
 40
0.0
 40
0.0
 40
0.0
 40
0.0
 40
0.248257691
 40
0.3743586444
 40
0.5009453784
 40
0.7530814047
 40
0.8774894839
 40
1.0
 40
1.0
 40
1.0
 40
1.0
 10
66.3577800686
 20
87.9567245553
 30
0.0
 10
67.4690882611
 20
86.7030335616
 30
0.0
 10
69.0439938411
 20
84.7202405533
 30
0.0
 10
70.9456897808
 20
81.9241902287
 30
0.0
 10
72.7223295999
 20
79.0161220032
 30
0.0
 10
74.2797334921
 20
75.9915347787
 30
0.0
 10
75.5900009731
 20
72.8879219861
 30
0.0
 10
76.1593268416
 20
71.320907699
 30
0.0
 10
76.4208622808
 20
70.5366190029
 30
0.0
  0
SPLINE
  5
2DE
100
AcDbEntity
  8
0
100
AcDbSpline
 62
7
  6
CONTINUOUS
 70
0
 71
3
 72
12
 73
8
 74
0
 42
0.0000001
 43
0.0000001
 44
0.0000000001
 40
0.0
 40
0.0
 40
0.0
 40
0.0
 40
0.2491744817
 40
0.3751089456
 40
0.5013423338
 40
0.7528252234
 40
1.0
 40
1.0
 40
1.0
 40
1.0
 10
77.7298064146
 20
73.9565171036
 30
0.0
 10
77.1721637211
 20
75.368795979
 30
0.0
 10
76.2373508141
 20
77.4589041402
 30
0.0
 10
74.8112734087
 20
80.1614003476
 30
0.0
 10
73.2615610366
 20
82.8115286618
 30
0.0
 10
71.1309489768
 20
85.9732003884
 30
0.0
 10
69.220129556
 20
88.3418058671
 30
0.0
 10
68.2211314724
 20
89.4690341518
 30
0.0
  0
SPLINE
  5
2DF
100
AcDbEntity
  8
0
100
AcDbSpline
 62
7
  6
CONTINUOUS
 70
0
 71
3
 72
11
 73
7
 74
0
 42
0.0000001
 43
0.0000001
 44
0.0000000001
 40
0.0
 40
0.0
 40
0.0
 40
0.0
 40
0.263797799
 40
0.5199731932
 40
0.7660637664
 40
1.0
 40
1.0
 40
1.0
 40
1.0
 10
44.2360714297
 20
87.4966289516
 30
0.0
 10
44.7316907962
 20
86.842710258
 30
0.0
 10
45.7577111178
 20
85.5900289129
 30
0.0
 10
47.4115781854
 20
83.8710453849
 30
0.0
 10
49.1364574988
 20
82.3606098001
 30
0.0
 10
50.3491593467
 20
81.4845992085
 30
0.0
 10
50.9610845481
 20
81.0908974251
 30
0.0
  0
SPLINE
  5
2E0
100
AcDbEntity
  8
0
100
AcDbSpline
 62
7
  6
CONTINUOUS
 70
0
 71
3
 72
9
 73
5
 74
0
 42
0.0000001
 43
0.0000001
 44
0.0000000001
 40
0.0
 40
0.0
 40
0.0
 40
0.0
 40
0.511038634
 40
1.0
 40
1.0
 40
1.0
 40
1.0
 10
50.9610845481
 20
81.0908974251
 30
0.0
 10
49.9181351077
 20
82.2829256743
 30
0.0
 10
47.7760252469
 20
84.5292048849
 30
0.0
 10
45.4316295579
 20
86.565369495
 30
0.0
 10
44.2360714297
 20
87.4966289516
 30
0.0
  0
SPLINE
  5
2E1
100
AcDbEntity
  8
0
100
AcDbSpline
 62
7
  6
CONTINUOUS
 70
0
 71
3
 72
21
 73
17
 74
0
 42
0.0000001
 43
0.0000001
 44
0.0000000001
 40
0.0
 40
0.0
 40
0.0
 40
0.0
 40
0.0623897526
 40
0.1287873139
 40
0.1984024284
 40
0.2704091021
 40
0.4174462395
 40
0.5616783798
 40
0.630307224
 40
0.695422681
 40
0.7563975196
 40
0.8128606336
 40
0.8647831048
 40
0.9125797999
 40
0.9571747165
 40
1.0
 40
1.0
 40
1.0
 40
1.0
 10
39.3178373159
 20
42.3347637369
 30
0.0
 10
39.1454381372
 20
42.4342961974
 30
0.0
 10
38.8028574121
 20
42.6633167055
 30
0.0
 10
38.3176326028
 20
43.0715192444
 30
0.0
 10
37.8538058314
 20
43.5477599246
 30
0.0
 10
37.2734957612
 20
44.2643183853
 30
0.0
 10
36.6634795287
 20
45.256733202
 30
0.0
 10
36.2306652172
 20
46.3272877442
 30
0.0
 10
36.016817012
 20
47.1893742159
 30
0.0
 10
35.9296210793
 20
47.8057702643
 30
0.0
 10
35.9147422079
 20
48.3895193455
 30
0.0
 10
35.9728785932
 20
48.9286406444
 30
0.0
 10
36.1035381455
 20
49.4120171221
 30
0.0
 10
36.3052353376
 20
49.8294984756
 30
0.0
 10
36.575188345
 20
50.1708726685
 30
0.0
 10
36.7995304383
 20
50.3425485529
 30
0.0
 10
36.9178657898
 20
50.4108727815
 30
0.0
  0
SPLINE
  5
2E2
100
AcDbEntity
  8
0
100
AcDbSpline
 62
7
  6
CONTINUOUS
 70
0
 71
3
 72
12
 73
8
 74
0
 42
0.0000001
 43
0.0000001
 44
0.0000000001
 40
0.0
 40
0.0
 40
0.0
 40
0.0
 40
0.1081595404
 40
0.2183675057
 40
0.4513491913
 40
0.7104488814
 40
1.0
 40
1.0
 40
1.0
 40
1.0
 10
23.9212529281
 20
53.7525167443
 30
0.0
 10
23.8552658747
 20
53.7144170691
 30
0.0
 10
23.7151536596
 20
53.6487773346
 30
0.0
 10
23.4074656182
 20
53.5636919024
 30
0.0
 10
22.9765091417
 20
53.5521315873
 30
0.0
 10
22.4368270139
 20
53.6826974808
 30
0.0
 10
22.085432295
 20
53.8498365476
 30
0.0
 10
21.9087767
 20
53.9518263957
 30
0.0
  0
SPLINE
  5
2E3
100
AcDbEntity
  8
0
100
AcDbSpline
 62
7
  6
CONTINUOUS
 70
0
 71
3
 72
21
 73
17
 74
0
 42
0.0000001
 43
0.0000001
 44
0.0000000001
 40
0.0
 40
0.0
 40
0.0
 40
0.0
 40
0.0623897526
 40
0.1287873139
 40
0.1984024284
 40
0.2704091021
 40
0.4174462395
 40
0.5616783798
 40
0.630307224
 40
0.695422681
 40
0.7563975196
 40
0.8128606336
 40
0.8647831048
 40
0.9125797999
 40
0.9571747165
 40
1.0
 40
1.0
 40
1.0
 40
1.0
 10
39.3178373159
 20
61.1439385608
 30
0.0
 10
39.1454381372
 20
61.2434710214
 30
0.0
 10
38.8028574121
 20
61.4724915294
 30
0.0
 10
38.3176326028
 20
61.8806940683
 30
0.0
 10
37.8538058314
 20
62.3569347486
 30
0.0
 10
37.2734957612
 20
63.0734932092
 30
0.0
 10
36.6634795287
 20
64.0659080259
 30
0.0
 10
36.2306652172
 20
65.1364625681
 30
0.0
 10
36.016817012
 20
65.9985490398
 30
0.0
 10
35.9296210793
 20
66.6149450883
 30
0.0
 10
35.9147422079
 20
67.1986941694
 30
0.0
 10
35.9728785932
 20
67.7378154684
 30
0.0
 10
36.1035381455
 20
68.221191946
 30
0.0
 10
36.3052353376
 20
68.6386732995
 30
0.0
 10
36.575188345
 20
68.9800474925
 30
0.0
 10
36.7995304383
 20
69.1517233768
 30
0.0
 10
36.9178657898
 20
69.2200476054
 30
0.0
  0
SPLINE
  5
2E4
100
AcDbEntity
  8
0
100
AcDbSpline
 62
7
  6
CONTINUOUS
 70
0
 71
3
 72
12
 73
8
 74
0
 42
0.0000001
 43
0.0000001
 44
0.0000000001
 40
0.0
 40
0.0
 40
0.0
 40
0.0
 40
0.1081595404
 40
0.2183675057
 40
0.4513491913
 40
0.7104488814
 40
1.0
 40
1.0
 40
1.0
 40
1.0
 10
49.3348148155
 20
39.0803218769
 30
0.0
 10
49.2688277622
 20
39.0422222017
 30
0.0
 10
49.1287155471
 20
38.9765824672
 30
0.0
 10
48.8210275056
 20
38.891497035
 30
0.0
 10
48.3900710292
 20
38.8799367199
 30
0.0
 10
47.8503889014
 20
39.0105026134
 30
0.0
 10
47.4989941825
 20
39.1776416802
 30
0.0
 10
47.3223385875
 20
39.2796315283
 30
0.0
  0
SPLINE
  5
2E5
100
AcDbEntity
  8
0
100
AcDbSpline
 62
7
  6
CONTINUOUS
 70
0
 71
3
 72
21
 73
17
 74
0
 42
0.0000001
 43
0.0000001
 44
0.0000000001
 40
0.0
 40
0.0
 40
0.0
 40
0.0
 40
0.0623897526
 40
0.1287873139
 40
0.1984024284
 40
0.2704091021
 40
0.4174462395
 40
0.5616783798
 40
0.630307224
 40
0.695422681
 40
0.7563975196
 40
0.8128606336
 40
0.8647831048
 40
0.9125797999
 40
0.9571747165
 40
1.0
 40
1.0
 40
1.0
 40
1.0
 10
29.9132779715
 20
66.5735405959
 30
0.0
 10
29.7408787927
 20
66.6730730565
 30
0.0
 10
29.3982980677
 20
66.9020935645
 30
0.0
 10
28.9130732584
 20
67.3102961035
 30
0.0
 10
28.4492464869
 20
67.7865367837
 30
0.0
 10
27.8689364167
 20
68.5030952443
 30
0.0
 10
27.2589201843
 20
69.495510061
 30
0.0
 10
26.8261058728
 20
70.5660646032
 30
0.0
 10
26.6122576675
 20
71.4281510749
 30
0.0
 10
26.5250617349
 20
72.0445471234
 30
0.0
 10
26.5101828634
 20
72.6282962046
 30
0.0
 10
26.5683192488
 20
73.1674175035
 30
0.0
 10
26.6989788011
 20
73.6507939811
 30
0.0
 10
26.9006759931
 20
74.0682753347
 30
0.0
 10
27.1706290005
 20
74.4096495276
 30
0.0
 10
27.3949710938
 20
74.5813254119
 30
0.0
 10
27.5133064454
 20
74.6496496405
 30
0.0
  0
SPLINE
  5
2E6
100
AcDbEntity
  8
0
100
AcDbSpline
 62
7
  6
CONTINUOUS
 70
0
 71
3
 72
12
 73
8
 74
0
 42
0.0000001
 43
0.0000001
 44
0.0000000001
 40
0.0
 40
0.0
 40
0.0
 40
0.0
 40
0.1081595404
 40
0.2183675057
 40
0.4513491913
 40
0.7104488814
 40
1.0
 40
1.0
 40
1.0
 40
1.0
 10
23.9212529281
 20
70.6949418998
 30
0.0
 10
23.8552658747
 20
70.6568422246
 30
0.0
 10
23.7151536596
 20
70.5912024901
 30
0.0
 10
23.4074656182
 20
70.5061170579
 30
0.0
 10
22.9765091417
 20
70.4945567427
 30
0.0
 10
22.4368270139
 20
70.6251226362
 30
0.0
 10
22.085432295
 20
70.7922617031
 30
0.0
 10
21.9087767
 20
70.8942515511
 30
0.0
  0
SPLINE
  5
2E7
100
AcDbEntity
  8
0
100
AcDbSpline
 62
7
  6
CONTINUOUS
 70
0
 71
3
 72
21
 73
17
 74
0
 42
0.0000001
 43
0.0000001
 44
0.0000000001
 40
0.0
 40
0.0
 40
0.0
 40
0.0
 40
0.0623897526
 40
0.1287873139
 40
0.1984024284
 40
0.2704091021
 40
0.4174462395
 40
0.5616783798
 40
0.630307224
 40
0.695422681
 40
0.7563975196
 40
0.8128606336
 40
0.8647831048
 40
0.9125797999
 40
0.9571747165
 40
1.0
 40
1.0
 40
1.0
 40
1.0
 10
44.0201169882
 20
49.0245501313
 30
0.0
 10
43.8477178094
 20
49.1240825918
 30
0.0
 10
43.5051370843
 20
49.3531030999
 30
0.0
 10
43.019912275
 20
49.7613056388
 30
0.0
 10
42.5560855036
 20
50.237546319
 30
0.0
 10
41.9757754334
 20
50.9541047797
 30
0.0
 10
41.365759201
 20
51.9465195964
 30
0.0
 10
40.9329448895
 20
53.0170741386
 30
0.0
 10
40.7190966842
 20
53.8791606103
 30
0.0
 10
40.6319007515
 20
54.4955566587
 30
0.0
 10
40.6170218801
 20
55.0793057399
 30
0.0
 10
40.6751582654
 20
55.6184270388
 30
0.0
 10
40.8058178178
 20
56.1018035165
 30
0.0
 10
41.0075150098
 20
56.51928487
 30
0.0
 10
41.2774680172
 20
56.8606590629
 30
0.0
 10
41.5018101105
 20
57.0323349473
 30
0.0
 10
41.620145462
 20
57.1006591759
 30
0.0
  0
SPLINE
  5
2E8
100
AcDbEntity
  8
0
100
AcDbSpline
 62
7
  6
CONTINUOUS
 70
0
 71
3
 72
13
 73
9
 74
0
 42
0.0000001
 43
0.0000001
 44
0.0000000001
 40
0.0
 40
0.0
 40
0.0
 40
0.0
 40
0.1080938607
 40
0.2182341751
 40
0.3322595384
 40
0.4516900345
 40
0.7106291046
 40
1.0
 40
1.0
 40
1.0
 40
1.0
 10
27.6109698254
 20
59.6460683614
 30
0.0
 10
27.5322763193
 20
59.6006324623
 30
0.0
 10
27.3652063579
 20
59.5223373297
 30
0.0
 10
27.0948255144
 20
59.44766764
 30
0.0
 10
26.8066352314
 20
59.4154686
 30
0.0
 10
26.3916890653
 20
59.4298856035
 30
0.0
 10
25.8403800914
 20
59.562730146
 30
0.0
 10
25.421667179
 20
59.7621272187
 30
0.0
 10
25.2109982993
 20
59.8837542015
 30
0.0
  0
SPLINE
  5
2E9
100
AcDbEntity
  8
0
100
AcDbSpline
 62
7
  6
CONTINUOUS
 70
0
 71
3
 72
14
 73
10
 74
0
 42
0.0000001
 43
0.0000001
 44
0.0000000001
 40
0.0
 40
0.0
 40
0.0
 40
0.0
 40
0.2482102499
 40
0.3742931893
 40
0.5008692752
 40
0.6273252178
 40
0.7530584446
 40
0.8774775809
 40
1.0
 40
1.0
 40
1.0
 40
1.0
 10
54.4673351266
 20
81.4711951807
 30
0.0
 10
55.6143478247
 20
80.1763825695
 30
0.0
 10
57.2411356142
 20
78.1296364592
 30
0.0
 10
59.2046475656
 20
75.2426384425
 30
0.0
 10
60.5828026066
 20
72.9871171972
 30
0.0
 10
61.8475097558
 20
70.6689929433
 30
0.0
 10
62.9890233366
 20
68.3043992552
 30
0.0
 10
64.0007810701
 20
65.9112654766
 30
0.0
 10
64.5895177575
 20
64.2931637712
 30
0.0
 10
64.8597780771
 20
63.4831971446
 30
0.0
  0
SPLINE
  5
2EA
100
AcDbEntity
  8
0
100
AcDbSpline
 62
7
  6
CONTINUOUS
 70
0
 71
3
 72
14
 73
10
 74
0
 42
0.0000001
 43
0.0000001
 44
0.0000000001
 40
0.0
 40
0.0
 40
0.0
 40
0.0
 40
0.2482266432
 40
0.374318453
 40
0.5008963427
 40
0.6273484227
 40
0.7530740062
 40
0.8774853391
 40
1.0
 40
1.0
 40
1.0
 40
1.0
 10
54.6921058447
 20
81.2161888614
 30
0.0
 10
55.8024967729
 20
79.9630019458
 30
0.0
 10
57.3768152948
 20
77.9815818597
 30
0.0
 10
59.2776091096
 20
75.1873225205
 30
0.0
 10
60.6115313082
 20
73.0041949024
 30
0.0
 10
61.8356266597
 20
70.7605975623
 30
0.0
 10
62.9404925472
 20
68.4720919894
 30
0.0
 10
63.919607819
 20
66.155917936
 30
0.0
 10
64.4893677529
 20
64.5898728168
 30
0.0
 10
64.7509976284
 20
63.8059899499
 30
0.0
  0
SPLINE
  5
2EB
100
AcDbEntity
  8
0
100
AcDbSpline
 62
7
  6
CONTINUOUS
 70
0
 71
3
 72
21
 73
17
 74
0
 42
0.0000001
 43
0.0000001
 44
0.0000000001
 40
0.0
 40
0.0
 40
0.0
 40
0.0
 40
0.0623897526
 40
0.1287873139
 40
0.1984024284
 40
0.2704091021
 40
0.4174462395
 40
0.5616783798
 40
0.630307224
 40
0.695422681
 40
0.7563975196
 40
0.8128606336
 40
0.8647831048
 40
0.9125797999
 40
0.9571747165
 40
1.0
 40
1.0
 40
1.0
 40
1.0
 10
25.2109982993
 20
59.8837542015
 30
0.0
 10
25.0385991205
 20
59.9832866621
 30
0.0
 10
24.6960183954
 20
60.2123071701
 30
0.0
 10
24.2107935861
 20
60.6205097091
 30
0.0
 10
23.7469668147
 20
61.0967503893
 30
0.0
 10
23.1666567445
 20
61.8133088499
 30
0.0
 10
22.556640512
 20
62.8057236666
 30
0.0
 10
22.1238262006
 20
63.8762782088
 30
0.0
 10
21.9099779953
 20
64.7383646805
 30
0.0
 10
21.8227820626
 20
65.354760729
 30
0.0
 10
21.8079031912
 20
65.9385098102
 30
0.0
 10
21.8660395765
 20
66.4776311091
 30
0.0
 10
21.9966991289
 20
66.9610075867
 30
0.0
 10
22.1983963209
 20
67.3784889403
 30
0.0
 10
22.4683493283
 20
67.7198631332
 30
0.0
 10
22.6926914216
 20
67.8915390175
 30
0.0
 10
22.8110267731
 20
67.9598632461
 30
0.0
  0
SPLINE
  5
2EC
100
AcDbEntity
  8
0
100
AcDbSpline
 62
7
  6
CONTINUOUS
 70
0
 71
3
 72
14
 73
10
 74
0
 42
0.0000001
 43
0.0000001
 44
0.0000000001
 40
0.0
 40
0.0
 40
0.0
 40
0.0
 40
0.1080450818
 40
0.2181305855
 40
0.3321105807
 40
0.4514933734
 40
0.5774392396
 40
0.7107400216
 40
1.0
 40
1.0
 40
1.0
 40
1.0
 10
37.8655301355
 20
52.7442126901
 30
0.0
 10
37.7589583841
 20
52.6826979967
 30
0.0
 10
37.5327084213
 20
52.5767237867
 30
0.0
 10
37.1665934043
 20
52.4754906558
 30
0.0
 10
36.776322166
 20
52.432001765
 30
0.0
 10
36.3660624744
 20
52.4461889995
 30
0.0
 10
35.9396547987
 20
52.5177343495
 30
0.0
 10
35.3389218362
 20
52.6929070176
 30
0.0
 10
34.9008579631
 20
52.9013835674
 30
0.0
 10
34.6155576437
 20
53.0660980573
 30
0.0
  0
SPLINE
  5
2ED
100
AcDbEntity
  8
0
100
AcDbSpline
 62
7
  6
CONTINUOUS
 70
0
 71
3
 72
20
 73
16
 74
0
 42
0.0000001
 43
0.0000001
 44
0.0000000001
 40
0.0
 40
0.0
 40
0.0
 40
0.0
 40
0.0623999369
 40
0.1288084686
 40
0.2703011465
 40
0.4173587208
 40
0.5616108779
 40
0.630250226
 40
0.6953761046
 40
0.756360852
 40
0.8128330713
 40
0.864763586
 40
0.9125673584
 40
0.9571686289
 40
1.0
 40
1.0
 40
1.0
 40
1.0
 10
34.6155576437
 20
38.1445163842
 30
0.0
 10
34.4709918697
 20
38.2279795846
 30
0.0
 10
34.1836981705
 20
38.420027097
 30
0.0
 10
33.6295986687
 20
38.886295053
 30
0.0
 10
32.9987549694
 20
39.6040931842
 30
0.0
 10
32.3898623637
 20
40.5945228507
 30
0.0
 10
32.0268277615
 20
41.4924283041
 30
0.0
 10
31.8475178247
 20
42.2152953216
 30
0.0
 10
31.7743971289
 20
42.7321779838
 30
0.0
 10
31.7619208285
 20
43.2216801308
 30
0.0
 10
31.8106707024
 20
43.6737604577
 30
0.0
 10
31.9202358367
 20
44.0790934429
 30
0.0
 10
32.0893680344
 20
44.4291679914
 30
0.0
 10
32.3157343248
 20
44.7154221986
 30
0.0
 10
32.5038532266
 20
44.8593780159
 30
0.0
 10
32.6030814156
 20
44.9166704935
 30
0.0
  0
SPLINE
  5
2EE
100
AcDbEntity
  8
0
100
AcDbSpline
 62
7
  6
CONTINUOUS
 70
0
 71
3
 72
20
 73
16
 74
0
 42
0.0000001
 43
0.0000001
 44
0.0000000001
 40
0.0
 40
0.0
 40
0.0
 40
0.0
 40
0.0623999369
 40
0.1288084686
 40
0.2703011465
 40
0.4173587208
 40
0.5616108779
 40
0.630250226
 40
0.6953761046
 40
0.756360852
 40
0.8128330713
 40
0.864763586
 40
0.9125673584
 40
0.9571686289
 40
1.0
 40
1.0
 40
1.0
 40
1.0
 10
21.9087767
 20
53.9518263957
 30
0.0
 10
21.764210926
 20
54.035289596
 30
0.0
 10
21.4769172268
 20
54.2273371084
 30
0.0
 10
20.922817725
 20
54.6936050644
 30
0.0
 10
20.2919740257
 20
55.4114031956
 30
0.0
 10
19.6830814199
 20
56.4018328621
 30
0.0
 10
19.3200468178
 20
57.2997383156
 30
0.0
 10
19.140736881
 20
58.022605333
 30
0.0
 10
19.0676161852
 20
58.5394879952
 30
0.0
 10
19.0551398848
 20
59.0289901422
 30
0.0
 10
19.1038897587
 20
59.4810704691
 30
0.0
 10
19.2134548929
 20
59.8864034543
 30
0.0
 10
19.3825870906
 20
60.2364780028
 30
0.0
 10
19.6089533811
 20
60.52273221
 30
0.0
 10
19.7970722829
 20
60.6666880274
 30
0.0
 10
19.8963004719
 20
60.7239805049
 30
0.0
  0
SPLINE
  5
2EF
100
AcDbEntity
  8
0
100
AcDbSpline
 62
7
  6
CONTINUOUS
 70
0
 71
3
 72
13
 73
9
 74
0
 42
0.0000001
 43
0.0000001
 44
0.0000000001
 40
0.0
 40
0.0
 40
0.0
 40
0.0
 40
0.1080938607
 40
0.2182341751
 40
0.3322595384
 40
0.4516900345
 40
0.7106291046
 40
1.0
 40
1.0
 40
1.0
 40
1.0
 10
32.3132494976
 20
47.5266799319
 30
0.0
 10
32.2345559916
 20
47.4812440327
 30
0.0
 10
32.0674860302
 20
47.4029489002
 30
0.0
 10
31.7971051866
 20
47.3282792105
 30
0.0
 10
31.5089149037
 20
47.2960801705
 30
0.0
 10
31.0939687375
 20
47.310497174
 30
0.0
 10
30.5426597637
 20
47.4433417165
 30
0.0
 10
30.1239468512
 20
47.6427387892
 30
0.0
 10
29.9132779715
 20
47.764365772
 30
0.0
  0
SPLINE
  5
2F0
100
AcDbEntity
  8
0
100
AcDbSpline
 62
7
  6
CONTINUOUS
 70
0
 71
3
 72
12
 73
8
 74
0
 42
0.0000001
 43
0.0000001
 44
0.0000000001
 40
0.0
 40
0.0
 40
0.0
 40
0.0
 40
0.1081595404
 40
0.2183675057
 40
0.4513491913
 40
0.7104488814
 40
1.0
 40
1.0
 40
1.0
 40
1.0
 10
36.6280338718
 20
71.8300570438
 30
0.0
 10
36.5620468185
 20
71.7919573686
 30
0.0
 10
36.4219346033
 20
71.7263176341
 30
0.0
 10
36.1142465619
 20
71.6412322019
 30
0.0
 10
35.6832900854
 20
71.6296718867
 30
0.0
 10
35.1436079577
 20
71.7602377803
 30
0.0
 10
34.7922132388
 20
71.9273768471
 30
0.0
 10
34.6155576437
 20
72.0293666951
 30
0.0
  0
SPLINE
  5
2F1
100
AcDbEntity
  8
0
100
AcDbSpline
 62
7
  6
CONTINUOUS
 70
0
 71
3
 72
20
 73
16
 74
0
 42
0.0000001
 43
0.0000001
 44
0.0000000001
 40
0.0
 40
0.0
 40
0.0
 40
0.0
 40
0.0623999369
 40
0.1288084686
 40
0.2703011465
 40
0.4173587208
 40
0.5616108779
 40
0.630250226
 40
0.6953761046
 40
0.756360852
 40
0.8128330713
 40
0.864763586
 40
0.9125673584
 40
0.9571686289
 40
1.0
 40
1.0
 40
1.0
 40
1.0
 10
21.9087767
 20
70.8942515511
 30
0.0
 10
21.764210926
 20
70.9777147515
 30
0.0
 10
21.4769172268
 20
71.1697622639
 30
0.0
 10
20.922817725
 20
71.6360302198
 30
0.0
 10
20.2919740257
 20
72.3538283511
 30
0.0
 10
19.6830814199
 20
73.3442580175
 30
0.0
 10
19.3200468178
 20
74.242163471
 30
0.0
 10
19.140736881
 20
74.9650304884
 30
0.0
 10
19.0676161852
 20
75.4819131506
 30
0.0
 10
19.0551398848
 20
75.9714152976
 30
0.0
 10
19.1038897587
 20
76.4234956246
 30
0.0
 10
19.2134548929
 20
76.8288286097
 30
0.0
 10
19.3825870906
 20
77.1789031582
 30
0.0
 10
19.6089533811
 20
77.4651573654
 30
0.0
 10
19.7970722829
 20
77.6091131828
 30
0.0
 10
19.8963004719
 20
77.6664056603
 30
0.0
  0
SPLINE
  5
2F2
100
AcDbEntity
  8
0
100
AcDbSpline
 62
7
  6
CONTINUOUS
 70
0
 71
3
 72
12
 73
8
 74
0
 42
0.0000001
 43
0.0000001
 44
0.0000000001
 40
0.0
 40
0.0
 40
0.0
 40
0.0
 40
0.1081595404
 40
0.2183675057
 40
0.4513491913
 40
0.7104488814
 40
1.0
 40
1.0
 40
1.0
 40
1.0
 10
36.6280338718
 20
37.9452067329
 30
0.0
 10
36.5620468185
 20
37.9071070577
 30
0.0
 10
36.4219346033
 20
37.8414673232
 30
0.0
 10
36.1142465619
 20
37.756381891
 30
0.0
 10
35.6832900854
 20
37.7448215758
 30
0.0
 10
35.1436079577
 20
37.8753874694
 30
0.0
 10
34.7922132388
 20
38.0425265362
 30
0.0
 10
34.6155576437
 20
38.1445163842
 30
0.0
  0
SPLINE
  5
2F3
100
AcDbEntity
  8
0
100
AcDbSpline
 62
7
  6
CONTINUOUS
 70
0
 71
3
 72
20
 73
16
 74
0
 42
0.0000001
 43
0.0000001
 44
0.0000000001
 40
0.0
 40
0.0
 40
0.0
 40
0.0
 40
0.0623999369
 40
0.1288084686
 40
0.2703011465
 40
0.4173587208
 40
0.5616108779
 40
0.630250226
 40
0.6953761046
 40
0.756360852
 40
0.8128330713
 40
0.864763586
 40
0.9125673584
 40
0.9571686289
 40
1.0
 40
1.0
 40
1.0
 40
1.0
 10
34.6155576437
 20
72.0293666951
 30
0.0
 10
34.4709918697
 20
72.1128298955
 30
0.0
 10
34.1836981705
 20
72.3048774079
 30
0.0
 10
33.6295986687
 20
72.7711453638
 30
0.0
 10
32.9987549694
 20
73.4889434951
 30
0.0
 10
32.3898623637
 20
74.4793731615
 30
0.0
 10
32.0268277615
 20
75.377278615
 30
0.0
 10
31.8475178247
 20
76.1001456325
 30
0.0
 10
31.7743971289
 20
76.6170282947
 30
0.0
 10
31.7619208285
 20
77.1065304417
 30
0.0
 10
31.8106707024
 20
77.5586107686
 30
0.0
 10
31.9202358367
 20
77.9639437537
 30
0.0
 10
32.0893680344
 20
78.3140183022
 30
0.0
 10
32.3157343248
 20
78.6002725094
 30
0.0
 10
32.5038532266
 20
78.7442283268
 30
0.0
 10
32.6030814156
 20
78.8015208043
 30
0.0
  0
SPLINE
  5
2F4
100
AcDbEntity
  8
0
100
AcDbSpline
 62
7
  6
CONTINUOUS
 70
0
 71
3
 72
12
 73
8
 74
0
 42
0.0000001
 43
0.0000001
 44
0.0000000001
 40
0.0
 40
0.0
 40
0.0
 40
0.0
 40
0.1081595404
 40
0.2183675057
 40
0.4513491913
 40
0.7104488814
 40
1.0
 40
1.0
 40
1.0
 40
1.0
 10
49.3348148155
 20
56.0227470324
 30
0.0
 10
49.2688277622
 20
55.9846473572
 30
0.0
 10
49.1287155471
 20
55.9190076227
 30
0.0
 10
48.8210275056
 20
55.8339221904
 30
0.0
 10
48.3900710292
 20
55.8223618753
 30
0.0
 10
47.8503889014
 20
55.9529277688
 30
0.0
 10
47.4989941825
 20
56.1200668357
 30
0.0
 10
47.3223385875
 20
56.2220566837
 30
0.0
  0
SPLINE
  5
2F5
100
AcDbEntity
  8
0
100
AcDbSpline
 62
7
  6
CONTINUOUS
 70
0
 71
3
 72
20
 73
16
 74
0
 42
0.0000001
 43
0.0000001
 44
0.0000000001
 40
0.0
 40
0.0
 40
0.0
 40
0.0
 40
0.0623999369
 40
0.1288084686
 40
0.2703011465
 40
0.4173587208
 40
0.5616108779
 40
0.630250226
 40
0.6953761046
 40
0.756360852
 40
0.8128330713
 40
0.864763586
 40
0.9125673584
 40
0.9571686289
 40
1.0
 40
1.0
 40
1.0
 40
1.0
 10
47.3223385875
 20
39.2796315283
 30
0.0
 10
47.1777728134
 20
39.3630947286
 30
0.0
 10
46.8904791143
 20
39.555142241
 30
0.0
 10
46.3363796124
 20
40.021410197
 30
0.0
 10
45.7055359131
 20
40.7392083282
 30
0.0
 10
45.0966433074
 20
41.7296379947
 30
0.0
 10
44.7336087052
 20
42.6275434482
 30
0.0
 10
44.5542987685
 20
43.3504104656
 30
0.0
 10
44.4811780726
 20
43.8672931278
 30
0.0
 10
44.4687017722
 20
44.3567952748
 30
0.0
 10
44.5174516462
 20
44.8088756017
 30
0.0
 10
44.6270167804
 20
45.2142085869
 30
0.0
 10
44.7961489781
 20
45.5642831354
 30
0.0
 10
45.0225152685
 20
45.8505373426
 30
0.0
 10
45.2106341704
 20
45.9944931599
 30
0.0
 10
45.3098623594
 20
46.0517856375
 30
0.0
  0
SPLINE
  5
2F6
100
AcDbEntity
  8
0
100
AcDbSpline
 62
7
  6
CONTINUOUS
 70
0
 71
3
 72
20
 73
16
 74
0
 42
0.0000001
 43
0.0000001
 44
0.0000000001
 40
0.0
 40
0.0
 40
0.0
 40
0.0
 40
0.0623999369
 40
0.1288084686
 40
0.2703011465
 40
0.4173587208
 40
0.5616108779
 40
0.630250226
 40
0.6953761046
 40
0.756360852
 40
0.8128330713
 40
0.864763586
 40
0.9125673584
 40
0.9571686289
 40
1.0
 40
1.0
 40
1.0
 40
1.0
 10
47.3223385875
 20
56.2220566837
 30
0.0
 10
47.1777728134
 20
56.3055198841
 30
0.0
 10
46.8904791143
 20
56.4975673965
 30
0.0
 10
46.3363796124
 20
56.9638353524
 30
0.0
 10
45.7055359131
 20
57.6816334837
 30
0.0
 10
45.0966433074
 20
58.6720631501
 30
0.0
 10
44.7336087052
 20
59.5699686036
 30
0.0
 10
44.5542987685
 20
60.292835621
 30
0.0
 10
44.4811780726
 20
60.8097182832
 30
0.0
 10
44.4687017722
 20
61.2992204302
 30
0.0
 10
44.5174516462
 20
61.7513007572
 30
0.0
 10
44.6270167804
 20
62.1566337423
 30
0.0
 10
44.7961489781
 20
62.5067082908
 30
0.0
 10
45.0225152685
 20
62.792962498
 30
0.0
 10
45.2106341704
 20
62.9369183154
 30
0.0
 10
45.3098623594
 20
62.9942107929
 30
0.0
  0
SPLINE
  5
2F7
100
AcDbEntity
  8
0
100
AcDbSpline
 62
7
  6
CONTINUOUS
 70
0
 71
3
 72
14
 73
10
 74
0
 42
0.0000001
 43
0.0000001
 44
0.0000000001
 40
0.0
 40
0.0
 40
0.0
 40
0.0
 40
0.2482225427
 40
0.3743141854
 40
0.5008951402
 40
0.6273510985
 40
0.7530760604
 40
0.8774848032
 40
1.0
 40
1.0
 40
1.0
 40
1.0
 10
55.7528137123
 20
81.8303636668
 30
0.0
 10
56.8633116459
 20
80.5770920182
 30
0.0
 10
58.4381774593
 20
78.5958267617
 30
0.0
 10
60.3389483869
 20
75.8011514805
 30
0.0
 10
61.6728749733
 20
73.6176908685
 30
0.0
 10
62.8973473692
 20
71.3739738338
 30
0.0
 10
64.0025059464
 20
69.0853247514
 30
0.0
 10
64.9815142295
 20
66.7688561075
 30
0.0
 10
65.5512100814
 20
65.2026339851
 30
0.0
 10
65.8128551346
 20
64.4186680572
 30
0.0
  0
SPLINE
  5
2F8
100
AcDbEntity
  8
0
100
AcDbSpline
 62
7
  6
CONTINUOUS
 70
0
 71
3
 72
23
 73
19
 74
0
 42
0.0000001
 43
0.0000001
 44
0.0000000001
 40
0.0
 40
0.0
 40
0.0
 40
0.0
 40
0.062378625
 40
0.1287503917
 40
0.1983463928
 40
0.2703355704
 40
0.3437243015
 40
0.4174660398
 40
0.4905033341
 40
0.561801714
 40
0.6304100321
 40
0.6955088862
 40
0.7564656958
 40
0.8129112742
 40
0.8648209239
 40
0.9126040691
 40
0.9571858536
 40
1.0
 40
1.0
 40
1.0
 40
1.0
 10
34.6155576437
 20
53.0660980573
 30
0.0
 10
34.3820775699
 20
53.2008947913
 30
0.0
 10
33.9181551024
 20
53.5109968318
 30
0.0
 10
33.2611026607
 20
54.0638097938
 30
0.0
 10
32.6330659326
 20
54.7086872421
 30
0.0
 10
32.0474654529
 20
55.4315712424
 30
0.0
 10
31.5166562135
 20
56.2172495562
 30
0.0
 10
31.051964879
 20
57.0489234688
 30
0.0
 10
30.6632939555
 20
57.9088586822
 30
0.0
 10
30.3589884023
 20
58.7787591599
 30
0.0
 10
30.1454642402
 20
59.6401165285
 30
0.0
 10
30.0272913252
 20
60.4747631792
 30
0.0
 10
30.0071946446
 20
61.2652653218
 30
0.0
 10
30.0859658452
 20
61.9953048537
 30
0.0
 10
30.2628131598
 20
62.6498960456
 30
0.0
 10
30.5359742916
 20
63.2152370688
 30
0.0
 10
30.901589211
 20
63.6774497116
 30
0.0
 10
31.2053253849
 20
63.9100106864
 30
0.0
 10
31.3655851519
 20
64.0025148472
 30
0.0
  0
SPLINE
  5
2F9
100
AcDbEntity
  8
0
100
AcDbSpline
 62
7
  6
CONTINUOUS
 70
0
 71
3
 72
13
 73
9
 74
0
 42
0.0000001
 43
0.0000001
 44
0.0000000001
 40
0.0
 40
0.0
 40
0.0
 40
0.0
 40
0.4048495649
 40
0.7079313626
 40
0.8191592998
 40
0.9034669466
 40
0.9620447058
 40
1.0
 40
1.0
 40
1.0
 40
1.0
 10
13.2724974247
 20
57.9163921253
 30
0.0
 10
13.2338092168
 20
57.9030075458
 30
0.0
 10
13.1657919575
 20
57.880688144
 30
0.0
 10
13.0857176379
 20
57.8589966709
 30
0.0
 10
13.0360547358
 20
57.8501648148
 30
0.0
 10
13.0103203145
 20
57.8482475271
 30
0.0
 10
12.9920993631
 20
57.849482371
 30
0.0
 10
12.9826882823
 20
57.854428641
 30
0.0
 10
12.9805959622
 20
57.8576461716
 30
0.0
  0
SPLINE
  5
2FA
100
AcDbEntity
  8
0
100
AcDbSpline
 62
7
  6
CONTINUOUS
 70
0
 71
3
 72
13
 73
9
 74
0
 42
0.0000001
 43
0.0000001
 44
0.0000000001
 40
0.0
 40
0.0
 40
0.0
 40
0.0
 40
0.1080938607
 40
0.2182341751
 40
0.3322595384
 40
0.4516900345
 40
0.7106291046
 40
1.0
 40
1.0
 40
1.0
 40
1.0
 10
46.4200885143
 20
48.7868642912
 30
0.0
 10
46.3413950082
 20
48.741428392
 30
0.0
 10
46.1743250468
 20
48.6631332595
 30
0.0
 10
45.9039442033
 20
48.5884635697
 30
0.0
 10
45.6157539203
 20
48.5562645297
 30
0.0
 10
45.2008077542
 20
48.5706815333
 30
0.0
 10
44.6494987804
 20
48.7035260758
 30
0.0
 10
44.2307858679
 20
48.9029231485
 30
0.0
 10
44.0201169882
 20
49.0245501313
 30
0.0
  0
SPLINE
  5
2FB
100
AcDbEntity
  8
0
100
AcDbSpline
 62
7
  6
CONTINUOUS
 70
0
 71
3
 72
10
 73
6
 74
0
 42
0.0000001
 43
0.0000001
 44
0.0000000001
 40
0.0
 40
0.0
 40
0.0
 40
0.0
 40
0.5059442379
 40
0.7556487451
 40
1.0
 40
1.0
 40
1.0
 40
1.0
 10
13.2724974247
 20
57.9163921253
 30
0.0
 10
14.1834808281
 20
56.5041294934
 30
0.0
 10
15.4014808295
 20
54.2972330024
 30
0.0
 10
16.6951385972
 20
51.2359359729
 30
0.0
 10
17.2238843492
 20
49.680306122
 30
0.0
 10
17.4552388966
 20
48.9023188407
 30
0.0
  0
SPLINE
  5
2FC
100
AcDbEntity
  8
0
100
AcDbSpline
 62
7
  6
CONTINUOUS
 70
0
 71
3
 72
11
 73
7
 74
0
 42
0.0000001
 43
0.0000001
 44
0.0000000001
 40
0.0
 40
0.0
 40
0.0
 40
0.0
 40
0.2830057693
 40
0.5420980249
 40
0.7789897812
 40
1.0
 40
1.0
 40
1.0
 40
1.0
 10
10.8436370557
 20
67.9503802215
 30
0.0
 10
10.7814785534
 20
67.9895832906
 30
0.0
 10
10.6676529048
 20
68.0736649396
 30
0.0
 10
10.5283985631
 20
68.2222038513
 30
0.0
 10
10.4329073685
 20
68.3840376693
 30
0.0
 10
10.4009670159
 20
68.5005096765
 30
0.0
 10
10.3942694801
 20
68.5575075603
 30
0.0
  0
SPLINE
  5
2FD
100
AcDbEntity
  8
0
100
AcDbSpline
 62
7
  6
CONTINUOUS
 70
0
 71
3
 72
9
 73
5
 74
0
 42
0.0000001
 43
0.0000001
 44
0.0000000001
 40
0.0
 40
0.0
 40
0.0
 40
0.0
 40
0.4872036516
 40
1.0
 40
1.0
 40
1.0
 40
1.0
 10
10.8436370557
 20
67.9503802215
 30
0.0
 10
11.0457261402
 20
66.289260553
 30
0.0
 10
11.6765475144
 20
62.9040320209
 30
0.0
 10
12.6700770137
 20
59.6092352826
 30
0.0
 10
13.2605612605
 20
57.9498989758
 30
0.0
  0
SPLINE
  5
2FE
100
AcDbEntity
  8
0
100
AcDbSpline
 62
7
  6
CONTINUOUS
 70
0
 71
3
 72
13
 73
9
 74
0
 42
0.0000001
 43
0.0000001
 44
0.0000000001
 40
0.0
 40
0.0
 40
0.0
 40
0.0
 40
0.1080938607
 40
0.2182341751
 40
0.3322595384
 40
0.4516900345
 40
0.7106291046
 40
1.0
 40
1.0
 40
1.0
 40
1.0
 10
32.3132494976
 20
66.3358547558
 30
0.0
 10
32.2345559916
 20
66.2904188566
 30
0.0
 10
32.0674860302
 20
66.2121237241
 30
0.0
 10
31.7971051866
 20
66.1374540344
 30
0.0
 10
31.5089149037
 20
66.1052549944
 30
0.0
 10
31.0939687375
 20
66.1196719979
 30
0.0
 10
30.5426597637
 20
66.2525165404
 30
0.0
 10
30.1239468512
 20
66.4519136131
 30
0.0
 10
29.9132779715
 20
66.5735405959
 30
0.0
  0
SPLINE
  5
2FF
100
AcDbEntity
  8
0
100
AcDbSpline
 62
7
  6
CONTINUOUS
 70
0
 71
3
 72
9
 73
5
 74
0
 42
0.0000001
 43
0.0000001
 44
0.0000000001
 40
0.0
 40
0.0
 40
0.0
 40
0.0
 40
0.4953411421
 40
1.0
 40
1.0
 40
1.0
 40
1.0
 10
60.4672207096
 20
34.1858557928
 30
0.0
 10
60.244306174
 20
34.0221271088
 30
0.0
 10
59.8146204355
 20
33.6630450543
 30
0.0
 10
59.4317006959
 20
33.2546631628
 30
0.0
 10
59.2509915356
 20
33.0384521517
 30
0.0
  0
SPLINE
  5
300
100
AcDbEntity
  8
0
100
AcDbSpline
 62
7
  6
CONTINUOUS
 70
0
 71
3
 72
9
 73
5
 74
0
 42
0.0000001
 43
0.0000001
 44
0.0000000001
 40
0.0
 40
0.0
 40
0.0
 40
0.0
 40
0.487472502
 40
1.0
 40
1.0
 40
1.0
 40
1.0
 10
59.2509915356
 20
33.0384521517
 30
0.0
 10
58.9853574274
 20
32.7206319647
 30
0.0
 10
58.4946744643
 20
32.0219407751
 30
0.0
 10
58.1147121464
 20
31.2584216051
 30
0.0
 10
57.9465175266
 20
30.8567106246
 30
0.0
  0
SPLINE
  5
301
100
AcDbEntity
  8
0
100
AcDbSpline
 62
7
  6
CONTINUOUS
 70
0
 71
3
 72
14
 73
10
 74
0
 42
0.0000001
 43
0.0000001
 44
0.0000000001
 40
0.0
 40
0.0
 40
0.0
 40
0.0
 40
0.1225226663
 40
0.2469421357
 40
0.3726757041
 40
0.4991319227
 40
0.6257081244
 40
0.7517909382
 40
1.0
 40
1.0
 40
1.0
 40
1.0
 10
65.9208236027
 20
64.0957973894
 30
0.0
 10
65.6505453839
 20
64.9058171942
 30
0.0
 10
65.0617666547
 20
66.5240247418
 30
0.0
 10
64.0499297401
 20
68.9173118344
 30
0.0
 10
62.9083210134
 20
71.2820528241
 30
0.0
 10
61.6435042655
 20
73.6003148457
 30
0.0
 10
60.2652279526
 20
75.8559616683
 30
0.0
 10
58.3015435848
 20
78.7431013295
 30
0.0
 10
56.6746117738
 20
80.7899352429
 30
0.0
 10
55.5274948883
 20
82.0847916871
 30
0.0
  0
SPLINE
  5
302
100
AcDbEntity
  8
0
100
AcDbSpline
 62
7
  6
CONTINUOUS
 70
0
 71
3
 72
11
 73
7
 74
0
 42
0.0000001
 43
0.0000001
 44
0.0000000001
 40
0.0
 40
0.0
 40
0.0
 40
0.0
 40
0.228679817
 40
0.4700153693
 40
0.7272352212
 40
1.0
 40
1.0
 40
1.0
 40
1.0
 10
39.2350628127
 20
27.8652170607
 30
0.0
 10
39.1541914676
 20
27.8957722313
 30
0.0
 10
38.9968165574
 20
27.9841540575
 30
0.0
 10
38.7992740963
 20
28.1792267392
 30
0.0
 10
38.6432875547
 20
28.4282464408
 30
0.0
 10
38.5728394551
 20
28.6173318935
 30
0.0
 10
38.5455362748
 20
28.7167687431
 30
0.0
  0
SPLINE
  5
303
100
AcDbEntity
  8
0
100
AcDbSpline
 62
7
  6
CONTINUOUS
 70
0
 71
3
 72
11
 73
7
 74
0
 42
0.0000001
 43
0.0000001
 44
0.0000000001
 40
0.0
 40
0.0
 40
0.0
 40
0.0
 40
0.2719151946
 40
0.5299314346
 40
0.7728002834
 40
1.0
 40
1.0
 40
1.0
 40
1.0
 10
10.8436370557
 20
76.2451758416
 30
0.0
 10
10.9853200435
 20
75.5014678848
 30
0.0
 10
11.2015885931
 20
74.0396673586
 30
0.0
 10
11.3172818727
 20
71.8876678043
 30
0.0
 10
11.2147418269
 20
69.8592177253
 30
0.0
 10
10.9937243751
 20
68.5649013543
 30
0.0
 10
10.8436370557
 20
67.9503802215
 30
0.0
  0
SPLINE
  5
304
100
AcDbEntity
  8
0
100
AcDbSpline
 62
7
  6
CONTINUOUS
 70
0
 71
3
 72
11
 73
7
 74
0
 42
0.0000001
 43
0.0000001
 44
0.0000000001
 40
0.0
 40
0.0
 40
0.0
 40
0.0
 40
0.2330617179
 40
0.4767869438
 40
0.7322317091
 40
1.0
 40
1.0
 40
1.0
 40
1.0
 10
13.2724974247
 20
83.4746210093
 30
0.0
 10
12.9633916806
 20
82.9647371529
 30
0.0
 10
12.394715859
 20
81.8819545264
 30
0.0
 10
11.7104520296
 20
80.1345512541
 30
0.0
 10
11.1813198659
 20
78.2420524804
 30
0.0
 10
10.9396437574
 20
76.9234694556
 30
0.0
 10
10.8436370557
 20
76.2451758416
 30
0.0
  0
SPLINE
  5
305
100
AcDbEntity
  8
0
100
AcDbSpline
 62
7
  6
CONTINUOUS
 70
0
 71
3
 72
13
 73
9
 74
0
 42
0.0000001
 43
0.0000001
 44
0.0000000001
 40
0.0
 40
0.0
 40
0.0
 40
0.0
 40
0.1080938607
 40
0.2182341751
 40
0.3322595384
 40
0.4516900345
 40
0.7106291046
 40
1.0
 40
1.0
 40
1.0
 40
1.0
 10
41.7178088421
 20
60.9062527207
 30
0.0
 10
41.639115336
 20
60.8608168215
 30
0.0
 10
41.4720453746
 20
60.782521689
 30
0.0
 10
41.2016645311
 20
60.7078519993
 30
0.0
 10
40.9134742481
 20
60.6756529593
 30
0.0
 10
40.498528082
 20
60.6900699628
 30
0.0
 10
39.9472191081
 20
60.8229145053
 30
0.0
 10
39.5285061956
 20
61.022311578
 30
0.0
 10
39.3178373159
 20
61.1439385608
 30
0.0
  0
SPLINE
  5
306
100
AcDbEntity
  8
0
100
AcDbSpline
 62
7
  6
CONTINUOUS
 70
0
 71
3
 72
13
 73
9
 74
0
 42
0.0000001
 43
0.0000001
 44
0.0000000001
 40
0.0
 40
0.0
 40
0.0
 40
0.0
 40
0.2654168787
 40
0.5165735153
 40
0.6386295646
 40
0.7593198926
 40
0.8795046314
 40
1.0
 40
1.0
 40
1.0
 40
1.0
 10
17.4948423734
 20
87.7475347866
 30
0.0
 10
17.2746132046
 20
87.2489386343
 30
0.0
 10
16.7692073931
 20
86.3095398054
 30
0.0
 10
15.9421067957
 20
85.2805148698
 30
0.0
 10
15.1929906917
 20
84.594361646
 30
0.0
 10
14.5933491982
 20
84.1493507708
 30
0.0
 10
13.953172779
 20
83.7714006429
 30
0.0
 10
13.5026000734
 20
83.565646679
 30
0.0
 10
13.2724974247
 20
83.4746210093
 30
0.0
  0
ENDSEC
  0
SECTION
  2
OBJECTS
  0
DICTIONARY
  5
C
100
AcDbDictionary
280
0
281
1
  3
ACAD_GROUP
350
D
  3
ACAD_MLINESTYLE
350
17
  3
ACAD_LAYOUT
350
1A
  3
ACAD_PLOTSETTINGS
350
19
  3
ACAD_PLOTSTYLENAME
350
E
  0
DICTIONARY
  5
D
102
{ACAD_REACTORS
330
C
102
}
100
AcDbDictionary
280
0
281
1
  0
ACDBDICTIONARYWDFLT
  5
E
102
{ACAD_REACTORS
330
C
102
}
100
AcDbDictionary
281
1
  3
Normal
350
F
100
AcDbDictionaryWithDefault
340
F
  0
DICTIONARY
  5
17
102
{ACAD_REACTORS
330
C
102
}
100
AcDbDictionary
280
0
281
1
  3
Standard
350
18
  0
DICTIONARY
  5
19
102
{ACAD_REACTORS
330
C
102
}
100
AcDbDictionary
281
1
  0
DICTIONARY
  5
1A
102
{ACAD_REACTORS
330
C
102
}
100
AcDbDictionary
281
1
  3
Model
350
307
  3
Layout1
350
308
  0
ACDBPLACEHOLDER
  5
F
102
{ACAD_REACTORS
330
E
102
}
  0
MLINESTYLE
  5
18
102
{ACAD_REACTORS
330
17
102
}
100
AcDbMlineStyle
  2
STANDARD
 70
0
  3

 62
256
 51
90.0
 52
90.0
 71
2
 49
0.5
 62
256
  6
BYLAYER
 49
-0.5
 62
256
  6
BYLAYER
  0
LAYOUT
  5
307
102
{ACAD_REACTORS
330
1A
102
}
100
AcDbPlotSettings
  1

  2
none_device
  4

  6

 40
0.0
 41
0.0
 42
0.0
 43
0.0
 44
210.0
 45
297.0
 46
0.0
 47
0.0
 48
0.0
 49
0.0
140
0.0
141
0.0
142
1.0
143
1.0
 70
1024
 72
1
 73
0
 74
0
  7

 75
0
147
1.0
148
0.0
149
0.0
100
AcDbLayout
  1
Model
 70
0
 71
0
 10
0.0
 20
0.0
 11
210.0
 21
297.0
 12
0.0
 22
0.0
 32
0.0
 14
0.0
 24
0.0
 34
0.0
 15
0.0
 25
0.0
 35
0.0
146
0.0
 13
0.0
 23
0.0
 33
0.0
 16
1.0
 26
0.0
 36
0.0
 17
0.0
 27
1.0
 37
0.0
 76
0
330
210
345
0
346
0
  0
LAYOUT
  5
308
102
{ACAD_REACTORS
330
1A
102
}
100
AcDbPlotSettings
  1

  2
none_device
  4

  6

 40
0.0
 41
0.0
 42
0.0
 43
0.0
 44
210.0
 45
297.0
 46
0.0
 47
0.0
 48
0.0
 49
0.0
140
0.0
141
0.0
142
1.0
143
1.0
 70
0
 72
1
 73
0
 74
0
  7

 75
0
147
1.0
148
0.0
149
0.0
100
AcDbLayout
  1
Layout1
 70
0
 71
1
 10
0.0
 20
0.0
 11
210.0
 21
297.0
 12
0.0
 22
0.0
 32
0.0
 14
0.0
 24
0.0
 34
0.0
 15
0.0
 25
0.0
 35
0.0
146
0.0
 13
0.0
 23
0.0
 33
0.0
 16
1.0
 26
0.0
 36
0.0
 17
0.0
 27
1.0
 37
0.0
 76
0
330
211
345
0
346
0
  0
ENDSEC
  0
EOF
