999
DXF file: C:\Users\sesa63760\Dev\_Creo\CAD\MCADUE0002365_3D-CAD\drw0001_2.dxf
999
Pro/ENGINEER 2019471 by Parametric Technology Corporation
  0
SECTION
  2
HEADER
  9
$ACADVER
  1
AC1024
  9
$DWGCODEPAGE
  3
ANSI_1252
  9
$EXTMAX
 10
72.8744553194
 20
103.0653010945
 30
0.0
  9
$EXTMIN
 10
0.0
 20
0.0
 30
0.0
  9
$LIMMIN
 10
0.0
 20
0.0
  9
$LIMMAX
 10
72.8744553194
 20
103.0653010945
  9
$VIEWCTR
 10
36.4372276597
 20
51.5326505473
  9
$VIEWSIZE
 40
103.0653010945
  9
$CLAYER
  8
0
  9
$LTSCALE
 40
6.718330738
  9
$CELTYPE
  6
BYLAYER
  9
$DIMSCALE
 40
1.0
  9
$DIMASZ
 40
0.8675530395
  9
$DIMEXO
 40
1.0
  9
$DIMDLI
 40
4.6417557826
  9
$DIMEXE
 40
1.0
  9
$DIMCEN
 40
1.0993632117
  9
$DIMLFAC
 40
1.0
  9
$DIMBLK
  1
_FILLED
  9
$DIMALT
 70
0
  9
$DIMALTF
 40
0.0393700787
  9
$DIMTXT
 40
1.2145742553
  9
$DIMTOL
 70
1
  9
$DIMLIM
 70
0
  9
$DIMTFAC
 40
1.0
  9
$DIMTP
 40
0.01
  9
$DIMTM
 40
0.01
  9
$DIMGAP
 40
0.625
  9
$DIMDSEP
 70
46
  9
$AUNITS
 70
0
  9
$PDMODE
 70
3
  9
$PDSIZE
 40
0.3125
  9
$HANDSEED
  5
230
  9
$TILEMODE
 70
1
  9
$MEASUREMENT
 70
1
  9
$INSUNITS
 70
4
  0
ENDSEC
  0
SECTION
  2
CLASSES
  0
CLASS
  1
ACDBDICTIONARYWDFLT
  2
AcDbDictionaryWithDefault
  3
AutoCAD 2000
 90
0
 91
1
280
0
281
0
  0
CLASS
  1
ACDBPLACEHOLDER
  2
AcDbPlaceHolder
  3
AutoCAD 2000
 90
0
 91
1
280
0
281
0
  0
CLASS
  1
LAYOUT
  2
AcDbLayout
  3
AutoCAD 2000
 90
0
 91
0
280
0
281
0
  0
ENDSEC
  0
SECTION
  2
TABLES
  0
TABLE
  2
VPORT
  5
8
100
AcDbSymbolTable
 70
2
  0
VPORT
  5
1F4
100
AcDbSymbolTableRecord
100
AcDbViewportTableRecord
  2
*ACTIVE
 70
0
 10
0.0
 20
0.0
 11
1.0
 21
1.0
 12
36.4372276597
 22
51.5326505473
 13
0.0
 23
0.0
 14
1.0
 24
1.0
 15
0.0
 25
0.0
 16
0.0
 26
0.0
 36
1.0
 17
0.0
 27
0.0
 37
0.0
 40
103.0653010945
 41
0.7070707071
 42
50.0
 43
0.0
 44
0.0
 50
0.0
 51
0.0
 71
0
 72
100
 73
1
 74
1
 75
0
 76
0
 77
0
 78
0
  0
ENDTAB
  0
TABLE
  2
LTYPE
  5
5
100
AcDbSymbolTable
 70
6
  0
LTYPE
  5
14
100
AcDbSymbolTableRecord
100
AcDbLinetypeTableRecord
  2
BYBLOCK
 70
0
  3

 72
65
 73
0
 40
0.0
  0
LTYPE
  5
15
100
AcDbSymbolTableRecord
100
AcDbLinetypeTableRecord
  2
BYLAYER
 70
0
  3

 72
65
 73
0
 40
0.0
  0
LTYPE
  5
16
100
AcDbSymbolTableRecord
100
AcDbLinetypeTableRecord
  2
CONTINUOUS
 70
64
  3
Solid line
 72
65
 73
0
 40
0.0
  0
LTYPE
  5
1F5
100
AcDbSymbolTableRecord
100
AcDbLinetypeTableRecord
  2
CENTER
 70
64
  3
____ _ ____ _ ____ _ ____ _ ____ _ ____ _ ____
 72
65
 73
4
 40
0.6
 49
0.375
 74
0
 49
-0.075
 74
0
 49
0.075
 74
0
 49
-0.075
 74
0
  0
LTYPE
  5
1F6
100
AcDbSymbolTableRecord
100
AcDbLinetypeTableRecord
  2
HIDDEN
 70
64
  3
- - - - - - - - - - - - - - - - - - - -
 72
65
 73
2
 40
0.2
 49
0.1
 74
0
 49
-0.1
 74
0
  0
LTYPE
  5
1F7
100
AcDbSymbolTableRecord
100
AcDbLinetypeTableRecord
  2
PHANTOM
 70
64
  3
_____ _ _ _____ _ _ _____ _ _ _____
 72
65
 73
6
 40
0.8
 49
0.45
 74
0
 49
-0.05
 74
0
 49
0.1
 74
0
 49
-0.05
 74
0
 49
0.1
 74
0
 49
-0.05
 74
0
  0
LTYPE
  5
1F8
100
AcDbSymbolTableRecord
100
AcDbLinetypeTableRecord
  2
DOT
 70
64
  3
. . . . . . . . . . . . . . . . . . . .
 72
65
 73
2
 40
0.2
 49
0.1
 74
0
 49
-0.1
 74
0
  0
LTYPE
  5
1F9
100
AcDbSymbolTableRecord
100
AcDbLinetypeTableRecord
  2
DASHED
 70
64
  3
- - - - - - - - - - - - - - - - - - - -
 72
65
 73
2
 40
0.2
 49
0.1
 74
0
 49
-0.1
 74
0
  0
ENDTAB
  0
TABLE
  2
LAYER
  5
2
100
AcDbSymbolTable
 70
36
  0
LAYER
  5
10
100
AcDbSymbolTableRecord
100
AcDbLayerTableRecord
  2
0
 70
0
 62
7
  6
CONTINUOUS
370
-3
390
F
  0
LAYER
  5
1FA
100
AcDbSymbolTableRecord
100
AcDbLayerTableRecord
  2
DEFAULT_1
 70
0
 62
7
  6
CENTER
370
-3
390
F
  0
LAYER
  5
1FB
100
AcDbSymbolTableRecord
100
AcDbLayerTableRecord
  2
DEFAULT_2
 70
0
 62
8
  6
HIDDEN
370
-3
390
F
  0
LAYER
  5
1FC
100
AcDbSymbolTableRecord
100
AcDbLayerTableRecord
  2
DEFAULT_3
 70
0
 62
7
  6
PHANTOM
370
-3
390
F
  0
LAYER
  5
1FD
100
AcDbSymbolTableRecord
100
AcDbLayerTableRecord
  2
00_COMPONENTS
 70
0
 62
7
  6
CONTINUOUS
370
-3
390
F
  0
LAYER
  5
1FE
100
AcDbSymbolTableRecord
100
AcDbLayerTableRecord
  2
01_1_DEFAULT_DATUMS
 70
0
 62
7
  6
CONTINUOUS
370
-3
390
F
  0
LAYER
  5
1FF
100
AcDbSymbolTableRecord
100
AcDbLayerTableRecord
  2
01_PLANES
 70
0
 62
7
  6
CONTINUOUS
370
-3
390
F
  0
LAYER
  5
200
100
AcDbSymbolTableRecord
100
AcDbLayerTableRecord
  2
02_COORD_SYS
 70
0
 62
7
  6
CONTINUOUS
370
-3
390
F
  0
LAYER
  5
201
100
AcDbSymbolTableRecord
100
AcDbLayerTableRecord
  2
03_AXES
 70
0
 62
7
  6
CONTINUOUS
370
-3
390
F
  0
LAYER
  5
202
100
AcDbSymbolTableRecord
100
AcDbLayerTableRecord
  2
04_POINTS
 70
0
 62
7
  6
CONTINUOUS
370
-3
390
F
  0
LAYER
  5
203
100
AcDbSymbolTableRecord
100
AcDbLayerTableRecord
  2
05_CURVES
 70
0
 62
7
  6
CONTINUOUS
370
-3
390
F
  0
LAYER
  5
204
100
AcDbSymbolTableRecord
100
AcDbLayerTableRecord
  2
06_SURFS
 70
0
 62
7
  6
CONTINUOUS
370
-3
390
F
  0
LAYER
  5
205
100
AcDbSymbolTableRecord
100
AcDbLayerTableRecord
  2
07_COSMETICS
 70
0
 62
7
  6
CONTINUOUS
370
-3
390
F
  0
LAYER
  5
206
100
AcDbSymbolTableRecord
100
AcDbLayerTableRecord
  2
10_NOTES
 70
0
 62
7
  6
CONTINUOUS
370
-3
390
F
  0
LAYER
  5
207
100
AcDbSymbolTableRecord
100
AcDbLayerTableRecord
  2
11_NOTES_PUB
 70
0
 62
7
  6
CONTINUOUS
370
-3
390
F
  0
LAYER
  5
208
100
AcDbSymbolTableRecord
100
AcDbLayerTableRecord
  2
13_REF_GTOL
 70
0
 62
7
  6
CONTINUOUS
370
-3
390
F
  0
LAYER
  5
209
100
AcDbSymbolTableRecord
100
AcDbLayerTableRecord
  2
16_MISC
 70
0
 62
7
  6
CONTINUOUS
370
-3
390
F
  0
LAYER
  5
20A
100
AcDbSymbolTableRecord
100
AcDbLayerTableRecord
  2
17_NO_PRINT
 70
0
 62
7
  6
CONTINUOUS
370
-3
390
F
  0
LAYER
  5
20B
100
AcDbSymbolTableRecord
100
AcDbLayerTableRecord
  2
18_DATUM_CAMS_JOINTS
 70
0
 62
7
  6
CONTINUOUS
370
-3
390
F
  0
LAYER
  5
20C
100
AcDbSymbolTableRecord
100
AcDbLayerTableRecord
  2
19_DATUM_FUNCTIONAL
 70
0
 62
7
  6
CONTINUOUS
370
-3
390
F
  0
LAYER
  5
20D
100
AcDbSymbolTableRecord
100
AcDbLayerTableRecord
  2
20_DATUM_KINEMATIC_SCHEME
 70
0
 62
7
  6
CONTINUOUS
370
-3
390
F
  0
ENDTAB
  0
TABLE
  2
STYLE
  5
3
100
AcDbSymbolTable
 70
1
  0
STYLE
  5
11
100
AcDbSymbolTableRecord
100
AcDbTextStyleTableRecord
  2
STANDARD
 70
0
 40
0.0
 41
0.8
 50
0.0
 71
0
 42
0.2
  3
txt
  4

  0
STYLE
  5
20E
100
AcDbSymbolTableRecord
100
AcDbTextStyleTableRecord
  2
TEXTSTYLE_1
 70
0
 40
0.0
 41
0.8
 50
0.0
 71
0
 42
0.2
  3
gdt
  4

  0
ENDTAB
  0
TABLE
  2
VIEW
  5
6
100
AcDbSymbolTable
 70
0
  0
ENDTAB
  0
TABLE
  2
UCS
  5
7
100
AcDbSymbolTable
 70
0
  0
ENDTAB
  0
TABLE
  2
APPID
  5
9
100
AcDbSymbolTable
 70
1
  0
APPID
  5
20F
100
AcDbSymbolTableRecord
100
AcDbRegAppTableRecord
  2
ACAD
 70
0
  0
ENDTAB
  0
TABLE
  2
BLOCK_RECORD
  5
1
100
AcDbSymbolTable
 70
0
  0
BLOCK_RECORD
  5
210
100
AcDbSymbolTableRecord
100
AcDbBlockTableRecord
  2
*Model_Space
  0
BLOCK_RECORD
  5
211
100
AcDbSymbolTableRecord
100
AcDbBlockTableRecord
  2
*Paper_Space
  0
BLOCK_RECORD
  5
212
100
AcDbSymbolTableRecord
100
AcDbBlockTableRecord
  2
_FILLED
  0
ENDTAB
  0
TABLE
  2
DIMSTYLE
  5
A
100
AcDbSymbolTable
 70
1
100
AcDbDimStyleTable
 71
0
  0
DIMSTYLE
105
213
100
AcDbSymbolTableRecord
100
AcDbDimStyleTableRecord
  2
STANDARD
 70
0
  3

  4

 40
1.0
 41
0.8675530395
 42
1.0
 43
0.38
 44
1.0
 45
0.0
 46
0.0
 47
0.01
 48
0.01
140
1.2145742553
141
0.09
142
0.0
143
25.4
144
1.0
145
0.0
146
1.0
147
0.625
 71
1
 72
0
 73
0
 74
0
 75
0
 76
0
 77
1
 78
8
 79
2
170
0
171
1
172
0
173
0
174
0
175
0
176
0
177
0
178
0
270
2
179
2
271
2
272
2
273
2
274
2
275
0
280
0
281
0
282
0
283
1
284
8
285
0
286
0
287
3
288
0
340
11
278
46
341
212
342
212
343
212
344
212
  0
ENDTAB
  0
ENDSEC
  0
SECTION
  2
BLOCKS
  0
BLOCK
  5
20
100
AcDbEntity
  8
0
100
AcDbBlockBegin
  2
*Model_Space
 70
0
 10
0.0
 20
0.0
 30
0.0
  3
*Model_Space
  1

  0
ENDBLK
  5
21
100
AcDbEntity
  8
0
100
AcDbBlockEnd
  0
BLOCK
  5
1C
100
AcDbEntity
  8
0
100
AcDbBlockBegin
  2
*Paper_Space
 70
0
 10
0.0
 20
0.0
 30
0.0
  3
*Paper_Space
  1

  0
ENDBLK
  5
1D
100
AcDbEntity
  8
0
100
AcDbBlockEnd
  0
BLOCK
  5
214
100
AcDbEntity
  8
0
100
AcDbBlockBegin
  2
_FILLED
 70
64
 10
0.0
 20
0.0
  3
_FILLED
  1

  0
SOLID
  5
215
100
AcDbEntity
  8
0
  6
BYBLOCK
 62
0
100
AcDbTrace
 10
0.0
 20
0.0
 11
-1.0
 21
0.25
 12
-1.0
 22
-0.25
 13
-1.0
 23
-0.25
  0
ENDBLK
  5
216
100
AcDbEntity
  8
0
  6
BYBLOCK
 62
0
100
AcDbBlockEnd
  0
ENDSEC
  0
SECTION
  2
ENTITIES
  0
LINE
  5
217
100
AcDbEntity
  8
0
100
AcDbLine
 62
7
  6
CONTINUOUS
 10
12.5470398171
 20
47.8195565486
 11
12.545374711
 21
50.5239725752
  0
LINE
  5
218
100
AcDbEntity
  8
0
100
AcDbLine
 62
7
  6
CONTINUOUS
 10
12.5442372391
 20
52.3714206757
 11
12.5427090317
 21
54.8534897647
  0
LINE
  5
219
100
AcDbEntity
  8
0
100
AcDbLine
 62
7
  6
CONTINUOUS
 10
12.5401097042
 20
47.8542524334
 11
12.5419110404
 21
50.5730445224
  0
LINE
  5
21A
100
AcDbEntity
  8
0
100
AcDbLine
 62
7
  6
CONTINUOUS
 10
12.5405476679
 20
54.8288497932
 11
12.9133557722
 21
56.1029204377
  0
LWPOLYLINE
  5
21B
100
AcDbEntity
  8
0
100
AcDbPolyline
 62
7
  6
CONTINUOUS
 90
7
 70
0
 10
36.9418292721
 20
26.693595392
 10
30.0428343832
 20
27.680654345
 10
23.6617962095
 20
30.5770381338
 10
18.3338388919
 20
35.1794138206
 10
14.5194062216
 20
41.1052262948
 10
12.5441047742
 20
47.8367914053
 10
12.5427185662
 20
50.5616038091
  0
LINE
  5
21C
100
AcDbEntity
  8
0
100
AcDbLine
 62
7
  6
CONTINUOUS
 10
61.3389038838
 20
54.8569886067
 11
61.3435102992
 21
47.8539546675
  0
LWPOLYLINE
  5
21D
100
AcDbEntity
  8
0
100
AcDbPolyline
 62
7
  6
CONTINUOUS
 90
3
 70
0
 10
61.3394735226
 20
52.4789350323
 10
61.3377242032
 20
47.8193714995
 10
61.2753781561
 20
47.6070060531
  0
CIRCLE
  5
21E
100
AcDbEntity
  8
0
100
AcDbCircle
 62
7
  6
CONTINUOUS
 10
36.941831337
 20
51.3434241683
 40
29.0
  0
CIRCLE
  5
21F
100
AcDbEntity
  8
0
100
AcDbCircle
 62
7
  6
CONTINUOUS
 10
36.941831337
 20
51.3434241683
 40
27.65
  0
ARC
  5
220
100
AcDbEntity
  8
0
100
AcDbCircle
 62
7
  6
CONTINUOUS
 10
36.9798619139
 20
51.3394435962
 40
24.6849854242
100
AcDbArc
 50
154.777567746
 51
157.4393061785
  0
CIRCLE
  5
221
100
AcDbEntity
  8
0
100
AcDbCircle
 62
7
  6
CONTINUOUS
 10
36.941831337
 20
51.3434241683
 40
22.5
  0
CIRCLE
  5
222
100
AcDbEntity
  8
0
100
AcDbCircle
 62
7
  6
CONTINUOUS
 10
36.941831337
 20
51.3434241683
 40
6.5
  0
CIRCLE
  5
223
100
AcDbEntity
  8
0
100
AcDbCircle
 62
7
  6
CONTINUOUS
 10
36.941831337
 20
67.3434241683
 40
4.0
  0
CIRCLE
  5
224
100
AcDbEntity
  8
0
100
AcDbCircle
 62
7
  6
CONTINUOUS
 10
24.4322788911
 20
61.318949097
 40
4.0
  0
CIRCLE
  5
225
100
AcDbEntity
  8
0
100
AcDbCircle
 62
7
  6
CONTINUOUS
 10
21.3431623031
 20
47.7823113687
 40
4.0
  0
CIRCLE
  5
226
100
AcDbEntity
  8
0
100
AcDbCircle
 62
7
  6
CONTINUOUS
 10
30.0007698076
 20
36.9274030513
 40
4.0
  0
CIRCLE
  5
227
100
AcDbEntity
  8
0
100
AcDbCircle
 62
7
  6
CONTINUOUS
 10
43.8854088311
 20
36.9286147146
 40
4.0
  0
CIRCLE
  5
228
100
AcDbEntity
  8
0
100
AcDbCircle
 62
7
  6
CONTINUOUS
 10
52.5411216647
 20
47.7850339043
 40
4.0
  0
CIRCLE
  5
229
100
AcDbEntity
  8
0
100
AcDbCircle
 62
7
  6
CONTINUOUS
 10
49.4496425348
 20
61.3211322738
 40
4.0
  0
SPLINE
  5
22A
100
AcDbEntity
  8
0
100
AcDbSpline
 62
7
  6
CONTINUOUS
 70
0
 71
3
 72
15
 73
11
 74
0
 42
0.0000001
 43
0.0000001
 44
0.0000000001
 40
0.0
 40
0.0
 40
0.0
 40
0.0
 40
0.1249998873
 40
0.2499984302
 40
0.3749975108
 40
0.4999974386
 40
0.6249971245
 40
0.749996372
 40
0.8749974548
 40
1.0
 40
1.0
 40
1.0
 40
1.0
 10
15.5969645098
 20
63.666908405
 30
0.0
 10
16.1348245641
 20
64.5973473141
 30
0.0
 10
17.3314314161
 20
66.3914665976
 30
0.0
 10
19.4617518371
 20
68.8233480304
 30
0.0
 10
21.8928153829
 20
70.9554672067
 30
0.0
 10
24.5828088923
 20
72.7495173057
 30
0.0
 10
27.4829410569
 20
74.1787601756
 30
0.0
 10
30.5442769412
 20
75.2196385085
 30
0.0
 10
33.7149311951
 20
75.851340882
 30
0.0
 10
35.8671132633
 20
75.9925119578
 30
0.0
 10
36.941849825
 20
75.9918459483
 30
0.0
  0
SPLINE
  5
22B
100
AcDbEntity
  8
0
100
AcDbSpline
 62
7
  6
CONTINUOUS
 70
0
 71
3
 72
39
 73
35
 74
0
 42
0.0000001
 43
0.0000001
 44
0.0000000001
 40
0.0
 40
0.0
 40
0.0
 40
0.0
 40
0.0312457316
 40
0.0625009142
 40
0.0937486477
 40
0.1249985826
 40
0.1562485
 40
0.1874985943
 40
0.218748535
 40
0.2499987253
 40
0.2812485547
 40
0.3124989595
 40
0.3437491073
 40
0.3749993367
 40
0.4062492632
 40
0.4374995246
 40
0.4687492909
 40
0.4999998257
 40
0.5312499685
 40
0.5624998777
 40
0.5937497292
 40
0.6249999112
 40
0.6562497
 40
0.6875003789
 40
0.7187504541
 40
0.7500001579
 40
0.781249895
 40
0.8124997398
 40
0.8437491777
 40
0.8749998798
 40
0.9062497096
 40
0.9374976643
 40
0.9687539844
 40
1.0
 40
1.0
 40
1.0
 40
1.0
 10
36.941849825
 20
75.9918459483
 30
0.0
 10
37.7480458137
 20
75.9913463523
 30
0.0
 10
39.3617328533
 20
75.9116022359
 30
0.0
 10
41.7581923291
 20
75.5569875122
 30
0.0
 10
44.1088039825
 20
74.9694185441
 30
0.0
 10
46.3901524562
 20
74.1537721451
 30
0.0
 10
48.5799820942
 20
73.1170192784
 30
0.0
 10
50.6573815337
 20
71.8702977731
 30
0.0
 10
52.6032779806
 20
70.4269452406
 30
0.0
 10
54.3992284105
 20
68.8007759917
 30
0.0
 10
56.0271779705
 20
67.0063497683
 30
0.0
 10
57.4703067592
 20
65.0601554345
 30
0.0
 10
58.7147610977
 20
62.9813366316
 30
0.0
 10
59.74982689
 20
60.7907861823
 30
0.0
 10
60.5664353177
 20
58.509786191
 30
0.0
 10
61.1566005837
 20
56.159962634
 30
0.0
 10
61.5127182101
 20
53.763402333
 30
0.0
 10
61.6306659991
 20
51.343418726
 30
0.0
 10
61.510505091
 20
48.9235915627
 30
0.0
 10
61.1546849493
 20
46.5270977753
 30
0.0
 10
60.5669004443
 20
44.1767153582
 30
0.0
 10
59.7521404723
 20
41.8949951353
 30
0.0
 10
58.7160508788
 20
39.7048108679
 30
0.0
 10
57.4692828295
 20
37.6273882758
 30
0.0
 10
56.0252966159
 20
35.681933516
 30
0.0
 10
54.3984851608
 20
33.8865964681
 30
0.0
 10
52.6041640132
 20
32.2586513084
 30
0.0
 10
50.6588241502
 20
30.8144383053
 30
0.0
 10
48.5801670551
 20
29.5696696464
 30
0.0
 10
46.3893870979
 20
28.5350675535
 30
0.0
 10
44.1081849559
 20
27.7191914823
 30
0.0
 10
41.7580581658
 20
27.1296818446
 30
0.0
 10
39.3618642838
 20
26.7728672621
 30
0.0
 10
37.7480326152
 20
26.6931406477
 30
0.0
 10
36.9418292721
 20
26.693595392
 30
0.0
  0
SPLINE
  5
22C
100
AcDbEntity
  8
0
100
AcDbSpline
 62
7
  6
CONTINUOUS
 70
0
 71
3
 72
48
 73
44
 74
0
 42
0.0000001
 43
0.0000001
 44
0.0000000001
 40
0.0
 40
0.0
 40
0.0
 40
0.0
 40
0.0156275055
 40
0.0234435997
 40
0.0312591961
 40
0.046886851
 40
0.0625152842
 40
0.0781443959
 40
0.0937729678
 40
0.1250211994
 40
0.1562695228
 40
0.1875178883
 40
0.2187660556
 40
0.2500137973
 40
0.2812617197
 40
0.3125098724
 40
0.3437580969
 40
0.3750061927
 40
0.4062540574
 40
0.4218827125
 40
0.4375113416
 40
0.4687592683
 40
0.5000073205
 40
0.5312553777
 40
0.5625032209
 40
0.5937506848
 40
0.6249982272
 40
0.6562460429
 40
0.6874939624
 40
0.718741784
 40
0.7499893662
 40
0.7812366179
 40
0.8124842114
 40
0.8437319259
 40
0.874979646
 40
0.9062272516
 40
0.9218557866
 40
0.9374847842
 40
0.9531133906
 40
0.9687409164
 40
0.9765563916
 40
0.9843724803
 40
1.0
 40
1.0
 40
1.0
 40
1.0
 10
15.5943051334
 20
63.6684241677
 30
0.0
 10
15.4009263763
 20
63.3239156149
 30
0.0
 10
15.1253470848
 20
62.79882416
 30
0.0
 10
14.7830278253
 20
62.0865294714
 30
0.0
 10
14.4558785444
 20
61.3671167617
 30
0.0
 10
14.0773297396
 20
60.4543403323
 30
0.0
 10
13.6785863963
 20
59.3376236544
 30
0.0
 10
13.3354661025
 20
58.2025490288
 30
0.0
 10
12.9525526325
 20
56.6689282745
 30
0.0
 10
12.6145221099
 20
54.7196257559
 30
0.0
 10
12.4344666392
 20
52.3530374733
 30
0.0
 10
12.4807856302
 20
49.9799381192
 30
0.0
 10
12.7543519875
 20
47.6221566244
 30
0.0
 10
13.2571593471
 20
45.3022389405
 30
0.0
 10
13.9876406264
 20
43.0437007866
 30
0.0
 10
14.9337054853
 20
40.8668226844
 30
0.0
 10
16.0845557965
 20
38.7909018553
 30
0.0
 10
17.4294873555
 20
36.8352315603
 30
0.0
 10
18.7036914684
 20
35.3216737375
 30
0.0
 10
19.8089154882
 20
34.1915353006
 30
0.0
 10
20.9693731921
 20
33.1181937809
 30
0.0
 10
22.5174138632
 20
31.8861418317
 30
0.0
 10
24.5094328813
 20
30.595618632
 30
0.0
 10
26.6169336702
 20
29.5035786465
 30
0.0
 10
28.8205331913
 20
28.6213153978
 30
0.0
 10
31.100654724
 20
27.9608521301
 30
0.0
 10
33.4357082773
 20
27.5334918064
 30
0.0
 10
35.8013581759
 20
27.3385694825
 30
0.0
 10
38.1747229388
 20
27.3752013874
 30
0.0
 10
40.5332245173
 20
27.643006083
 30
0.0
 10
42.854102242
 20
28.1414630192
 30
0.0
 10
45.113000699
 20
28.8714954915
 30
0.0
 10
47.2867459092
 20
29.8252733723
 30
0.0
 10
49.3559099135
 20
30.9884776813
 30
0.0
 10
51.3009560897
 20
32.3488928874
 30
0.0
 10
52.802757072
 20
33.6370443855
 30
0.0
 10
53.9217866338
 20
34.7534856212
 30
0.0
 10
54.7178437626
 20
35.6324066005
 30
0.0
 10
55.467989249
 20
36.5507805879
 30
0.0
 10
56.052366892
 20
37.3476740344
 30
0.0
 10
56.4967704987
 20
38.00119244
 30
0.0
 10
56.926551595
 20
38.664392605
 30
0.0
 10
57.2306863822
 20
39.1735047793
 30
0.0
 10
57.4233321369
 20
39.5184241689
 30
0.0
  0
SPLINE
  5
22D
100
AcDbEntity
  8
0
100
AcDbSpline
 62
7
  6
CONTINUOUS
 70
0
 71
3
 72
40
 73
36
 74
0
 42
0.0000001
 43
0.0000001
 44
0.0000000001
 40
0.0
 40
0.0
 40
0.0
 40
0.0
 40
0.0312453441
 40
0.062500517
 40
0.0937480998
 40
0.1249974032
 40
0.1562476399
 40
0.1874965768
 40
0.2187459728
 40
0.2499966421
 40
0.2812457103
 40
0.3124950976
 40
0.3437442073
 40
0.3593717618
 40
0.3749993885
 40
0.4062485275
 40
0.4374963096
 40
0.4687426648
 40
0.4999917821
 40
0.5312417063
 40
0.5624924331
 40
0.5937424182
 40
0.6249920876
 40
0.6562421181
 40
0.6874915036
 40
0.7187408914
 40
0.7499897409
 40
0.7812387245
 40
0.8124880042
 40
0.8437387183
 40
0.8749924381
 40
0.9062460505
 40
0.9374975874
 40
0.9687547963
 40
1.0
 40
1.0
 40
1.0
 40
1.0
 10
15.5943051334
 20
63.6684241677
 30
0.0
 10
15.9982666741
 20
64.3472655257
 30
0.0
 10
16.8720371053
 20
65.6672725612
 30
0.0
 10
18.3659957313
 20
67.5117706664
 30
0.0
 10
20.0310188812
 20
69.2039584521
 30
0.0
 10
21.8516551375
 20
70.7271649127
 30
0.0
 10
23.8105008481
 20
72.0680430838
 30
0.0
 10
25.8897108342
 20
73.213546507
 30
0.0
 10
28.0703771138
 20
74.151633066
 30
0.0
 10
30.3313819942
 20
74.8748426022
 30
0.0
 10
32.6520771301
 20
75.3750258397
 30
0.0
 10
35.0103384136
 20
75.6457227206
 30
0.0
 10
36.9885147405
 20
75.6819221841
 30
0.0
 10
38.5669250498
 20
75.5951744449
 30
0.0
 10
40.1390819453
 20
75.4300670197
 30
0.0
 10
42.0861156189
 20
75.0784468498
 30
0.0
 10
44.3705418765
 20
74.4338257708
 30
0.0
 10
46.5811077384
 20
73.5685396218
 30
0.0
 10
48.6958502135
 20
72.4900439424
 30
0.0
 10
50.6949790859
 20
71.2097192271
 30
0.0
 10
52.5591653667
 20
69.7397752395
 30
0.0
 10
54.2698897579
 20
68.0937023195
 30
0.0
 10
55.8096056952
 20
66.2866963998
 30
0.0
 10
57.1644062685
 20
64.3372527064
 30
0.0
 10
58.3204762806
 20
62.2637236727
 30
0.0
 10
59.2655503269
 20
60.085933404
 30
0.0
 10
59.9905169546
 20
57.8253454098
 30
0.0
 10
60.4884132942
 20
55.5041564876
 30
0.0
 10
60.7539272275
 20
53.1449719671
 30
0.0
 10
60.7830570155
 20
50.7709449629
 30
0.0
 10
60.5764108762
 20
48.4056668563
 30
0.0
 10
60.1358239398
 20
46.0725623862
 30
0.0
 10
59.4639578968
 20
43.795076358
 30
0.0
 10
58.5681310031
 20
41.5965406134
 30
0.0
 10
57.8273864026
 20
40.1972062087
 30
0.0
 10
57.4233321369
 20
39.5184241689
 30
0.0
  0
ENDSEC
  0
SECTION
  2
OBJECTS
  0
DICTIONARY
  5
C
100
AcDbDictionary
280
0
281
1
  3
ACAD_GROUP
350
D
  3
ACAD_MLINESTYLE
350
17
  3
ACAD_LAYOUT
350
1A
  3
ACAD_PLOTSETTINGS
350
19
  3
ACAD_PLOTSTYLENAME
350
E
  0
DICTIONARY
  5
D
102
{ACAD_REACTORS
330
C
102
}
100
AcDbDictionary
280
0
281
1
  0
ACDBDICTIONARYWDFLT
  5
E
102
{ACAD_REACTORS
330
C
102
}
100
AcDbDictionary
281
1
  3
Normal
350
F
100
AcDbDictionaryWithDefault
340
F
  0
DICTIONARY
  5
17
102
{ACAD_REACTORS
330
C
102
}
100
AcDbDictionary
280
0
281
1
  3
Standard
350
18
  0
DICTIONARY
  5
19
102
{ACAD_REACTORS
330
C
102
}
100
AcDbDictionary
281
1
  0
DICTIONARY
  5
1A
102
{ACAD_REACTORS
330
C
102
}
100
AcDbDictionary
281
1
  3
Model
350
22E
  3
Layout1
350
22F
  0
ACDBPLACEHOLDER
  5
F
102
{ACAD_REACTORS
330
E
102
}
  0
MLINESTYLE
  5
18
102
{ACAD_REACTORS
330
17
102
}
100
AcDbMlineStyle
  2
STANDARD
 70
0
  3

 62
256
 51
90.0
 52
90.0
 71
2
 49
0.5
 62
256
  6
BYLAYER
 49
-0.5
 62
256
  6
BYLAYER
  0
LAYOUT
  5
22E
102
{ACAD_REACTORS
330
1A
102
}
100
AcDbPlotSettings
  1

  2
none_device
  4

  6

 40
0.0
 41
0.0
 42
0.0
 43
0.0
 44
210.0
 45
297.0
 46
0.0
 47
0.0
 48
0.0
 49
0.0
140
0.0
141
0.0
142
1.0
143
1.0
 70
1024
 72
1
 73
0
 74
0
  7

 75
0
147
1.0
148
0.0
149
0.0
100
AcDbLayout
  1
Model
 70
0
 71
0
 10
0.0
 20
0.0
 11
210.0
 21
297.0
 12
0.0
 22
0.0
 32
0.0
 14
0.0
 24
0.0
 34
0.0
 15
0.0
 25
0.0
 35
0.0
146
0.0
 13
0.0
 23
0.0
 33
0.0
 16
1.0
 26
0.0
 36
0.0
 17
0.0
 27
1.0
 37
0.0
 76
0
330
210
345
0
346
0
  0
LAYOUT
  5
22F
102
{ACAD_REACTORS
330
1A
102
}
100
AcDbPlotSettings
  1

  2
none_device
  4

  6

 40
0.0
 41
0.0
 42
0.0
 43
0.0
 44
210.0
 45
297.0
 46
0.0
 47
0.0
 48
0.0
 49
0.0
140
0.0
141
0.0
142
1.0
143
1.0
 70
0
 72
1
 73
0
 74
0
  7

 75
0
147
1.0
148
0.0
149
0.0
100
AcDbLayout
  1
Layout1
 70
0
 71
1
 10
0.0
 20
0.0
 11
210.0
 21
297.0
 12
0.0
 22
0.0
 32
0.0
 14
0.0
 24
0.0
 34
0.0
 15
0.0
 25
0.0
 35
0.0
146
0.0
 13
0.0
 23
0.0
 33
0.0
 16
1.0
 26
0.0
 36
0.0
 17
0.0
 27
1.0
 37
0.0
 76
0
330
211
345
0
346
0
  0
ENDSEC
  0
EOF
