999
DXF file: C:\Users\sesa63760\Dev\_Creo\CAD\MCADID0004813_3D-CAD\drw0001_3.dxf
999
Pro/ENGINEER 2019471 by Parametric Technology Corporation
  0
SECTION
  2
HEADER
  9
$ACADVER
  1
AC1024
  9
$DWGCODEPAGE
  3
ANSI_1252
  9
$EXTMAX
 10
67.512792795
 20
95.4823783815
 30
0.0
  9
$EXTMIN
 10
0.0
 20
0.0
 30
0.0
  9
$LIMMIN
 10
0.0
 20
0.0
  9
$LIMMAX
 10
67.512792795
 20
95.4823783815
  9
$VIEWCTR
 10
33.7563963975
 20
47.7411891908
  9
$VIEWSIZE
 40
95.4823783815
  9
$CLAYER
  8
0
  9
$LTSCALE
 40
6.2240365167
  9
$CELTYPE
  6
BYLAYER
  9
$DIMSCALE
 40
1.0
  9
$DIMASZ
 40
0.8037237238
  9
$DIMEXO
 40
1.0
  9
$DIMDLI
 40
4.3002434116
  9
$DIMEXE
 40
1.0
  9
$DIMCEN
 40
1.0184787027
  9
$DIMLFAC
 40
1.0
  9
$DIMBLK
  1
_FILLED
  9
$DIMALT
 70
0
  9
$DIMALTF
 40
0.0393700787
  9
$DIMTXT
 40
1.1252132133
  9
$DIMTOL
 70
1
  9
$DIMLIM
 70
0
  9
$DIMTFAC
 40
1.0
  9
$DIMTP
 40
0.01
  9
$DIMTM
 40
0.01
  9
$DIMGAP
 40
0.625
  9
$DIMDSEP
 70
46
  9
$AUNITS
 70
0
  9
$PDMODE
 70
3
  9
$PDSIZE
 40
0.3125
  9
$HANDSEED
  5
313
  9
$TILEMODE
 70
1
  9
$MEASUREMENT
 70
1
  9
$INSUNITS
 70
4
  0
ENDSEC
  0
SECTION
  2
CLASSES
  0
CLASS
  1
ACDBDICTIONARYWDFLT
  2
AcDbDictionaryWithDefault
  3
AutoCAD 2000
 90
0
 91
1
280
0
281
0
  0
CLASS
  1
ACDBPLACEHOLDER
  2
AcDbPlaceHolder
  3
AutoCAD 2000
 90
0
 91
1
280
0
281
0
  0
CLASS
  1
LAYOUT
  2
AcDbLayout
  3
AutoCAD 2000
 90
0
 91
0
280
0
281
0
  0
ENDSEC
  0
SECTION
  2
TABLES
  0
TABLE
  2
VPORT
  5
8
100
AcDbSymbolTable
 70
2
  0
VPORT
  5
1F4
100
AcDbSymbolTableRecord
100
AcDbViewportTableRecord
  2
*ACTIVE
 70
0
 10
0.0
 20
0.0
 11
1.0
 21
1.0
 12
33.7563963975
 22
47.7411891908
 13
0.0
 23
0.0
 14
1.0
 24
1.0
 15
0.0
 25
0.0
 16
0.0
 26
0.0
 36
1.0
 17
0.0
 27
0.0
 37
0.0
 40
95.4823783815
 41
0.7070707071
 42
50.0
 43
0.0
 44
0.0
 50
0.0
 51
0.0
 71
0
 72
100
 73
1
 74
1
 75
0
 76
0
 77
0
 78
0
  0
ENDTAB
  0
TABLE
  2
LTYPE
  5
5
100
AcDbSymbolTable
 70
6
  0
LTYPE
  5
14
100
AcDbSymbolTableRecord
100
AcDbLinetypeTableRecord
  2
BYBLOCK
 70
0
  3

 72
65
 73
0
 40
0.0
  0
LTYPE
  5
15
100
AcDbSymbolTableRecord
100
AcDbLinetypeTableRecord
  2
BYLAYER
 70
0
  3

 72
65
 73
0
 40
0.0
  0
LTYPE
  5
16
100
AcDbSymbolTableRecord
100
AcDbLinetypeTableRecord
  2
CONTINUOUS
 70
64
  3
Solid line
 72
65
 73
0
 40
0.0
  0
LTYPE
  5
1F5
100
AcDbSymbolTableRecord
100
AcDbLinetypeTableRecord
  2
CENTER
 70
64
  3
____ _ ____ _ ____ _ ____ _ ____ _ ____ _ ____
 72
65
 73
4
 40
0.6
 49
0.375
 74
0
 49
-0.075
 74
0
 49
0.075
 74
0
 49
-0.075
 74
0
  0
LTYPE
  5
1F6
100
AcDbSymbolTableRecord
100
AcDbLinetypeTableRecord
  2
HIDDEN
 70
64
  3
- - - - - - - - - - - - - - - - - - - -
 72
65
 73
2
 40
0.2
 49
0.1
 74
0
 49
-0.1
 74
0
  0
LTYPE
  5
1F7
100
AcDbSymbolTableRecord
100
AcDbLinetypeTableRecord
  2
PHANTOM
 70
64
  3
_____ _ _ _____ _ _ _____ _ _ _____
 72
65
 73
6
 40
0.8
 49
0.45
 74
0
 49
-0.05
 74
0
 49
0.1
 74
0
 49
-0.05
 74
0
 49
0.1
 74
0
 49
-0.05
 74
0
  0
LTYPE
  5
1F8
100
AcDbSymbolTableRecord
100
AcDbLinetypeTableRecord
  2
DOT
 70
64
  3
. . . . . . . . . . . . . . . . . . . .
 72
65
 73
2
 40
0.2
 49
0.1
 74
0
 49
-0.1
 74
0
  0
LTYPE
  5
1F9
100
AcDbSymbolTableRecord
100
AcDbLinetypeTableRecord
  2
DASHED
 70
64
  3
- - - - - - - - - - - - - - - - - - - -
 72
65
 73
2
 40
0.2
 49
0.1
 74
0
 49
-0.1
 74
0
  0
ENDTAB
  0
TABLE
  2
LAYER
  5
2
100
AcDbSymbolTable
 70
36
  0
LAYER
  5
10
100
AcDbSymbolTableRecord
100
AcDbLayerTableRecord
  2
0
 70
0
 62
7
  6
CONTINUOUS
370
-3
390
F
  0
LAYER
  5
1FA
100
AcDbSymbolTableRecord
100
AcDbLayerTableRecord
  2
DEFAULT_1
 70
0
 62
7
  6
CENTER
370
-3
390
F
  0
LAYER
  5
1FB
100
AcDbSymbolTableRecord
100
AcDbLayerTableRecord
  2
DEFAULT_2
 70
0
 62
7
  6
HIDDEN
370
-3
390
F
  0
LAYER
  5
1FC
100
AcDbSymbolTableRecord
100
AcDbLayerTableRecord
  2
DEFAULT_3
 70
0
 62
7
  6
PHANTOM
370
-3
390
F
  0
LAYER
  5
1FD
100
AcDbSymbolTableRecord
100
AcDbLayerTableRecord
  2
00_COMPONENTS
 70
0
 62
7
  6
CONTINUOUS
370
-3
390
F
  0
LAYER
  5
1FE
100
AcDbSymbolTableRecord
100
AcDbLayerTableRecord
  2
01_1_DEFAULT_DATUMS
 70
0
 62
7
  6
CONTINUOUS
370
-3
390
F
  0
LAYER
  5
1FF
100
AcDbSymbolTableRecord
100
AcDbLayerTableRecord
  2
01_PLANES
 70
0
 62
7
  6
CONTINUOUS
370
-3
390
F
  0
LAYER
  5
200
100
AcDbSymbolTableRecord
100
AcDbLayerTableRecord
  2
02_COORD_SYS
 70
0
 62
7
  6
CONTINUOUS
370
-3
390
F
  0
LAYER
  5
201
100
AcDbSymbolTableRecord
100
AcDbLayerTableRecord
  2
03_AXES
 70
0
 62
7
  6
CONTINUOUS
370
-3
390
F
  0
LAYER
  5
202
100
AcDbSymbolTableRecord
100
AcDbLayerTableRecord
  2
04_POINTS
 70
0
 62
7
  6
CONTINUOUS
370
-3
390
F
  0
LAYER
  5
203
100
AcDbSymbolTableRecord
100
AcDbLayerTableRecord
  2
05_CURVES
 70
0
 62
7
  6
CONTINUOUS
370
-3
390
F
  0
LAYER
  5
204
100
AcDbSymbolTableRecord
100
AcDbLayerTableRecord
  2
06_SURFS
 70
0
 62
7
  6
CONTINUOUS
370
-3
390
F
  0
LAYER
  5
205
100
AcDbSymbolTableRecord
100
AcDbLayerTableRecord
  2
07_COSMETICS
 70
0
 62
7
  6
CONTINUOUS
370
-3
390
F
  0
LAYER
  5
206
100
AcDbSymbolTableRecord
100
AcDbLayerTableRecord
  2
10_NOTES
 70
0
 62
7
  6
CONTINUOUS
370
-3
390
F
  0
LAYER
  5
207
100
AcDbSymbolTableRecord
100
AcDbLayerTableRecord
  2
11_NOTES_PUB
 70
0
 62
7
  6
CONTINUOUS
370
-3
390
F
  0
LAYER
  5
208
100
AcDbSymbolTableRecord
100
AcDbLayerTableRecord
  2
13_REF_GTOL
 70
0
 62
7
  6
CONTINUOUS
370
-3
390
F
  0
LAYER
  5
209
100
AcDbSymbolTableRecord
100
AcDbLayerTableRecord
  2
16_MISC
 70
0
 62
7
  6
CONTINUOUS
370
-3
390
F
  0
LAYER
  5
20A
100
AcDbSymbolTableRecord
100
AcDbLayerTableRecord
  2
17_NO_PRINT
 70
0
 62
7
  6
CONTINUOUS
370
-3
390
F
  0
LAYER
  5
20B
100
AcDbSymbolTableRecord
100
AcDbLayerTableRecord
  2
18_DATUM_CAMS_JOINTS
 70
0
 62
7
  6
CONTINUOUS
370
-3
390
F
  0
LAYER
  5
20C
100
AcDbSymbolTableRecord
100
AcDbLayerTableRecord
  2
19_DATUM_FUNCTIONAL
 70
0
 62
7
  6
CONTINUOUS
370
-3
390
F
  0
LAYER
  5
20D
100
AcDbSymbolTableRecord
100
AcDbLayerTableRecord
  2
20_DATUM_KINEMATIC_SCHEME
 70
0
 62
7
  6
CONTINUOUS
370
-3
390
F
  0
ENDTAB
  0
TABLE
  2
STYLE
  5
3
100
AcDbSymbolTable
 70
1
  0
STYLE
  5
11
100
AcDbSymbolTableRecord
100
AcDbTextStyleTableRecord
  2
STANDARD
 70
0
 40
0.0
 41
1.0
 50
0.0
 71
0
 42
0.2
  3
ARIAL.TTF
  4

  0
STYLE
  5
20E
100
AcDbSymbolTableRecord
100
AcDbTextStyleTableRecord
  2
TEXTSTYLE_1
 70
0
 40
0.0
 41
0.8
 50
0.0
 71
0
 42
0.2
  3
gdt
  4

  0
ENDTAB
  0
TABLE
  2
VIEW
  5
6
100
AcDbSymbolTable
 70
0
  0
ENDTAB
  0
TABLE
  2
UCS
  5
7
100
AcDbSymbolTable
 70
0
  0
ENDTAB
  0
TABLE
  2
APPID
  5
9
100
AcDbSymbolTable
 70
1
  0
APPID
  5
20F
100
AcDbSymbolTableRecord
100
AcDbRegAppTableRecord
  2
ACAD
 70
0
  0
ENDTAB
  0
TABLE
  2
BLOCK_RECORD
  5
1
100
AcDbSymbolTable
 70
0
  0
BLOCK_RECORD
  5
210
100
AcDbSymbolTableRecord
100
AcDbBlockTableRecord
  2
*Model_Space
  0
BLOCK_RECORD
  5
211
100
AcDbSymbolTableRecord
100
AcDbBlockTableRecord
  2
*Paper_Space
  0
BLOCK_RECORD
  5
212
100
AcDbSymbolTableRecord
100
AcDbBlockTableRecord
  2
_FILLED
  0
ENDTAB
  0
TABLE
  2
DIMSTYLE
  5
A
100
AcDbSymbolTable
 70
1
100
AcDbDimStyleTable
 71
0
  0
DIMSTYLE
105
213
100
AcDbSymbolTableRecord
100
AcDbDimStyleTableRecord
  2
STANDARD
 70
0
  3

  4

 40
1.0
 41
0.8037237238
 42
1.0
 43
0.38
 44
1.0
 45
0.0
 46
0.0
 47
0.01
 48
0.01
140
1.1252132133
141
0.09
142
0.0
143
25.4
144
1.0
145
0.0
146
1.0
147
0.625
 71
1
 72
0
 73
0
 74
0
 75
0
 76
0
 77
1
 78
8
 79
2
170
0
171
1
172
0
173
0
174
0
175
0
176
0
177
0
178
0
270
2
179
2
271
2
272
2
273
2
274
2
275
0
280
0
281
0
282
0
283
1
284
8
285
0
286
0
287
3
288
0
340
11
278
46
341
212
342
212
343
212
344
212
  0
ENDTAB
  0
ENDSEC
  0
SECTION
  2
BLOCKS
  0
BLOCK
  5
20
100
AcDbEntity
  8
0
100
AcDbBlockBegin
  2
*Model_Space
 70
0
 10
0.0
 20
0.0
 30
0.0
  3
*Model_Space
  1

  0
ENDBLK
  5
21
100
AcDbEntity
  8
0
100
AcDbBlockEnd
  0
BLOCK
  5
1C
100
AcDbEntity
  8
0
100
AcDbBlockBegin
  2
*Paper_Space
 70
0
 10
0.0
 20
0.0
 30
0.0
  3
*Paper_Space
  1

  0
ENDBLK
  5
1D
100
AcDbEntity
  8
0
100
AcDbBlockEnd
  0
BLOCK
  5
214
100
AcDbEntity
  8
0
100
AcDbBlockBegin
  2
_FILLED
 70
64
 10
0.0
 20
0.0
  3
_FILLED
  1

  0
SOLID
  5
215
100
AcDbEntity
  8
0
  6
BYBLOCK
 62
0
100
AcDbTrace
 10
0.0
 20
0.0
 11
-1.0
 21
0.25
 12
-1.0
 22
-0.25
 13
-1.0
 23
-0.25
  0
ENDBLK
  5
216
100
AcDbEntity
  8
0
  6
BYBLOCK
 62
0
100
AcDbBlockEnd
  0
ENDSEC
  0
SECTION
  2
ENTITIES
  0
LINE
  5
217
100
AcDbEntity
  8
0
100
AcDbLine
 62
7
  6
BYLAYER
 10
7.9866724892
 20
53.9604119887
 11
7.9866724892
 21
53.7104119887
  0
LINE
  5
218
100
AcDbEntity
  8
0
100
AcDbLine
 62
7
  6
BYLAYER
 10
8.9866724892
 20
53.7104119887
 11
8.9866724892
 21
44.8604119887
  0
LINE
  5
219
100
AcDbEntity
  8
0
100
AcDbLine
 62
7
  6
BYLAYER
 10
8.9866724892
 20
43.7104119887
 11
8.9866724892
 21
42.7104119887
  0
LINE
  5
21A
100
AcDbEntity
  8
0
100
AcDbLine
 62
7
  6
BYLAYER
 10
10.5866724892
 20
44.8604119887
 11
10.5866724892
 21
53.7104119887
  0
LINE
  5
21B
100
AcDbEntity
  8
0
100
AcDbLine
 62
7
  6
BYLAYER
 10
11.1366724892
 20
37.7104119887
 11
11.1366724892
 21
42.7104119887
  0
LWPOLYLINE
  5
21C
100
AcDbEntity
  8
0
100
AcDbPolyline
 62
7
  6
BYLAYER
 90
8
 70
0
 10
13.5762032261
 20
44.5470127991
 10
13.5432712129
 20
45.3402677922
 10
13.7140525539
 20
45.9989267325
 10
14.0999675113
 20
46.5304897613
 10
14.7420276856
 20
46.9735290436
 10
15.606139641
 20
47.3040601964
 10
16.6810588176
 20
47.5268826206
 10
17.9808126873
 20
47.643813081
  0
LWPOLYLINE
  5
21D
100
AcDbEntity
  8
0
100
AcDbPolyline
 62
7
  6
BYLAYER
 90
14
 70
0
 10
13.5827459033
 20
45.7938103835
 10
13.5899521874
 20
46.4815041109
 10
13.7837255442
 20
47.0451453564
 10
14.1910623851
 20
47.4216599831
 10
14.8017717308
 20
47.6563761559
 10
15.5406336231
 20
47.7729474528
 10
16.3846704131
 20
47.7983706114
 10
17.3315183674
 20
47.7482472794
 10
18.3877151543
 20
47.6315350775
 10
19.5753222212
 20
47.4526539344
 10
20.9085245316
 20
47.21749225
 10
22.4663784172
 20
46.9251498615
 10
24.1053997935
 20
46.6293871234
 10
25.4785494814
 20
46.4193926475
  0
LINE
  5
21E
100
AcDbEntity
  8
0
100
AcDbLine
 62
7
  6
BYLAYER
 10
14.7366724892
 20
52.9604119887
 11
14.7366724892
 21
51.3604119887
  0
LINE
  5
21F
100
AcDbEntity
  8
0
100
AcDbLine
 62
7
  6
BYLAYER
 10
15.8983856437
 20
44.2765923058
 11
15.9022624544
 21
44.2483116975
  0
LWPOLYLINE
  5
220
100
AcDbEntity
  8
0
100
AcDbPolyline
 62
7
  6
BYLAYER
 90
11
 70
0
 10
17.6710906196
 20
44.5770063631
 10
17.6184947568
 20
45.1756267588
 10
17.7265369819
 20
45.6875829004
 10
18.0226393261
 20
46.0617096938
 10
18.5163905187
 20
46.3358292093
 10
19.1478201779
 20
46.5136136723
 10
19.8927674333
 20
46.6112932538
 10
20.7469107276
 20
46.638372728
 10
21.7180664726
 20
46.5988396002
 10
22.8247947397
 20
46.4922400367
 10
24.0918068774
 20
46.3151832409
  0
LWPOLYLINE
  5
221
100
AcDbEntity
  8
0
100
AcDbPolyline
 62
7
  6
BYLAYER
 90
10
 70
0
 10
17.671399142
 20
44.5752336954
 10
17.6277103667
 20
45.2744715416
 10
17.7907292542
 20
45.8566977247
 10
18.1773894377
 20
46.3181946639
 10
18.7960049706
 20
46.6770027903
 10
19.5936775477
 20
46.9179111403
 10
20.5510571084
 20
47.0452001162
 10
21.6727607615
 20
47.0543832292
 10
22.9619894681
 20
46.9285473224
 10
24.4810590184
 20
46.6221314604
  0
LINE
  5
222
100
AcDbEntity
  8
0
100
AcDbLine
 62
7
  6
BYLAYER
 10
17.5538297767
 20
53.9604119887
 11
17.5538297767
 21
52.9604119887
  0
LINE
  5
223
100
AcDbEntity
  8
0
100
AcDbLine
 62
7
  6
BYLAYER
 10
17.6952511329
 20
52.9604119887
 11
17.6952511329
 21
53.9604119887
  0
LINE
  5
224
100
AcDbEntity
  8
0
100
AcDbLine
 62
7
  6
BYLAYER
 10
18.5780938454
 20
53.9604119887
 11
18.5780938454
 21
52.9604119887
  0
LINE
  5
225
100
AcDbEntity
  8
0
100
AcDbLine
 62
7
  6
BYLAYER
 10
18.6366724892
 20
52.9604119887
 11
18.6366724892
 21
53.9604119887
  0
LINE
  5
226
100
AcDbEntity
  8
0
100
AcDbLine
 62
7
  6
BYLAYER
 10
19.0366724892
 20
50.6091049254
 11
19.0366724892
 21
48.4092804399
  0
LINE
  5
227
100
AcDbEntity
  8
0
100
AcDbLine
 62
7
  6
BYLAYER
 10
19.9866724892
 20
53.9604119887
 11
19.9866724892
 21
55.1604119887
  0
LINE
  5
228
100
AcDbEntity
  8
0
100
AcDbLine
 62
7
  6
BYLAYER
 10
22.0366724885
 20
50.6089623159
 11
22.0366724885
 21
48.4091378304
  0
LWPOLYLINE
  5
229
100
AcDbEntity
  8
0
100
AcDbPolyline
 62
7
  6
BYLAYER
 90
7
 70
0
 10
16.7568818776
 20
47.4477368377
 10
16.7412978807
 20
47.4325651034
 10
16.703269851
 20
47.3949081215
 10
16.6532169952
 20
47.3422071807
 10
16.6035023633
 20
47.2855237884
 10
16.5629384539
 20
47.2363600422
 10
16.5365402473
 20
47.2034268308
  0
LWPOLYLINE
  5
22A
100
AcDbEntity
  8
0
100
AcDbPolyline
 62
7
  6
BYLAYER
 90
38
 70
0
 10
25.334313981
 20
45.4075881976
 10
25.3345620036
 20
45.4023230144
 10
25.3345477525
 20
45.3970313824
 10
25.3343277053
 20
45.3914579316
 10
25.3338882762
 20
45.3854458475
 10
25.3332499527
 20
45.3793673832
 10
25.3324231911
 20
45.3732490037
 10
25.3313985644
 20
45.3670069531
 10
25.3301609839
 20
45.3605878102
 10
25.3287201392
 20
45.354076913
 10
25.327077114
 20
45.3474965381
 10
25.3252292528
 20
45.3408529266
 10
25.3231697988
 20
45.3341420053
 10
25.3208984028
 20
45.3273841224
 10
25.3184018506
 20
45.3205644497
 10
25.3156500185
 20
45.3136350082
 10
25.3126373269
 20
45.3066204746
 10
25.3093785396
 20
45.2995853863
 10
25.3058886937
 20
45.2925813846
 10
25.3021864817
 20
45.285656508
 10
25.2982936189
 20
45.2788544093
 10
25.2942342827
 20
45.272213988
 10
25.2900346135
 20
45.2657692789
 10
25.2857223397
 20
45.2595495995
 10
25.2813265471
 20
45.2535798956
 10
25.2768776867
 20
45.2478813295
 10
25.2724052076
 20
45.2424689511
 10
25.267930421
 20
45.2373448606
 10
25.2634749666
 20
45.2325100996
 10
25.2590549007
 20
45.2279587196
 10
25.2546806336
 20
45.2236786818
 10
25.2503562567
 20
45.219652918
 10
25.2460844369
 20
45.215865181
 10
25.241883734
 20
45.2123143103
 10
25.2378251597
 20
45.2090398329
 10
25.234043866
 20
45.2061220579
 10
25.2305773702
 20
45.2035569721
 10
25.2273737696
 20
45.2012794579
  0
LINE
  5
22B
100
AcDbEntity
  8
0
100
AcDbLine
 62
7
  6
BYLAYER
 10
11.1366724892
 20
37.7104119887
 11
34.8366724892
 21
37.7104119887
  0
LWPOLYLINE
  5
22C
100
AcDbEntity
  8
0
100
AcDbPolyline
 62
7
  6
BYLAYER
 90
14
 70
0
 10
25.360940587
 20
44.8692176948
 10
25.3160920436
 20
45.03011885
 10
25.3562284679
 20
45.228430328
 10
25.4657351872
 20
45.4292595631
 10
25.6258130817
 20
45.6066470794
 10
25.8029849698
 20
45.7279790017
 10
25.9650053264
 20
45.7769091289
 10
26.1330706451
 20
45.7736060452
 10
26.3199996457
 20
45.7349517516
 10
26.5220620771
 20
45.6686065688
 10
26.7353967158
 20
45.5796969466
 10
26.9628157527
 20
45.4709377424
 10
27.2050661826
 20
45.3452075913
 10
27.7485566901
 20
45.0523936935
  0
LWPOLYLINE
  5
22D
100
AcDbEntity
  8
0
100
AcDbPolyline
 62
7
  6
BYLAYER
 90
31
 70
0
 10
25.3994784777
 20
44.5889545163
 10
25.3872719811
 20
44.6478553952
 10
25.3760122464
 20
44.7056183493
 10
25.3657147028
 20
44.762253134
 10
25.3564126416
 20
44.8177033279
 10
25.3481907436
 20
44.8715935397
 10
25.3410527949
 20
44.9240511696
 10
25.334957493
 20
44.9756408018
 10
25.3299484345
 20
45.026560354
 10
25.3261395701
 20
45.0766661215
 10
25.3236932506
 20
45.1254878326
 10
25.3227527932
 20
45.1716866679
 10
25.3233817544
 20
45.2164825352
 10
25.32602004
 20
45.2614490455
 10
25.3311430387
 20
45.3028945109
 10
25.3372397431
 20
45.3306550135
 10
25.336348488
 20
45.3295044902
 10
25.3312732641
 20
45.3228002727
 10
25.3230253526
 20
45.3159046923
 10
25.3120813551
 20
45.3099428776
 10
25.2984580064
 20
45.3049596979
 10
25.2818531124
 20
45.3008661868
 10
25.2621093835
 20
45.2976723076
 10
25.2390899209
 20
45.2954010099
 10
25.2126675448
 20
45.2940894065
 10
25.1827250963
 20
45.293790899
 10
25.1492064334
 20
45.2945665714
 10
25.112118986
 20
45.2964987099
 10
25.0714648744
 20
45.2997055018
 10
25.02723789
 20
45.3043565274
 10
24.9794708887
 20
45.3106878947
  0
LINE
  5
22E
100
AcDbEntity
  8
0
100
AcDbLine
 62
7
  6
BYLAYER
 10
25.3411450454
 20
45.3731160517
 11
25.3394265973
 21
45.3823022775
  0
LINE
  5
22F
100
AcDbEntity
  8
0
100
AcDbLine
 62
7
  6
BYLAYER
 10
25.3408937301
 20
45.3745973395
 11
25.3425518826
 21
45.3621472335
  0
LWPOLYLINE
  5
230
100
AcDbEntity
  8
0
100
AcDbPolyline
 62
7
  6
BYLAYER
 90
3
 70
0
 10
25.3425518826
 20
45.3621472335
 10
25.3411314051
 20
45.3731982993
 10
25.3343119728
 20
45.4076127668
  0
LINE
  5
231
100
AcDbEntity
  8
0
100
AcDbLine
 62
7
  6
BYLAYER
 10
25.9866724892
 20
53.9604119887
 11
25.9866724892
 21
55.1604119887
  0
LWPOLYLINE
  5
232
100
AcDbEntity
  8
0
100
AcDbPolyline
 62
7
  6
BYLAYER
 90
9
 70
0
 10
24.0178737364
 20
46.4990001368
 10
23.8636725317
 20
46.2637153295
 10
23.7287114923
 20
46.0012379452
 10
23.6196820538
 20
45.7108111282
 10
23.5453089527
 20
45.3929963242
 10
23.5161467524
 20
45.0500704704
 10
23.5440081724
 20
44.688038839
 10
23.6400563245
 20
44.3171408255
 10
23.8124591095
 20
43.9515132253
  0
LWPOLYLINE
  5
233
100
AcDbEntity
  8
0
100
AcDbPolyline
 62
7
  6
BYLAYER
 90
8
 70
0
 10
24.6486915427
 20
45.4067882109
 10
24.6539505877
 20
45.4030512801
 10
24.6606434922
 20
45.3981637759
 10
24.6656476902
 20
45.3943930722
 10
24.6714458593
 20
45.3899322019
 10
24.678046634
 20
45.3847610242
 10
24.6850433064
 20
45.3791957905
 10
24.6926136071
 20
45.373099715
  0
LWPOLYLINE
  5
234
100
AcDbEntity
  8
0
100
AcDbPolyline
 62
7
  6
BYLAYER
 90
14
 70
0
 10
24.7599379792
 20
45.3180423605
 10
24.7711211903
 20
45.3090652893
 10
24.7829818923
 20
45.2996681712
 10
24.7958265484
 20
45.2896622208
 10
24.8092955638
 20
45.2793910398
 10
24.8223100847
 20
45.2697103301
 10
24.8344436501
 20
45.2609244716
 10
24.8458557185
 20
45.2528906573
 10
24.8567179442
 20
45.2454656806
 10
24.8671972607
 20
45.2385200407
 10
24.8774494896
 20
45.2319427947
 10
24.8875371439
 20
45.2256915202
 10
24.8974629454
 20
45.219763171
 10
24.9087318137
 20
45.213311531
  0
LINE
  5
235
100
AcDbEntity
  8
0
100
AcDbLine
 62
7
  6
BYLAYER
 10
24.7387971904
 20
45.3352462967
 11
24.7599379792
 21
45.3180423605
  0
LINE
  5
236
100
AcDbEntity
  8
0
100
AcDbLine
 62
7
  6
BYLAYER
 10
24.6926136071
 20
45.373099715
 11
24.7097207374
 21
45.3591408865
  0
LINE
  5
237
100
AcDbEntity
  8
0
100
AcDbLine
 62
7
  6
BYLAYER
 10
24.7097207374
 20
45.3591408865
 11
24.7387971904
 21
45.3352462967
  0
LINE
  5
238
100
AcDbEntity
  8
0
100
AcDbLine
 62
7
  6
BYLAYER
 10
30.2561598941
 20
52.7624895745
 11
26.8350960245
 21
49.3414257049
  0
LINE
  5
239
100
AcDbEntity
  8
0
100
AcDbLine
 62
7
  6
BYLAYER
 10
27.4264651388
 20
48.6086352344
 11
27.4971758169
 21
48.6793459125
  0
LWPOLYLINE
  5
23A
100
AcDbEntity
  8
0
100
AcDbPolyline
 62
7
  6
BYLAYER
 90
6
 70
0
 10
18.0164434824
 20
48.0701019096
 10
17.2294227788
 20
47.7004316595
 10
16.5079526892
 20
47.0907231394
 10
16.0389956069
 20
46.3180369409
 10
15.825944195
 20
45.3613444912
 10
15.9022543666
 20
44.2438175718
  0
LWPOLYLINE
  5
23B
100
AcDbEntity
  8
0
100
AcDbPolyline
 62
7
  6
BYLAYER
 90
58
 70
0
 10
27.9175649958
 20
44.275537296
 10
27.9604721621
 20
44.2627914998
 10
28.0038559483
 20
44.2501265239
 10
28.0477279865
 20
44.237553092
 10
28.0921029543
 20
44.2250831402
 10
28.1369928061
 20
44.2127307282
 10
28.1824096231
 20
44.2005107229
 10
28.2283657435
 20
44.1884388033
 10
28.2748737656
 20
44.1765315055
 10
28.3219467705
 20
44.1648062161
 10
28.3695995379
 20
44.1532809419
 10
28.4178444422
 20
44.1419753643
 10
28.4666930232
 20
44.1309104445
 10
28.5161567381
 20
44.1201082726
 10
28.5662469228
 20
44.1095921155
 10
28.6169747476
 20
44.0993864656
 10
28.6683533089
 20
44.0895168225
 10
28.7204075926
 20
44.0800112881
 10
28.7731554703
 20
44.0709046482
 10
28.8266126809
 20
44.0622340573
 10
28.8807949475
 20
44.0540385127
 10
28.935717908
 20
44.0463589149
 10
28.9913970797
 20
44.0392381187
 10
29.0478479397
 20
44.0327209692
 10
29.1050789064
 20
44.0268550232
 10
29.1630933598
 20
44.021689952
 10
29.2218995743
 20
44.0172765249
 10
29.2815047858
 20
44.0136672761
 10
29.341922157
 20
44.0109171566
 10
29.4031732662
 20
44.009095088
 10
29.46525601
 20
44.0082818354
 10
29.5281646186
 20
44.0085609442
 10
29.5918914803
 20
44.0100183484
 10
29.6564270964
 20
44.0127421946
 10
29.72176006
 20
44.0168226433
 10
29.7878770508
 20
44.0223516479
 10
29.8547599371
 20
44.0294223729
 10
29.9223514823
 20
44.0381237669
 10
29.990624373
 20
44.0485470867
 10
30.0595697743
 20
44.0607918108
 10
30.1291457631
 20
44.0749717214
 10
30.1992934435
 20
44.0912042213
 10
30.2699528568
 20
44.1096087848
 10
30.3410627633
 20
44.130306794
 10
30.4125487196
 20
44.1534157055
 10
30.484302209
 20
44.179036762
 10
30.556206577
 20
44.2072688434
 10
30.6281430129
 20
44.2382120551
 10
30.7000015606
 20
44.2719729808
 10
30.7716780304
 20
44.3086528695
 10
30.8430329432
 20
44.3483132055
 10
30.9139207879
 20
44.3910156558
 10
30.9841920338
 20
44.4368279774
 10
31.0536928135
 20
44.4858225267
 10
31.1222746718
 20
44.5380365127
 10
31.1897956349
 20
44.5934737116
 10
31.2561072213
 20
44.6521407155
 10
31.3210523099
 20
44.7140480632
  0
LINE
  5
23C
100
AcDbEntity
  8
0
100
AcDbLine
 62
7
  6
BYLAYER
 10
27.8331452784
 20
44.3012291587
 11
27.9175649958
 21
44.275537296
  0
LINE
  5
23D
100
AcDbEntity
  8
0
100
AcDbLine
 62
7
  6
BYLAYER
 10
27.7505273721
 20
44.3271231562
 11
27.8331452784
 21
44.3012291587
  0
LINE
  5
23E
100
AcDbEntity
  8
0
100
AcDbLine
 62
7
  6
BYLAYER
 10
25.7482638834
 20
45.0415140702
 11
25.7893858305
 21
45.0285700469
  0
LINE
  5
23F
100
AcDbEntity
  8
0
100
AcDbLine
 62
7
  6
BYLAYER
 10
27.6696439346
 20
44.3531482818
 11
27.7505273721
 21
44.3271231562
  0
LINE
  5
240
100
AcDbEntity
  8
0
100
AcDbLine
 62
7
  6
BYLAYER
 10
25.7778616699
 20
45.0326733639
 11
25.8317785841
 21
45.014923052
  0
LINE
  5
241
100
AcDbEntity
  8
0
100
AcDbLine
 62
7
  6
BYLAYER
 10
25.8265716464
 20
45.0170385498
 11
25.8778225808
 21
45.0001835021
  0
LINE
  5
242
100
AcDbEntity
  8
0
100
AcDbLine
 62
7
  6
BYLAYER
 10
27.590429742
 20
44.3792406447
 11
27.6696439346
 21
44.3531482818
  0
LWPOLYLINE
  5
243
100
AcDbEntity
  8
0
100
AcDbPolyline
 62
7
  6
BYLAYER
 90
5
 70
0
 10
24.9889982803
 20
45.1768444793
 10
24.9964032955
 20
45.1743855705
 10
25.0037017824
 20
45.1721222557
 10
25.0108960691
 20
45.1700494288
 10
25.0179880313
 20
45.168162258
  0
LINE
  5
244
100
AcDbEntity
  8
0
100
AcDbLine
 62
7
  6
BYLAYER
 10
25.8754609427
 20
45.0005644396
 11
25.9314274256
 21
44.9821604397
  0
LINE
  5
245
100
AcDbEntity
  8
0
100
AcDbLine
 62
7
  6
BYLAYER
 10
27.4940554326
 20
44.4121130615
 11
27.590429742
 21
44.3792406447
  0
LINE
  5
246
100
AcDbEntity
  8
0
100
AcDbLine
 62
7
  6
BYLAYER
 10
25.9204542412
 20
44.9854912457
 11
25.9667724137
 21
44.9697046662
  0
LINE
  5
247
100
AcDbEntity
  8
0
100
AcDbLine
 62
7
  6
BYLAYER
 10
27.4367633367
 20
44.4317742038
 11
27.5128219892
 21
44.4053426215
  0
LINE
  5
248
100
AcDbEntity
  8
0
100
AcDbLine
 62
7
  6
BYLAYER
 10
25.9590574028
 20
44.9727294082
 11
26.0161099358
 21
44.95298348
  0
LINE
  5
249
100
AcDbEntity
  8
0
100
AcDbLine
 62
7
  6
BYLAYER
 10
27.324620644
 20
44.4709564414
 11
27.4367633367
 21
44.4317742038
  0
LWPOLYLINE
  5
24A
100
AcDbEntity
  8
0
100
AcDbPolyline
 62
7
  6
BYLAYER
 90
6
 70
0
 10
24.9797183943
 20
45.1802579955
 10
24.9880784266
 20
45.1773126251
 10
24.9962822097
 20
45.1746336608
 10
25.0043294521
 20
45.1722141742
 10
25.0122193133
 20
45.1700471537
 10
25.0249791641
 20
45.1664561294
  0
LINE
  5
24B
100
AcDbEntity
  8
0
100
AcDbLine
 62
7
  6
BYLAYER
 10
26.0144390363
 20
44.9532033383
 11
26.0885050293
 21
44.9271148608
  0
LINE
  5
24C
100
AcDbEntity
  8
0
100
AcDbLine
 62
7
  6
BYLAYER
 10
27.2157118847
 20
44.5097985554
 11
27.324620644
 21
44.4709564414
  0
LINE
  5
24D
100
AcDbEntity
  8
0
100
AcDbLine
 62
7
  6
BYLAYER
 10
26.0759470577
 20
44.931923369
 11
26.1719300714
 21
44.8975124993
  0
LINE
  5
24E
100
AcDbEntity
  8
0
100
AcDbLine
 62
7
  6
BYLAYER
 10
27.1100465301
 20
44.5481238749
 11
27.2169588029
 21
44.5090085894
  0
LINE
  5
24F
100
AcDbEntity
  8
0
100
AcDbLine
 62
7
  6
BYLAYER
 10
26.1655287737
 20
44.8994937433
 11
26.2756461331
 21
44.8596329246
  0
LINE
  5
250
100
AcDbEntity
  8
0
100
AcDbLine
 62
7
  6
BYLAYER
 10
26.9576805607
 20
44.6042842037
 11
27.1114204243
 21
44.5472924032
  0
LINE
  5
251
100
AcDbEntity
  8
0
100
AcDbLine
 62
7
  6
BYLAYER
 10
26.2725559798
 20
44.8604486659
 11
26.4253216329
 21
44.8040617443
  0
LINE
  5
252
100
AcDbEntity
  8
0
100
AcDbLine
 62
7
  6
BYLAYER
 10
26.7145219891
 20
44.6950240229
 11
26.9748104505
 21
44.5976083821
  0
LINE
  5
253
100
AcDbEntity
  8
0
100
AcDbLine
 62
7
  6
BYLAYER
 10
26.412948279
 20
44.8083750987
 11
26.7204271508
 21
44.6931072806
  0
LWPOLYLINE
  5
254
100
AcDbEntity
  8
0
100
AcDbPolyline
 62
7
  6
BYLAYER
 90
6
 70
0
 10
24.9340254982
 20
45.1999693935
 10
24.9422195476
 20
45.1959991824
 10
24.9502981126
 20
45.1922592438
 10
24.9582628592
 20
45.1887445772
 10
24.9661153091
 20
45.1854502084
 10
24.9738566033
 20
45.1823712947
  0
LWPOLYLINE
  5
255
100
AcDbEntity
  8
0
100
AcDbPolyline
 62
7
  6
BYLAYER
 90
8
 70
0
 10
27.7485566901
 20
45.0523936935
 10
28.0611459953
 20
44.8921616898
 10
28.4132441303
 20
44.7319272008
 10
28.8179697824
 20
44.5870871073
 10
29.2897960225
 20
44.4889324654
 10
29.831501162
 20
44.4925880264
 10
30.4136646889
 20
44.669103796
 10
30.967049403
 20
45.0680509702
  0
LWPOLYLINE
  5
256
100
AcDbEntity
  8
0
100
AcDbPolyline
 62
7
  6
BYLAYER
 90
9
 70
0
 10
24.9072282886
 20
45.2141547249
 10
24.9168346342
 20
45.2088624066
 10
24.9262834155
 20
45.203881854
 10
24.935575972
 20
45.1992082442
 10
24.9447134984
 20
45.1948363912
 10
24.9536970093
 20
45.190760817
 10
24.9625272658
 20
45.1869758248
 10
24.9712017411
 20
45.1834767069
 10
24.9814838864
 20
45.1795044272
  0
LWPOLYLINE
  5
257
100
AcDbEntity
  8
0
100
AcDbPolyline
 62
7
  6
BYLAYER
 90
6
 70
0
 10
28.0096693261
 20
48.0168529658
 10
27.9523666134
 20
48.1000276806
 10
27.9074119378
 20
48.1664193951
 10
27.8525901175
 20
48.2431248421
 10
27.7942215436
 20
48.317204833
 10
27.7355501076
 20
48.3825196516
  0
LWPOLYLINE
  5
258
100
AcDbEntity
  8
0
100
AcDbPolyline
 62
7
  6
BYLAYER
 90
16
 70
0
 10
29.0678811552
 20
46.9672192179
 10
29.0626338082
 20
46.9453808366
 10
29.0544427123
 20
46.921891132
 10
29.0400997798
 20
46.895206714
 10
29.0248594833
 20
46.877166619
 10
29.0171089293
 20
46.8711141023
 10
29.0139252739
 20
46.8693985639
 10
29.0133199485
 20
46.8691592861
 10
29.0143098836
 20
46.8693704555
 10
29.0160654614
 20
46.8695754606
 10
29.0175346608
 20
46.869621007
 10
29.0185178982
 20
46.8695762151
 10
29.0171236445
 20
46.8697694865
 10
29.0043277073
 20
46.8722433698
 10
28.9678411824
 20
46.881108041
 10
28.8761389441
 20
46.9051664869
  0
LINE
  5
259
100
AcDbEntity
  8
0
100
AcDbLine
 62
7
  6
BYLAYER
 10
27.7766066642
 20
48.2584937089
 11
27.8473173423
 21
48.3292043871
  0
LINE
  5
25A
100
AcDbEntity
  8
0
100
AcDbLine
 62
7
  6
BYLAYER
 10
28.3880331657
 20
47.6470672074
 11
28.4587438438
 21
47.7177778856
  0
LWPOLYLINE
  5
25B
100
AcDbEntity
  8
0
100
AcDbPolyline
 62
7
  6
BYLAYER
 90
13
 70
0
 10
27.4441719035
 20
48.5909284696
 10
27.3977090187
 20
48.5518840831
 10
27.3728650043
 20
48.538596527
 10
27.3491757037
 20
48.530941845
 10
27.3167135495
 20
48.5246893851
 10
27.2721399976
 20
48.5205666095
 10
27.2176558723
 20
48.5195541224
 10
27.1547395776
 20
48.522080723
 10
27.0863584362
 20
48.52779309
 10
27.0143304409
 20
48.536184148
 10
26.9394704786
 20
48.5466728072
 10
26.8620636654
 20
48.5588254305
 10
26.7810098055
 20
48.5724748576
  0
LWPOLYLINE
  5
25C
100
AcDbEntity
  8
0
100
AcDbPolyline
 62
7
  6
BYLAYER
 90
8
 70
0
 10
28.4057300422
 20
47.6293703309
 10
28.2904481683
 20
47.5397359488
 10
28.1816328083
 20
47.4990240003
 10
28.041177628
 20
47.481528066
 10
27.8716618646
 20
47.4847035754
 10
27.6779893484
 20
47.5047290516
 10
27.4621876809
 20
47.5382395868
 10
27.2273788699
 20
47.5808623569
  0
LWPOLYLINE
  5
25D
100
AcDbEntity
  8
0
100
AcDbPolyline
 62
7
  6
BYLAYER
 90
5
 70
0
 10
24.4860332789
 20
46.7233610218
 10
24.0116304181
 20
46.3606558741
 10
23.7181355261
 20
45.7861265707
 10
23.6518034261
 20
45.05604498
 10
23.7739039685
 20
44.2316978761
  0
LWPOLYLINE
  5
25E
100
AcDbEntity
  8
0
100
AcDbPolyline
 62
7
  6
BYLAYER
 90
16
 70
0
 10
27.7943005293
 20
48.2407998438
 10
27.6263446412
 20
48.1367025177
 10
27.412519391
 20
48.0886828715
 10
27.1654386122
 20
48.0739340969
 10
26.9079600229
 20
48.0807394287
 10
26.644664092
 20
48.0998454574
 10
26.3620209596
 20
48.1268613605
 10
26.0672247705
 20
48.1595363984
 10
25.7609209756
 20
48.1976892818
 10
25.4423819974
 20
48.2412586821
 10
25.1108502571
 20
48.2902117422
 10
24.7658155359
 20
48.3444672576
 10
24.4066442961
 20
48.4039390083
 10
24.0325799141
 20
48.4685314325
 10
23.6427080384
 20
48.5381380393
 10
23.2358577774
 20
48.6126438636
  0
LINE
  5
25F
100
AcDbEntity
  8
0
100
AcDbLine
 62
7
  6
BYLAYER
 10
36.2866724892
 20
42.7104119887
 11
8.9866724892
 21
42.7104119887
  0
LINE
  5
260
100
AcDbEntity
  8
0
100
AcDbLine
 62
7
  6
BYLAYER
 10
36.2866724892
 20
43.7104119887
 11
8.9866724892
 21
43.7104119887
  0
LWPOLYLINE
  5
261
100
AcDbEntity
  8
0
100
AcDbPolyline
 62
7
  6
BYLAYER
 90
4
 70
0
 10
25.0426211695
 20
45.3026131465
 10
25.0315952725
 20
45.3038499282
 10
25.0205085503
 20
45.3051677903
 10
25.0093693012
 20
45.3065663174
  0
LINE
  5
262
100
AcDbEntity
  8
0
100
AcDbLine
 62
7
  6
BYLAYER
 10
24.998185783
 20
45.3080451883
 11
24.9869663079
 21
45.3096041537
  0
LWPOLYLINE
  5
263
100
AcDbEntity
  8
0
100
AcDbPolyline
 62
7
  6
BYLAYER
 90
34
 70
0
 10
24.9869663079
 20
45.3096041537
 10
24.974742621
 20
45.3113889457
 10
24.9624977006
 20
45.3132678476
 10
24.9502432803
 20
45.3152405856
 10
24.9379917422
 20
45.3173067986
 10
24.9257562359
 20
45.3194659767
 10
24.9135507804
 20
45.3217173955
 10
24.901390334
 20
45.3240600472
 10
24.8892908942
 20
45.3264925587
 10
24.8772666791
 20
45.3290137233
 10
24.8653370791
 20
45.331620998
 10
24.8535416971
 20
45.3343067385
 10
24.8419230888
 20
45.3370613619
 10
24.8305253718
 20
45.3398734439
 10
24.8193918535
 20
45.3427301428
 10
24.8085327164
 20
45.3456259019
 10
24.7979277438
 20
45.3485632847
 10
24.787556562
 20
45.351545693
 10
24.7773994732
 20
45.3545771567
 10
24.7674373797
 20
45.3576623648
 10
24.7576515823
 20
45.3608067515
 10
24.7481008196
 20
45.363990378
 10
24.7387606324
 20
45.3672196713
 10
24.7295352782
 20
45.3705282437
 10
24.7204203955
 20
45.3739205451
 10
24.7114548554
 20
45.3773860883
 10
24.7026475383
 20
45.3809257116
 10
24.6940385922
 20
45.3845275619
 10
24.6857289093
 20
45.3881514638
 10
24.6781426065
 20
45.3916011822
 10
24.670718589
 20
45.3951254514
 10
24.6629528079
 20
45.3989956996
 10
24.6552447002
 20
45.4030681723
 10
24.6486915427
 20
45.4067882109
  0
LWPOLYLINE
  5
264
100
AcDbEntity
  8
0
100
AcDbPolyline
 62
7
  6
BYLAYER
 90
4
 70
0
 10
28.1632439405
 20
45.2336499495
 10
28.9725270809
 20
45.1100848606
 10
29.734593541
 20
45.2737492349
 10
30.3404718511
 20
45.6946285221
  0
LWPOLYLINE
  5
265
100
AcDbEntity
  8
0
100
AcDbPolyline
 62
7
  6
BYLAYER
 90
12
 70
0
 10
25.0349301433
 20
45.1649880362
 10
25.0421744126
 20
45.1637567847
 10
25.049251502
 20
45.1627396218
 10
25.056156702
 20
45.1619281181
 10
25.0628751353
 20
45.1613140315
 10
25.0693859596
 20
45.1608877722
 10
25.0756654418
 20
45.1606375843
 10
25.0816789937
 20
45.1605492658
 10
25.0874513403
 20
45.1606065123
 10
25.093048624
 20
45.1607973383
 10
25.0985201582
 20
45.1611147334
 10
25.1037574629
 20
45.1615411794
  0
LINE
  5
266
100
AcDbEntity
  8
0
100
AcDbLine
 62
7
  6
BYLAYER
 10
25.3331452705
 20
45.1486904696
 11
25.3470051406
 21
45.1461932106
  0
LINE
  5
267
100
AcDbEntity
  8
0
100
AcDbLine
 62
7
  6
BYLAYER
 10
25.347011186
 20
45.1452294518
 11
25.3615432533
 21
45.1434592334
  0
LINE
  5
268
100
AcDbEntity
  8
0
100
AcDbLine
 62
7
  6
BYLAYER
 10
25.3594370001
 20
45.1429335956
 11
25.3767011539
 21
45.1404907348
  0
LINE
  5
269
100
AcDbEntity
  8
0
100
AcDbLine
 62
7
  6
BYLAYER
 10
25.3721726606
 20
45.1404933361
 11
25.3852067951
 21
45.1379088823
  0
LWPOLYLINE
  5
26A
100
AcDbEntity
  8
0
100
AcDbPolyline
 62
7
  6
BYLAYER
 90
48
 70
0
 10
25.0275214297
 20
45.1664416059
 10
25.0386634361
 20
45.1635693436
 10
25.0453582561
 20
45.1623801475
 10
25.0519556768
 20
45.1613548627
 10
25.0584560481
 20
45.160489404
 10
25.0648593638
 20
45.1597797365
 10
25.0711653792
 20
45.1592218247
 10
25.0773529244
 20
45.1588127344
 10
25.0833772541
 20
45.1585483785
 10
25.0892648443
 20
45.1584199107
 10
25.095046008
 20
45.1584208118
 10
25.1007539159
 20
45.1585472239
 10
25.1064331934
 20
45.1587986855
 10
25.1121389134
 20
45.1591791893
 10
25.1178764453
 20
45.1596918245
 10
25.1234086543
 20
45.1603091203
 10
25.1288689796
 20
45.161033923
 10
25.1350488026
 20
45.1619789399
 10
25.1396441658
 20
45.1627274275
 10
25.1413248626
 20
45.1629845813
 10
25.1424869747
 20
45.1631470064
 10
25.1438216049
 20
45.1633156659
 10
25.1453153464
 20
45.1634827102
 10
25.1469985207
 20
45.1636460539
 10
25.149040699
 20
45.1638133408
 10
25.1517465641
 20
45.1639957776
 10
25.1550874558
 20
45.1641747049
 10
25.1590138871
 20
45.1643324575
 10
25.1634807555
 20
45.1644540357
 10
25.1684384565
 20
45.1645265554
 10
25.1738360053
 20
45.1645393569
 10
25.1796459696
 20
45.1644835811
 10
25.1858397288
 20
45.1643513796
 10
25.192391188
 20
45.1641358219
 10
25.199281843
 20
45.1638304872
 10
25.2065785852
 20
45.1634254014
 10
25.2143282323
 20
45.1629121893
 10
25.2225001186
 20
45.1622872695
 10
25.2310675916
 20
45.1615477708
 10
25.2400068489
 20
45.1606913803
 10
25.2492969721
 20
45.1597161563
 10
25.2589200027
 20
45.1586203542
 10
25.2688610452
 20
45.1574022627
 10
25.2791090756
 20
45.1560599511
 10
25.2896572892
 20
45.1545910544
 10
25.3004971833
 20
45.1529934989
 10
25.3116435262
 20
45.1512619877
 10
25.3231138925
 20
45.1493917021
  0
LINE
  5
26B
100
AcDbEntity
  8
0
100
AcDbLine
 62
7
  6
BYLAYER
 10
25.3767011539
 20
45.1404907348
 11
25.3985292868
 21
45.1351803931
  0
LINE
  5
26C
100
AcDbEntity
  8
0
100
AcDbLine
 62
7
  6
BYLAYER
 10
25.3923925632
 20
45.1372975555
 11
25.4121312152
 21
45.1323079383
  0
LINE
  5
26D
100
AcDbEntity
  8
0
100
AcDbLine
 62
7
  6
BYLAYER
 10
25.4085313218
 20
45.1338921229
 11
25.4260049657
 21
45.1292914295
  0
LINE
  5
26E
100
AcDbEntity
  8
0
100
AcDbLine
 62
7
  6
BYLAYER
 10
25.0199505138
 20
45.168125428
 11
25.0318706528
 21
45.1649265972
  0
LINE
  5
26F
100
AcDbEntity
  8
0
100
AcDbLine
 62
7
  6
BYLAYER
 10
25.4250323671
 20
45.1302890915
 11
25.4545513765
 21
45.1228232249
  0
LINE
  5
270
100
AcDbEntity
  8
0
100
AcDbLine
 62
7
  6
BYLAYER
 10
25.4418193476
 20
45.1265034213
 11
25.4692423507
 21
45.1193649268
  0
LINE
  5
271
100
AcDbEntity
  8
0
100
AcDbLine
 62
7
  6
BYLAYER
 10
25.4588878735
 20
45.1225356553
 11
25.4842174226
 21
45.1157552599
  0
LINE
  5
272
100
AcDbEntity
  8
0
100
AcDbLine
 62
7
  6
BYLAYER
 10
25.4762513756
 20
45.118383771
 11
25.4994752137
 21
45.1119941961
  0
LINE
  5
273
100
AcDbEntity
  8
0
100
AcDbLine
 62
7
  6
BYLAYER
 10
25.4939111224
 20
45.1140485707
 11
25.5150201586
 21
45.1080802411
  0
LINE
  5
274
100
AcDbEntity
  8
0
100
AcDbLine
 62
7
  6
BYLAYER
 10
25.5118701375
 20
45.1095302222
 11
25.5470187094
 21
45.0997793832
  0
LINE
  5
275
100
AcDbEntity
  8
0
100
AcDbLine
 62
7
  6
BYLAYER
 10
25.5301330759
 20
45.1048282652
 11
25.5634981589
 21
45.0953841613
  0
LINE
  5
276
100
AcDbEntity
  8
0
100
AcDbLine
 62
7
  6
BYLAYER
 10
25.5487062151
 20
45.0999415923
 11
25.5803165435
 21
45.0908193763
  0
LINE
  5
277
100
AcDbEntity
  8
0
100
AcDbLine
 62
7
  6
BYLAYER
 10
25.5675974752
 20
45.0948684242
 11
25.5974892467
 21
45.0860796057
  0
LINE
  5
278
100
AcDbEntity
  8
0
100
AcDbLine
 62
7
  6
BYLAYER
 10
25.5868164656
 20
45.0896062769
 11
25.6150327666
 21
45.0811588728
  0
LINE
  5
279
100
AcDbEntity
  8
0
100
AcDbLine
 62
7
  6
BYLAYER
 10
25.606374559
 20
45.0841519218
 11
25.63296342
 21
45.0760510079
  0
LINE
  5
27A
100
AcDbEntity
  8
0
100
AcDbLine
 62
7
  6
BYLAYER
 10
25.6262849914
 20
45.0785013353
 11
25.6672258848
 21
45.066591047
  0
LINE
  5
27B
100
AcDbEntity
  8
0
100
AcDbLine
 62
7
  6
BYLAYER
 10
25.6512811291
 20
45.0707543878
 11
25.6890292642
 21
45.0596030799
  0
LINE
  5
27C
100
AcDbEntity
  8
0
100
AcDbLine
 62
7
  6
BYLAYER
 10
25.6890292642
 20
45.0596030799
 11
25.7281846416
 21
45.047722394
  0
LINE
  5
27D
100
AcDbEntity
  8
0
100
AcDbLine
 62
7
  6
BYLAYER
 10
25.7098120275
 20
45.0538174364
 11
25.7545209348
 21
45.0400215138
  0
LWPOLYLINE
  5
27E
100
AcDbEntity
  8
0
100
AcDbPolyline
 62
7
  6
BYLAYER
 90
11
 70
0
 10
27.0118793141
 20
48.0730310637
 10
26.7203228151
 20
48.2782718819
 10
26.4080605282
 20
48.5051856121
 10
26.0705931768
 20
48.7534233091
 10
25.7018851284
 20
49.0226041476
 10
25.2938071671
 20
49.3116587122
 10
24.8343909934
 20
49.617242911
 10
24.3068853804
 20
49.9318380131
 10
23.6868530791
 20
50.237550742
 10
22.9410641919
 20
50.4928906165
 10
22.0366724904
 20
50.6091196676
  0
LINE
  5
27F
100
AcDbEntity
  8
0
100
AcDbLine
 62
7
  6
BYLAYER
 10
27.8466788946
 20
48.1880116082
 11
27.891096649
 21
48.1440038239
  0
LINE
  5
280
100
AcDbEntity
  8
0
100
AcDbLine
 62
7
  6
BYLAYER
 10
31.3209673149
 20
44.7141330582
 11
27.4264651388
 21
48.6086352344
  0
LINE
  5
281
100
AcDbEntity
  8
0
100
AcDbLine
 62
7
  6
BYLAYER
 10
32.0676862053
 20
44.1088355241
 11
26.8350960245
 21
49.3414257049
  0
LWPOLYLINE
  5
282
100
AcDbEntity
  8
0
100
AcDbPolyline
 62
7
  6
BYLAYER
 90
28
 70
0
 10
27.7355251951
 20
48.3825453389
 10
27.7213518509
 20
48.396872863
 10
27.7075637728
 20
48.410262726
 10
27.694148967
 20
48.4227717847
 10
27.6810945171
 20
48.4344545138
 10
27.6683863461
 20
48.4453630374
 10
27.6560098318
 20
48.455546502
 10
27.6439503684
 20
48.4650506709
 10
27.6321938603
 20
48.4739177077
 10
27.6207271744
 20
48.4821860922
 10
27.6095460389
 20
48.4898856087
 10
27.5986902384
 20
48.4970163158
 10
27.5882142998
 20
48.5035732869
 10
27.5781708676
 20
48.5095582071
 10
27.568611058
 20
48.5149784741
 10
27.5595608931
 20
48.5198588859
 10
27.5509844254
 20
48.524256276
 10
27.5428382679
 20
48.5282257589
 10
27.5350989811
 20
48.5318087266
 10
27.5277102298
 20
48.5350576709
 10
27.5206322117
 20
48.538012242
 10
27.513861714
 20
48.5406945282
 10
27.50737802
 20
48.5431327099
 10
27.5011798166
 20
48.5453465045
 10
27.4952943601
 20
48.547346223
 10
27.4897598646
 20
48.5491407605
 10
27.4846475682
 20
48.5507313105
 10
27.4801903488
 20
48.5520738791
  0
LWPOLYLINE
  5
283
100
AcDbEntity
  8
0
100
AcDbPolyline
 62
7
  6
BYLAYER
 90
4
 70
0
 10
27.891096649
 20
48.1440038239
 10
27.9332932329
 20
48.1012072263
 10
27.9743836609
 20
48.0576734303
 10
28.0096496747
 20
48.0168706464
  0
LINE
  5
284
100
AcDbEntity
  8
0
100
AcDbLine
 62
7
  6
BYLAYER
 10
31.2366724892
 20
51.3604119887
 11
31.2366724892
 21
53.9604119887
  0
LINE
  5
285
100
AcDbEntity
  8
0
100
AcDbLine
 62
7
  6
BYLAYER
 10
29.0500423148
 20
46.9850580584
 11
29.1207529929
 21
47.0557687365
  0
LINE
  5
286
100
AcDbEntity
  8
0
100
AcDbLine
 62
7
  6
BYLAYER
 10
29.0847542094
 20
46.9503461638
 11
29.1554648875
 21
47.0210568419
  0
LINE
  5
287
100
AcDbEntity
  8
0
100
AcDbLine
 62
7
  6
BYLAYER
 10
29.6766066642
 20
46.3584937089
 11
29.7473173423
 21
46.4292043871
  0
LINE
  5
288
100
AcDbEntity
  8
0
100
AcDbLine
 62
7
  6
BYLAYER
 10
29.6961807109
 20
46.3389196623
 11
29.766891389
 21
46.4096303404
  0
LINE
  5
289
100
AcDbEntity
  8
0
100
AcDbLine
 62
7
  6
BYLAYER
 10
29.5465246631
 20
46.2338749952
 11
29.6784839746
 21
46.3566163985
  0
LWPOLYLINE
  5
28A
100
AcDbEntity
  8
0
100
AcDbPolyline
 62
7
  6
BYLAYER
 90
6
 70
0
 10
29.6943114823
 20
46.3407888909
 10
29.6495645451
 20
46.3020430342
 10
29.617631203
 20
46.2837044856
 10
29.593091696
 20
46.2768803419
 10
29.5621059975
 20
46.2738592548
 10
29.5210555225
 20
46.2747444115
  0
LWPOLYLINE
  5
28B
100
AcDbEntity
  8
0
100
AcDbPolyline
 62
7
  6
BYLAYER
 90
27
 70
0
 10
25.2258376608
 20
45.2002200224
 10
25.2316380209
 20
45.2041962337
 10
25.2369118663
 20
45.207953476
 10
25.2408132976
 20
45.2108291579
 10
25.2450547382
 20
45.2140523425
 10
25.250271282
 20
45.2181583284
 10
25.2558157979
 20
45.2227001435
 10
25.26178253
 20
45.2278033967
 10
25.2679809816
 20
45.2333584414
 10
25.2743439573
 20
45.2393538715
 10
25.2806984135
 20
45.2456646244
 10
25.2869926237
 20
45.2522640368
 10
25.2932082891
 20
45.259163234
 10
25.2993264273
 20
45.2663831173
 10
25.3054044591
 20
45.2740589636
 10
25.3112834281
 20
45.2820462591
 10
25.3170178202
 20
45.2904425958
 10
25.3227135626
 20
45.2994724019
 10
25.3283309051
 20
45.3092154867
 10
25.3333041624
 20
45.3188206488
 10
25.3370981347
 20
45.3272287112
 10
25.3396157304
 20
45.3339778731
 10
25.34122495
 20
45.3396136661
 10
25.3422770793
 20
45.345178391
 10
25.3428068133
 20
45.3508724694
 10
25.3428522946
 20
45.357012104
 10
25.3423466568
 20
45.3643282275
  0
LWPOLYLINE
  5
28C
100
AcDbEntity
  8
0
100
AcDbPolyline
 62
7
  6
BYLAYER
 90
22
 70
0
 10
25.1423160571
 20
45.1662713213
 10
25.1469695899
 20
45.166490299
 10
25.1523252758
 20
45.1666602529
 10
25.158281339
 20
45.1667620147
 10
25.1647351316
 20
45.1667817018
 10
25.1716298801
 20
45.1667096123
 10
25.1789222446
 20
45.166537967
 10
25.1865697579
 20
45.1662605591
 10
25.1945580767
 20
45.1658713454
 10
25.202960846
 20
45.1653616936
 10
25.2117631591
 20
45.1647289245
 10
25.2209435358
 20
45.1639711955
 10
25.2304929721
 20
45.1630858906
 10
25.2403882905
 20
45.1620718911
 10
25.2506155819
 20
45.1609275428
 10
25.2611844294
 20
45.159648442
 10
25.2721091136
 20
45.1582289378
 10
25.2834086663
 20
45.1566619693
 10
25.2951068376
 20
45.1549389046
 10
25.3072580811
 20
45.1530457382
 10
25.3199188224
 20
45.1509681462
 10
25.334903564
 20
45.1473814462
  0
LINE
  5
28D
100
AcDbEntity
  8
0
100
AcDbLine
 62
7
  6
BYLAYER
 10
8.9866724892
 20
44.8604119887
 11
37.9866724892
 21
44.8604119887
  0
LWPOLYLINE
  5
28E
100
AcDbEntity
  8
0
100
AcDbPolyline
 62
7
  6
BYLAYER
 90
6
 70
0
 10
20.3952206975
 20
47.6076536673
 10
22.2570437256
 20
47.4393343819
 10
23.7572963419
 20
47.243790804
 10
24.9850394666
 20
47.0540507492
 10
25.9779108926
 20
46.8860210371
 10
26.8032491873
 20
46.7486038312
  0
LWPOLYLINE
  5
28F
100
AcDbEntity
  8
0
100
AcDbPolyline
 62
7
  6
BYLAYER
 90
3
 70
0
 10
29.1013813109
 20
45.8094508997
 10
28.8148509493
 20
45.8599125208
 10
28.5089314614
 20
45.933974203
  0
LWPOLYLINE
  5
290
100
AcDbEntity
  8
0
100
AcDbPolyline
 62
7
  6
BYLAYER
 90
12
 70
0
 10
25.7621065883
 20
47.8554574593
 10
25.4097368627
 20
47.9187940382
 10
25.0355302377
 20
47.983999944
 10
24.638210506
 20
48.0504681596
 10
24.2160364283
 20
48.1174457954
 10
23.7669798775
 20
48.1839223486
 10
23.2887490406
 20
48.2485092244
 10
22.7781007541
 20
48.3093271303
 10
22.2314521573
 20
48.3636384948
 10
21.6436208832
 20
48.4074229008
 10
21.0086388371
 20
48.4344096302
 10
20.3192361303
 20
48.4343529423
  0
LINE
  5
291
100
AcDbEntity
  8
0
100
AcDbLine
 62
7
  6
BYLAYER
 10
26.4060234542
 20
47.7361048342
 11
25.7621065883
 21
47.8554574593
  0
LINE
  5
292
100
AcDbEntity
  8
0
100
AcDbLine
 62
7
  6
BYLAYER
 10
27.2273788699
 20
47.5808623569
 11
26.4060234542
 21
47.7361048342
  0
LWPOLYLINE
  5
293
100
AcDbEntity
  8
0
100
AcDbPolyline
 62
7
  6
BYLAYER
 90
9
 70
0
 10
22.0366724888
 20
48.409123089
 10
22.6230773375
 20
48.2928242629
 10
23.2960887779
 20
47.9765003258
 10
24.0645574513
 20
47.486610875
 10
24.9822232277
 20
46.8227098223
 10
26.1579135281
 20
45.9998653616
 10
27.2965999486
 20
45.4084210438
 10
28.2980060922
 20
45.1864370903
 10
29.1738735407
 20
45.2944181377
  0
LWPOLYLINE
  5
294
100
AcDbEntity
  8
0
100
AcDbPolyline
 62
7
  6
BYLAYER
 90
14
 70
0
 10
28.7316085979
 20
46.9401039935
 10
28.6819297467
 20
46.9520907128
 10
28.631254476
 20
46.9650204382
 10
28.580088921
 20
46.9791621212
 10
28.5305110988
 20
46.9942473637
 10
28.4850882381
 20
47.0095700065
 10
28.4413360938
 20
47.0257899231
 10
28.397877699
 20
47.0431272196
 10
28.3519540689
 20
47.0625060343
 10
28.2936910958
 20
47.0881871907
 10
28.2170511854
 20
47.1232018169
 10
28.1392596637
 20
47.1599201762
 10
28.0610241926
 20
47.1978357094
 10
27.8955419129
 20
47.2787605722
  0
LINE
  5
295
100
AcDbEntity
  8
0
100
AcDbLine
 62
7
  6
BYLAYER
 10
25.7379250573
 20
48.1163274813
 11
25.7337613499
 21
48.1173512055
  0
LWPOLYLINE
  5
296
100
AcDbEntity
  8
0
100
AcDbPolyline
 62
7
  6
BYLAYER
 90
3
 70
0
 10
28.8761389441
 20
46.9051664869
 10
28.8291447214
 20
46.9169005353
 10
28.7316085979
 20
46.9401039935
  0
LWPOLYLINE
  5
297
100
AcDbEntity
  8
0
100
AcDbPolyline
 62
7
  6
BYLAYER
 90
9
 70
0
 10
25.1105212524
 20
48.2961397978
 10
25.0261826974
 20
48.3207710665
 10
24.9094616502
 20
48.3562882818
 10
24.7755550273
 20
48.3955141417
 10
24.6326448336
 20
48.4327667958
 10
24.4858663742
 20
48.4664838153
 10
24.3332836326
 20
48.4982218122
 10
24.1739812876
 20
48.529668612
 10
23.8317644877
 20
48.5955864318
  0
LWPOLYLINE
  5
298
100
AcDbEntity
  8
0
100
AcDbPolyline
 62
7
  6
BYLAYER
 90
6
 70
0
 10
26.3292093336
 20
47.9297154109
 10
26.2314934799
 20
47.9669277865
 10
26.1264216859
 20
48.004590521
 10
26.0132230803
 20
48.0414334646
 10
25.8998853954
 20
48.0738818392
 10
25.7379250573
 20
48.1163274813
  0
LWPOLYLINE
  5
299
100
AcDbEntity
  8
0
100
AcDbPolyline
 62
7
  6
BYLAYER
 90
3
 70
0
 10
26.5730083596
 20
47.8339239392
 10
26.5066987624
 20
47.85972816
 10
26.3292093336
 20
47.9297154109
  0
LWPOLYLINE
  5
29A
100
AcDbEntity
  8
0
100
AcDbPolyline
 62
7
  6
BYLAYER
 90
6
 70
0
 10
27.8955419129
 20
47.2787605722
 10
27.8030863707
 20
47.3225424074
 10
27.7074834319
 20
47.3655859268
 10
27.6181459173
 20
47.4032786546
 10
27.566809306
 20
47.4241835597
 10
27.584459872
 20
47.4165005595
  0
LINE
  5
29B
100
AcDbEntity
  8
0
100
AcDbLine
 62
7
  6
BYLAYER
 10
34.8366724892
 20
37.7104119887
 11
34.8366724892
 21
42.7104119887
  0
LINE
  5
29C
100
AcDbEntity
  8
0
100
AcDbLine
 62
7
  6
BYLAYER
 10
30.35818986
 20
45.6769105132
 11
30.4289005381
 21
45.7476211913
  0
LINE
  5
29D
100
AcDbEntity
  8
0
100
AcDbLine
 62
7
  6
BYLAYER
 10
30.9847542094
 20
45.0503461638
 11
31.0554648875
 21
45.1210568419
  0
LINE
  5
29E
100
AcDbEntity
  8
0
100
AcDbLine
 62
7
  6
BYLAYER
 10
31.3096579471
 20
44.7254424261
 11
31.3803686252
 21
44.7961531042
  0
LWPOLYLINE
  5
29F
100
AcDbEntity
  8
0
100
AcDbPolyline
 62
7
  6
BYLAYER
 90
3
 70
0
 10
27.3097943892
 20
46.2768789985
 10
28.2837461488
 20
46.4608865666
 10
29.0670603742
 20
46.968039999
  0
LWPOLYLINE
  5
2A0
100
AcDbEntity
  8
0
100
AcDbPolyline
 62
7
  6
BYLAYER
 90
37
 70
0
 10
22.163065573
 20
49.2607819593
 10
21.966688253
 20
49.2814908478
 10
21.7658118549
 20
49.3017139596
 10
21.560261233
 20
49.3213676036
 10
21.3498453069
 20
49.3403580252
 10
21.1343753113
 20
49.3585778626
 10
20.9136632113
 20
49.3759036482
 10
20.6875242405
 20
49.3921945752
 10
20.4557692403
 20
49.4072913399
 10
20.2181319197
 20
49.4210174052
 10
19.9743056533
 20
49.433171212
 10
19.7239900612
 20
49.4435180976
 10
19.4668881739
 20
49.4517822191
 10
19.202710225
 20
49.457642636
 10
18.9310902097
 20
49.4607283113
 10
18.6515490372
 20
49.4606043582
 10
18.3636185889
 20
49.4567540924
 10
18.0668469644
 20
49.4485523048
 10
17.7607780059
 20
49.4352472698
 10
17.4447701909
 20
49.4159280568
 10
17.1181250323
 20
49.3894823676
 10
16.7802141565
 20
49.3545270539
 10
16.4304215709
 20
49.3093110416
 10
16.067933823
 20
49.2516165309
 10
15.6920440019
 20
49.1786395732
 10
15.302290668
 20
49.0866649326
 10
14.8984004541
 20
48.9707904782
 10
14.4806667855
 20
48.8246789545
 10
14.0507321765
 20
48.6396568109
 10
13.6124918865
 20
48.4043806946
 10
13.1735317335
 20
48.1047373449
 10
12.7478622975
 20
47.723753048
 10
12.3582440127
 20
47.2446636684
 10
12.0362155229
 20
46.6554910138
 10
11.8176488216
 20
45.9552739837
 10
11.7326195039
 20
45.1553614245
 10
11.7971425155
 20
44.2738061543
  0
LINE
  5
2A1
100
AcDbEntity
  8
0
100
AcDbLine
 62
7
  6
BYLAYER
 10
22.5427946907
 20
49.2182178358
 11
22.163065573
 21
49.2607819593
  0
LINE
  5
2A2
100
AcDbEntity
  8
0
100
AcDbLine
 62
7
  6
BYLAYER
 10
22.905908271
 20
49.1745692269
 11
22.5427946907
 21
49.2182178358
  0
LINE
  5
2A3
100
AcDbEntity
  8
0
100
AcDbLine
 62
7
  6
BYLAYER
 10
23.253333737
 20
49.1302701024
 11
22.905908271
 21
49.1745692269
  0
LINE
  5
2A4
100
AcDbEntity
  8
0
100
AcDbLine
 62
7
  6
BYLAYER
 10
23.5859466853
 20
49.0856690416
 11
23.253333737
 21
49.1302701024
  0
LINE
  5
2A5
100
AcDbEntity
  8
0
100
AcDbLine
 62
7
  6
BYLAYER
 10
23.9043555053
 20
49.0410780383
 11
23.5859466853
 21
49.0856690416
  0
LINE
  5
2A6
100
AcDbEntity
  8
0
100
AcDbLine
 62
7
  6
BYLAYER
 10
24.209132691
 20
48.9967572148
 11
23.9043555053
 21
49.0410780383
  0
LINE
  5
2A7
100
AcDbEntity
  8
0
100
AcDbLine
 62
7
  6
BYLAYER
 10
24.5008822119
 20
48.9529135212
 11
24.209132691
 21
48.9967572148
  0
LINE
  5
2A8
100
AcDbEntity
  8
0
100
AcDbLine
 62
7
  6
BYLAYER
 10
24.9151941337
 20
48.8884265581
 11
24.5008822119
 21
48.9529135212
  0
LINE
  5
2A9
100
AcDbEntity
  8
0
100
AcDbLine
 62
7
  6
BYLAYER
 10
25.3023665898
 20
48.8259899231
 11
24.9151941337
 21
48.8884265581
  0
LINE
  5
2AA
100
AcDbEntity
  8
0
100
AcDbLine
 62
7
  6
BYLAYER
 10
25.7779746995
 20
48.7467249337
 11
25.3023665898
 21
48.8259899231
  0
LINE
  5
2AB
100
AcDbEntity
  8
0
100
AcDbLine
 62
7
  6
BYLAYER
 10
26.3103861083
 20
48.6551360667
 11
25.7779746995
 21
48.7467249337
  0
LINE
  5
2AC
100
AcDbEntity
  8
0
100
AcDbLine
 62
7
  6
BYLAYER
 10
26.7810098055
 20
48.5724748576
 11
26.3103861083
 21
48.6551360667
  0
LWPOLYLINE
  5
2AD
100
AcDbEntity
  8
0
100
AcDbPolyline
 62
7
  6
BYLAYER
 90
15
 70
0
 10
21.4090864366
 20
48.9553427453
 10
20.8926241146
 20
49.0502057457
 10
20.3467261303
 20
49.1472784649
 10
19.7678167609
 20
49.2451232302
 10
19.1510291637
 20
49.3416072992
 10
18.4899877722
 20
49.4333703135
 10
17.7773737847
 20
49.5147369586
 10
17.0041489601
 20
49.5759811587
 10
16.1538929446
 20
49.5994610163
 10
15.2113895322
 20
49.5493853362
 10
14.1723407025
 20
49.3506689395
 10
13.0489280676
 20
48.8257620431
 10
12.2759071319
 20
48.0280353426
 10
11.8470514644
 20
46.9602001497
 10
11.7905990835
 20
45.6270134991
  0
LWPOLYLINE
  5
2AE
100
AcDbEntity
  8
0
100
AcDbPolyline
 62
7
  6
BYLAYER
 90
35
 70
0
 10
23.8317644877
 20
48.5955864318
 10
23.6496011247
 20
48.6291955092
 10
23.4614133668
 20
48.6622894344
 10
23.2675127736
 20
48.6941818664
 10
23.0672239035
 20
48.7242088658
 10
22.8597988111
 20
48.751565226
 10
22.6445816741
 20
48.775839739
 10
22.4208224439
 20
48.7970414486
 10
22.18801274
 20
48.8151855246
 10
21.9480491384
 20
48.830169838
 10
21.7041181164
 20
48.8419788303
 10
21.4597181634
 20
48.8504452885
 10
21.2180721287
 20
48.8550337485
 10
20.9816630635
 20
48.8553564781
 10
20.7510838162
 20
48.8511555138
 10
20.5263651847
 20
48.8422121089
 10
20.3077342683
 20
48.8284327055
 10
20.0956022695
 20
48.8098953964
 10
19.8899633195
 20
48.7866889974
 10
19.690668917
 20
48.7588924752
 10
19.4976013892
 20
48.7265881806
 10
19.3105491686
 20
48.6899174962
 10
19.1290317292
 20
48.6493041976
 10
18.9527026677
 20
48.6052377568
 10
18.7815632485
 20
48.5582151656
 10
18.6154289915
 20
48.5086040491
 10
18.4545425557
 20
48.4568518374
 10
18.2998219251
 20
48.4035491081
 10
18.1506726549
 20
48.3480136191
 10
18.0065271728
 20
48.2892336114
 10
17.8692250723
 20
48.2272802099
 10
17.7411457038
 20
48.1630507546
 10
17.6244144395
 20
48.0982741889
 10
17.5265998128
 20
48.0393761255
 10
17.4646443035
 20
48.0006484138
  0
LINE
  5
2AF
100
AcDbEntity
  8
0
100
AcDbLine
 62
7
  6
BYLAYER
 10
23.2358577774
 20
48.6126438636
 11
21.4090864366
 21
48.9553427453
  0
LWPOLYLINE
  5
2B0
100
AcDbEntity
  8
0
100
AcDbPolyline
 62
7
  6
BYLAYER
 90
3
 70
0
 10
27.4801903488
 20
48.5520738791
 10
27.4700276825
 20
48.5550684086
 10
27.466846395
 20
48.5560596277
  0
LINE
  5
2B1
100
AcDbEntity
  8
0
100
AcDbLine
 62
7
  6
BYLAYER
 10
35.4887500749
 20
47.5298993937
 11
30.2561598941
 21
52.7624895745
  0
LINE
  5
2B2
100
AcDbEntity
  8
0
100
AcDbLine
 62
7
  6
BYLAYER
 10
36.2866724892
 20
43.7104119887
 11
36.2866724892
 21
42.7104119887
  0
LINE
  5
2B3
100
AcDbEntity
  8
0
100
AcDbLine
 62
7
  6
BYLAYER
 10
35.4887500749
 20
47.5298993937
 11
32.0676862053
 21
44.1088355241
  0
LINE
  5
2B4
100
AcDbEntity
  8
0
100
AcDbLine
 62
7
  6
BYLAYER
 10
22.0366724885
 20
48.4091378304
 11
19.0366724892
 21
48.4091378304
  0
LINE
  5
2B5
100
AcDbEntity
  8
0
100
AcDbLine
 62
7
  6
BYLAYER
 10
37.9866724892
 20
50.1604119887
 11
37.9866724892
 21
44.8604119887
  0
LINE
  5
2B6
100
AcDbEntity
  8
0
100
AcDbLine
 62
7
  6
BYLAYER
 10
22.0366724898
 20
50.6091049254
 11
19.0366724892
 21
50.6091049254
  0
LINE
  5
2B7
100
AcDbEntity
  8
0
100
AcDbLine
 62
7
  6
BYLAYER
 10
14.7366724892
 20
51.3604119887
 11
31.2366724892
 21
51.3604119887
  0
LINE
  5
2B8
100
AcDbEntity
  8
0
100
AcDbLine
 62
7
  6
BYLAYER
 10
31.2366724892
 20
51.9104119887
 11
14.7366724892
 21
51.9104119887
  0
LINE
  5
2B9
100
AcDbEntity
  8
0
100
AcDbLine
 62
7
  6
BYLAYER
 10
14.7366724892
 20
52.9604119887
 11
18.6366724892
 21
52.9604119887
  0
LINE
  5
2BA
100
AcDbEntity
  8
0
100
AcDbLine
 62
7
  6
BYLAYER
 10
10.5866724892
 20
53.7104119887
 11
7.9866724892
 21
53.7104119887
  0
LINE
  5
2BB
100
AcDbEntity
  8
0
100
AcDbLine
 62
7
  6
BYLAYER
 10
17.5538297767
 20
53.9604119887
 11
31.2366724892
 21
53.9604119887
  0
LINE
  5
2BC
100
AcDbEntity
  8
0
100
AcDbLine
 62
7
  6
BYLAYER
 10
9.1866724892
 20
55.1604119887
 11
32.9866724892
 21
55.1604119887
  0
LINE
  5
2BD
100
AcDbEntity
  8
0
100
AcDbLine
 62
7
  6
BYLAYER
 10
52.9363764203
 20
55.671830793
 11
49.1939076549
 21
49.2879505044
  0
LINE
  5
2BE
100
AcDbEntity
  8
0
100
AcDbLine
 62
7
  6
BYLAYER
 10
61.3960322448
 20
47.2121749686
 11
55.0121519561
 21
43.4697062032
  0
ARC
  5
2BF
100
AcDbEntity
  8
0
100
AcDbCircle
 62
7
  6
BYLAYER
 10
3.7592165735
 20
72.4176190477
 40
36.2471325899
100
AcDbArc
 50
314.8415791279
 51
314.9996491561
  0
ARC
  5
2C0
100
AcDbEntity
  8
0
100
AcDbCircle
 62
7
  6
BYLAYER
 10
40.9503615906
 20
35.2261601388
 40
23.7
100
AcDbArc
 50
30.3804226091
 51
59.6195773909
  0
ARC
  5
2C1
100
AcDbEntity
  8
0
100
AcDbCircle
 62
7
  6
BYLAYER
 10
14.650349545
 20
61.5261332956
 40
21.895128528
100
AcDbArc
 50
314.7383882798
 51
315.000071959
  0
ARC
  5
2C2
100
AcDbEntity
  8
0
100
AcDbCircle
 62
7
  6
BYLAYER
 10
43.4790567023
 20
39.5395927663
 40
18.7
100
AcDbArc
 50
59.6195773909
 51
135.0
  0
ARC
  5
2C3
100
AcDbEntity
  8
0
100
AcDbCircle
 62
7
  6
BYLAYER
 10
40.9503615906
 20
35.2261601388
 40
16.3
100
AcDbArc
 50
30.3804226091
 51
59.6195773909
  0
ARC
  5
2C4
100
AcDbEntity
  8
0
100
AcDbCircle
 62
7
  6
BYLAYER
 10
43.4790567023
 20
39.5395927663
 40
11.3
100
AcDbArc
 50
59.6195773909
 51
135.0
  0
ARC
  5
2C5
100
AcDbEntity
  8
0
100
AcDbCircle
 62
7
  6
BYLAYER
 10
36.4353974941
 20
39.7400654407
 40
9.3865199766
100
AcDbArc
 50
134.9954300151
 51
135.6058462214
  0
ARC
  5
2C6
100
AcDbEntity
  8
0
100
AcDbCircle
 62
7
  6
BYLAYER
 10
33.1905519875
 20
42.9849223065
 40
5.779818054
100
AcDbArc
 50
134.9926578926
 51
135.9840139379
  0
ARC
  5
2C7
100
AcDbEntity
  8
0
100
AcDbCircle
 62
7
  6
BYLAYER
 10
32.9866724892
 20
50.1604119887
 40
5.0
100
AcDbArc
 50
0.0
 51
90.0
  0
ARC
  5
2C8
100
AcDbEntity
  8
0
100
AcDbCircle
 62
7
  6
BYLAYER
 10
25.3672496221
 20
50.8056865288
 40
4.8516254684
100
AcDbArc
 50
313.8489028624
 51
315.0299419254
  0
ARC
  5
2C9
100
AcDbEntity
  8
0
100
AcDbCircle
 62
7
  6
BYLAYER
 10
28.0507369914
 20
48.1253454593
 40
3.080328411
100
AcDbArc
 50
313.1453995235
 51
315.0057776439
  0
ARC
  5
2CA
100
AcDbEntity
  8
0
100
AcDbCircle
 62
7
  6
BYLAYER
 10
27.8098673421
 20
48.3660064743
 40
2.9105327358
100
AcDbArc
 50
313.0400699134
 51
315.0090188631
  0
ARC
  5
2CB
100
AcDbEntity
  8
0
100
AcDbCircle
 62
7
  6
BYLAYER
 10
26.5530155519
 20
49.4804990413
 40
2.7155385099
100
AcDbArc
 50
309.2629660731
 51
315.0236589121
  0
ARC
  5
2CC
100
AcDbEntity
  8
0
100
AcDbCircle
 62
7
  6
BYLAYER
 10
28.5207643097
 20
47.655239844
 40
2.2999621403
100
AcDbArc
 50
312.5171784326
 51
315.0091171858
  0
ARC
  5
2CD
100
AcDbEntity
  8
0
100
AcDbCircle
 62
7
  6
BYLAYER
 10
28.0607449578
 20
48.1135157478
 40
1.3647888504
100
AcDbArc
 50
310.8653893165
 51
315.0671193001
  0
ARC
  5
2CE
100
AcDbEntity
  8
0
100
AcDbCircle
 62
7
  6
BYLAYER
 10
9.1866724892
 20
53.9604119887
 40
1.2
100
AcDbArc
 50
90.0
 51
180.0
  0
SPLINE
  5
2CF
100
AcDbEntity
  8
0
100
AcDbSpline
 62
7
  6
BYLAYER
 70
0
 71
3
 72
10
 73
6
 74
0
 42
0.0000001
 43
0.0000001
 44
0.0000000001
 40
0.0
 40
0.0
 40
0.0
 40
0.0
 40
0.34944967
 40
0.6825603512
 40
1.0
 40
1.0
 40
1.0
 40
1.0
 10
28.6753912158
 20
47.5011305136
 30
0.0
 10
28.6671319956
 20
47.4928712934
 30
0.0
 10
28.6506995722
 20
47.4770342147
 30
0.0
 10
28.6256507498
 20
47.4548876759
 30
0.0
 10
28.608658214
 20
47.4412999432
 30
0.0
 10
28.6001797737
 20
47.4349205994
 30
0.0
  0
SPLINE
  5
2D0
100
AcDbEntity
  8
0
100
AcDbSpline
 62
7
  6
BYLAYER
 70
0
 71
3
 72
35
 73
31
 74
0
 42
0.0000001
 43
0.0000001
 44
0.0000000001
 40
0.0
 40
0.0
 40
0.0
 40
0.0
 40
0.016922894
 40
0.035862604
 40
0.0571345848
 40
0.0807965885
 40
0.106811461
 40
0.1350432887
 40
0.1653111433
 40
0.1974039235
 40
0.2310980792
 40
0.2661879771
 40
0.3024619565
 40
0.33969804
 40
0.4162380419
 40
0.4944444024
 40
0.5731553449
 40
0.6517831677
 40
0.6910891844
 40
0.7305271516
 40
0.7702947982
 40
0.8106913072
 40
0.8520809594
 40
0.87323678
 40
0.8947579577
 40
0.9166958881
 40
0.939050885
 40
0.961817457
 40
0.9849632513
 40
1.0
 40
1.0
 40
1.0
 40
1.0
 10
22.0366724888
 20
48.4092636425
 30
0.0
 10
22.08118214
 20
48.4092441032
 30
0.0
 10
22.1753009455
 20
48.4038362952
 30
0.0
 10
22.3237255625
 20
48.3802181893
 30
0.0
 10
22.4865877838
 20
48.339378509
 30
0.0
 10
22.6635482459
 20
48.2805920411
 30
0.0
 10
22.8531123342
 20
48.2033076611
 30
0.0
 10
23.0538021895
 20
48.1083297908
 30
0.0
 10
23.2638554762
 20
47.9964956437
 30
0.0
 10
23.4817855908
 20
47.8693815792
 30
0.0
 10
23.7061635988
 20
47.728499987
 30
0.0
 10
23.9360226566
 20
47.575895186
 30
0.0
 10
24.1705005612
 20
47.4135460062
 30
0.0
 10
24.4911738607
 20
47.1845524462
 30
0.0
 10
24.8969750315
 20
46.8853903332
 30
0.0
 10
25.3907703959
 20
46.5220512466
 30
0.0
 10
25.8963767486
 20
46.1656209394
 30
0.0
 10
26.3315107381
 20
45.8869121712
 30
0.0
 10
26.6915434131
 20
45.6837871282
 30
0.0
 10
26.9697152152
 20
45.5439320089
 30
0.0
 10
27.258204068
 20
45.4191938882
 30
0.0
 10
27.5599676823
 20
45.3141725671
 30
0.0
 10
27.822426266
 20
45.2475398439
 30
0.0
 10
28.040098098
 20
45.2101539851
 30
0.0
 10
28.208792666
 20
45.1909948443
 30
0.0
 10
28.3814975027
 20
45.1819592689
 30
0.0
 10
28.5577162272
 20
45.1842533316
 30
0.0
 10
28.7365212289
 20
45.1990968021
 30
0.0
 10
28.8947939186
 20
45.2239233854
 30
0.0
 10
28.9927347996
 20
45.245584382
 30
0.0
 10
29.031066761
 20
45.255069863
 30
0.0
  0
SPLINE
  5
2D1
100
AcDbEntity
  8
0
100
AcDbSpline
 62
7
  6
BYLAYER
 70
0
 71
3
 72
34
 73
30
 74
0
 42
0.0000001
 43
0.0000001
 44
0.0000000001
 40
0.0
 40
0.0
 40
0.0
 40
0.0
 40
0.0787099796
 40
0.1525172045
 40
0.2179270028
 40
0.2748590424
 40
0.3249475343
 40
0.3690345689
 40
0.4079871534
 40
0.4424676777
 40
0.4729569286
 40
0.4999238217
 40
0.5238107062
 40
0.5446503633
 40
0.5630148126
 40
0.5795756947
 40
0.595525817
 40
0.6116910773
 40
0.6293152585
 40
0.6491307647
 40
0.6717784732
 40
0.697455613
 40
0.7265985485
 40
0.7596658367
 40
0.7971285525
 40
0.8393781878
 40
0.886795208
 40
0.9400622554
 40
1.0
 40
1.0
 40
1.0
 40
1.0
 10
29.4050937746
 20
46.6300065985
 30
0.0
 10
29.3678066202
 20
46.5926997928
 30
0.0
 10
29.290510182
 20
46.5252528472
 30
0.0
 10
29.168258917
 20
46.4446036053
 30
0.0
 10
29.0496117455
 20
46.3871513071
 30
0.0
 10
28.9397822109
 20
46.350322799
 30
0.0
 10
28.8403939319
 20
46.3297531617
 30
0.0
 10
28.7513189729
 20
46.3219643504
 30
0.0
 10
28.6724156496
 20
46.3243433523
 30
0.0
 10
28.6033961301
 20
46.3349028059
 30
0.0
 10
28.5440263118
 20
46.3520403727
 30
0.0
 10
28.4941058677
 20
46.3744238794
 30
0.0
 10
28.4537183486
 20
46.4008678368
 30
0.0
 10
28.4229241416
 20
46.430224365
 30
0.0
 10
28.4016145906
 20
46.461292579
 30
0.0
 10
28.3891962484
 20
46.4933930309
 30
0.0
 10
28.3851696887
 20
46.5261001458
 30
0.0
 10
28.3892639471
 20
46.5594881742
 30
0.0
 10
28.4015715908
 20
46.5935184206
 30
0.0
 10
28.4224096461
 20
46.6282132061
 30
0.0
 10
28.4518532864
 20
46.6633060254
 30
0.0
 10
28.4898433236
 20
46.698819698
 30
0.0
 10
28.5362468549
 20
46.7351673608
 30
0.0
 10
28.591077007
 20
46.7733433953
 30
0.0
 10
28.6542473385
 20
46.8148335309
 30
0.0
 10
28.7253553753
 20
46.8617570916
 30
0.0
 10
28.8038380066
 20
46.9167071029
 30
0.0
 10
28.8891944175
 20
46.9823463619
 30
0.0
 10
28.9472813972
 20
47.0311705987
 30
0.0
 10
28.9777024163
 20
47.0573979568
 30
0.0
  0
SPLINE
  5
2D2
100
AcDbEntity
  8
0
100
AcDbSpline
 62
7
  6
BYLAYER
 70
0
 71
3
 72
42
 73
38
 74
0
 42
0.0000001
 43
0.0000001
 44
0.0000000001
 40
0.0
 40
0.0
 40
0.0
 40
0.0
 40
0.0705331234
 40
0.1358972309
 40
0.1962563295
 40
0.2511375968
 40
0.2994304561
 40
0.3411800506
 40
0.3774065814
 40
0.4090600678
 40
0.4368897378
 40
0.4614480911
 40
0.4831765882
 40
0.5024434321
 40
0.5195355376
 40
0.5347072835
 40
0.5482491194
 40
0.5601241208
 40
0.5708132523
 40
0.580887744
 40
0.5912862627
 40
0.6026294659
 40
0.61555016
 40
0.6302778522
 40
0.6469963926
 40
0.6658094469
 40
0.6868964532
 40
0.7104831493
 40
0.7369080567
 40
0.7664544545
 40
0.7995329394
 40
0.8366669473
 40
0.8738065275
 40
0.9068165888
 40
0.9365063481
 40
0.9662998691
 40
1.0
 40
1.0
 40
1.0
 40
1.0
 10
30.0618714022
 20
45.9732289709
 30
0.0
 10
30.0129035375
 20
45.9285892114
 30
0.0
 10
29.9140561863
 20
45.8473319299
 30
0.0
 10
29.7593962512
 20
45.7463059616
 30
0.0
 10
29.6074243055
 20
45.6699973427
 30
0.0
 10
29.4625419615
 20
45.6177664181
 30
0.0
 10
29.3294784686
 20
45.587416727
 30
0.0
 10
29.2112317488
 20
45.5749981091
 30
0.0
 10
29.1080238031
 20
45.5762356977
 30
0.0
 10
29.0186268935
 20
45.5874524964
 30
0.0
 10
28.9416916004
 20
45.6058705568
 30
0.0
 10
28.8760276063
 20
45.6294505342
 30
0.0
 10
28.8206497405
 20
45.6567003536
 30
0.0
 10
28.7747816639
 20
45.6865205664
 30
0.0
 10
28.7378856047
 20
45.718104026
 30
0.0
 10
28.709666945
 20
45.7508455413
 30
0.0
 10
28.6902616115
 20
45.7839651205
 30
0.0
 10
28.6797768559
 20
45.8165534693
 30
0.0
 10
28.6778851744
 20
45.8475020625
 30
0.0
 10
28.6837933049
 20
45.8765008689
 30
0.0
 10
28.6969301872
 20
45.9036583998
 30
0.0
 10
28.717348324
 20
45.9293119153
 30
0.0
 10
28.7452185336
 20
45.9533493855
 30
0.0
 10
28.7806435012
 20
45.9755495576
 30
0.0
 10
28.8234712405
 20
45.9956410756
 30
0.0
 10
28.8736366769
 20
46.0135141575
 30
0.0
 10
28.9312368442
 20
46.0291640167
 30
0.0
 10
28.9966786426
 20
46.0426896492
 30
0.0
 10
29.0705243578
 20
46.0543426977
 30
0.0
 10
29.1535517015
 20
46.0646481544
 30
0.0
 10
29.2467158888
 20
46.0747978352
 30
0.0
 10
29.3468515643
 20
46.0868615412
 30
0.0
 10
29.4462110763
 20
46.1043863182
 30
0.0
 10
29.5365205394
 20
46.1307609811
 30
0.0
 10
29.6154810937
 20
46.1679831724
 30
0.0
 10
29.6876183758
 20
46.2181687042
 30
0.0
 10
29.7315043193
 20
46.2588273782
 30
0.0
 10
29.7535879847
 20
46.2815123884
 30
0.0
  0
SPLINE
  5
2D3
100
AcDbEntity
  8
0
100
AcDbSpline
 62
7
  6
BYLAYER
 70
0
 71
3
 72
23
 73
19
 74
0
 42
0.0000001
 43
0.0000001
 44
0.0000000001
 40
0.0
 40
0.0
 40
0.0
 40
0.0
 40
0.0323078733
 40
0.0642308662
 40
0.1270173625
 40
0.188537914
 40
0.2490791001
 40
0.3088638818
 40
0.3680909724
 40
0.4268917637
 40
0.4853368841
 40
0.6010947486
 40
0.7146618754
 40
0.8247412735
 40
0.877853984
 40
0.9293190205
 40
0.9652247429
 40
1.0
 40
1.0
 40
1.0
 40
1.0
 10
22.0366724904
 20
50.6089791133
 30
0.0
 10
22.0977466085
 20
50.6089825553
 30
0.0
 10
22.2191354033
 20
50.6056476034
 30
0.0
 10
22.4585091749
 20
50.5864700765
 30
0.0
 10
22.7507302905
 20
50.5410571267
 30
0.0
 10
23.090237238
 20
50.4571605489
 30
0.0
 10
23.4167736331
 20
50.3490883089
 30
0.0
 10
23.7314543521
 20
50.2215747039
 30
0.0
 10
24.0354148858
 20
50.0779413184
 30
0.0
 10
24.3300295714
 20
49.9214230396
 30
0.0
 10
24.7105409815
 20
49.6996352101
 30
0.0
 10
25.1671445447
 20
49.4036811525
 30
0.0
 10
25.6907254403
 20
49.0330370191
 30
0.0
 10
26.1119593091
 20
48.7229855002
 30
0.0
 10
26.4386197926
 20
48.4824430718
 30
0.0
 10
26.6531895602
 20
48.326085254
 30
0.0
 10
26.8409855217
 20
48.1918445311
 30
0.0
 10
26.9504640284
 20
48.1153100282
 30
0.0
 10
27.0045776168
 20
48.0780131183
 30
0.0
  0
SPLINE
  5
2D4
100
AcDbEntity
  8
0
100
AcDbSpline
 62
7
  6
BYLAYER
 70
0
 71
3
 72
56
 73
52
 74
0
 42
0.0000001
 43
0.0000001
 44
0.0000000001
 40
0.0
 40
0.0
 40
0.0
 40
0.0
 40
0.0142884323
 40
0.026934753
 40
0.0390329052
 40
0.051811127
 40
0.0661194751
 40
0.0823761286
 40
0.1005493549
 40
0.1208366244
 40
0.1435619115
 40
0.1688963741
 40
0.1967246775
 40
0.2267836241
 40
0.2594739344
 40
0.2928416379
 40
0.3234800474
 40
0.3506259628
 40
0.3751160492
 40
0.3972324815
 40
0.4172486069
 40
0.4353614351
 40
0.4517663631
 40
0.4666229967
 40
0.4800410366
 40
0.4921138444
 40
0.5029432361
 40
0.5125923062
 40
0.5210991341
 40
0.5287032737
 40
0.5358808266
 40
0.5430566406
 40
0.5507790242
 40
0.5594506066
 40
0.5693509539
 40
0.5804619161
 40
0.592881883
 40
0.6067363059
 40
0.6221666554
 40
0.6393161196
 40
0.6583527565
 40
0.6794886572
 40
0.7029773782
 40
0.7291384099
 40
0.7583793221
 40
0.791249367
 40
0.8284570299
 40
0.8707185114
 40
0.9151555977
 40
0.9587205391
 40
1.0
 40
1.0
 40
1.0
 40
1.0
 10
28.6926850508
 20
47.3424153223
 30
0.0
 10
28.6725722048
 20
47.3277659988
 30
0.0
 10
28.6330195278
 20
47.3022362923
 30
0.0
 10
28.5703845048
 20
47.2748617047
 30
0.0
 10
28.5060404004
 20
47.2611902147
 30
0.0
 10
28.437563941
 20
47.2593707472
 30
0.0
 10
28.3623150692
 20
47.2666267703
 30
0.0
 10
28.2787540075
 20
47.2818519272
 30
0.0
 10
28.1859853858
 20
47.3037211376
 30
0.0
 10
28.0832050334
 20
47.3318640762
 30
0.0
 10
27.9689444575
 20
47.3651882526
 30
0.0
 10
27.8419846108
 20
47.4018773887
 30
0.0
 10
27.7020557385
 20
47.4396640495
 30
0.0
 10
27.5483883354
 20
47.4754496854
 30
0.0
 10
27.3837593494
 20
47.5060206757
 30
0.0
 10
27.2169222668
 20
47.5292232826
 30
0.0
 10
27.0589388642
 20
47.5449790958
 30
0.0
 10
26.9159648016
 20
47.5545955937
 30
0.0
 10
26.7875987621
 20
47.5593544818
 30
0.0
 10
26.6715622199
 20
47.5600562075
 30
0.0
 10
26.5666673573
 20
47.5571140367
 30
0.0
 10
26.4718856576
 20
47.5507696741
 30
0.0
 10
26.3864009778
 20
47.5412393486
 30
0.0
 10
26.3095834119
 20
47.5286164881
 30
0.0
 10
26.2410462893
 20
47.5128893934
 30
0.0
 10
26.1806121115
 20
47.4939612558
 30
0.0
 10
26.128354005
 20
47.4716955087
 30
0.0
 10
26.0846734675
 20
47.4460507834
 30
0.0
 10
26.0500276551
 20
47.4171609866
 30
0.0
 10
26.0245352161
 20
47.385208103
 30
0.0
 10
26.0080490813
 20
47.3502991895
 30
0.0
 10
26.00041819
 20
47.3122498298
 30
0.0
 10
26.0017657887
 20
47.2709050489
 30
0.0
 10
26.0124277698
 20
47.2261116637
 30
0.0
 10
26.032602336
 20
47.1783148233
 30
0.0
 10
26.062175211
 20
47.1280151539
 30
0.0
 10
26.1008707999
 20
47.0755435954
 30
0.0
 10
26.1487878218
 20
47.0208741091
 30
0.0
 10
26.2062874956
 20
46.9639378262
 30
0.0
 10
26.2739641417
 20
46.9047045099
 30
0.0
 10
26.3526971897
 20
46.8432590703
 30
0.0
 10
26.4437038777
 20
46.7798551448
 30
0.0
 10
26.5485910861
 20
46.7149772398
 30
0.0
 10
26.6693994303
 20
46.6493954987
 30
0.0
 10
26.8088611666
 20
46.5844863392
 30
0.0
 10
26.9705117922
 20
46.5225242533
 30
0.0
 10
27.1585618044
 20
46.4676707414
 30
0.0
 10
27.3709685369
 20
46.4274786119
 30
0.0
 10
27.5976871652
 20
46.4102770275
 30
0.0
 10
27.8231350359
 20
46.4198513579
 30
0.0
 10
27.9693585158
 20
46.4436523186
 30
0.0
 10
28.0395051322
 20
46.4593669234
 30
0.0
  0
SPLINE
  5
2D5
100
AcDbEntity
  8
0
100
AcDbSpline
 62
7
  6
BYLAYER
 70
0
 71
3
 72
49
 73
45
 74
0
 42
0.0000001
 43
0.0000001
 44
0.0000000001
 40
0.0
 40
0.0
 40
0.0
 40
0.0
 40
0.0483104795
 40
0.0962468644
 40
0.1410693195
 40
0.1806400034
 40
0.2148711067
 40
0.244934535
 40
0.2713892892
 40
0.2947432555
 40
0.3153745064
 40
0.3335475044
 40
0.3494945218
 40
0.3634295792
 40
0.3755245128
 40
0.3860276315
 40
0.395302889
 40
0.4039564093
 40
0.4126004522
 40
0.4219789028
 40
0.4327225621
 40
0.4453438914
 40
0.4600056329
 40
0.4768595554
 40
0.496044949
 40
0.5178071628
 40
0.5424762189
 40
0.5704492934
 40
0.6022351146
 40
0.6384067815
 40
0.6788906199
 40
0.7219534512
 40
0.7627645932
 40
0.7987554891
 40
0.82975086
 40
0.8567903815
 40
0.8807088502
 40
0.9019759212
 40
0.9210266946
 40
0.938177423
 40
0.954006305
 40
0.9691267351
 40
0.9842683773
 40
1.0
 40
1.0
 40
1.0
 40
1.0
 10
29.031066761
 20
45.255069863
 30
0.0
 10
28.9629159503
 20
45.2388576694
 30
0.0
 10
28.8253411706
 20
45.2135479967
 30
0.0
 10
28.6207947442
 20
45.1995951585
 30
0.0
 10
28.4286990861
 20
45.20937345
 30
0.0
 10
28.2587028324
 20
45.2378173726
 30
0.0
 10
28.1133437563
 20
45.2781967785
 30
0.0
 10
27.9904167882
 20
45.3257100725
 30
0.0
 10
27.8865975449
 20
45.3774104572
 30
0.0
 10
27.7995609423
 20
45.431136005
 30
0.0
 10
27.727473924
 20
45.4854669185
 30
0.0
 10
27.6690053204
 20
45.5393856222
 30
0.0
 10
27.6232160355
 20
45.592128344
 30
0.0
 10
27.5894916512
 20
45.6430477375
 30
0.0
 10
27.5674744037
 20
45.691529189
 30
0.0
 10
27.5568191362
 20
45.7368686283
 30
0.0
 10
27.5569972856
 20
45.7785311946
 30
0.0
 10
27.5674057567
 20
45.816124691
 30
0.0
 10
27.5875745279
 20
45.8496436934
 30
0.0
 10
27.6174173122
 20
45.8792987637
 30
0.0
 10
27.6575305494
 20
45.9052163492
 30
0.0
 10
27.7084156124
 20
45.9269925298
 30
0.0
 10
27.7702352333
 20
45.9441244853
 30
0.0
 10
27.8428671768
 20
45.9561876976
 30
0.0
 10
27.9264935804
 20
45.9628954302
 30
0.0
 10
28.0216950368
 20
45.9639762277
 30
0.0
 10
28.1295237019
 20
45.9591648538
 30
0.0
 10
28.2514778645
 20
45.9480354073
 30
0.0
 10
28.3894472157
 20
45.9300928973
 30
0.0
 10
28.5447156106
 20
45.9051320651
 30
0.0
 10
28.7155473195
 20
45.874250379
 30
0.0
 10
28.892901518
 20
45.8416546927
 30
0.0
 10
29.0644537107
 20
45.8135766158
 30
0.0
 10
29.2196031336
 20
45.7941448455
 30
0.0
 10
29.3556306817
 20
45.7839150128
 30
0.0
 10
29.4745363558
 20
45.7822046488
 30
0.0
 10
29.5792049723
 20
45.7876422207
 30
0.0
 10
29.6717394406
 20
45.7990403981
 30
0.0
 10
29.7534463409
 20
45.815941119
 30
0.0
 10
29.8257404783
 20
45.8379141255
 30
0.0
 10
29.8902452428
 20
45.8647716437
 30
0.0
 10
29.9488646823
 20
45.8971922984
 30
0.0
 10
30.0030004793
 20
45.9364195258
 30
0.0
 10
30.0359431878
 20
45.9668991598
 30
0.0
 10
30.0518629491
 20
45.9832372163
 30
0.0
  0
SPLINE
  5
2D6
100
AcDbEntity
  8
0
100
AcDbSpline
 62
7
  6
BYLAYER
 70
0
 71
3
 72
15
 73
11
 74
0
 42
0.0000001
 43
0.0000001
 44
0.0000000001
 40
0.0
 40
0.0
 40
0.0
 40
0.0
 40
0.0993563198
 40
0.2018284841
 40
0.3108984123
 40
0.4309659871
 40
0.5642854254
 40
0.7073658455
 40
0.8545811383
 40
1.0
 40
1.0
 40
1.0
 40
1.0
 10
30.1566583736
 20
45.8784421368
 30
0.0
 10
30.1252828486
 20
45.8489244274
 30
0.0
 10
30.0601449412
 20
45.7904336491
 30
0.0
 10
29.9555532721
 20
45.7053144752
 30
0.0
 10
29.839394975
 20
45.6204670539
 30
0.0
 10
29.7073862791
 20
45.5350334379
 30
0.0
 10
29.557391716
 20
45.4508102315
 30
0.0
 10
29.3912125155
 20
45.3721958538
 30
0.0
 10
29.2145459825
 20
45.3047276979
 30
0.0
 10
29.0924045368
 20
45.2696613239
 30
0.0
 10
29.031066761
 20
45.255069863
 30
0.0
  0
SPLINE
  5
2D7
100
AcDbEntity
  8
0
100
AcDbSpline
 62
7
  6
BYLAYER
 70
0
 71
3
 72
113
 73
109
 74
0
 42
0.0000001
 43
0.0000001
 44
0.0000000001
 40
0.0
 40
0.0
 40
0.0
 40
0.0
 40
0.0009616459
 40
0.0020607169
 40
0.0036496363
 40
0.0049668137
 40
0.0064928572
 40
0.0082524735
 40
0.0102028074
 40
0.0121906019
 40
0.0141091132
 40
0.0159836507
 40
0.0177361789
 40
0.0193017336
 40
0.0211418189
 40
0.0227374461
 40
0.0240127809
 40
0.0250244446
 40
0.025825951
 40
0.0264621583
 40
0.0272089175
 40
0.027896664
 40
0.0281466915
 40
0.0286188059
 40
0.0293429959
 40
0.0299315579
 40
0.0305619537
 40
0.0313282989
 40
0.0322563307
 40
0.0333755859
 40
0.0346230417
 40
0.0352246899
 40
0.0358957194
 40
0.0366394158
 40
0.037458992
 40
0.0383575368
 40
0.0393379684
 40
0.0404029924
 40
0.0415550637
 40
0.042796354
 40
0.044128731
 40
0.0455538596
 40
0.0470731652
 40
0.0486877139
 40
0.0503981898
 40
0.052204879
 40
0.0541076565
 40
0.056105977
 40
0.0581988682
 40
0.0603849272
 40
0.0626623117
 40
0.06502865
 40
0.0674810607
 40
0.0700162163
 40
0.0726303545
 40
0.0753192918
 40
0.0780784384
 40
0.0809028149
 40
0.0837870709
 40
0.0867255407
 40
0.0897125064
 40
0.0927420588
 40
0.0958079778
 40
0.0989037502
 40
0.1020225889
 40
0.1051574539
 40
0.108301072
 40
0.1114459582
 40
0.1145844364
 40
0.1177086609
 40
0.1208106371
 40
0.1238822424
 40
0.1260917903
 40
0.127808628
 40
0.1296157529
 40
0.1315909605
 40
0.1338142505
 40
0.1363682478
 40
0.1393387716
 40
0.1428155209
 40
0.1468928466
 40
0.1516708018
 40
0.1572561388
 40
0.1637630726
 40
0.1713140095
 40
0.1800400418
 40
0.1900810824
 40
0.2015854927
 40
0.2147090378
 40
0.2296134173
 40
0.2464671696
 40
0.2654423258
 40
0.2867089297
 40
0.310429498
 40
0.3367581656
 40
0.3658385027
 40
0.3977910715
 40
0.4327170277
 40
0.4707106751
 40
0.511851637
 40
0.5534395815
 40
0.5986870798
 40
0.6499330878
 40
0.7094453997
 40
0.7761970076
 40
0.8485853431
 40
0.9236451652
 40
1.0
 40
1.0
 40
1.0
 40
1.0
 10
25.2296769609
 20
45.2957743025
 30
0.0
 10
25.2284900576
 20
45.2939814682
 30
0.0
 10
25.2267345118
 20
45.289680708
 30
0.0
 10
25.2231108997
 20
45.2823842557
 30
0.0
 10
25.2189731168
 20
45.2744335597
 30
0.0
 10
25.2139540722
 20
45.2658869216
 30
0.0
 10
25.2084420437
 20
45.2571937464
 30
0.0
 10
25.2018397726
 20
45.2475233357
 30
0.0
 10
25.194291546
 20
45.2372573524
 30
0.0
 10
25.1861403492
 20
45.2270048117
 30
0.0
 10
25.1776910068
 20
45.2172182148
 30
0.0
 10
25.1691519024
 20
45.2082215133
 30
0.0
 10
25.1607884096
 20
45.2001640795
 30
0.0
 10
25.1521733226
 20
45.1924922429
 30
0.0
 10
25.1435157687
 20
45.1854106846
 30
0.0
 10
25.1350541316
 20
45.1791227093
 30
0.0
 10
25.1278835375
 20
45.1742513939
 30
0.0
 10
25.1219656845
 20
45.1706110917
 30
0.0
 10
25.1173082017
 20
45.1679397798
 30
0.0
 10
25.1126441973
 20
45.1656096375
 30
0.0
 10
25.1098086855
 20
45.1639102149
 30
0.0
 10
25.1025246848
 20
45.1616172192
 30
0.0
 10
25.1067680072
 20
45.1620244104
 30
0.0
 10
25.1095154862
 20
45.162722818
 30
0.0
 10
25.1136362517
 20
45.1633563475
 30
0.0
 10
25.1178868763
 20
45.164004838
 30
0.0
 10
25.1223016678
 20
45.1645771046
 30
0.0
 10
25.1274632425
 20
45.1651552665
 30
0.0
 10
25.1337305463
 20
45.1657230806
 30
0.0
 10
25.1410798477
 20
45.1662280395
 30
0.0
 10
25.1477095783
 20
45.1665485782
 30
0.0
 10
25.1533408821
 20
45.1667446657
 30
0.0
 10
25.1578477677
 20
45.1668622389
 30
0.0
 10
25.1628427232
 20
45.1669471327
 30
0.0
 10
25.1683469541
 20
45.1669887507
 30
0.0
 10
25.1743806501
 20
45.1669754812
 30
0.0
 10
25.1809626703
 20
45.1668946798
 30
0.0
 10
25.1881102211
 20
45.1667326967
 30
0.0
 10
25.1958385716
 20
45.1664748614
 30
0.0
 10
25.2041608278
 20
45.1661057086
 30
0.0
 10
25.2130879589
 20
45.1656082658
 30
0.0
 10
25.2226291124
 20
45.1649683053
 30
0.0
 10
25.2327916113
 20
45.1641739883
 30
0.0
 10
25.2435804053
 20
45.1632131088
 30
0.0
 10
25.2549977694
 20
45.1620739264
 30
0.0
 10
25.2670431877
 20
45.160745026
 30
0.0
 10
25.2797132841
 20
45.1592154608
 30
0.0
 10
25.2930017716
 20
45.1574748265
 30
0.0
 10
25.3068994179
 20
45.1555133095
 30
0.0
 10
25.3213940472
 20
45.1533219373
 30
0.0
 10
25.336470224
 20
45.1508920515
 30
0.0
 10
25.3521097409
 20
45.1482192935
 30
0.0
 10
25.3682914789
 20
45.1453020765
 30
0.0
 10
25.3849913275
 20
45.1421397126
 30
0.0
 10
25.4021824788
 20
45.1387329103
 30
0.0
 10
25.4198355089
 20
45.1350836509
 30
0.0
 10
25.4379185025
 20
45.1311952495
 30
0.0
 10
25.45639717
 20
45.1270723179
 30
0.0
 10
25.4752350959
 20
45.1227208861
 30
0.0
 10
25.4943943609
 20
45.1181477407
 30
0.0
 10
25.5138368434
 20
45.1133640296
 30
0.0
 10
25.5335237111
 20
45.1083827617
 30
0.0
 10
25.5534146263
 20
45.103217826
 30
0.0
 10
25.5734676278
 20
45.0978842831
 30
0.0
 10
25.5936392287
 20
45.0923982253
 30
0.0
 10
25.6138845419
 20
45.0867767325
 30
0.0
 10
25.6341574018
 20
45.0810377979
 30
0.0
 10
25.6544104883
 20
45.0752002604
 30
0.0
 10
25.6745954504
 20
45.0692837331
 30
0.0
 10
25.6946630306
 20
45.0633085315
 30
0.0
 10
25.714563186
 20
45.0572956008
 30
0.0
 10
25.7324848121
 20
45.0518057039
 30
0.0
 10
25.7474308511
 20
45.0471761915
 30
0.0
 10
25.7596676869
 20
45.0433556405
 30
0.0
 10
25.7713971272
 20
45.039668097
 30
0.0
 10
25.7841984583
 20
45.0356144917
 30
0.0
 10
25.7985815787
 20
45.0310246374
 30
0.0
 10
25.8150717229
 20
45.0257175224
 30
0.0
 10
25.8342125773
 20
45.0194988951
 30
0.0
 10
25.8565700495
 20
45.0121583838
 30
0.0
 10
25.8827368181
 20
45.0034656497
 30
0.0
 10
25.9133382248
 20
44.9931684754
 30
0.0
 10
25.9490379294
 20
44.9809902126
 30
0.0
 10
25.9905425183
 20
44.9666264335
 30
0.0
 10
26.0386057736
 20
44.9497440979
 30
0.0
 10
26.0940318672
 20
44.9299818166
 30
0.0
 10
26.1576768708
 20
44.9069525534
 30
0.0
 10
26.2304477453
 20
44.8802492114
 30
0.0
 10
26.313299157
 20
44.8494543139
 30
0.0
 10
26.4072333478
 20
44.8141493358
 30
0.0
 10
26.5133037528
 20
44.7739481039
 30
0.0
 10
26.632605231
 20
44.7285195237
 30
0.0
 10
26.7662535011
 20
44.6776234549
 30
0.0
 10
26.915371645
 20
44.621151523
 30
0.0
 10
27.0810951241
 20
44.5592003397
 30
0.0
 10
27.2645644866
 20
44.492166744
 30
0.0
 10
27.466903866
 20
44.4207961323
 30
0.0
 10
27.6892585417
 20
44.3463244571
 30
0.0
 10
27.9328460791
 20
44.2707187033
 30
0.0
 10
28.1929317305
 20
44.1983209906
 30
0.0
 10
28.471436519
 20
44.1323060113
 30
0.0
 10
28.7751085202
 20
44.0757420887
 30
0.0
 10
29.1218673579
 20
44.0349808915
 30
0.0
 10
29.5194587979
 20
44.0253056201
 30
0.0
 10
29.9627067297
 20
44.0735900283
 30
0.0
 10
30.4258343034
 20
44.2066617596
 30
0.0
 10
30.8722976798
 20
44.4404551722
 30
0.0
 10
31.1346567307
 20
44.6590245997
 30
0.0
 10
31.254048172
 20
44.7810525369
 30
0.0
  0
SPLINE
  5
2D8
100
AcDbEntity
  8
0
100
AcDbSpline
 62
7
  6
BYLAYER
 70
0
 71
3
 72
79
 73
75
 74
0
 42
0.0000001
 43
0.0000001
 44
0.0000000001
 40
0.0
 40
0.0
 40
0.0
 40
0.0
 40
0.0152800623
 40
0.0306236822
 40
0.045646653
 40
0.0599169315
 40
0.0734727081
 40
0.0864119743
 40
0.0987388562
 40
0.1104501829
 40
0.1215437656
 40
0.1320252322
 40
0.1419265702
 40
0.1513293752
 40
0.160145694
 40
0.1685026049
 40
0.178224564
 40
0.189107369
 40
0.2010606267
 40
0.2143545076
 40
0.2280063729
 40
0.2543920782
 40
0.2760667611
 40
0.2841222844
 40
0.2883511151
 40
0.2942215824
 40
0.3007651634
 40
0.3073809408
 40
0.3136740478
 40
0.3194318184
 40
0.3245623612
 40
0.3290497176
 40
0.3329219345
 40
0.3362287641
 40
0.3390262496
 40
0.3413668465
 40
0.3433162627
 40
0.346375056
 40
0.349016959
 40
0.3503172615
 40
0.3533627001
 40
0.3572167742
 40
0.3608159839
 40
0.3650266285
 40
0.3697394554
 40
0.3754588938
 40
0.3819067689
 40
0.3885805843
 40
0.3957574667
 40
0.4037432482
 40
0.4124101754
 40
0.4217626702
 40
0.4319037647
 40
0.4428760698
 40
0.4547477895
 40
0.4675921988
 40
0.4814885555
 40
0.496522907
 40
0.5127886436
 40
0.5303870555
 40
0.5494280188
 40
0.570030855
 40
0.5923252485
 40
0.6164521267
 40
0.6425646771
 40
0.6708294844
 40
0.701427779
 40
0.7345567852
 40
0.7704313993
 40
0.8092853778
 40
0.8513742279
 40
0.8969780048
 40
0.9463894248
 40
1.0
 40
1.0
 40
1.0
 40
1.0
 10
25.2296769609
 20
45.2957743025
 30
0.0
 10
25.2241688726
 20
45.2951294002
 30
0.0
 10
25.213111062
 20
45.2939837718
 30
0.0
 10
25.1967096076
 20
45.291665831
 30
0.0
 10
25.1805997189
 20
45.2898025241
 30
0.0
 10
25.165022305
 20
45.2896985695
 30
0.0
 10
25.1502518157
 20
45.2905767482
 30
0.0
 10
25.1361981975
 20
45.2915857354
 30
0.0
 10
25.1228162531
 20
45.2926093597
 30
0.0
 10
25.1101018156
 20
45.2935477349
 30
0.0
 10
25.0980433907
 20
45.2943739343
 30
0.0
 10
25.0866658703
 20
45.2951524846
 30
0.0
 10
25.0757865986
 20
45.2954935644
 30
0.0
 10
25.0658466061
 20
45.296052941
 30
0.0
 10
25.0553046696
 20
45.2922972632
 30
0.0
 10
25.0490310509
 20
45.3019904294
 30
0.0
 10
25.0379029935
 20
45.3026870283
 30
0.0
 10
25.0263247281
 20
45.3037534205
 30
0.0
 10
25.0133799092
 20
45.306175898
 30
0.0
 10
24.999299594
 20
45.3078319646
 30
0.0
 10
24.9805096442
 20
45.3104985654
 30
0.0
 10
24.955771413
 20
45.314292385
 30
0.0
 10
24.9428833329
 20
45.3162765176
 30
0.0
 10
24.9207351988
 20
45.3202524135
 30
0.0
 10
24.9301762091
 20
45.3183173591
 30
0.0
 10
24.9352484989
 20
45.317459776
 30
0.0
 10
24.9423411274
 20
45.3162201854
 30
0.0
 10
24.9492281299
 20
45.3150929697
 30
0.0
 10
24.9559403607
 20
45.3140330013
 30
0.0
 10
24.9621010651
 20
45.3131000254
 30
0.0
 10
24.9676239207
 20
45.3122923569
 30
0.0
 10
24.9724709123
 20
45.3116039749
 30
0.0
 10
24.9766656565
 20
45.3110223337
 30
0.0
 10
24.9802508738
 20
45.3105293573
 30
0.0
 10
24.9832940214
 20
45.3101202409
 30
0.0
 10
24.9858241137
 20
45.309753788
 30
0.0
 10
24.9885290799
 20
45.3094325148
 30
0.0
 10
24.9909254987
 20
45.3087192717
 30
0.0
 10
24.9944503285
 20
45.3090911178
 30
0.0
 10
24.9941800342
 20
45.305866834
 30
0.0
 10
24.9905305862
 20
45.3055728949
 30
0.0
 10
24.9875142701
 20
45.3036008798
 30
0.0
 10
24.9836535963
 20
45.3011664312
 30
0.0
 10
24.983487481
 20
45.2959994625
 30
0.0
 10
24.9864538167
 20
45.2913410767
 30
0.0
 10
24.9845907202
 20
45.2850021753
 30
0.0
 10
24.9824698922
 20
45.2786563525
 30
0.0
 10
24.9811414001
 20
45.271332088
 30
0.0
 10
24.9807990525
 20
45.2634209828
 30
0.0
 10
24.9802007228
 20
45.2547898493
 30
0.0
 10
24.9793291014
 20
45.2453914777
 30
0.0
 10
24.9787983854
 20
45.2351829009
 30
0.0
 10
24.9782724188
 20
45.2241385083
 30
0.0
 10
24.977896191
 20
45.2121722237
 30
0.0
 10
24.977645949
 20
45.1992217289
 30
0.0
 10
24.9775542677
 20
45.1852076894
 30
0.0
 10
24.9776417149
 20
45.1700458032
 30
0.0
 10
24.9779376957
 20
45.1536445578
 30
0.0
 10
24.9784748101
 20
45.1359051304
 30
0.0
 10
24.9792910822
 20
45.1167207326
 30
0.0
 10
24.9804309838
 20
45.0959761369
 30
0.0
 10
24.9819375133
 20
45.0735464146
 30
0.0
 10
24.9838581855
 20
45.0492961957
 30
0.0
 10
24.9862477209
 20
45.0230789833
 30
0.0
 10
24.9891683415
 20
44.9947362475
 30
0.0
 10
24.9926909633
 20
44.9640964822
 30
0.0
 10
24.9968962104
 20
44.9309741663
 30
0.0
 10
25.0018761233
 20
44.8951686426
 30
0.0
 10
25.0077341244
 20
44.8564628971
 30
0.0
 10
25.0145701919
 20
44.8146192038
 30
0.0
 10
25.0224975153
 20
44.7693789414
 30
0.0
 10
25.0316418935
 20
44.7204650483
 30
0.0
 10
25.042148539
 20
44.6675551617
 30
0.0
 10
25.0498385468
 20
44.6309629864
 30
0.0
 10
25.0539410729
 20
44.6119430993
 30
0.0
  0
SPLINE
  5
2D9
100
AcDbEntity
  8
0
100
AcDbSpline
 62
7
  6
BYLAYER
 70
0
 71
3
 72
15
 73
11
 74
0
 42
0.0000001
 43
0.0000001
 44
0.0000000001
 40
0.0
 40
0.0
 40
0.0
 40
0.0
 40
0.1907367824
 40
0.3671567023
 40
0.5268793507
 40
0.6624819695
 40
0.7744473616
 40
0.8668666341
 40
0.9440195447
 40
1.0
 40
1.0
 40
1.0
 40
1.0
 10
25.0571507803
 20
46.8364165456
 30
0.0
 10
25.0139318562
 20
46.8344915682
 30
0.0
 10
24.930818875
 20
46.8284571547
 30
0.0
 10
24.8122578751
 20
46.8130340589
 30
0.0
 10
24.7070437799
 20
46.7931525023
 30
0.0
 10
24.6174342696
 20
46.7706571695
 30
0.0
 10
24.5436547804
 20
46.7477056974
 30
0.0
 10
24.4847410729
 20
46.7234528807
 30
0.0
 10
24.4383381325
 20
46.7004320623
 30
0.0
 10
24.417185689
 20
46.6783111995
 30
0.0
 10
24.4090522093
 20
46.668561115
 30
0.0
  0
SPLINE
  5
2DA
100
AcDbEntity
  8
0
100
AcDbSpline
 62
7
  6
BYLAYER
 70
0
 71
3
 72
30
 73
26
 74
0
 42
0.0000001
 43
0.0000001
 44
0.0000000001
 40
0.0
 40
0.0
 40
0.0
 40
0.0
 40
0.1199557632
 40
0.2248843221
 40
0.3171418292
 40
0.3985094562
 40
0.4702268361
 40
0.5333027612
 40
0.5886009877
 40
0.6368486785
 40
0.6786333106
 40
0.7145067472
 40
0.7449681686
 40
0.7704017896
 40
0.7912003361
 40
0.8079093811
 40
0.821599747
 40
0.8339824365
 40
0.8469979434
 40
0.8620808978
 40
0.8805225095
 40
0.9033671825
 40
0.9312506948
 40
0.9639952137
 40
1.0
 40
1.0
 40
1.0
 40
1.0
 10
26.3347656576
 20
46.3365637272
 30
0.0
 10
26.2561442053
 20
46.3431786141
 30
0.0
 10
26.1087413077
 20
46.355469809
 30
0.0
 10
25.9009265509
 20
46.3735160116
 30
0.0
 10
25.7185477245
 20
46.3910419704
 30
0.0
 10
25.558151203
 20
46.4088179735
 30
0.0
 10
25.4171683897
 20
46.4272977532
 30
0.0
 10
25.2936328083
 20
46.4466768966
 30
0.0
 10
25.1859224364
 20
46.467018429
 30
0.0
 10
25.0926998593
 20
46.4882785984
 30
0.0
 10
25.0128548604
 20
46.5103835359
 30
0.0
 10
24.9454804914
 20
46.5332974268
 30
0.0
 10
24.8898926339
 20
46.5570089796
 30
0.0
 10
24.8456540997
 20
46.581499655
 30
0.0
 10
24.8125816944
 20
46.6067441775
 30
0.0
 10
24.7905961716
 20
46.6327644981
 30
0.0
 10
24.779870027
 20
46.6594679825
 30
0.0
 10
24.7803409845
 20
46.6858450108
 30
0.0
 10
24.7907334856
 20
46.7108874898
 30
0.0
 10
24.8101043973
 20
46.7349586949
 30
0.0
 10
24.8389499444
 20
46.7585606883
 30
0.0
 10
24.8783574273
 20
46.7815829525
 30
0.0
 10
24.9289388118
 20
46.8032265088
 30
0.0
 10
24.9896819923
 20
46.8222335418
 30
0.0
 10
25.0338745494
 20
46.8320533451
 30
0.0
 10
25.0571507803
 20
46.8364165456
 30
0.0
  0
SPLINE
  5
2DB
100
AcDbEntity
  8
0
100
AcDbSpline
 62
7
  6
BYLAYER
 70
0
 71
3
 72
13
 73
9
 74
0
 42
0.0000001
 43
0.0000001
 44
0.0000000001
 40
0.0
 40
0.0
 40
0.0
 40
0.0
 40
0.1320527125
 40
0.2776479709
 40
0.4349706148
 40
0.6052176264
 40
0.7912996102
 40
1.0
 40
1.0
 40
1.0
 40
1.0
 10
29.3908046657
 20
45.7447263521
 30
0.0
 10
29.2987616852
 20
45.762982059
 30
0.0
 10
29.1045281414
 20
45.7976525008
 30
0.0
 10
28.8015350717
 20
45.859039333
 30
0.0
 10
28.475173324
 20
45.9404320631
 30
0.0
 10
28.1252436178
 20
46.0445463082
 30
0.0
 10
27.7442961081
 20
46.1715413968
 30
0.0
 10
27.4802970743
 20
46.2664402514
 30
0.0
 10
27.3403999227
 20
46.315654832
 30
0.0
  0
SPLINE
  5
2DC
100
AcDbEntity
  8
0
100
AcDbSpline
 62
7
  6
BYLAYER
 70
0
 71
3
 72
22
 73
18
 74
0
 42
0.0000001
 43
0.0000001
 44
0.0000000001
 40
0.0
 40
0.0
 40
0.0
 40
0.0
 40
0.0827292144
 40
0.1617721812
 40
0.2376951164
 40
0.3111478592
 40
0.3828351528
 40
0.4534930493
 40
0.5238610394
 40
0.594468416
 40
0.6656832214
 40
0.737076063
 40
0.8081543744
 40
0.877708586
 40
0.9444544807
 40
0.972585042
 40
1.0
 40
1.0
 40
1.0
 40
1.0
 10
24.1194038331
 20
44.2088812068
 30
0.0
 10
24.1038823031
 20
44.2785741072
 30
0.0
 10
24.0754786696
 20
44.41531775
 30
0.0
 10
24.040597937
 20
44.6175293522
 30
0.0
 10
24.0144926942
 20
44.8130033698
 30
0.0
 10
23.9978099831
 20
45.0031495404
 30
0.0
 10
23.9911834514
 20
45.1893902529
 30
0.0
 10
23.9959574227
 20
45.3730539545
 30
0.0
 10
24.0134080972
 20
45.555056861
 30
0.0
 10
24.0457653732
 20
45.7355530703
 30
0.0
 10
24.0948154461
 20
45.9132346017
 30
0.0
 10
24.1632233169
 20
46.0850141395
 30
0.0
 10
24.2527653306
 20
46.2452188558
 30
0.0
 10
24.3598155299
 20
46.3893268715
 30
0.0
 10
24.4598673071
 20
46.4907027798
 30
0.0
 10
24.5411694846
 20
46.5581002395
 30
0.0
 10
24.5798826574
 20
46.5864174799
 30
0.0
 10
24.5994135394
 20
46.5997946767
 30
0.0
  0
SPLINE
  5
2DD
100
AcDbEntity
  8
0
100
AcDbSpline
 62
7
  6
BYLAYER
 70
0
 71
3
 72
22
 73
18
 74
0
 42
0.0000001
 43
0.0000001
 44
0.0000000001
 40
0.0
 40
0.0
 40
0.0
 40
0.0
 40
0.0756908144
 40
0.0840411454
 40
0.1463723727
 40
0.1992602219
 40
0.2078562538
 40
0.225066243
 40
0.2691435753
 40
0.3460320813
 40
0.4629947182
 40
0.5304807224
 40
0.5932840302
 40
0.6685825867
 40
0.759154848
 40
0.868320235
 40
1.0
 40
1.0
 40
1.0
 40
1.0
 10
24.9722449605
 20
45.2291134994
 30
0.0
 10
24.9498081913
 20
45.22799629
 30
0.0
 10
24.8874610495
 20
45.2050595851
 30
0.0
 10
24.9248173314
 20
45.2365861418
 30
0.0
 10
24.950546749
 20
45.2620261278
 30
0.0
 10
24.9706773997
 20
45.2855795671
 30
0.0
 10
24.9811928972
 20
45.3160656797
 30
0.0
 10
24.9729042775
 20
45.2793403717
 30
0.0
 10
24.973407681
 20
45.2513325938
 30
0.0
 10
24.9702743343
 20
45.1729187572
 30
0.0
 10
24.9754243201
 20
45.0985330435
 30
0.0
 10
24.9822388012
 20
45.024934247
 30
0.0
 10
24.9895165107
 20
44.964456172
 30
0.0
 10
24.9990340661
 20
44.8972171012
 30
0.0
 10
25.0123525164
 20
44.8166867366
 30
0.0
 10
25.0305929727
 20
44.720017733
 30
0.0
 10
25.0454345302
 20
44.6500878595
 30
0.0
 10
25.0539410691
 20
44.6119431171
 30
0.0
  0
SPLINE
  5
2DE
100
AcDbEntity
  8
0
100
AcDbSpline
 62
7
  6
BYLAYER
 70
0
 71
3
 72
13
 73
9
 74
0
 42
0.0000001
 43
0.0000001
 44
0.0000000001
 40
0.0
 40
0.0
 40
0.0
 40
0.0
 40
0.1201721893
 40
0.3170566594
 40
0.5598641746
 40
0.7786129881
 40
0.9357122178
 40
1.0
 40
1.0
 40
1.0
 40
1.0
 10
24.9145623166
 20
45.2105533947
 30
0.0
 10
24.9169723421
 20
45.2109194819
 30
0.0
 10
24.9230762664
 20
45.2130734464
 30
0.0
 10
24.9339834967
 20
45.2163053582
 30
0.0
 10
24.9465413208
 20
45.2202342598
 30
0.0
 10
24.9593812071
 20
45.2234086688
 30
0.0
 10
24.9664417243
 20
45.2257990554
 30
0.0
 10
24.9724216128
 20
45.2278214534
 30
0.0
 10
24.9722449605
 20
45.2291134994
 30
0.0
  0
SPLINE
  5
2DF
100
AcDbEntity
  8
0
100
AcDbSpline
 62
7
  6
BYLAYER
 70
0
 71
3
 72
43
 73
39
 74
0
 42
0.0000001
 43
0.0000001
 44
0.0000000001
 40
0.0
 40
0.0
 40
0.0
 40
0.0
 40
0.000138701
 40
0.0003318469
 40
0.0012343561
 40
0.0026172319
 40
0.0067715373
 40
0.0127029834
 40
0.0202846744
 40
0.0293899908
 40
0.0399234403
 40
0.0517941971
 40
0.0648989513
 40
0.0791344309
 40
0.0944195097
 40
0.1278204994
 40
0.1644819907
 40
0.2038884329
 40
0.2455544758
 40
0.2890493094
 40
0.3339679671
 40
0.3799588064
 40
0.4739758574
 40
0.5216064558
 40
0.5695386519
 40
0.6178315524
 40
0.6667537135
 40
0.7167255215
 40
0.742272963
 40
0.76831147
 40
0.7949438476
 40
0.8222306799
 40
0.8502293963
 40
0.8789443244
 40
0.9083680543
 40
0.9384171806
 40
0.9689994743
 40
1.0
 40
1.0
 40
1.0
 40
1.0
 10
24.9145619297
 20
45.2105536118
 30
0.0
 10
24.9148678135
 20
45.210604773
 30
0.0
 10
24.9155970303
 20
45.2107406029
 30
0.0
 10
24.9182959741
 20
45.2113148664
 30
0.0
 10
24.9237166556
 20
45.2124597862
 30
0.0
 10
24.937878902
 20
45.2150499116
 30
0.0
 10
24.9633534299
 20
45.2181715586
 30
0.0
 10
25.0028442532
 20
45.219847637
 30
0.0
 10
25.0534224771
 20
45.2188682157
 30
0.0
 10
25.1141140596
 20
45.2141222268
 30
0.0
 10
25.1840030501
 20
45.2051835846
 30
0.0
 10
25.2622283691
 20
45.1916012348
 30
0.0
 10
25.3479927522
 20
45.1734460797
 30
0.0
 10
25.4405453405
 20
45.1507533881
 30
0.0
 10
25.5762444203
 20
45.1137237485
 30
0.0
 10
25.758594116
 20
45.0574776946
 30
0.0
 10
25.9901451785
 20
44.9782929007
 30
0.0
 10
26.2375124996
 20
44.8884424813
 30
0.0
 10
26.4982440031
 20
44.7907093586
 30
0.0
 10
26.7702816843
 20
44.6880444971
 30
0.0
 10
27.0518734868
 20
44.5833005103
 30
0.0
 10
27.4409962589
 20
44.4438391248
 30
0.0
 10
27.839963186
 20
44.3136319877
 30
0.0
 10
28.2492650989
 20
44.203422068
 30
0.0
 10
28.5633879279
 20
44.1340396657
 30
0.0
 10
28.8838484316
 20
44.0819204942
 30
0.0
 10
29.2118421122
 20
44.0524209467
 30
0.0
 10
29.4904776445
 20
44.0511730175
 30
0.0
 10
29.7169570892
 20
44.0682139237
 30
0.0
 10
29.8903601148
 20
44.0914060616
 30
0.0
 10
30.0658346541
 20
44.1260006452
 30
0.0
 10
30.2428430215
 20
44.1734634984
 30
0.0
 10
30.4203757568
 20
44.2351336974
 30
0.0
 10
30.5970995258
 20
44.312060503
 30
0.0
 10
30.7711531579
 20
44.4050603684
 30
0.0
 10
30.9405709832
 20
44.5142090383
 30
0.0
 10
31.1029994554
 20
44.6393791882
 30
0.0
 10
31.2048069186
 20
44.7322810614
 30
0.0
 10
31.2540487396
 20
44.7810530994
 30
0.0
  0
SPLINE
  5
2E0
100
AcDbEntity
  8
0
100
AcDbSpline
 62
7
  6
BYLAYER
 70
0
 71
3
 72
22
 73
18
 74
0
 42
0.0000001
 43
0.0000001
 44
0.0000000001
 40
0.0
 40
0.0
 40
0.0
 40
0.0
 40
0.0516367537
 40
0.101926285
 40
0.2205384116
 40
0.3303321444
 40
0.4309703738
 40
0.5221170847
 40
0.6036088332
 40
0.6758883166
 40
0.7396821768
 40
0.7964450835
 40
0.8479906696
 40
0.8970378527
 40
0.9465829434
 40
0.9725901964
 40
1.0
 40
1.0
 40
1.0
 40
1.0
 10
29.3907257086
 20
45.7447314833
 30
0.0
 10
29.4039302919
 20
45.7438736263
 30
0.0
 10
29.4300081692
 20
45.7423897505
 30
0.0
 10
29.4864799366
 20
45.7401608042
 30
0.0
 10
29.5579223909
 20
45.739577605
 30
0.0
 10
29.6422082478
 20
45.7429285284
 30
0.0
 10
29.7192038845
 20
45.7499761717
 30
0.0
 10
29.7885088919
 20
45.7603151059
 30
0.0
 10
29.8498921433
 20
45.7736237584
 30
0.0
 10
29.903473232
 20
45.7891961331
 30
0.0
 10
29.9498342058
 20
45.8064383918
 30
0.0
 10
29.9898659389
 20
45.8250518712
 30
0.0
 10
30.0249835865
 20
45.8449675983
 30
0.0
 10
30.056688896
 20
45.8668395483
 30
0.0
 10
30.0814493433
 20
45.8870597303
 30
0.0
 10
30.1007880182
 20
45.9050177738
 30
0.0
 10
30.1104359726
 20
45.9147337487
 30
0.0
 10
30.1152926049
 20
45.9198080728
 30
0.0
  0
SPLINE
  5
2E1
100
AcDbEntity
  8
0
100
AcDbSpline
 62
7
  6
BYLAYER
 70
0
 71
3
 72
32
 73
28
 74
0
 42
0.0000001
 43
0.0000001
 44
0.0000000001
 40
0.0
 40
0.0
 40
0.0
 40
0.0
 40
0.0832216792
 40
0.157621034
 40
0.223067146
 40
0.2805073976
 40
0.3311174163
 40
0.3757547007
 40
0.4152547373
 40
0.4501054296
 40
0.4808104274
 40
0.5078467749
 40
0.5314352147
 40
0.5521159459
 40
0.5710156413
 40
0.5895118154
 40
0.6087335281
 40
0.6300413649
 40
0.6545074128
 40
0.6826007475
 40
0.7142949267
 40
0.7500170088
 40
0.7900875137
 40
0.8348124646
 40
0.8844468138
 40
0.9393740967
 40
1.0
 40
1.0
 40
1.0
 40
1.0
 10
29.7723070056
 20
46.26236604
 30
0.0
 10
29.7390386046
 20
46.2333485558
 30
0.0
 10
29.6742054579
 20
46.1801314416
 30
0.0
 10
29.5722641457
 20
46.1194693017
 30
0.0
 10
29.4777845825
 20
46.0740861868
 30
0.0
 10
29.3904664833
 20
46.044322959
 30
0.0
 10
29.3112335759
 20
46.0267608646
 30
0.0
 10
29.239964352
 20
46.019415029
 30
0.0
 10
29.1766781595
 20
46.0208083354
 30
0.0
 10
29.1214866431
 20
46.0298850907
 30
0.0
 10
29.0746549418
 20
46.0454302981
 30
0.0
 10
29.0365526398
 20
46.066221657
 30
0.0
 10
29.0074683469
 20
46.0908524299
 30
0.0
 10
28.9870649565
 20
46.1177768092
 30
0.0
 10
28.9741911113
 20
46.1460301755
 30
0.0
 10
28.9677844814
 20
46.1755925312
 30
0.0
 10
28.9674090559
 20
46.2070935016
 30
0.0
 10
28.9733867287
 20
46.2412280262
 30
0.0
 10
28.986466264
 20
46.2783275206
 30
0.0
 10
29.007141037
 20
46.3180844914
 30
0.0
 10
29.0354362051
 20
46.3602068197
 30
0.0
 10
29.0711627488
 20
46.4047032337
 30
0.0
 10
29.1140163163
 20
46.4521701724
 30
0.0
 10
29.163566006
 20
46.5034591376
 30
0.0
 10
29.2193923227
 20
46.5596240882
 30
0.0
 10
29.2815254829
 20
46.6214105045
 30
0.0
 10
29.324522903
 20
46.6650975552
 30
0.0
 10
29.347308703
 20
46.6877916654
 30
0.0
  0
SPLINE
  5
2E2
100
AcDbEntity
  8
0
100
AcDbSpline
 62
7
  6
BYLAYER
 70
0
 71
3
 72
10
 73
6
 74
0
 42
0.0000001
 43
0.0000001
 44
0.0000000001
 40
0.0
 40
0.0
 40
0.0
 40
0.0
 40
0.3312543732
 40
0.6652301349
 40
1.0
 40
1.0
 40
1.0
 40
1.0
 10
29.7183711541
 20
45.3992566266
 30
0.0
 10
29.7804685965
 20
45.4365921015
 30
0.0
 10
29.9034363353
 20
45.5145998963
 30
0.0
 10
30.0785751792
 20
45.6460880753
 30
0.0
 10
30.188130601
 20
45.7431703052
 30
0.0
 10
30.2421729325
 20
45.792581654
 30
0.0
  0
SPLINE
  5
2E3
100
AcDbEntity
  8
0
100
AcDbSpline
 62
7
  6
BYLAYER
 70
0
 71
3
 72
19
 73
15
 74
0
 42
0.0000001
 43
0.0000001
 44
0.0000000001
 40
0.0
 40
0.0
 40
0.0
 40
0.0
 40
0.1465798383
 40
0.275039419
 40
0.3857885638
 40
0.4790615383
 40
0.5544304187
 40
0.6146685118
 40
0.6657621925
 40
0.7148293515
 40
0.7681997465
 40
0.8309024921
 40
0.9062072652
 40
1.0
 40
1.0
 40
1.0
 40
1.0
 10
29.3904149396
 20
45.7446775856
 30
0.0
 10
29.4198533082
 20
45.7387875366
 30
0.0
 10
29.4750827451
 20
45.7276659021
 30
0.0
 10
29.5519131559
 20
45.7090964887
 30
0.0
 10
29.6171621573
 20
45.6894209647
 30
0.0
 10
29.6703167708
 20
45.6678909897
 30
0.0
 10
29.7109832815
 20
45.6441078708
 30
0.0
 10
29.7397603595
 20
45.6184644456
 30
0.0
 10
29.7586267278
 20
45.5911506382
 30
0.0
 10
29.7693073531
 20
45.5612049314
 30
0.0
 10
29.7721211441
 20
45.5271020126
 30
0.0
 10
29.7656996851
 20
45.4882442985
 30
0.0
 10
29.7513043382
 20
45.4425273701
 30
0.0
 10
29.7304786359
 20
45.4141710843
 30
0.0
 10
29.7183711541
 20
45.3992566266
 30
0.0
  0
SPLINE
  5
2E4
100
AcDbEntity
  8
0
100
AcDbSpline
 62
7
  6
BYLAYER
 70
0
 71
3
 72
26
 73
22
 74
0
 42
0.0000001
 43
0.0000001
 44
0.0000000001
 40
0.0
 40
0.0
 40
0.0
 40
0.0
 40
0.0571408095
 40
0.097104161
 40
0.1332300263
 40
0.1685320961
 40
0.2045146283
 40
0.2474363134
 40
0.2977602881
 40
0.3459818906
 40
0.4052958474
 40
0.4759952187
 40
0.5401514316
 40
0.6089883419
 40
0.6811900243
 40
0.7517568195
 40
0.8155074015
 40
0.8745977162
 40
0.9267430392
 40
0.9697399602
 40
1.0
 40
1.0
 40
1.0
 40
1.0
 10
17.6684052919
 20
44.5691562991
 30
0.0
 10
17.6403724976
 20
44.7256336249
 30
0.0
 10
17.6035261912
 20
44.9947292732
 30
0.0
 10
17.6249968605
 20
45.3669149542
 30
0.0
 10
17.6969190194
 20
45.6693425227
 30
0.0
 10
17.8147790524
 20
45.9474436942
 30
0.0
 10
18.018788422
 20
46.1942875009
 30
0.0
 10
18.2843280017
 20
46.4397423105
 30
0.0
 10
18.6333012714
 20
46.6278326245
 30
0.0
 10
19.0365850731
 20
46.8023242808
 30
0.0
 10
19.5164069237
 20
46.9338505448
 30
0.0
 10
20.0491126637
 20
47.0261654327
 30
0.0
 10
20.6135731735
 20
47.0815388722
 30
0.0
 10
21.1846400783
 20
47.0969266837
 30
0.0
 10
21.7732939457
 20
47.0795797867
 30
0.0
 10
22.3465378245
 20
47.0377221445
 30
0.0
 10
22.8805791404
 20
46.9698513337
 30
0.0
 10
23.3601563094
 20
46.8857812305
 30
0.0
 10
23.7823648384
 20
46.8095077895
 30
0.0
 10
24.1259410196
 20
46.7484855316
 30
0.0
 10
24.3229061706
 20
46.6938767068
 30
0.0
 10
24.4020083063
 20
46.6650678387
 30
0.0
  0
SPLINE
  5
2E5
100
AcDbEntity
  8
0
100
AcDbSpline
 62
7
  6
BYLAYER
 70
0
 71
3
 72
18
 73
14
 74
0
 42
0.0000001
 43
0.0000001
 44
0.0000000001
 40
0.0
 40
0.0
 40
0.0
 40
0.0
 40
0.0081031815
 40
0.0527736927
 40
0.1303680766
 40
0.2339333211
 40
0.3582778468
 40
0.4931903863
 40
0.6287832528
 40
0.7542787003
 40
0.8631522066
 40
0.9479023295
 40
1.0
 40
1.0
 40
1.0
 40
1.0
 10
15.9063785224
 20
44.2516907023
 30
0.0
 10
15.9046327263
 20
44.2471705667
 30
0.0
 10
15.9479887942
 20
44.2292544287
 30
0.0
 10
16.0109934702
 20
44.2575264377
 30
0.0
 10
16.1538229416
 20
44.2623489221
 30
0.0
 10
16.3306409015
 20
44.2955066558
 30
0.0
 10
16.5459169971
 20
44.3296399325
 30
0.0
 10
16.7778902079
 20
44.3720801876
 30
0.0
 10
17.010591168
 20
44.4163874683
 30
0.0
 10
17.2274178333
 20
44.4602932081
 30
0.0
 10
17.4138250405
 20
44.5010658506
 30
0.0
 10
17.5570117791
 20
44.5343386495
 30
0.0
 10
17.6353069489
 20
44.5583486027
 30
0.0
 10
17.6647963995
 20
44.5683940679
 30
0.0
  0
SPLINE
  5
2E6
100
AcDbEntity
  8
0
100
AcDbSpline
 62
7
  6
BYLAYER
 70
0
 71
3
 72
102
 73
98
 74
0
 42
0.0000001
 43
0.0000001
 44
0.0000000001
 40
0.0
 40
0.0
 40
0.0
 40
0.0
 40
0.0005129542
 40
0.0009199379
 40
0.0012255064
 40
0.0014875384
 40
0.0017579152
 40
0.0019988326
 40
0.0021858261
 40
0.0025211908
 40
0.0027002817
 40
0.0028563938
 40
0.003038818
 40
0.0032494808
 40
0.003492475
 40
0.0037730427
 40
0.0040968054
 40
0.0044704793
 40
0.0049017974
 40
0.0053954809
 40
0.0059591388
 40
0.0066037086
 40
0.0073422228
 40
0.0081819984
 40
0.0086357031
 40
0.0090897551
 40
0.0095970331
 40
0.0101703867
 40
0.0108232566
 40
0.0115708436
 40
0.0124307301
 40
0.0134228674
 40
0.0145704487
 40
0.0159008612
 40
0.0174410282
 40
0.0192187664
 40
0.0211968436
 40
0.0228874994
 40
0.0247642289
 40
0.0268147271
 40
0.0286709647
 40
0.0302754404
 40
0.0319751415
 40
0.0337784907
 40
0.0356938651
 40
0.0377300071
 40
0.0398969033
 40
0.04220535
 40
0.0446665977
 40
0.0472919554
 40
0.0500937818
 40
0.0530847303
 40
0.0562770964
 40
0.059686884
 40
0.0633285372
 40
0.0672161855
 40
0.0713685598
 40
0.075802545
 40
0.0805340877
 40
0.0855820461
 40
0.0909616652
 40
0.0966902356
 40
0.1027812799
 40
0.1092379009
 40
0.1158244426
 40
0.121933012
 40
0.1284875649
 40
0.1356164631
 40
0.1434454142
 40
0.1521028051
 40
0.1617224843
 40
0.1724443262
 40
0.1844120346
 40
0.1977747409
 40
0.2126864708
 40
0.2293022041
 40
0.2477496706
 40
0.2681328359
 40
0.2905817734
 40
0.3152279675
 40
0.3421744002
 40
0.3726513842
 40
0.4059286175
 40
0.4415475342
 40
0.4793620351
 40
0.5191708667
 40
0.5607349253
 40
0.6073228351
 40
0.6564180651
 40
0.7039759675
 40
0.7487353544
 40
0.7900644477
 40
0.8287664785
 40
0.8680505335
 40
0.9085642816
 40
0.950968874
 40
1.0
 40
1.0
 40
1.0
 40
1.0
 10
29.1675400775
 20
46.8701814374
 30
0.0
 10
29.1648575449
 20
46.8693040436
 30
0.0
 10
29.1601546877
 20
46.8673974644
 30
0.0
 10
29.1542250718
 20
46.8641184698
 30
0.0
 10
29.1499189285
 20
46.8609736077
 30
0.0
 10
29.1463094052
 20
46.8579141605
 30
0.0
 10
29.1446880732
 20
46.8539951545
 30
0.0
 10
29.1426364419
 20
46.8504131676
 30
0.0
 10
29.1383369472
 20
46.8494503888
 30
0.0
 10
29.134618892
 20
46.8487338061
 30
0.0
 10
29.1309440013
 20
46.848276533
 30
0.0
 10
29.1281147042
 20
46.8479712131
 30
0.0
 10
29.1251037694
 20
46.8477042184
 30
0.0
 10
29.1216128193
 20
46.8474560862
 30
0.0
 10
29.1175784687
 20
46.8472399094
 30
0.0
 10
29.112919183
 20
46.8470709161
 30
0.0
 10
29.1075386964
 20
46.8469690642
 30
0.0
 10
29.1013277642
 20
46.8469591435
 30
0.0
 10
29.0941827312
 20
46.8470721154
 30
0.0
 10
29.0859958803
 20
46.847341906
 30
0.0
 10
29.0766429106
 20
46.8478107103
 30
0.0
 10
29.0659553507
 20
46.8485325152
 30
0.0
 10
29.0537684416
 20
46.8495731398
 30
0.0
 10
29.0426470756
 20
46.8507275811
 30
0.0
 10
29.0330973424
 20
46.8518491798
 30
0.0
 10
29.0253730824
 20
46.8528270039
 30
0.0
 10
29.0170057405
 20
46.853964114
 30
0.0
 10
29.0075672089
 20
46.8553395166
 30
0.0
 10
28.9968362483
 20
46.8570117542
 30
0.0
 10
28.9845674532
 20
46.8590507121
 30
0.0
 10
28.9704820098
 20
46.8615406427
 30
0.0
 10
28.9542602643
 20
46.8645838017
 30
0.0
 10
28.9355324922
 20
46.8683041107
 30
0.0
 10
28.9138961732
 20
46.8728521916
 30
0.0
 10
28.8889272948
 20
46.8783941717
 30
0.0
 10
28.8605570725
 20
46.8850490563
 30
0.0
 10
28.8314722074
 20
46.8922727547
 30
0.0
 10
28.8019519057
 20
46.8999918773
 30
0.0
 10
28.7721396413
 20
46.9081618035
 30
0.0
 10
28.741556443
 20
46.9169567249
 30
0.0
 10
28.7125182799
 20
46.9256950051
 30
0.0
 10
28.6854181912
 20
46.934168975
 30
0.0
 10
28.6586821289
 20
46.9428274055
 30
0.0
 10
28.6304180945
 20
46.9523146978
 30
0.0
 10
28.6005138741
 20
46.9627270463
 30
0.0
 10
28.5688551779
 20
46.9741767562
 30
0.0
 10
28.5353127068
 20
46.9867692169
 30
0.0
 10
28.4997359398
 20
47.0005907334
 30
0.0
 10
28.4619706532
 20
47.0157381022
 30
0.0
 10
28.4218549527
 20
47.0323114348
 30
0.0
 10
28.3792200935
 20
47.0504142078
 30
0.0
 10
28.3338924094
 20
47.0701520376
 30
0.0
 10
28.2856793202
 20
47.0916373876
 30
0.0
 10
28.234378461
 20
47.1149851636
 30
0.0
 10
28.1797760917
 20
47.1403102361
 30
0.0
 10
28.121645663
 20
47.1677356474
 30
0.0
 10
28.0596838357
 20
47.197255531
 30
0.0
 10
27.9935530127
 20
47.2288203432
 30
0.0
 10
27.9228768747
 20
47.2623018045
 30
0.0
 10
27.847305749
 20
47.2976012438
 30
0.0
 10
27.7665605606
 20
47.3347831277
 30
0.0
 10
27.6803730873
 20
47.3738643401
 30
0.0
 10
27.5885337003
 20
47.4148260477
 30
0.0
 10
27.4921002755
 20
47.4570718245
 30
0.0
 10
27.3952623418
 20
47.4986270804
 30
0.0
 10
27.2976856147
 20
47.5398207303
 30
0.0
 10
27.1972528957
 20
47.5819206521
 30
0.0
 10
27.0879885082
 20
47.6274366434
 30
0.0
 10
26.9678954502
 20
47.6770453592
 30
0.0
 10
26.83485786
 20
47.7312103319
 30
0.0
 10
26.6866263097
 20
47.7902590226
 30
0.0
 10
26.5207663296
 20
47.8542510848
 30
0.0
 10
26.3346675966
 20
47.92295205
 30
0.0
 10
26.1255626832
 20
47.9958216182
 30
0.0
 10
25.8903299603
 20
48.0712247613
 30
0.0
 10
25.6266202324
 20
48.1491566308
 30
0.0
 10
25.3333559889
 20
48.2332162353
 30
0.0
 10
25.0090785305
 20
48.3256057541
 30
0.0
 10
24.6493558976
 20
48.4178118833
 30
0.0
 10
24.2513746998
 20
48.5051322512
 30
0.0
 10
23.808352516
 20
48.5926904702
 30
0.0
 10
23.3163581024
 20
48.6767734322
 30
0.0
 10
22.7745195057
 20
48.7509608762
 30
0.0
 10
22.1899547328
 20
48.8076404614
 30
0.0
 10
21.5676324274
 20
48.8420060972
 30
0.0
 10
20.9115562833
 20
48.847463915
 30
0.0
 10
20.2079384489
 20
48.8126212652
 30
0.0
 10
19.4573894757
 20
48.7195131002
 30
0.0
 10
18.6884472673
 20
48.5408889547
 30
0.0
 10
17.9515724573
 20
48.2821750717
 30
0.0
 10
17.3076034945
 20
47.9201587017
 30
0.0
 10
16.7669507271
 20
47.4905532133
 30
0.0
 10
16.3475366988
 20
46.9790052578
 30
0.0
 10
16.0418064399
 20
46.3988243677
 30
0.0
 10
15.8476384766
 20
45.7491765531
 30
0.0
 10
15.8065296027
 20
45.0195906413
 30
0.0
 10
15.8564700895
 20
44.5170187544
 30
0.0
 10
15.9027405553
 20
44.2512374504
 30
0.0
  0
SPLINE
  5
2E7
100
AcDbEntity
  8
0
100
AcDbSpline
 62
7
  6
BYLAYER
 70
0
 71
3
 72
138
 73
134
 74
0
 42
0.0000001
 43
0.0000001
 44
0.0000000001
 40
0.0
 40
0.0
 40
0.0
 40
0.0
 40
0.0544981491
 40
0.1004020079
 40
0.1442737629
 40
0.1884348571
 40
0.2343180542
 40
0.2842426554
 40
0.3373700803
 40
0.3902071791
 40
0.443285058
 40
0.4907070736
 40
0.5323392441
 40
0.5699638696
 40
0.6037042307
 40
0.6338078101
 40
0.6606052816
 40
0.6844748678
 40
0.7058402224
 40
0.7251657414
 40
0.742931476
 40
0.7582509187
 40
0.7619572716
 40
0.7656609468
 40
0.7693609843
 40
0.7730575607
 40
0.7767502289
 40
0.7804383442
 40
0.7841218062
 40
0.7878007144
 40
0.7914750305
 40
0.7951444029
 40
0.7988091574
 40
0.8024695387
 40
0.8061251464
 40
0.8097762653
 40
0.8134230699
 40
0.8170651938
 40
0.8207029097
 40
0.8243363359
 40
0.8279651344
 40
0.8315895571
 40
0.8352096875
 40
0.8388251527
 40
0.842435947
 40
0.8460420028
 40
0.8496429122
 40
0.853238277
 40
0.8568283944
 40
0.8604127197
 40
0.8639885581
 40
0.8675560741
 40
0.8711147863
 40
0.8746594267
 40
0.8781872121
 40
0.8817031536
 40
0.8852083915
 40
0.8886936792
 40
0.8921503088
 40
0.8955804665
 40
0.8989851515
 40
0.9023601377
 40
0.9057005163
 40
0.9090047033
 40
0.9122720746
 40
0.9155006248
 40
0.9186893948
 40
0.9218373692
 40
0.9249431409
 40
0.9280058262
 40
0.93102436
 40
0.9339975406
 40
0.9369242366
 40
0.9398040885
 40
0.9426364533
 40
0.9454193891
 40
0.9481521376
 40
0.9508342841
 40
0.9534641009
 40
0.9560402517
 40
0.9585615563
 40
0.9610264214
 40
0.9634336092
 40
0.9657819433
 40
0.9680696481
 40
0.9702938964
 40
0.972452089
 40
0.9745425216
 40
0.9765618814
 40
0.9785074726
 40
0.9798711182
 40
0.9807167106
 40
0.9815452596
 40
0.9823563284
 40
0.9831496998
 40
0.9839263131
 40
0.9846856313
 40
0.9854268284
 40
0.9861491276
 40
0.9868518066
 40
0.987534206
 40
0.9881967275
 40
0.9888398553
 40
0.9894633217
 40
0.9900668814
 40
0.9906503128
 40
0.9912134184
 40
0.9917559239
 40
0.9922776323
 40
0.9927790895
 40
0.9932608979
 40
0.9937235942
 40
0.9941676466
 40
0.9945933828
 40
0.9949996658
 40
0.9953866575
 40
0.9957551376
 40
0.996105753
 40
0.9964390167
 40
0.9967553068
 40
0.9970542584
 40
0.9973352217
 40
0.9975987298
 40
0.9980846091
 40
0.9986770373
 40
0.9990528669
 40
0.999307771
 40
0.9994922416
 40
0.9996155501
 40
0.9996851317
 40
0.9997195844
 40
0.999748094
 40
1.0
 40
1.0
 40
1.0
 40
1.0
 10
15.9106018596
 20
44.2525569857
 30
0.0
 10
15.8556190035
 20
44.5465039976
 30
0.0
 10
15.7998021063
 20
45.0989761759
 30
0.0
 10
15.8868513238
 20
45.891565656
 30
0.0
 10
16.1281169904
 20
46.592674415
 30
0.0
 10
16.5265188017
 20
47.2182167327
 30
0.0
 10
17.0813595955
 20
47.7586084656
 30
0.0
 10
17.780608378
 20
48.1924601395
 30
0.0
 10
18.5810406339
 20
48.5047887442
 30
0.0
 10
19.4327273424
 20
48.7047195246
 30
0.0
 10
20.2691288861
 20
48.8075267868
 30
0.0
 10
21.0490237909
 20
48.8391845088
 30
0.0
 10
21.7443227908
 20
48.8247294289
 30
0.0
 10
22.3630778437
 20
48.7818161007
 30
0.0
 10
22.9166647986
 20
48.7211014446
 30
0.0
 10
23.4090537789
 20
48.6503154156
 30
0.0
 10
23.845811934
 20
48.5746651074
 30
0.0
 10
24.2334988188
 20
48.4974785171
 30
0.0
 10
24.5793568418
 20
48.4206680672
 30
0.0
 10
24.8910925236
 20
48.3450149364
 30
0.0
 10
25.1693476043
 20
48.2722804338
 30
0.0
 10
25.3638290315
 20
48.2180784079
 30
0.0
 10
25.4836391878
 20
48.1834196676
 30
0.0
 10
25.5421379015
 20
48.1662587781
 30
0.0
 10
25.6005211206
 20
48.1488963181
 30
0.0
 10
25.6587799976
 20
48.1313291474
 30
0.0
 10
25.7169106236
 20
48.1135647599
 30
0.0
 10
25.7749079911
 20
48.0956118881
 30
0.0
 10
25.8327662914
 20
48.0774664928
 30
0.0
 10
25.890485505
 20
48.059132022
 30
0.0
 10
25.9480643342
 20
48.0406122863
 30
0.0
 10
26.0055009702
 20
48.0219054321
 30
0.0
 10
26.0627958777
 20
48.0030116463
 30
0.0
 10
26.119949142
 20
47.983930808
 30
0.0
 10
26.176960396
 20
47.9646621821
 30
0.0
 10
26.2338290944
 20
47.9452057367
 30
0.0
 10
26.290554808
 20
47.9255612234
 30
0.0
 10
26.347136887
 20
47.9057279833
 30
0.0
 10
26.403574515
 20
47.8857058534
 30
0.0
 10
26.4598669985
 20
47.8654945708
 30
0.0
 10
26.5160134754
 20
47.8450937687
 30
0.0
 10
26.5720125896
 20
47.8245023202
 30
0.0
 10
26.6278631679
 20
47.8037202093
 30
0.0
 10
26.6835631544
 20
47.7827490884
 30
0.0
 10
26.7391076374
 20
47.7615854276
 30
0.0
 10
26.7944927612
 20
47.7402291865
 30
0.0
 10
26.8497143739
 20
47.7186854972
 30
0.0
 10
26.9047664251
 20
47.6969491372
 30
0.0
 10
26.9596441491
 20
47.6750204221
 30
0.0
 10
27.0143329156
 20
47.6529088903
 30
0.0
 10
27.0688136604
 20
47.6306150773
 30
0.0
 10
27.1230702411
 20
47.6081459472
 30
0.0
 10
27.1770743609
 20
47.5855159526
 30
0.0
 10
27.2307799342
 20
47.56273897
 30
0.0
 10
27.2841688085
 20
47.5398177794
 30
0.0
 10
27.3372590796
 20
47.5167505617
 30
0.0
 10
27.3900397039
 20
47.493557123
 30
0.0
 10
27.4424237703
 20
47.4702714853
 30
0.0
 10
27.4943314134
 20
47.4469297101
 30
0.0
 10
27.545753963
 20
47.4235885846
 30
0.0
 10
27.5966970579
 20
47.4002757609
 30
0.0
 10
27.6471310365
 20
47.3770348366
 30
0.0
 10
27.69701854
 20
47.3539259877
 30
0.0
 10
27.7463370236
 20
47.3309938232
 30
0.0
 10
27.7950750549
 20
47.3082687898
 30
0.0
 10
27.8432253498
 20
47.2857819524
 30
0.0
 10
27.8907793026
 20
47.2635665096
 30
0.0
 10
27.9377303817
 20
47.2416523213
 30
0.0
 10
27.9840710789
 20
47.2200662267
 30
0.0
 10
28.0297979249
 20
47.1988445259
 30
0.0
 10
28.0749037127
 20
47.1780130974
 30
0.0
 10
28.1193768943
 20
47.1575918675
 30
0.0
 10
28.163218523
 20
47.1376193038
 30
0.0
 10
28.2064252805
 20
47.1181176512
 30
0.0
 10
28.2489832628
 20
47.0990968264
 30
0.0
 10
28.2908847613
 20
47.0805863341
 30
0.0
 10
28.3321194499
 20
47.0626074975
 30
0.0
 10
28.3726766243
 20
47.0451784472
 30
0.0
 10
28.4125435282
 20
47.0283212644
 30
0.0
 10
28.4517062691
 20
47.0120671467
 30
0.0
 10
28.4901516762
 20
46.9964487694
 30
0.0
 10
28.527861339
 20
46.9814860646
 30
0.0
 10
28.5648205856
 20
46.9672096833
 30
0.0
 10
28.6010148965
 20
46.953656337
 30
0.0
 10
28.6364099683
 20
46.9408373514
 30
0.0
 10
28.6709625889
 20
46.9287628729
 30
0.0
 10
28.7046306258
 20
46.9174458815
 30
0.0
 10
28.7373668996
 20
46.9068936573
 30
0.0
 10
28.7691250832
 20
46.8971188464
 30
0.0
 10
28.7971906396
 20
46.8889134911
 30
0.0
 10
28.8191553286
 20
46.8828019687
 30
0.0
 10
28.8352563811
 20
46.8784868743
 30
0.0
 10
28.8484552804
 20
46.8750575949
 30
0.0
 10
28.8614031389
 20
46.8718032559
 30
0.0
 10
28.8741006071
 20
46.8687236313
 30
0.0
 10
28.8865474494
 20
46.8658173819
 30
0.0
 10
28.8987404545
 20
46.8630852551
 30
0.0
 10
28.9106672036
 20
46.8605303639
 30
0.0
 10
28.9223133624
 20
46.8581519933
 30
0.0
 10
28.9336652563
 20
46.8559478636
 30
0.0
 10
28.9447156507
 20
46.8539146954
 30
0.0
 10
28.9554636837
 20
46.8520469852
 30
0.0
 10
28.9659107247
 20
46.8503390968
 30
0.0
 10
28.9760548445
 20
46.8487868958
 30
0.0
 10
28.9858902918
 20
46.8473866611
 30
0.0
 10
28.9954117308
 20
46.8461346008
 30
0.0
 10
29.0046136908
 20
46.8450268891
 30
0.0
 10
29.0134908485
 20
46.8440595507
 30
0.0
 10
29.0220419451
 20
46.843228043
 30
0.0
 10
29.0302704033
 20
46.8425258639
 30
0.0
 10
29.0381836473
 20
46.8419448698
 30
0.0
 10
29.0457888563
 20
46.841477667
 30
0.0
 10
29.0530918318
 20
46.8411173579
 30
0.0
 10
29.0600893087
 20
46.8408574046
 30
0.0
 10
29.0667764746
 20
46.8406925675
 30
0.0
 10
29.0731510327
 20
46.8406162689
 30
0.0
 10
29.0792205796
 20
46.8406217156
 30
0.0
 10
29.0849947421
 20
46.8407026665
 30
0.0
 10
29.0904810196
 20
46.8408534706
 30
0.0
 10
29.0956814407
 20
46.8410684203
 30
0.0
 10
29.100591665
 20
46.8413428149
 30
0.0
 10
29.1052082558
 20
46.8416712394
 30
0.0
 10
29.1108412456
 20
46.8421581458
 30
0.0
 10
29.1181615533
 20
46.8429585839
 30
0.0
 10
29.1260590788
 20
46.8441194044
 30
0.0
 10
29.1326503182
 20
46.8453969782
 30
0.0
 10
29.137008094
 20
46.8464067838
 30
0.0
 10
29.1399977591
 20
46.8471855262
 30
0.0
 10
29.1419683836
 20
46.8478196533
 30
0.0
 10
29.1431521062
 20
46.8482191575
 30
0.0
 10
29.1437955386
 20
46.8485705768
 30
0.0
 10
29.1455003923
 20
46.8489181697
 30
0.0
 10
29.1471758237
 20
46.8482899498
 30
0.0
 10
29.1484344495
 20
46.8488613828
 30
0.0
  0
SPLINE
  5
2E8
100
AcDbEntity
  8
0
100
AcDbSpline
 62
7
  6
BYLAYER
 70
0
 71
3
 72
11
 73
7
 74
0
 42
0.0000001
 43
0.0000001
 44
0.0000000001
 40
0.0
 40
0.0
 40
0.0
 40
0.0
 40
0.4215847778
 40
0.7233719228
 40
0.8968760368
 40
1.0
 40
1.0
 40
1.0
 40
1.0
 10
24.5994135394
 20
46.5997946767
 30
0.0
 10
24.5701278859
 20
46.6043984438
 30
0.0
 10
24.5192658695
 20
46.61209639
 30
0.0
 10
24.4597232898
 20
46.6279957274
 30
0.0
 10
24.4185757023
 20
46.6420589034
 30
0.0
 10
24.4120502914
 20
46.6648281091
 30
0.0
 10
24.4149038707
 20
46.6714945929
 30
0.0
  0
SPLINE
  5
2E9
100
AcDbEntity
  8
0
100
AcDbSpline
 62
7
  6
BYLAYER
 70
0
 71
3
 72
34
 73
30
 74
0
 42
0.0000001
 43
0.0000001
 44
0.0000000001
 40
0.0
 40
0.0
 40
0.0
 40
0.0
 40
0.015406365
 40
0.0332420381
 40
0.0538931987
 40
0.0775385419
 40
0.1044826666
 40
0.1352090146
 40
0.1701735596
 40
0.2099203869
 40
0.254952789
 40
0.3057236812
 40
0.3623659892
 40
0.4256362771
 40
0.4942570963
 40
0.5611030278
 40
0.6205433345
 40
0.6727654875
 40
0.7197738546
 40
0.7622544336
 40
0.8008615013
 40
0.8358621993
 40
0.8673637438
 40
0.8959579443
 40
0.9223462219
 40
0.9462699871
 40
0.9673578867
 40
0.9853471512
 40
1.0
 40
1.0
 40
1.0
 40
1.0
 10
29.7162970218
 20
45.4057682305
 30
0.0
 10
29.6979732604
 20
45.384505879
 30
0.0
 10
29.653822028
 20
45.3425663769
 30
0.0
 10
29.5734234149
 20
45.2857564521
 30
0.0
 10
29.4731430439
 20
45.2326235191
 30
0.0
 10
29.3519569115
 20
45.1853978526
 30
0.0
 10
29.2084638177
 20
45.1473263933
 30
0.0
 10
29.0412127959
 20
45.1223288449
 30
0.0
 10
28.8488931653
 20
45.1146927626
 30
0.0
 10
28.6308308124
 20
45.1295585631
 30
0.0
 10
28.3870597261
 20
45.1714294548
 30
0.0
 10
28.1183972981
 20
45.2432048882
 30
0.0
 10
27.8251229112
 20
45.3473418162
 30
0.0
 10
27.5083861502
 20
45.4805387281
 30
0.0
 10
27.1799463127
 20
45.6330208552
 30
0.0
 10
26.8596690927
 20
45.7863635229
 30
0.0
 10
26.56482341
 20
45.9236388181
 30
0.0
 10
26.3007990881
 20
46.0413795674
 30
0.0
 10
26.0641600674
 20
46.1446283466
 30
0.0
 10
25.8495518641
 20
46.236330111
 30
0.0
 10
25.654048047
 20
46.3170411812
 30
0.0
 10
25.4754134449
 20
46.3861103778
 30
0.0
 10
25.3117523802
 20
46.4430927858
 30
0.0
 10
25.160890023
 20
46.4887239725
 30
0.0
 10
25.0215730285
 20
46.5243597656
 30
0.0
 10
24.8943082806
 20
46.5514361286
 30
0.0
 10
24.7813016296
 20
46.5716179691
 30
0.0
 10
24.6845940937
 20
46.5868017474
 30
0.0
 10
24.6257854769
 20
46.595648952
 30
0.0
 10
24.5994135394
 20
46.5997946767
 30
0.0
  0
SPLINE
  5
2EA
100
AcDbEntity
  8
0
100
AcDbSpline
 62
7
  6
BYLAYER
 70
0
 71
3
 72
47
 73
43
 74
0
 42
0.0000001
 43
0.0000001
 44
0.0000000001
 40
0.0
 40
0.0
 40
0.0
 40
0.0
 40
0.0043299406
 40
0.009826579
 40
0.016478353
 40
0.024269687
 40
0.043199763
 40
0.0664679814
 40
0.0937855261
 40
0.1249396986
 40
0.1596136494
 40
0.1974897147
 40
0.2814287568
 40
0.3734771403
 40
0.4701465584
 40
0.5677101842
 40
0.6624183268
 40
0.7506686379
 40
0.8290242501
 40
0.8635696718
 40
0.8945611408
 40
0.9216752642
 40
0.9337071362
 40
0.9446893792
 40
0.954597684
 40
0.9634081178
 40
0.9710973641
 40
0.9776431859
 40
0.9830388665
 40
0.9853004666
 40
0.9872729603
 40
0.9889588081
 40
0.9903622008
 40
0.9914907576
 40
0.9923597197
 40
0.9930035376
 40
0.9935060181
 40
0.9946818886
 40
0.9956006964
 40
0.9967850979
 40
0.9982490449
 40
1.0
 40
1.0
 40
1.0
 40
1.0
 10
15.9106018596
 20
44.2525569857
 30
0.0
 10
15.9129645135
 20
44.2536628281
 30
0.0
 10
15.9184020771
 20
44.2559935734
 30
0.0
 10
15.9277139028
 20
44.2594249822
 30
0.0
 10
15.9390919575
 20
44.2632505627
 30
0.0
 10
15.9582752103
 20
44.2692244249
 30
0.0
 10
15.9872281565
 20
44.2774437166
 30
0.0
 10
16.0277053788
 20
44.2880720742
 30
0.0
 10
16.0754744828
 20
44.2998846936
 30
0.0
 10
16.130047528
 20
44.3127696175
 30
0.0
 10
16.1909247271
 20
44.326604738
 30
0.0
 10
16.282931717
 20
44.3468379659
 30
0.0
 10
16.4089228925
 20
44.3733306433
 30
0.0
 10
16.5698511704
 20
44.4056345831
 30
0.0
 10
16.7390946462
 20
44.4381593777
 30
0.0
 10
16.9101555053
 20
44.4696838644
 30
0.0
 10
17.0764700273
 20
44.4989707646
 30
0.0
 10
17.2316245784
 20
44.524925489
 30
0.0
 10
17.3512596932
 20
44.5436688381
 30
0.0
 10
17.4369771936
 20
44.5561588187
 30
0.0
 10
17.4922366659
 20
44.5637300743
 30
0.0
 10
17.5341288737
 20
44.5690078931
 30
0.0
 10
17.5641099297
 20
44.572441243
 30
0.0
 10
17.5838193762
 20
44.5745247311
 30
0.0
 10
17.6016191252
 20
44.5762179808
 30
0.0
 10
17.6174638164
 20
44.5775171986
 30
0.0
 10
17.6313085172
 20
44.5784200609
 30
0.0
 10
17.6431163045
 20
44.5789240096
 30
0.0
 10
17.6516686275
 20
44.5790199988
 30
0.0
 10
17.6574642397
 20
44.5788602582
 30
0.0
 10
17.661022314
 20
44.5786470191
 30
0.0
 10
17.6640549355
 20
44.5783356272
 30
0.0
 10
17.6665622761
 20
44.5779264146
 30
0.0
 10
17.6685524821
 20
44.5774245882
 30
0.0
 10
17.670028477
 20
44.5768204807
 30
0.0
 10
17.6710425018
 20
44.5761145126
 30
0.0
 10
17.6717033832
 20
44.5747687514
 30
0.0
 10
17.6707039516
 20
44.5732190673
 30
0.0
 10
17.6692493687
 20
44.571969993
 30
0.0
 10
17.6674568388
 20
44.570745773
 30
0.0
 10
17.6651551343
 20
44.5694429628
 30
0.0
 10
17.663418459
 20
44.5685947552
 30
0.0
 10
17.6624656479
 20
44.5681352934
 30
0.0
  0
SPLINE
  5
2EB
100
AcDbEntity
  8
0
100
AcDbSpline
 62
7
  6
BYLAYER
 70
0
 71
3
 72
13
 73
9
 74
0
 42
0.0000001
 43
0.0000001
 44
0.0000000001
 40
0.0
 40
0.0
 40
0.0
 40
0.0
 40
0.1793493223
 40
0.3499914138
 40
0.5151161866
 40
0.6775002437
 40
0.8384668108
 40
1.0
 40
1.0
 40
1.0
 40
1.0
 10
29.0090754257
 20
47.0260249475
 30
0.0
 10
28.9620127671
 20
46.9767912622
 30
0.0
 10
28.8655354988
 20
46.8850642908
 30
0.0
 10
28.7126850663
 20
46.7626096777
 30
0.0
 10
28.5542599545
 20
46.6586438753
 30
0.0
 10
28.3892754588
 20
46.5731132069
 30
0.0
 10
28.2176143221
 20
46.5056199383
 30
0.0
 10
28.0993647126
 20
46.4727769728
 30
0.0
 10
28.0395051137
 20
46.459366919
 30
0.0
  0
SPLINE
  5
2EC
100
AcDbEntity
  8
0
100
AcDbSpline
 62
7
  6
BYLAYER
 70
0
 71
3
 72
60
 73
56
 74
0
 42
0.0000001
 43
0.0000001
 44
0.0000000001
 40
0.0
 40
0.0
 40
0.0
 40
0.0
 40
0.0175765338
 40
0.0345485841
 40
0.0510119909
 40
0.0670524
 40
0.0827557576
 40
0.0981835637
 40
0.128376229
 40
0.1578820673
 40
0.1724292453
 40
0.1868559491
 40
0.2011841807
 40
0.2154567465
 40
0.2297121643
 40
0.2439990555
 40
0.2583601569
 40
0.2728456618
 40
0.3023452925
 40
0.3327358573
 40
0.3641484295
 40
0.3966411009
 40
0.4301902681
 40
0.4647267511
 40
0.5001394299
 40
0.5362929451
 40
0.5730264406
 40
0.6101655663
 40
0.647522091
 40
0.7220978298
 40
0.7589069607
 40
0.7951170809
 40
0.8305173374
 40
0.8648959688
 40
0.8980434852
 40
0.9140938808
 40
0.9297621086
 40
0.9373966392
 40
0.9447063674
 40
0.9516498905
 40
0.9582010947
 40
0.9643271144
 40
0.969994986
 40
0.9751731101
 40
0.9798304285
 40
0.9839405201
 40
0.9874909966
 40
0.9904830871
 40
0.9929599446
 40
0.9949902131
 40
0.9967173731
 40
0.9975185234
 40
0.9983126837
 40
0.9991298142
 40
1.0
 40
1.0
 40
1.0
 40
1.0
 10
11.8017883413
 20
45.6302817666
 30
0.0
 10
11.7916446297
 20
45.7392731548
 30
0.0
 10
11.7775745155
 20
45.9541759299
 30
0.0
 10
11.7765991041
 20
46.272120209
 30
0.0
 10
11.7967461215
 20
46.5799019188
 30
0.0
 10
11.8388553774
 20
46.8775059011
 30
0.0
 10
11.9036955575
 20
47.1644635724
 30
0.0
 10
12.0202101052
 20
47.5286483968
 30
0.0
 10
12.2244019025
 20
47.9531471347
 30
0.0
 10
12.5055167179
 20
48.3244508819
 30
0.0
 10
12.765733242
 20
48.5799753233
 30
0.0
 10
12.9750956316
 20
48.7506278358
 30
0.0
 10
13.1971632716
 20
48.9012377068
 30
0.0
 10
13.4298346379
 20
49.032644372
 30
0.0
 10
13.6714809632
 20
49.1459993242
 30
0.0
 10
13.9208277965
 20
49.2426437496
 30
0.0
 10
14.177011391
 20
49.3241060091
 30
0.0
 10
14.5291714115
 20
49.4145314866
 30
0.0
 10
14.9860829995
 20
49.4951522156
 30
0.0
 10
15.5526148416
 20
49.549546123
 30
0.0
 10
16.140010417
 20
49.5677330551
 30
0.0
 10
16.7471070166
 20
49.5551659415
 30
0.0
 10
17.3724938578
 20
49.5158741509
 30
0.0
 10
18.0142596728
 20
49.4538542574
 30
0.0
 10
18.6701830182
 20
49.3725396171
 30
0.0
 10
19.3377549037
 20
49.2753839146
 30
0.0
 10
20.0142414976
 20
49.1655662068
 30
0.0
 10
20.6967211411
 20
49.0462900848
 30
0.0
 10
21.6100388972
 20
48.8789192242
 30
0.0
 10
22.5201660658
 20
48.7056783775
 30
0.0
 10
23.4238974827
 20
48.5370640406
 30
0.0
 10
24.0884952606
 20
48.4172074053
 30
0.0
 10
24.7393314717
 20
48.3064722521
 30
0.0
 10
25.3728312742
 20
48.2078917108
 30
0.0
 10
25.8886978172
 20
48.1376968799
 30
0.0
 10
26.289991876
 20
48.0906573379
 30
0.0
 10
26.5338286202
 20
48.0655169578
 30
0.0
 10
26.7237246099
 20
48.0482666584
 30
0.0
 10
26.8596222608
 20
48.0373381149
 30
0.0
 10
26.9889497259
 20
48.0290611993
 30
0.0
 10
27.1110616741
 20
48.0238362915
 30
0.0
 10
27.2253307871
 20
48.0220712442
 30
0.0
 10
27.3310522798
 20
48.0238925116
 30
0.0
 10
27.427487649
 20
48.0294361976
 30
0.0
 10
27.5139248801
 20
48.0383888965
 30
0.0
 10
27.5897338057
 20
48.0504776642
 30
0.0
 10
27.6545513638
 20
48.0648861582
 30
0.0
 10
27.708442601
 20
48.0809423387
 30
0.0
 10
27.7520890684
 20
48.0977139685
 30
0.0
 10
27.7871094841
 20
48.114614148
 30
0.0
 10
27.8113974972
 20
48.1294068601
 30
0.0
 10
27.8283177332
 20
48.1413319352
 30
0.0
 10
27.8401597761
 20
48.1505935479
 30
0.0
 10
27.8518195445
 20
48.1607491042
 30
0.0
 10
27.8594053774
 20
48.1680307093
 30
0.0
 10
27.863234615
 20
48.1718657582
 30
0.0
  0
SPLINE
  5
2ED
100
AcDbEntity
  8
0
100
AcDbSpline
 62
7
  6
BYLAYER
 70
0
 71
3
 72
121
 73
117
 74
0
 42
0.0000001
 43
0.0000001
 44
0.0000000001
 40
0.0
 40
0.0
 40
0.0
 40
0.0
 40
0.0089996248
 40
0.0170101163
 40
0.0240480638
 40
0.0303371741
 40
0.0360242531
 40
0.0412081695
 40
0.0459499788
 40
0.0502707885
 40
0.0541847995
 40
0.0577121453
 40
0.0608851562
 40
0.063735459
 40
0.0662825578
 40
0.0685473777
 40
0.0705398544
 40
0.0722624583
 40
0.0737218845
 40
0.074932749
 40
0.0759307426
 40
0.0767631826
 40
0.0774777259
 40
0.0781151617
 40
0.0787009701
 40
0.0792611307
 40
0.0798344209
 40
0.0804795311
 40
0.0812602929
 40
0.0822307483
 40
0.0834229485
 40
0.0848775157
 40
0.0866395241
 40
0.0887565084
 40
0.0912860425
 40
0.0942779387
 40
0.0977843796
 40
0.1018697795
 40
0.106616026
 40
0.1121133703
 40
0.118439931
 40
0.1256535639
 40
0.1337784492
 40
0.1428518467
 40
0.1529459372
 40
0.1642108251
 40
0.176824432
 40
0.1909388179
 40
0.2066591071
 40
0.2241278822
 40
0.2434958858
 40
0.2650222012
 40
0.2890258384
 40
0.315755354
 40
0.3458861812
 40
0.3777062431
 40
0.4068326484
 40
0.4323351331
 40
0.4551092932
 40
0.4755263766
 40
0.4939286717
 40
0.5105083876
 40
0.525451108
 40
0.5389290531
 40
0.5510746393
 40
0.5620159184
 40
0.5718670189
 40
0.5807303419
 40
0.5886994667
 40
0.5958520701
 40
0.6022714478
 40
0.6080386188
 40
0.6132049251
 40
0.6178151736
 40
0.6219079573
 40
0.6255129668
 40
0.6286515552
 40
0.6313617533
 40
0.6336742923
 40
0.6356033552
 40
0.6371995315
 40
0.6385584043
 40
0.6398173644
 40
0.6411049411
 40
0.6425409024
 40
0.6442565708
 40
0.6463401447
 40
0.6488229728
 40
0.6517035445
 40
0.6550079903
 40
0.6587548749
 40
0.6629598256
 40
0.6676454608
 40
0.6728376521
 40
0.6785682813
 40
0.6848736686
 40
0.6918032566
 40
0.69943994
 40
0.7078643531
 40
0.7171606186
 40
0.7274143228
 40
0.7387030712
 40
0.7511223067
 40
0.764795728
 40
0.7798958338
 40
0.7966414134
 40
0.8152363113
 40
0.8359341702
 40
0.8590412555
 40
0.8845334597
 40
0.9097912405
 40
0.932565695
 40
0.9524314697
 40
0.9699506636
 40
0.9856488872
 40
1.0
 40
1.0
 40
1.0
 40
1.0
 10
27.3425261441
 20
46.315270334
 30
0.0
 10
27.4031061543
 20
46.3143696537
 30
0.0
 10
27.5176998638
 20
46.3155218037
 30
0.0
 10
27.6792435707
 20
46.3271472223
 30
0.0
 10
27.8220051955
 20
46.3435674851
 30
0.0
 10
27.9482086328
 20
46.3653910131
 30
0.0
 10
28.0608608703
 20
46.3912301974
 30
0.0
 10
28.1619831027
 20
46.4200643784
 30
0.0
 10
28.2528642431
 20
46.4508178899
 30
0.0
 10
28.3343334484
 20
46.4824257199
 30
0.0
 10
28.4069692333
 20
46.5140056485
 30
0.0
 10
28.4714239741
 20
46.5448903794
 30
0.0
 10
28.5284301533
 20
46.5746538278
 30
0.0
 10
28.5786736513
 20
46.6030396039
 30
0.0
 10
28.6227331728
 20
46.6298828334
 30
0.0
 10
28.6610254609
 20
46.6550413371
 30
0.0
 10
28.6938436842
 20
46.6783745391
 30
0.0
 10
28.7213902143
 20
46.6997164995
 30
0.0
 10
28.7438931581
 20
46.7189253736
 30
0.0
 10
28.7617620581
 20
46.7359932258
 30
0.0
 10
28.7756078388
 20
46.7511004005
 30
0.0
 10
28.7861491496
 20
46.7646347653
 30
0.0
 10
28.7940108614
 20
46.7770976134
 30
0.0
 10
28.7995423165
 20
46.7889613486
 30
0.0
 10
28.8027587975
 20
46.8006035477
 30
0.0
 10
28.8033466355
 20
46.8122790796
 30
0.0
 10
28.8007179715
 20
46.824121103
 30
0.0
 10
28.7941850176
 20
46.8360695752
 30
0.0
 10
28.7832347883
 20
46.848065963
 30
0.0
 10
28.7675841161
 20
46.860313892
 30
0.0
 10
28.7468229488
 20
46.8731062137
 30
0.0
 10
28.720386298
 20
46.886644713
 30
0.0
 10
28.687551386
 20
46.9012076918
 30
0.0
 10
28.6474070579
 20
46.9170376466
 30
0.0
 10
28.5989880745
 20
46.9343723826
 30
0.0
 10
28.5413769132
 20
46.9537360405
 30
0.0
 10
28.4737007039
 20
46.9760202776
 30
0.0
 10
28.3949740676
 20
47.002512016
 30
0.0
 10
28.3041620412
 20
47.035069407
 30
0.0
 10
28.1998507191
 20
47.0746158087
 30
0.0
 10
28.0804596752
 20
47.1212179688
 30
0.0
 10
27.9446701886
 20
47.1744510674
 30
0.0
 10
27.7911976677
 20
47.2332566762
 30
0.0
 10
27.617841598
 20
47.2942347671
 30
0.0
 10
27.4224914557
 20
47.3560688469
 30
0.0
 10
27.2029609336
 20
47.4202269252
 30
0.0
 10
26.9571860087
 20
47.4910362493
 30
0.0
 10
26.6821797585
 20
47.5687373469
 30
0.0
 10
26.3741757206
 20
47.6497716246
 30
0.0
 10
26.0293319769
 20
47.7292811771
 30
0.0
 10
25.6437125978
 20
47.8048642194
 30
0.0
 10
25.2133674287
 20
47.8803742653
 30
0.0
 10
24.7365804384
 20
47.9770869396
 30
0.0
 10
24.2010338617
 20
48.0748910374
 30
0.0
 10
23.6131653098
 20
48.1789332442
 30
0.0
 10
23.0096066004
 20
48.2869611811
 30
0.0
 10
22.4354043056
 20
48.3819783373
 30
0.0
 10
21.9199467247
 20
48.4585375313
 30
0.0
 10
21.4613460507
 20
48.5183538633
 30
0.0
 10
21.0490204258
 20
48.5626758789
 30
0.0
 10
20.6771146917
 20
48.5915583506
 30
0.0
 10
20.3412082324
 20
48.6051769651
 30
0.0
 10
20.0381843445
 20
48.6058028679
 30
0.0
 10
19.7652039492
 20
48.5956696146
 30
0.0
 10
19.5197043205
 20
48.5767943056
 30
0.0
 10
19.2994156727
 20
48.5509003377
 30
0.0
 10
19.1022205624
 20
48.5193439927
 30
0.0
 10
18.9261060669
 20
48.4836989913
 30
0.0
 10
18.7691796453
 20
48.4454963783
 30
0.0
 10
18.6296160237
 20
48.4059825816
 30
0.0
 10
18.5056654219
 20
48.3660619705
 30
0.0
 10
18.3958049876
 20
48.3262547269
 30
0.0
 10
18.2989421653
 20
48.2865717583
 30
0.0
 10
18.214275497
 20
48.2471128626
 30
0.0
 10
18.1411519655
 20
48.2080419799
 30
0.0
 10
18.0790874093
 20
48.1695901849
 30
0.0
 10
18.0276392709
 20
48.1319985641
 30
0.0
 10
17.9864236096
 20
48.095516878
 30
0.0
 10
17.955193203
 20
48.0604746981
 30
0.0
 10
17.9337116852
 20
48.0273293406
 30
0.0
 10
17.9214811377
 20
47.9965241909
 30
0.0
 10
17.9175563016
 20
47.9681151265
 30
0.0
 10
17.9210567721
 20
47.9417307523
 30
0.0
 10
17.9316674092
 20
47.9167865193
 30
0.0
 10
17.9497600679
 20
47.8926986483
 30
0.0
 10
17.9762452335
 20
47.8691667858
 30
0.0
 10
18.0119697924
 20
47.8462911953
 30
0.0
 10
18.0571359618
 20
47.8243421712
 30
0.0
 10
18.1116734032
 20
47.8034405061
 30
0.0
 10
18.1755471344
 20
47.7835574951
 30
0.0
 10
18.248930841
 20
47.7645665786
 30
0.0
 10
18.3320479248
 20
47.746338527
 30
0.0
 10
18.4252207706
 20
47.7287526587
 30
0.0
 10
18.5289147358
 20
47.7117046779
 30
0.0
 10
18.6437045633
 20
47.6950731809
 30
0.0
 10
18.7703449809
 20
47.6787847599
 30
0.0
 10
18.9099419207
 20
47.6627529369
 30
0.0
 10
19.0639043603
 20
47.6468716402
 30
0.0
 10
19.2338788834
 20
47.6310260532
 30
0.0
 10
19.421528893
 20
47.6150502241
 30
0.0
 10
19.6284944207
 20
47.5986842813
 30
0.0
 10
19.8565326916
 20
47.5821487141
 30
0.0
 10
20.1076762668
 20
47.5660443402
 30
0.0
 10
20.384529732
 20
47.5500355576
 30
0.0
 10
20.6904929363
 20
47.532928859
 30
0.0
 10
21.0294012925
 20
47.5116164434
 30
0.0
 10
21.4056300006
 20
47.4836191468
 30
0.0
 10
21.8240364359
 20
47.4458568347
 30
0.0
 10
22.2877426655
 20
47.3943462177
 30
0.0
 10
22.7804593802
 20
47.327167731
 30
0.0
 10
23.2690103223
 20
47.2473192711
 30
0.0
 10
23.7181663675
 20
47.1622098608
 30
0.0
 10
24.114157143
 20
47.0771132981
 30
0.0
 10
24.4632804373
 20
47.0010420974
 30
0.0
 10
24.7758414624
 20
46.930645299
 30
0.0
 10
24.9689600196
 20
46.8694494542
 30
0.0
 10
25.0599504864
 20
46.8369697165
 30
0.0
  0
SPLINE
  5
2EE
100
AcDbEntity
  8
0
100
AcDbSpline
 62
7
  6
BYLAYER
 70
0
 71
3
 72
26
 73
22
 74
0
 42
0.0000001
 43
0.0000001
 44
0.0000000001
 40
0.0
 40
0.0
 40
0.0
 40
0.0
 40
0.1215482462
 40
0.2326382454
 40
0.3341253979
 40
0.4267723611
 40
0.5111812069
 40
0.5878453484
 40
0.657134601
 40
0.719294993
 40
0.7745416747
 40
0.8229841758
 40
0.864339701
 40
0.897693825
 40
0.9231489016
 40
0.9412562346
 40
0.9528992772
 40
0.9590535101
 40
0.9658728654
 40
0.979037701
 40
1.0
 40
1.0
 40
1.0
 40
1.0
 10
26.3347656576
 20
46.3365637272
 30
0.0
 10
26.3789401017
 20
46.3328470705
 30
0.0
 10
26.4634870437
 20
46.325720666
 30
0.0
 10
26.5849253251
 20
46.3155823998
 30
0.0
 10
26.6958851856
 20
46.3066329143
 30
0.0
 10
26.7971808728
 20
46.2989140619
 30
0.0
 10
26.8894878873
 20
46.2924059583
 30
0.0
 10
26.9733344516
 20
46.2870511543
 30
0.0
 10
27.049118034
 20
46.2827930305
 30
0.0
 10
27.1171351973
 20
46.2795937936
 30
0.0
 10
27.1775841428
 20
46.2774039239
 30
0.0
 10
27.2304754226
 20
46.2762200207
 30
0.0
 10
27.2753856999
 20
46.2759715697
 30
0.0
 10
27.3119367849
 20
46.2768217235
 30
0.0
 10
27.3398963778
 20
46.2782405163
 30
0.0
 10
27.3600207834
 20
46.2813082077
 30
0.0
 10
27.3725149275
 20
46.2835258367
 30
0.0
 10
27.3807557531
 20
46.2907498608
 30
0.0
 10
27.3733732952
 20
46.2999084807
 30
0.0
 10
27.3610276265
 20
46.3066124191
 30
0.0
 10
27.3495097372
 20
46.3121591221
 30
0.0
 10
27.3425261441
 20
46.315270334
 30
0.0
  0
SPLINE
  5
2EF
100
AcDbEntity
  8
0
100
AcDbSpline
 62
7
  6
BYLAYER
 70
0
 71
3
 72
57
 73
53
 74
0
 42
0.0000001
 43
0.0000001
 44
0.0000000001
 40
0.0
 40
0.0
 40
0.0
 40
0.0
 40
0.0072820248
 40
0.0142097217
 40
0.0270350795
 40
0.0385537583
 40
0.0488692224
 40
0.0663907515
 40
0.0739528268
 40
0.0809904823
 40
0.0877302892
 40
0.0944020858
 40
0.1012264815
 40
0.1083855836
 40
0.1160404403
 40
0.1243003149
 40
0.1332517205
 40
0.1429426791
 40
0.1534036447
 40
0.1646345188
 40
0.1766240253
 40
0.1893578697
 40
0.2028188571
 40
0.2169832797
 40
0.231822583
 40
0.2473050845
 40
0.2633978882
 40
0.2800706828
 40
0.31502802
 40
0.3519157047
 40
0.3904718652
 40
0.4304289425
 40
0.4715247266
 40
0.5134952689
 40
0.5560806465
 40
0.6420636095
 40
0.6849557959
 40
0.7274532127
 40
0.7693182112
 40
0.8103231078
 40
0.8502528405
 40
0.8697494462
 40
0.8889022548
 40
0.8983988403
 40
0.9080402865
 40
0.9278023762
 40
0.9482734822
 40
0.9588392064
 40
0.9696770081
 40
0.9808388704
 40
0.9923778928
 40
1.0
 40
1.0
 40
1.0
 40
1.0
 10
13.5715566362
 20
45.7905422107
 30
0.0
 10
13.567977217
 20
45.829021017
 30
0.0
 10
13.5620192253
 20
45.9042022614
 30
0.0
 10
13.5549256001
 20
46.0475094183
 30
0.0
 10
13.5541993248
 20
46.2135737314
 30
0.0
 10
13.5659791196
 20
46.3973034301
 30
0.0
 10
13.5948349707
 20
46.6042525046
 30
0.0
 10
13.6424354768
 20
46.7871616766
 30
0.0
 10
13.7089945135
 20
46.9443456738
 30
0.0
 10
13.7632949771
 20
47.0439279246
 30
0.0
 10
13.8243357459
 20
47.1338642464
 30
0.0
 10
13.8934636584
 20
47.2162727439
 30
0.0
 10
13.9718101107
 20
47.2931685778
 30
0.0
 10
14.0611735803
 20
47.3655357074
 30
0.0
 10
14.1628762522
 20
47.4339842709
 30
0.0
 10
14.2781210451
 20
47.4985336912
 30
0.0
 10
14.4076369773
 20
47.5588704283
 30
0.0
 10
14.5518330901
 20
47.6144875022
 30
0.0
 10
14.7107221437
 20
47.6646935382
 30
0.0
 10
14.8839171087
 20
47.7091695676
 30
0.0
 10
15.0708950318
 20
47.747500518
 30
0.0
 10
15.2710852828
 20
47.7792628818
 30
0.0
 10
15.4838748079
 20
47.8040388725
 30
0.0
 10
15.7085512933
 20
47.8219495039
 30
0.0
 10
15.9443977301
 20
47.8331001611
 30
0.0
 10
16.1906941472
 20
47.8375984187
 30
0.0
 10
16.4467488003
 20
47.8355543731
 30
0.0
 10
16.8059812132
 20
47.8242865188
 30
0.0
 10
17.2749081226
 20
47.7946998932
 30
0.0
 10
17.8581207152
 20
47.7382068931
 30
0.0
 10
18.4659225473
 20
47.6628745362
 30
0.0
 10
19.0940586439
 20
47.5714099104
 30
0.0
 10
19.7384866224
 20
47.4667929048
 30
0.0
 10
20.395330498
 20
47.3519870468
 30
0.0
 10
21.2855061346
 20
47.1888677626
 30
0.0
 10
22.1793382252
 20
47.0187032762
 30
0.0
 10
23.0733270522
 20
46.851897818
 30
0.0
 10
23.7379119608
 20
46.7320587225
 30
0.0
 10
24.3937900202
 20
46.6205016914
 30
0.0
 10
25.0377310493
 20
46.5203548719
 30
0.0
 10
25.5658564161
 20
46.4484158152
 30
0.0
 10
25.9800320846
 20
46.3999262166
 30
0.0
 10
26.2342041091
 20
46.3738721884
 30
0.0
 10
26.4365610879
 20
46.3553900263
 30
0.0
 10
26.6423377362
 20
46.3389414248
 30
0.0
 10
26.9066683149
 20
46.3242792641
 30
0.0
 10
27.1764695971
 20
46.3240106832
 30
0.0
 10
27.398374516
 20
46.3369292881
 30
0.0
 10
27.5702993724
 20
46.355159561
 30
0.0
 10
27.7461032999
 20
46.3835211854
 30
0.0
 10
27.9031584713
 20
46.4191355876
 30
0.0
 10
28.0009082021
 20
46.4472591769
 30
0.0
 10
28.0395051322
 20
46.4593669234
 30
0.0
  0
SPLINE
  5
2F0
100
AcDbEntity
  8
0
100
AcDbSpline
 62
7
  6
BYLAYER
 70
0
 71
3
 72
10
 73
6
 74
0
 42
0.0000001
 43
0.0000001
 44
0.0000000001
 40
0.0
 40
0.0
 40
0.0
 40
0.0
 40
0.3219553339
 40
0.6550035046
 40
1.0
 40
1.0
 40
1.0
 40
1.0
 10
28.6796697527
 20
47.3554306204
 30
0.0
 10
28.6883529863
 20
47.3617995188
 30
0.0
 10
28.7056393818
 20
47.3752807198
 30
0.0
 10
28.7308951174
 20
47.3972289815
 30
0.0
 10
28.7472808683
 20
47.4129219639
 30
0.0
 10
28.7554403169
 20
47.4210814125
 30
0.0
  0
SPLINE
  5
2F1
100
AcDbEntity
  8
0
100
AcDbSpline
 62
7
  6
BYLAYER
 70
0
 71
3
 72
50
 73
46
 74
0
 42
0.0000001
 43
0.0000001
 44
0.0000000001
 40
0.0
 40
0.0
 40
0.0
 40
0.0
 40
0.0045220858
 40
0.0102240679
 40
0.0250887439
 40
0.0444327497
 40
0.0680918532
 40
0.0958746254
 40
0.1274839317
 40
0.2008872305
 40
0.3782051205
 40
0.4752859151
 40
0.5730617847
 40
0.6677684175
 40
0.7557993516
 40
0.8337177695
 40
0.8986072094
 40
0.9253207889
 40
0.937133334
 40
0.9478835224
 40
0.9575467622
 40
0.9660985256
 40
0.9735143916
 40
0.979770131
 40
0.9824559667
 40
0.9848456993
 40
0.9869392966
 40
0.9887368451
 40
0.9902386419
 40
0.9914454033
 40
0.9923588038
 40
0.9927067901
 40
0.9929836907
 40
0.9931920009
 40
0.9933378338
 40
0.9934393788
 40
0.9935420467
 40
0.9936902707
 40
0.9939014945
 40
0.9941816575
 40
0.9945332439
 40
0.9954550207
 40
0.9966721057
 40
0.998186684
 40
1.0
 40
1.0
 40
1.0
 40
1.0
 10
13.5715566362
 20
45.7905422107
 30
0.0
 10
13.5688885042
 20
45.7900399214
 30
0.0
 10
13.5628436646
 20
45.7889756417
 30
0.0
 10
13.5479638508
 20
45.7866391307
 30
0.0
 10
13.5242351856
 20
45.7833153373
 30
0.0
 10
13.489779259
 20
45.7788836052
 30
0.0
 10
13.4475920118
 20
45.7737805296
 30
0.0
 10
13.3980635821
 20
45.7680594019
 30
0.0
 10
13.3188335251
 20
45.7592309951
 30
0.0
 10
13.1502943002
 20
45.7412980556
 30
0.0
 10
12.9425254516
 20
45.7206121628
 30
0.0
 10
12.720105163
 20
45.6994438118
 30
0.0
 10
12.5470062053
 20
45.6834957423
 30
0.0
 10
12.3792703129
 20
45.6685643693
 30
0.0
 10
12.2233626913
 20
45.6552113937
 30
0.0
 10
12.0852421215
 20
45.6439562016
 30
0.0
 10
11.9837678077
 20
45.6362214337
 30
0.0
 10
11.9218340108
 20
45.6319179301
 30
0.0
 10
11.8923142204
 20
45.6300036223
 30
0.0
 10
11.8730043962
 20
45.6288199502
 30
0.0
 10
11.8556440074
 20
45.6278305992
 30
0.0
 10
11.8402775299
 20
45.6270376202
 30
0.0
 10
11.8269494438
 20
45.6264432545
 30
0.0
 10
11.8171354954
 20
45.6260978785
 30
0.0
 10
11.8103349617
 20
45.6259332917
 30
0.0
 10
11.8060315839
 20
45.6258672412
 30
0.0
 10
11.8022609378
 20
45.6258514802
 30
0.0
 10
11.7990235042
 20
45.62588572
 30
0.0
 10
11.7963192548
 20
45.6259684958
 30
0.0
 10
11.7941487826
 20
45.6261000066
 30
0.0
 10
11.7926737623
 20
45.62625555
 30
0.0
 10
11.7917645069
 20
45.6264187329
 30
0.0
 10
11.7912783677
 20
45.6265398324
 30
0.0
 10
11.7909234119
 20
45.6266749406
 30
0.0
 10
11.7906859275
 20
45.6268159451
 30
0.0
 10
11.7905694527
 20
45.6270146735
 30
0.0
 10
11.7906548157
 20
45.6272299813
 30
0.0
 10
11.7908663258
 20
45.6274123541
 30
0.0
 10
11.7911962219
 20
45.6276112646
 30
0.0
 10
11.7916576739
 20
45.6278205967
 30
0.0
 10
11.7925307327
 20
45.6281495975
 30
0.0
 10
11.7939652065
 20
45.6285760186
 30
0.0
 10
11.7960932507
 20
45.6291074184
 30
0.0
 10
11.7987588519
 20
45.6296910297
 30
0.0
 10
11.8007197386
 20
45.6300755778
 30
0.0
 10
11.8017883406
 20
45.6302817665
 30
0.0
  0
SPLINE
  5
2F2
100
AcDbEntity
  8
0
100
AcDbSpline
 62
7
  6
BYLAYER
 70
0
 71
3
 72
50
 73
46
 74
0
 42
0.0000001
 43
0.0000001
 44
0.0000000001
 40
0.0
 40
0.0
 40
0.0
 40
0.0
 40
0.0045220858
 40
0.0102240678
 40
0.0250887438
 40
0.0444327498
 40
0.0680918536
 40
0.0958746257
 40
0.1274839319
 40
0.2008872306
 40
0.3782051203
 40
0.4752859148
 40
0.5730617842
 40
0.6677684169
 40
0.7557993508
 40
0.8337177687
 40
0.8986072084
 40
0.9253207879
 40
0.9371333329
 40
0.9478835214
 40
0.9575467612
 40
0.9660985245
 40
0.9735143905
 40
0.9797701299
 40
0.9824559657
 40
0.9848456983
 40
0.9869392957
 40
0.9887368442
 40
0.9902386411
 40
0.9914454024
 40
0.9923588029
 40
0.9927067891
 40
0.9929836897
 40
0.9931919999
 40
0.9933378328
 40
0.9934393777
 40
0.9935420457
 40
0.9936902697
 40
0.9939014936
 40
0.9941816566
 40
0.9945332431
 40
0.9954550201
 40
0.9966721053
 40
0.9981866838
 40
1.0
 40
1.0
 40
1.0
 40
1.0
 10
11.8017883413
 20
45.6302817666
 30
0.0
 10
11.8044564733
 20
45.6307840558
 30
0.0
 10
11.8105013128
 20
45.6318483356
 30
0.0
 10
11.8253811266
 20
45.6341848465
 30
0.0
 10
11.8491097919
 20
45.63750864
 30
0.0
 10
11.8835657189
 20
45.6419403722
 30
0.0
 10
11.9257529663
 20
45.6470434478
 30
0.0
 10
11.9752813962
 20
45.6527645755
 30
0.0
 10
12.0545114532
 20
45.6615929824
 30
0.0
 10
12.2230506781
 20
45.6795259218
 30
0.0
 10
12.4308195267
 20
45.7002118146
 30
0.0
 10
12.6532398153
 20
45.7213801656
 30
0.0
 10
12.826338773
 20
45.7373282352
 30
0.0
 10
12.9940746654
 20
45.7522596082
 30
0.0
 10
13.149982287
 20
45.7656125838
 30
0.0
 10
13.2881028568
 20
45.7768677759
 30
0.0
 10
13.3895771706
 20
45.7846025437
 30
0.0
 10
13.4515109675
 20
45.7889060473
 30
0.0
 10
13.4810307579
 20
45.7908203551
 30
0.0
 10
13.5003405821
 20
45.7920040272
 30
0.0
 10
13.517700971
 20
45.7929933783
 30
0.0
 10
13.5330674484
 20
45.7937863572
 30
0.0
 10
13.5463955345
 20
45.7943807229
 30
0.0
 10
13.556209483
 20
45.7947260989
 30
0.0
 10
13.5630100168
 20
45.7948906857
 30
0.0
 10
13.5673133947
 20
45.7949567363
 30
0.0
 10
13.5710840409
 20
45.7949724972
 30
0.0
 10
13.5743214745
 20
45.7949382574
 30
0.0
 10
13.577025724
 20
45.7948554816
 30
0.0
 10
13.5791961961
 20
45.7947239708
 30
0.0
 10
13.5806712163
 20
45.7945684273
 30
0.0
 10
13.5815804717
 20
45.7944052445
 30
0.0
 10
13.5820666108
 20
45.794284145
 30
0.0
 10
13.5824215666
 20
45.7941490367
 30
0.0
 10
13.582659051
 20
45.7940080322
 30
0.0
 10
13.5827755257
 20
45.7938093037
 30
0.0
 10
13.5826901625
 20
45.793593996
 30
0.0
 10
13.5824786523
 20
45.7934116232
 30
0.0
 10
13.582148756
 20
45.7932127126
 30
0.0
 10
13.581687304
 20
45.7930033805
 30
0.0
 10
13.580814245
 20
45.7926743797
 30
0.0
 10
13.5793797709
 20
45.7922479585
 30
0.0
 10
13.5772517264
 20
45.7917165587
 30
0.0
 10
13.5745861248
 20
45.7911329473
 30
0.0
 10
13.5726252378
 20
45.7907483993
 30
0.0
 10
13.5715566357
 20
45.7905422106
 30
0.0
  0
SPLINE
  5
2F3
100
AcDbEntity
  8
0
100
AcDbSpline
 62
7
  6
BYLAYER
 70
0
 71
3
 72
41
 73
37
 74
0
 42
0.0000001
 43
0.0000001
 44
0.0000000001
 40
0.0
 40
0.0
 40
0.0
 40
0.0
 40
0.0396647315
 40
0.0816985378
 40
0.1256975879
 40
0.1712562278
 40
0.2653641156
 40
0.3604709083
 40
0.4529944737
 40
0.5394922957
 40
0.6166945073
 40
0.6509438836
 40
0.6818603941
 40
0.7091564406
 40
0.7326533874
 40
0.7522245642
 40
0.7605172325
 40
0.7678145729
 40
0.7741375584
 40
0.7795429719
 40
0.7841291272
 40
0.7880589847
 40
0.79159063
 40
0.7950749749
 40
0.7988789607
 40
0.8032930349
 40
0.8085061058
 40
0.8146211615
 40
0.8216912523
 40
0.829742611
 40
0.8488180901
 40
0.8718476029
 40
0.8987308427
 40
0.9292359231
 40
0.9630874755
 40
1.0
 40
1.0
 40
1.0
 40
1.0
 10
25.0539410729
 20
44.6119430993
 30
0.0
 10
25.0314133165
 20
44.6094968831
 30
0.0
 10
24.9850700855
 20
44.6039541384
 30
0.0
 10
24.913946332
 20
44.5940439245
 30
0.0
 10
24.8396773171
 20
44.5823966981
 30
0.0
 10
24.7362927994
 20
44.5644817139
 30
0.0
 10
24.6046847429
 20
44.5385518588
 30
0.0
 10
24.4476795004
 20
44.5030591465
 30
0.0
 10
24.2959716969
 20
44.4641279816
 30
0.0
 10
24.1553654632
 20
44.4233657709
 30
0.0
 10
24.0479635525
 20
44.3878509322
 30
0.0
 10
23.9717613041
 20
44.3594032383
 30
0.0
 10
23.9228423901
 20
44.3394560676
 30
0.0
 10
23.8802996255
 20
44.320211319
 30
0.0
 10
23.8445121918
 20
44.3018725151
 30
0.0
 10
23.8193004078
 20
44.2867863965
 30
0.0
 10
23.8029276673
 20
44.2751319003
 30
0.0
 10
23.7932198687
 20
44.2672102341
 30
0.0
 10
23.785410205
 20
44.2596260656
 30
0.0
 10
23.779500379
 20
44.2523836771
 30
0.0
 10
23.7754880943
 20
44.2454649814
 30
0.0
 10
23.7734063361
 20
44.2388240331
 30
0.0
 10
23.7733889828
 20
44.2324551981
 30
0.0
 10
23.7755453931
 20
44.2265321178
 30
0.0
 10
23.779752937
 20
44.2212230297
 30
0.0
 10
23.7858660335
 20
44.216499857
 30
0.0
 10
23.7938535562
 20
44.2123002147
 30
0.0
 10
23.8037056075
 20
44.2085856199
 30
0.0
 10
23.8154102544
 20
44.2053483132
 30
0.0
 10
23.834565849
 20
44.2014554185
 30
0.0
 10
23.8630662234
 20
44.1981109181
 30
0.0
 10
23.9024492334
 20
44.1962302182
 30
0.0
 10
23.948404975
 20
44.1963807556
 30
0.0
 10
24.0004916518
 20
44.1985379178
 30
0.0
 10
24.0582010211
 20
44.2026813546
 30
0.0
 10
24.0984399797
 20
44.2066257335
 30
0.0
 10
24.1194038384
 20
44.208881183
 30
0.0
  0
SPLINE
  5
2F4
100
AcDbEntity
  8
0
100
AcDbSpline
 62
7
  6
BYLAYER
 70
0
 71
3
 72
41
 73
37
 74
0
 42
0.0000001
 43
0.0000001
 44
0.0000000001
 40
0.0
 40
0.0
 40
0.0
 40
0.0
 40
0.0396647315
 40
0.0816985378
 40
0.125697588
 40
0.171256228
 40
0.2653641159
 40
0.3604709086
 40
0.452994474
 40
0.5394922961
 40
0.6166945077
 40
0.650943884
 40
0.6818603944
 40
0.709156441
 40
0.7326533877
 40
0.7522245645
 40
0.7605172328
 40
0.7678145731
 40
0.7741375586
 40
0.7795429721
 40
0.7841291273
 40
0.7880589848
 40
0.79159063
 40
0.7950749749
 40
0.7988789607
 40
0.8032930348
 40
0.8085061057
 40
0.8146211614
 40
0.8216912522
 40
0.8297426109
 40
0.84881809
 40
0.8718476028
 40
0.8987308426
 40
0.929235923
 40
0.9630874755
 40
1.0
 40
1.0
 40
1.0
 40
1.0
 10
24.1194038331
 20
44.2088812068
 30
0.0
 10
24.1419315895
 20
44.211327423
 30
0.0
 10
24.1882748205
 20
44.2168701676
 30
0.0
 10
24.2593985741
 20
44.2267803814
 30
0.0
 10
24.333667589
 20
44.2384276075
 30
0.0
 10
24.4370521068
 20
44.2563425915
 30
0.0
 10
24.5686601634
 20
44.2822724463
 30
0.0
 10
24.725665406
 20
44.317765158
 30
0.0
 10
24.8773732096
 20
44.3566963223
 30
0.0
 10
25.0179794435
 20
44.3974585325
 30
0.0
 10
25.1253813543
 20
44.4329733707
 30
0.0
 10
25.2015836028
 20
44.4614210641
 30
0.0
 10
25.2505025169
 20
44.4813682345
 30
0.0
 10
25.2930452816
 20
44.5006129829
 30
0.0
 10
25.3288327153
 20
44.5189517865
 30
0.0
 10
25.3540444994
 20
44.5340379049
 30
0.0
 10
25.3704172399
 20
44.5456924009
 30
0.0
 10
25.3801250386
 20
44.553614067
 30
0.0
 10
25.3879347023
 20
44.5611982354
 30
0.0
 10
25.3938445283
 20
44.5684406237
 30
0.0
 10
25.397856813
 20
44.5753593194
 30
0.0
 10
25.3999385713
 20
44.5820002675
 30
0.0
 10
25.3999559247
 20
44.5883691024
 30
0.0
 10
25.3977995143
 20
44.5942921827
 30
0.0
 10
25.3935919705
 20
44.5996012707
 30
0.0
 10
25.3874788739
 20
44.6043244433
 30
0.0
 10
25.3794913513
 20
44.6085240855
 30
0.0
 10
25.3696393
 20
44.6122386803
 30
0.0
 10
25.3579346531
 20
44.6154759869
 30
0.0
 10
25.3387790585
 20
44.6193688816
 30
0.0
 10
25.3102786841
 20
44.622713382
 30
0.0
 10
25.2708956741
 20
44.6245940818
 30
0.0
 10
25.2249399326
 20
44.6244435443
 30
0.0
 10
25.1728532557
 20
44.6222863822
 30
0.0
 10
25.1151438864
 20
44.6181429455
 30
0.0
 10
25.0749049278
 20
44.6141985666
 30
0.0
 10
25.0539410691
 20
44.6119431171
 30
0.0
  0
SPLINE
  5
2F5
100
AcDbEntity
  8
0
100
AcDbSpline
 62
7
  6
BYLAYER
 70
0
 71
3
 72
24
 73
20
 74
0
 42
0.0000001
 43
0.0000001
 44
0.0000000001
 40
0.0
 40
0.0
 40
0.0
 40
0.0
 40
0.0828530527
 40
0.1632740389
 40
0.2421035189
 40
0.3203940278
 40
0.398570809
 40
0.4753503307
 40
0.548469919
 40
0.6145842847
 40
0.672841205
 40
0.7247971541
 40
0.7721498071
 40
0.8160716221
 40
0.8567851552
 40
0.894100398
 40
0.9290339792
 40
0.9637273502
 40
1.0
 40
1.0
 40
1.0
 40
1.0
 10
26.1143979562
 20
46.9721782695
 30
0.0
 10
26.1819921015
 20
46.9363615124
 30
0.0
 10
26.3187300856
 20
46.8721610848
 30
0.0
 10
26.5305356302
 20
46.7993106579
 30
0.0
 10
26.7453113676
 20
46.7524031277
 30
0.0
 10
26.9620452594
 20
46.7314921012
 30
0.0
 10
27.1778060065
 20
46.7352515239
 30
0.0
 10
27.3871413082
 20
46.7608810235
 30
0.0
 10
27.5825599839
 20
46.8016168493
 30
0.0
 10
27.7584558736
 20
46.8499710255
 30
0.0
 10
27.9134886281
 20
46.89976475
 30
0.0
 10
28.0505747016
 20
46.9485169127
 30
0.0
 10
28.1739261695
 20
46.9962366271
 30
0.0
 10
28.2861884436
 20
47.0437069891
 30
0.0
 10
28.3880768012
 20
47.0917297362
 30
0.0
 10
28.4798511501
 20
47.1414198977
 30
0.0
 10
28.5631872601
 20
47.1945870906
 30
0.0
 10
28.6406500248
 20
47.2544527399
 30
0.0
 10
28.6891714037
 20
47.2985750246
 30
0.0
 10
28.7132874352
 20
47.3218129379
 30
0.0
  0
SPLINE
  5
2F6
100
AcDbEntity
  8
0
100
AcDbSpline
 62
7
  6
BYLAYER
 70
0
 71
3
 72
48
 73
44
 74
0
 42
0.0000001
 43
0.0000001
 44
0.0000000001
 40
0.0
 40
0.0
 40
0.0
 40
0.0
 40
0.0170358324
 40
0.0327829889
 40
0.0608692945
 40
0.0734695045
 40
0.0853116635
 40
0.0965731282
 40
0.1074353246
 40
0.1180774818
 40
0.1286742942
 40
0.1393894914
 40
0.1503586703
 40
0.173484362
 40
0.1858086346
 40
0.1987015846
 40
0.2121943533
 40
0.2262998001
 40
0.2410217863
 40
0.2563595543
 40
0.2723071998
 40
0.2888493987
 40
0.3236276023
 40
0.3605045628
 40
0.3992604983
 40
0.4396486931
 40
0.4814067793
 40
0.5242578835
 40
0.5679192985
 40
0.6121002551
 40
0.656506597
 40
0.7008393206
 40
0.7447983845
 40
0.7880812594
 40
0.830387098
 40
0.8714179143
 40
0.910882217
 40
0.9485042887
 40
0.966559405
 40
0.9753908094
 40
0.9840878813
 40
0.9926304505
 40
1.0
 40
1.0
 40
1.0
 40
1.0
 10
13.5455028235
 20
44.5291386068
 30
0.0
 10
13.5329561423
 20
44.6108500587
 30
0.0
 10
13.5131754083
 20
44.7688321227
 30
0.0
 10
13.4948670389
 20
45.0637454796
 30
0.0
 10
13.5044890051
 20
45.3385607743
 30
0.0
 10
13.5432939888
 20
45.5907253134
 30
0.0
 10
13.5833963247
 20
45.7594829568
 30
0.0
 10
13.6347274785
 20
45.9163170875
 30
0.0
 10
13.6971088051
 20
46.0627854547
 30
0.0
 10
13.7703533894
 20
46.2004879656
 30
0.0
 10
13.854812503
 20
46.3307502242
 30
0.0
 10
13.9507409876
 20
46.4548196919
 30
0.0
 10
14.0972889667
 20
46.6157258755
 30
0.0
 10
14.2680086912
 20
46.7641077162
 30
0.0
 10
14.4595599578
 20
46.8997090564
 30
0.0
 10
14.6195233201
 20
46.9984382768
 30
0.0
 10
14.7926101794
 20
47.0916498978
 30
0.0
 10
14.9784587953
 20
47.1792423741
 30
0.0
 10
15.1766388699
 20
47.2610394665
 30
0.0
 10
15.3867024439
 20
47.3368593422
 30
0.0
 10
15.6081606308
 20
47.4065127198
 30
0.0
 10
15.923101876
 20
47.4925931367
 30
0.0
 10
16.3416444268
 20
47.5836003146
 30
0.0
 10
16.8712363224
 20
47.6664496523
 30
0.0
 10
17.4313071828
 20
47.7258318119
 30
0.0
 10
18.016981519
 20
47.7629042122
 30
0.0
 10
18.6234491859
 20
47.7791738991
 30
0.0
 10
19.2459855641
 20
47.7761531733
 30
0.0
 10
19.8799342209
 20
47.7556276037
 30
0.0
 10
20.5207224968
 20
47.719384494
 30
0.0
 10
21.1638387531
 20
47.6693766766
 30
0.0
 10
21.8048355766
 20
47.6075547572
 30
0.0
 10
22.4393196969
 20
47.5359523939
 30
0.0
 10
23.0629609579
 20
47.4565982875
 30
0.0
 10
23.6715026276
 20
47.3715599594
 30
0.0
 10
24.2607946974
 20
47.2829246382
 30
0.0
 10
24.8268370144
 20
47.1927000508
 30
0.0
 10
25.2822766313
 20
47.1169695868
 30
0.0
 10
25.5908014513
 20
47.0639997558
 30
0.0
 10
25.7609006156
 20
47.0342842593
 30
0.0
 10
25.8854814325
 20
47.0122528628
 30
0.0
 10
26.0030628461
 20
46.9913763639
 30
0.0
 10
26.0791622144
 20
46.978290331
 30
0.0
 10
26.1143979562
 20
46.9721782695
 30
0.0
  0
SPLINE
  5
2F7
100
AcDbEntity
  8
0
100
AcDbSpline
 62
7
  6
BYLAYER
 70
0
 71
3
 72
89
 73
85
 74
0
 42
0.0000001
 43
0.0000001
 44
0.0000000001
 40
0.0
 40
0.0
 40
0.0
 40
0.0
 40
0.0003620015
 40
0.0008950854
 40
0.0011975319
 40
0.0015089007
 40
0.0018179348
 40
0.0021134239
 40
0.002384927
 40
0.0026246517
 40
0.0027303268
 40
0.0028253108
 40
0.0029086717
 40
0.0029794724
 40
0.0030368701
 40
0.0030804079
 40
0.0031097165
 40
0.0031244202
 40
0.0031262059
 40
0.0031283136
 40
0.0031342482
 40
0.0031440823
 40
0.0031578714
 40
0.0031756695
 40
0.0031975303
 40
0.0032235082
 40
0.0032879289
 40
0.003368849
 40
0.0035794523
 40
0.0038539051
 40
0.0041908718
 40
0.0050473877
 40
0.0061401581
 40
0.0074604478
 40
0.0089948605
 40
0.0107289108
 40
0.0126485484
 40
0.0147410212
 40
0.0169966541
 40
0.0219592552
 40
0.0274660531
 40
0.0334733322
 40
0.0366539977
 40
0.0399545224
 40
0.0433777689
 40
0.0469196565
 40
0.0542704716
 40
0.0617265102
 40
0.0692927457
 40
0.0769774015
 40
0.0926817451
 40
0.1252759814
 40
0.1592067802
 40
0.1942348886
 40
0.2301364783
 40
0.2666968735
 40
0.3409699607
 40
0.3782916207
 40
0.415486484
 40
0.4523782482
 40
0.4888034646
 40
0.524612271
 40
0.5596758513
 40
0.5938876517
 40
0.6271731927
 40
0.6594961553
 40
0.6908805025
 40
0.7214121835
 40
0.7512382844
 40
0.7659683811
 40
0.7806201661
 40
0.7952357754
 40
0.809855214
 40
0.8245234115
 40
0.8392764236
 40
0.8541533474
 40
0.8691857358
 40
0.88440776
 40
0.8998575388
 40
0.9155751091
 40
0.9316035558
 40
0.9479898168
 40
0.9648075468
 40
1.0
 40
1.0
 40
1.0
 40
1.0
 10
27.6870901568
 20
48.3480102163
 30
0.0
 10
27.6887214082
 20
48.3496414473
 30
0.0
 10
27.6929117303
 20
48.3535158712
 30
0.0
 10
27.6986966502
 20
48.3584962881
 30
0.0
 10
27.7044144381
 20
48.3630503206
 30
0.0
 10
27.7091015089
 20
48.3666033909
 30
0.0
 10
27.7138398528
 20
48.3700125813
 30
0.0
 10
27.7184622449
 20
48.3731447961
 30
0.0
 10
27.7228199911
 20
48.3758743869
 30
0.0
 10
27.7262181234
 20
48.377852459
 30
0.0
 10
27.7286765732
 20
48.3792065243
 30
0.0
 10
27.7302746392
 20
48.3800556301
 30
0.0
 10
27.7316896071
 20
48.3807787835
 30
0.0
 10
27.7328959289
 20
48.3813726425
 30
0.0
 10
27.7338983887
 20
48.3818367211
 30
0.0
 10
27.7346305607
 20
48.3821709142
 30
0.0
 10
27.7352014065
 20
48.3823886491
 30
0.0
 10
27.7353957961
 20
48.3824869322
 30
0.0
 10
27.7355683449
 20
48.382525573
 30
0.0
 10
27.7354794972
 20
48.3824756766
 30
0.0
 10
27.7354018357
 20
48.3824431135
 30
0.0
 10
27.7352143859
 20
48.3823597919
 30
0.0
 10
27.7349766149
 20
48.3822633624
 30
0.0
 10
27.7346573305
 20
48.3821366521
 30
0.0
 10
27.7342675498
 20
48.3819877714
 30
0.0
 10
27.7335964474
 20
48.3817385709
 30
0.0
 10
27.7325678818
 20
48.3813732426
 30
0.0
 10
27.730419595
 20
48.3806444274
 30
0.0
 10
27.7269804176
 20
48.3795566941
 30
0.0
 10
27.7219506132
 20
48.3780911364
 30
0.0
 10
27.7129120534
 20
48.3756769959
 30
0.0
 10
27.6987055048
 20
48.3724205546
 30
0.0
 10
27.6782017666
 20
48.3686747563
 30
0.0
 10
27.6532672756
 20
48.3652848433
 30
0.0
 10
27.6241531725
 20
48.3624760949
 30
0.0
 10
27.5911430947
 20
48.3604994432
 30
0.0
 10
27.5545279864
 20
48.3595985807
 30
0.0
 10
27.5145805371
 20
48.360011168
 30
0.0
 10
27.455286378
 20
48.3623647416
 30
0.0
 10
27.3744112298
 20
48.3687158379
 30
0.0
 10
27.2701168083
 20
48.3810188487
 30
0.0
 10
27.1774367374
 20
48.3944827228
 30
0.0
 10
27.0988360351
 20
48.406964217
 30
0.0
 10
27.0365766263
 20
48.417342892
 30
0.0
 10
26.9721162976
 20
48.4285081246
 30
0.0
 10
26.882291856
 20
48.4444677811
 30
0.0
 10
26.7672402302
 20
48.4653499218
 30
0.0
 10
26.6267750101
 20
48.4898012302
 30
0.0
 10
26.484187398
 20
48.5144596458
 30
0.0
 10
26.2897951789
 20
48.5480216899
 30
0.0
 10
25.9381794108
 20
48.6084099636
 30
0.0
 10
25.4213985675
 20
48.6952493002
 30
0.0
 10
24.7823301456
 20
48.7973634644
 30
0.0
 10
24.1215016824
 20
48.8967054986
 30
0.0
 10
23.4430334964
 20
48.9912160448
 30
0.0
 10
22.5153379772
 20
49.1087412021
 30
0.0
 10
21.5761731651
 20
49.2075241239
 30
0.0
 10
20.6307723011
 20
49.2808920098
 30
0.0
 10
19.9218748509
 20
49.3209934489
 30
0.0
 10
19.2179159975
 20
49.343980197
 30
0.0
 10
18.5224004733
 20
49.3475777823
 30
0.0
 10
17.8387330271
 20
49.3295142233
 30
0.0
 10
17.1702258111
 20
49.2872412643
 30
0.0
 10
16.5200611201
 20
49.2181959888
 30
0.0
 10
15.8913400263
 20
49.1194419026
 30
0.0
 10
15.2869493686
 20
48.9879861665
 30
0.0
 10
14.7099106137
 20
48.8194870461
 30
0.0
 10
14.1634071937
 20
48.6096631938
 30
0.0
 10
13.7349289785
 20
48.3943327077
 30
0.0
 10
13.4136438712
 20
48.1961013503
 30
0.0
 10
13.1845965228
 20
48.0340307341
 30
0.0
 10
12.9676229883
 20
47.8571967393
 30
0.0
 10
12.7639766509
 20
47.6649638977
 30
0.0
 10
12.5751563365
 20
47.4569278767
 30
0.0
 10
12.4026643469
 20
47.2330548469
 30
0.0
 10
12.248228007
 20
46.9935769956
 30
0.0
 10
12.1131741998
 20
46.7392554218
 30
0.0
 10
11.9989255317
 20
46.4709566482
 30
0.0
 10
11.9063394331
 20
46.1898383194
 30
0.0
 10
11.8362569846
 20
45.8970074835
 30
0.0
 10
11.7888614181
 20
45.5936450042
 30
0.0
 10
11.7643220444
 20
45.2805568881
 30
0.0
 10
11.7617144062
 20
44.8444143506
 30
0.0
 10
11.7938025572
 20
44.5133572742
 30
0.0
 10
11.827840145
 20
44.2916846537
 30
0.0
  0
SPLINE
  5
2F8
100
AcDbEntity
  8
0
100
AcDbSpline
 62
7
  6
BYLAYER
 70
0
 71
3
 72
104
 73
100
 74
0
 42
0.0000001
 43
0.0000001
 44
0.0000000001
 40
0.0
 40
0.0
 40
0.0
 40
0.0
 40
0.042892423
 40
0.0865574898
 40
0.1260717871
 40
0.1609544349
 40
0.1921804855
 40
0.2202115719
 40
0.2454529155
 40
0.2682880458
 40
0.288963843
 40
0.3076885014
 40
0.3246694426
 40
0.3400971143
 40
0.354142835
 40
0.3669456371
 40
0.3786073262
 40
0.3892320696
 40
0.3989167393
 40
0.4077385445
 40
0.4157616218
 40
0.423043566
 40
0.4296326125
 40
0.4355753097
 40
0.4409150562
 40
0.4456866074
 40
0.4499085213
 40
0.4536010326
 40
0.4567842295
 40
0.4594401408
 40
0.4615889011
 40
0.463250327
 40
0.4645159419
 40
0.4655165904
 40
0.4664363143
 40
0.4675226497
 40
0.4689727752
 40
0.4709207789
 40
0.4733863871
 40
0.4763919167
 40
0.479956282
 40
0.4841177731
 40
0.4889133006
 40
0.4943818364
 40
0.5005743107
 40
0.5075489518
 40
0.515376137
 40
0.5241437305
 40
0.5339504331
 40
0.5448971691
 40
0.5570985985
 40
0.5706882948
 40
0.5858289277
 40
0.6027155319
 40
0.6215399328
 40
0.6425342837
 40
0.6659664845
 40
0.692151185
 40
0.7211786052
 40
0.7499446384
 40
0.7752728968
 40
0.7976158294
 40
0.8174716061
 40
0.8352262476
 40
0.8511628601
 40
0.8654748786
 40
0.8783801883
 40
0.8900628235
 40
0.9006423664
 40
0.9102306556
 40
0.9189253114
 40
0.9268173233
 40
0.9339842586
 40
0.9404975843
 40
0.9464199487
 40
0.9518081046
 40
0.9567126926
 40
0.9611788172
 40
0.9652471629
 40
0.9689540853
 40
0.972332095
 40
0.9754103928
 40
0.9782151741
 40
0.9807699429
 40
0.9830957898
 40
0.9852116459
 40
0.987134458
 40
0.9888793765
 40
0.9904598447
 40
0.9918878245
 40
0.993174938
 40
0.9943314957
 40
0.9953693494
 40
0.9963033006
 40
0.9971370965
 40
0.997891507
 40
0.9985877241
 40
0.9992784749
 40
1.0
 40
1.0
 40
1.0
 40
1.0
 10
25.3311427372
 20
47.2257970807
 30
0.0
 10
25.085733296
 20
47.231241319
 30
0.0
 10
24.5908789419
 20
47.2574699051
 30
0.0
 10
23.8715491569
 20
47.3132539231
 30
0.0
 10
23.198526241
 20
47.3730289077
 30
0.0
 10
22.5966002621
 20
47.4284210813
 30
0.0
 10
22.0600599048
 20
47.4772236617
 30
0.0
 10
21.5783071858
 20
47.5192174289
 30
0.0
 10
21.1441928604
 20
47.5546758628
 30
0.0
 10
20.7518278013
 20
47.5841018545
 30
0.0
 10
20.3964608451
 20
47.6080494965
 30
0.0
 10
20.0743500913
 20
47.6270430004
 30
0.0
 10
19.7820760425
 20
47.6415920377
 30
0.0
 10
19.5164283765
 20
47.6521887464
 30
0.0
 10
19.2745851154
 20
47.6593014693
 30
0.0
 10
19.0542273779
 20
47.6633710994
 30
0.0
 10
18.8534156981
 20
47.6648344476
 30
0.0
 10
18.6704453778
 20
47.6641341111
 30
0.0
 10
18.5037443971
 20
47.6617143667
 30
0.0
 10
18.3519608127
 20
47.6580168817
 30
0.0
 10
18.2139581316
 20
47.6534816463
 30
0.0
 10
18.0887570993
 20
47.6485388524
 30
0.0
 10
17.975472659
 20
47.6435960587
 30
0.0
 10
17.8732974904
 20
47.6390323221
 30
0.0
 10
17.781501562
 20
47.6351963286
 30
0.0
 10
17.6995195061
 20
47.6324135195
 30
0.0
 10
17.6269288458
 20
47.6309867673
 30
0.0
 10
17.5634101823
 20
47.6312025378
 30
0.0
 10
17.5088857769
 20
47.6333132769
 30
0.0
 10
17.4633341856
 20
47.6375157496
 30
0.0
 10
17.4268200392
 20
47.6438714542
 30
0.0
 10
17.398937946
 20
47.6524228448
 30
0.0
 10
17.3789608139
 20
47.6631696034
 30
0.0
 10
17.3661582256
 20
47.6769231252
 30
0.0
 10
17.3617753706
 20
47.6943250354
 30
0.0
 10
17.3666093184
 20
47.7140682193
 30
0.0
 10
17.3800540142
 20
47.7361658906
 30
0.0
 10
17.4025950775
 20
47.7611993444
 30
0.0
 10
17.4346768596
 20
47.7891118384
 30
0.0
 10
17.4764524688
 20
47.8196629864
 30
0.0
 10
17.5282495732
 20
47.852719051
 30
0.0
 10
17.5905525777
 20
47.8881731484
 30
0.0
 10
17.664015703
 20
47.9258876553
 30
0.0
 10
17.7494004192
 20
47.9656763334
 30
0.0
 10
17.8476122823
 20
48.0073069088
 30
0.0
 10
17.9597482274
 20
48.0505077037
 30
0.0
 10
18.0871236538
 20
48.0949568571
 30
0.0
 10
18.2312894535
 20
48.1402645285
 30
0.0
 10
18.3939725579
 20
48.1859371725
 30
0.0
 10
18.5770502925
 20
48.2313569319
 30
0.0
 10
18.7826240284
 20
48.2756079999
 30
0.0
 10
19.0131161096
 20
48.3176174898
 30
0.0
 10
19.2713679595
 20
48.35612812
 30
0.0
 10
19.560495454
 20
48.389709465
 30
0.0
 10
19.8839645011
 20
48.4165389361
 30
0.0
 10
20.245573677
 20
48.4343614249
 30
0.0
 10
20.6497025849
 20
48.4406877478
 30
0.0
 10
21.0997900053
 20
48.4325573436
 30
0.0
 10
21.5798347927
 20
48.4076246099
 30
0.0
 10
22.0539427417
 20
48.3678717533
 30
0.0
 10
22.4887337049
 20
48.3193618114
 30
0.0
 10
22.8717487074
 20
48.2677268074
 30
0.0
 10
23.2108303581
 20
48.2151900881
 30
0.0
 10
23.5128127119
 20
48.1629999523
 30
0.0
 10
23.7827629496
 20
48.1119815687
 30
0.0
 10
24.0247599481
 20
48.0626487728
 30
0.0
 10
24.242290172
 20
48.015282329
 30
0.0
 10
24.4383954853
 20
47.9699991013
 30
0.0
 10
24.6155005209
 20
47.9268661321
 30
0.0
 10
24.775530303
 20
47.8859358571
 30
0.0
 10
24.9202358398
 20
47.8472008982
 30
0.0
 10
25.0511625642
 20
47.8106142412
 30
0.0
 10
25.1696991944
 20
47.7761014922
 30
0.0
 10
25.2770677782
 20
47.743578001
 30
0.0
 10
25.3743659889
 20
47.7129451108
 30
0.0
 10
25.4625690639
 20
47.6841008146
 30
0.0
 10
25.5425501846
 20
47.656944561
 30
0.0
 10
25.6150875662
 20
47.6313741242
 30
0.0
 10
25.6808754884
 20
47.6072886928
 30
0.0
 10
25.7405341549
 20
47.5845895665
 30
0.0
 10
25.7946158059
 20
47.5631801521
 30
0.0
 10
25.8436127567
 20
47.5429674525
 30
0.0
 10
25.8879640045
 20
47.5238622779
 30
0.0
 10
25.928060187
 20
47.5057792939
 30
0.0
 10
25.9642480934
 20
47.488636843
 30
0.0
 10
25.9968341886
 20
47.472356711
 30
0.0
 10
26.026087342
 20
47.4568638022
 30
0.0
 10
26.0522402777
 20
47.4420859862
 30
0.0
 10
26.0754906417
 20
47.4279536307
 30
0.0
 10
26.0960056558
 20
47.4143960223
 30
0.0
 10
26.1139192879
 20
47.4013400444
 30
0.0
 10
26.1293378973
 20
47.3886993933
 30
0.0
 10
26.1423368329
 20
47.376359346
 30
0.0
 10
26.1528874646
 20
47.3642123255
 30
0.0
 10
26.1608626023
 20
47.352113143
 30
0.0
 10
26.1659383956
 20
47.3399489218
 30
0.0
 10
26.1675131286
 20
47.327592458
 30
0.0
 10
26.1648233818
 20
47.3155728657
 30
0.0
 10
26.1604657035
 20
47.3086004754
 30
0.0
 10
26.1578726154
 20
47.3053869994
 30
0.0
  0
SPLINE
  5
2F9
100
AcDbEntity
  8
0
100
AcDbSpline
 62
7
  6
BYLAYER
 70
0
 71
3
 72
38
 73
34
 74
0
 42
0.0000001
 43
0.0000001
 44
0.0000000001
 40
0.0
 40
0.0
 40
0.0
 40
0.0
 40
0.0286628898
 40
0.0604196395
 40
0.0974447527
 40
0.1417022394
 40
0.1908107211
 40
0.2387230534
 40
0.2822598437
 40
0.3224874675
 40
0.3593538685
 40
0.3930251817
 40
0.4237636088
 40
0.451715276
 40
0.4770092402
 40
0.4997811066
 40
0.5202007065
 40
0.5384091417
 40
0.5548430926
 40
0.5702959064
 40
0.5858049039
 40
0.6026013229
 40
0.621600482
 40
0.6430947347
 40
0.6672814697
 40
0.694406972
 40
0.7247757032
 40
0.7587108948
 40
0.7966491083
 40
0.8390735196
 40
0.8865403292
 40
0.9398733582
 40
1.0
 40
1.0
 40
1.0
 40
1.0
 10
27.0045776168
 20
48.0780131183
 30
0.0
 10
26.9785615191
 20
48.0956129249
 30
0.0
 10
26.9220491621
 20
48.1303433588
 30
0.0
 10
26.8253060664
 20
48.1760803523
 30
0.0
 10
26.7078115831
 20
48.2160819679
 30
0.0
 10
26.5684335128
 20
48.2484368573
 30
0.0
 10
26.4151892269
 20
48.2713536271
 30
0.0
 10
26.2616434366
 20
48.2845693924
 30
0.0
 10
26.1173608008
 20
48.2892262601
 30
0.0
 10
25.9851353243
 20
48.287029151
 30
0.0
 10
25.8639629098
 20
48.2790865781
 30
0.0
 10
25.7536976239
 20
48.2659922306
 30
0.0
 10
25.6540168067
 20
48.2480394831
 30
0.0
 10
25.5647406969
 20
48.2253024891
 30
0.0
 10
25.4859554835
 20
48.1978659418
 30
0.0
 10
25.4178888662
 20
48.165861011
 30
0.0
 10
25.3609901175
 20
48.1295226564
 30
0.0
 10
25.3156313957
 20
48.0892843473
 30
0.0
 10
25.2817379372
 20
48.0456562716
 30
0.0
 10
25.2587185385
 20
47.9986738644
 30
0.0
 10
25.2460176134
 20
47.9475113457
 30
0.0
 10
25.2438357894
 20
47.8909706681
 30
0.0
 10
25.2531311803
 20
47.8285618817
 30
0.0
 10
25.2746367444
 20
47.7607659331
 30
0.0
 10
25.3085536241
 20
47.6883454036
 30
0.0
 10
25.3550699469
 20
47.6117069143
 30
0.0
 10
25.4145240592
 20
47.5309253176
 30
0.0
 10
25.4875855929
 20
47.4458615272
 30
0.0
 10
25.5754365766
 20
47.3564626463
 30
0.0
 10
25.6798201443
 20
47.2629072814
 30
0.0
 10
25.8032002028
 20
47.1657192973
 30
0.0
 10
25.9486853677
 20
47.0658325819
 30
0.0
 10
26.0561769814
 20
47.003028375
 30
0.0
 10
26.1143979562
 20
46.9721782695
 30
0.0
  0
SPLINE
  5
2FA
100
AcDbEntity
  8
0
100
AcDbSpline
 62
7
  6
BYLAYER
 70
0
 71
3
 72
13
 73
9
 74
0
 42
0.0000001
 43
0.0000001
 44
0.0000000001
 40
0.0
 40
0.0
 40
0.0
 40
0.0
 40
0.1648665107
 40
0.3462833514
 40
0.5339258757
 40
0.7099547302
 40
0.8661927319
 40
1.0
 40
1.0
 40
1.0
 40
1.0
 10
28.2716230055
 20
47.3779998361
 30
0.0
 10
28.1912002117
 20
47.3864221238
 30
0.0
 10
28.0238426274
 20
47.4205735259
 30
0.0
 10
27.7776554756
 20
47.5128118981
 30
0.0
 10
27.5443418484
 20
47.645536264
 30
0.0
 10
27.3408824119
 20
47.8000817817
 30
0.0
 10
27.1694082878
 20
47.9510621055
 30
0.0
 10
27.0589362667
 20
48.041239666
 30
0.0
 10
27.0045776168
 20
48.0780131183
 30
0.0
  0
SPLINE
  5
2FB
100
AcDbEntity
  8
0
100
AcDbSpline
 62
7
  6
BYLAYER
 70
0
 71
3
 72
81
 73
77
 74
0
 42
0.0000001
 43
0.0000001
 44
0.0000000001
 40
0.0
 40
0.0
 40
0.0
 40
0.0
 40
0.0352836372
 40
0.0521449394
 40
0.068573653
 40
0.084643624
 40
0.1004019123
 40
0.1158917147
 40
0.1311531724
 40
0.1462245035
 40
0.161139968
 40
0.1759312011
 40
0.1906374012
 40
0.2052947179
 40
0.2199481969
 40
0.2346379472
 40
0.2494062138
 40
0.2793096078
 40
0.3099204163
 40
0.3413861061
 40
0.3737928484
 40
0.4071646678
 40
0.4414651506
 40
0.4766196241
 40
0.5125212581
 40
0.5490409025
 40
0.5860283066
 40
0.623319598
 40
0.6607380175
 40
0.7352036725
 40
0.7718588628
 40
0.8078535432
 40
0.8429724812
 40
0.8769912684
 40
0.9096700312
 40
0.9254151024
 40
0.933119688
 40
0.9407055464
 40
0.9481809222
 40
0.9555508015
 40
0.959101875
 40
0.9625339995
 40
0.965843084
 40
0.9690319982
 40
0.9750548566
 40
0.9805759358
 40
0.9855514068
 40
0.9878128896
 40
0.9899107892
 40
0.9918354056
 40
0.9935739535
 40
0.9951123463
 40
0.9964360608
 40
0.9975316662
 40
0.9983904046
 40
0.9987282458
 40
0.9990034112
 40
0.9992145614
 40
0.9992956918
 40
0.9993602799
 40
0.9993863254
 40
0.9994082432
 40
0.9994260876
 40
0.9994399127
 40
0.9994497725
 40
0.9994557227
 40
0.9994578361
 40
0.9994596262
 40
0.9994743676
 40
0.9995037517
 40
0.999547402
 40
0.999604948
 40
0.9996827334
 40
0.9997753071
 40
0.9998814622
 40
1.0
 40
1.0
 40
1.0
 40
1.0
 10
11.8278428406
 20
44.2916856152
 30
0.0
 10
11.7938052934
 20
44.5133579715
 30
0.0
 10
11.7617171776
 20
44.8444146354
 30
0.0
 10
11.7643248105
 20
45.2805566084
 30
0.0
 10
11.7888641497
 20
45.5936442714
 30
0.0
 10
11.8362596482
 20
45.8970062862
 30
0.0
 10
11.906341991
 20
46.1898366546
 30
0.0
 10
11.9989279419
 20
46.4709545253
 30
0.0
 10
12.113176424
 20
46.7392528609
 30
0.0
 10
12.2482300102
 20
46.9935740282
 30
0.0
 10
12.4026661055
 20
47.2330515107
 30
0.0
 10
12.5751578371
 20
47.4569242132
 30
0.0
 10
12.7639778896
 20
47.6649599491
 30
0.0
 10
12.9676239692
 20
47.8571925466
 30
0.0
 10
13.1845972555
 20
48.0340263361
 30
0.0
 10
13.4136443694
 20
48.1960967826
 30
0.0
 10
13.7349292031
 20
48.3943279669
 30
0.0
 10
14.1634071203
 20
48.6096582994
 30
0.0
 10
14.7099102354
 20
48.8194820364
 30
0.0
 10
15.2869487657
 20
48.9879810877
 30
0.0
 10
15.8913392701
 20
49.1194367885
 30
0.0
 10
16.5200602749
 20
49.2181908603
 30
0.0
 10
17.1702249351
 20
49.2872361325
 30
0.0
 10
17.8387321739
 20
49.3295090905
 30
0.0
 10
18.5223996931
 20
49.3475726483
 30
0.0
 10
19.2179153385
 20
49.3439750593
 30
0.0
 10
19.9218743609
 20
49.3209883035
 30
0.0
 10
20.630772029
 20
49.2808868515
 30
0.0
 10
21.5761732876
 20
49.2075189362
 30
0.0
 10
22.5153385672
 20
49.1087359683
 30
0.0
 10
23.4430346304
 20
48.9912107467
 30
0.0
 10
24.1215033146
 20
48.8967001339
 30
0.0
 10
24.7823323363
 20
48.7973580161
 30
0.0
 10
25.4214013735
 20
48.6952437511
 30
0.0
 10
25.9381827612
 20
48.6084043144
 30
0.0
 10
26.2897989288
 20
48.5480159719
 30
0.0
 10
26.4841913857
 20
48.5144538905
 30
0.0
 10
26.6267791793
 20
48.4897954488
 30
0.0
 10
26.7672445806
 20
48.4653441134
 30
0.0
 10
26.8822963525
 20
48.4444619355
 30
0.0
 10
26.9721209083
 20
48.4285022564
 30
0.0
 10
27.036581318
 20
48.4173370105
 30
0.0
 10
27.0988408042
 20
48.4069583249
 30
0.0
 10
27.177441602
 20
48.3944768189
 30
0.0
 10
27.2701217833
 20
48.3810129307
 30
0.0
 10
27.3744163282
 20
48.3687099046
 30
0.0
 10
27.4552915727
 20
48.3623587984
 30
0.0
 10
27.5145858045
 20
48.3600052203
 30
0.0
 10
27.5545333058
 20
48.3595926318
 30
0.0
 10
27.5911484645
 20
48.3604934956
 30
0.0
 10
27.6241585914
 20
48.3624701507
 30
0.0
 10
27.653272742
 20
48.3652789043
 30
0.0
 10
27.6782072787
 20
48.3686688242
 30
0.0
 10
27.6987110605
 20
48.3724146304
 30
0.0
 10
27.7129176441
 20
48.3756710794
 30
0.0
 10
27.7219562307
 20
48.3780852267
 30
0.0
 10
27.7269860542
 20
48.3795507899
 30
0.0
 10
27.7304252471
 20
48.3806385281
 30
0.0
 10
27.7325735459
 20
48.3813673475
 30
0.0
 10
27.7336021188
 20
48.3817326785
 30
0.0
 10
27.734273227
 20
48.3819818811
 30
0.0
 10
27.7346630119
 20
48.3821307636
 30
0.0
 10
27.7349823008
 20
48.3822574756
 30
0.0
 10
27.735220075
 20
48.3823539069
 30
0.0
 10
27.7354075311
 20
48.3824372301
 30
0.0
 10
27.7354851923
 20
48.3824697948
 30
0.0
 10
27.7355740473
 20
48.3825196921
 30
0.0
 10
27.7354015083
 20
48.3824810604
 30
0.0
 10
27.7352071158
 20
48.3823827699
 30
0.0
 10
27.7346362868
 20
48.3821650458
 30
0.0
 10
27.7339040934
 20
48.3818308529
 30
0.0
 10
27.7328621943
 20
48.3813484465
 30
0.0
 10
27.7315667985
 20
48.3807091013
 30
0.0
 10
27.7300021241
 20
48.3799051681
 30
0.0
 10
27.7282248689
 20
48.3789530681
 30
0.0
 10
27.7269769189
 20
48.3782581323
 30
0.0
 10
27.7263216087
 20
48.3778863022
 30
0.0
  0
SPLINE
  5
2FC
100
AcDbEntity
  8
0
100
AcDbSpline
 62
7
  6
BYLAYER
 70
0
 71
3
 72
14
 73
10
 74
0
 42
0.0000001
 43
0.0000001
 44
0.0000000001
 40
0.0
 40
0.0
 40
0.0
 40
0.0
 40
0.152493208
 40
0.2835196548
 40
0.4067757113
 40
0.5323693307
 40
0.6676224007
 40
0.8210613463
 40
1.0
 40
1.0
 40
1.0
 40
1.0
 10
28.5985345078
 20
47.4365658654
 30
0.0
 10
28.584606226
 20
47.426238531
 30
0.0
 10
28.5576800775
 20
47.4083225273
 30
0.0
 10
28.5154179888
 20
47.3889052966
 30
0.0
 10
28.4732648239
 20
47.3786328623
 30
0.0
 10
28.42984766
 20
47.3734387957
 30
0.0
 10
28.3827381729
 20
47.3715640202
 30
0.0
 10
28.3295543319
 20
47.372887455
 30
0.0
 10
28.2918586256
 20
47.375880658
 30
0.0
 10
28.2716230142
 20
47.377999835
 30
0.0
  0
SPLINE
  5
2FD
100
AcDbEntity
  8
0
100
AcDbSpline
 62
7
  6
BYLAYER
 70
0
 71
3
 72
42
 73
38
 74
0
 42
0.0000001
 43
0.0000001
 44
0.0000000001
 40
0.0
 40
0.0
 40
0.0
 40
0.0
 40
0.0061070814
 40
0.0110759753
 40
0.0149227706
 40
0.0176889335
 40
0.018703049
 40
0.0195137671
 40
0.0201936029
 40
0.020860062
 40
0.0216373902
 40
0.0226086758
 40
0.0252846572
 40
0.0290522826
 40
0.0339480336
 40
0.0471259018
 40
0.0647543734
 40
0.0867144085
 40
0.1128456273
 40
0.1428747241
 40
0.1764984048
 40
0.2134116488
 40
0.2532895628
 40
0.2957308902
 40
0.3403149565
 40
0.3866208001
 40
0.4826468841
 40
0.5801092251
 40
0.6752705294
 40
0.7645126023
 40
0.8443700425
 40
0.8798416822
 40
0.9118666993
 40
0.9401151336
 40
0.9643544028
 40
0.9843808434
 40
1.0
 40
1.0
 40
1.0
 40
1.0
 10
13.5455028235
 20
44.5291386068
 30
0.0
 10
13.5489727692
 20
44.530376338
 30
0.0
 10
13.5552305592
 20
44.5327203682
 30
0.0
 10
13.5635059621
 20
44.5362876536
 30
0.0
 10
13.56969136
 20
44.5395358467
 30
0.0
 10
13.5735066732
 20
44.5421781317
 30
0.0
 10
13.575381547
 20
44.5442351213
 30
0.0
 10
13.576130918
 20
44.545570864
 30
0.0
 10
13.5763204568
 20
44.5469019357
 30
0.0
 10
13.5758645099
 20
44.5481484364
 30
0.0
 10
13.5748472005
 20
44.549226827
 30
0.0
 10
13.5725755897
 20
44.5506575481
 30
0.0
 10
13.5682786541
 20
44.5520570041
 30
0.0
 10
13.5615569515
 20
44.5533174507
 30
0.0
 10
13.5484398652
 20
44.5547062415
 30
0.0
 10
13.5268936803
 20
44.5553207618
 30
0.0
 10
13.4950630841
 20
44.5547746307
 30
0.0
 10
13.4554579591
 20
44.5528770743
 30
0.0
 10
13.4084414413
 20
44.5496376772
 30
0.0
 10
13.3544696125
 20
44.5450810758
 30
0.0
 10
13.2940830509
 20
44.5392500727
 30
0.0
 10
13.2278496849
 20
44.532190529
 30
0.0
 10
13.1563946924
 20
44.5239590564
 30
0.0
 10
13.0804088833
 20
44.5146425156
 30
0.0
 10
13.0006398641
 20
44.5043335227
 30
0.0
 10
12.88890173
 20
44.4892070112
 30
0.0
 10
12.745723139
 20
44.4685668502
 30
0.0
 10
12.5736397157
 20
44.4419449544
 30
0.0
 10
12.4058862221
 20
44.4141621079
 30
0.0
 10
12.2489155543
 20
44.3863330218
 30
0.0
 10
12.1277001394
 20
44.3631466385
 30
0.0
 10
12.0406284723
 20
44.3452473438
 30
0.0
 10
11.9841809075
 20
44.3330062306
 30
0.0
 10
11.9345074501
 20
44.3215216503
 30
0.0
 10
11.8920634692
 20
44.3109197977
 30
0.0
 10
11.8572370856
 20
44.3013108075
 30
0.0
 10
11.8367146793
 20
44.2948502671
 30
0.0
 10
11.827840145
 20
44.2916846537
 30
0.0
  0
SPLINE
  5
2FE
100
AcDbEntity
  8
0
100
AcDbSpline
 62
7
  6
BYLAYER
 70
0
 71
3
 72
42
 73
38
 74
0
 42
0.0000001
 43
0.0000001
 44
0.0000000001
 40
0.0
 40
0.0
 40
0.0
 40
0.0
 40
0.0061071966
 40
0.0110761873
 40
0.0149230604
 40
0.0176892815
 40
0.0187034182
 40
0.0195141517
 40
0.0201939963
 40
0.0208604592
 40
0.0216377896
 40
0.0226090791
 40
0.0252850788
 40
0.0290527071
 40
0.0339484619
 40
0.0471263403
 40
0.0647548256
 40
0.0867148778
 40
0.1128461169
 40
0.142875237
 40
0.1764989439
 40
0.2134122166
 40
0.2532901615
 40
0.2957315219
 40
0.3403156228
 40
0.3866215024
 40
0.482647661
 40
0.5801100777
 40
0.6752714558
 40
0.7645135981
 40
0.8443711003
 40
0.8798427676
 40
0.9118678096
 40
0.940115686
 40
0.9643545756
 40
0.9843808281
 40
1.0
 40
1.0
 40
1.0
 40
1.0
 10
11.8278428406
 20
44.2916856152
 30
0.0
 10
11.8243728295
 20
44.2904478691
 30
0.0
 10
11.8181149191
 20
44.2881038105
 30
0.0
 10
11.8098393515
 20
44.2845364836
 30
0.0
 10
11.8036538206
 20
44.2812882531
 30
0.0
 10
11.7998384166
 20
44.2786459402
 30
0.0
 10
11.7979634846
 20
44.2765889294
 30
0.0
 10
11.7972140815
 20
44.2752531753
 30
0.0
 10
11.7970245148
 20
44.2739220911
 30
0.0
 10
11.7974804448
 20
44.2726755743
 30
0.0
 10
11.79849775
 20
44.2715971712
 30
0.0
 10
11.8007693673
 20
44.2701664357
 30
0.0
 10
11.805066315
 20
44.2687669754
 30
0.0
 10
11.8117880266
 20
44.2675065266
 30
0.0
 10
11.8249051132
 20
44.266117736
 30
0.0
 10
11.846451298
 20
44.2655032156
 30
0.0
 10
11.8782818943
 20
44.2660493467
 30
0.0
 10
11.9178870192
 20
44.2679469031
 30
0.0
 10
11.964903537
 20
44.2711863002
 30
0.0
 10
12.0188753658
 20
44.2757429016
 30
0.0
 10
12.0792619275
 20
44.2815739047
 30
0.0
 10
12.1454952934
 20
44.2886334484
 30
0.0
 10
12.2169502859
 20
44.296864921
 30
0.0
 10
12.292936095
 20
44.3061814618
 30
0.0
 10
12.3727051142
 20
44.3164904547
 30
0.0
 10
12.4844432483
 20
44.3316169662
 30
0.0
 10
12.6276218393
 20
44.3522571273
 30
0.0
 10
12.7997052626
 20
44.378879023
 30
0.0
 10
12.9674587562
 20
44.4066618695
 30
0.0
 10
13.124429424
 20
44.4344909556
 30
0.0
 10
13.2456448389
 20
44.4576773389
 30
0.0
 10
13.332716506
 20
44.4755766337
 30
0.0
 10
13.389163729
 20
44.4878176726
 30
0.0
 10
13.4388366129
 20
44.4993021136
 30
0.0
 10
13.4812799078
 20
44.5099037683
 30
0.0
 10
13.5161059578
 20
44.5195126101
 30
0.0
 10
13.5366282675
 20
44.5259730487
 30
0.0
 10
13.5455028235
 20
44.5291386068
 30
0.0
  0
SPLINE
  5
2FF
100
AcDbEntity
  8
0
100
AcDbSpline
 62
7
  6
BYLAYER
 70
0
 71
3
 72
11
 73
7
 74
0
 42
0.0000001
 43
0.0000001
 44
0.0000000001
 40
0.0
 40
0.0
 40
0.0
 40
0.0
 40
0.4956661775
 40
0.7183260577
 40
0.7839802985
 40
1.0
 40
1.0
 40
1.0
 40
1.0
 10
29.5432161741
 20
46.2311456297
 30
0.0
 10
29.582794484
 20
46.2239820471
 30
0.0
 10
29.6410336082
 20
46.2167084638
 30
0.0
 10
29.7048406487
 20
46.2205243646
 30
0.0
 10
29.7447980338
 20
46.2311432863
 30
0.0
 10
29.7612733433
 20
46.2490370567
 30
0.0
 10
29.7736689729
 20
46.2614314002
 30
0.0
  0
SPLINE
  5
300
100
AcDbEntity
  8
0
100
AcDbSpline
 62
7
  6
BYLAYER
 70
0
 71
3
 72
18
 73
14
 74
0
 42
0.0000001
 43
0.0000001
 44
0.0000000001
 40
0.0
 40
0.0
 40
0.0
 40
0.0
 40
0.2137843953
 40
0.3959572908
 40
0.548064306
 40
0.6717721927
 40
0.7679665192
 40
0.8388893488
 40
0.8892685603
 40
0.923416129
 40
0.9452828862
 40
0.9654609201
 40
1.0
 40
1.0
 40
1.0
 40
1.0
 10
28.9644756563
 20
46.192414905
 30
0.0
 10
29.0095419615
 20
46.1993013371
 30
0.0
 10
29.092883258
 20
46.2128962474
 30
0.0
 10
29.2080166271
 20
46.2329841726
 30
0.0
 10
29.3042183638
 20
46.2498590151
 30
0.0
 10
29.3824778406
 20
46.2627898314
 30
0.0
 10
29.443959189
 20
46.2712894354
 30
0.0
 10
29.4900864252
 20
46.2755157044
 30
0.0
 10
29.5235467039
 20
46.2751606504
 30
0.0
 10
29.5455796079
 20
46.2718119942
 30
0.0
 10
29.5612592163
 20
46.2619830419
 30
0.0
 10
29.5584946583
 20
46.2432837464
 30
0.0
 10
29.5490058955
 20
46.2356985248
 30
0.0
 10
29.5432161741
 20
46.2311456297
 30
0.0
  0
SPLINE
  5
301
100
AcDbEntity
  8
0
100
AcDbSpline
 62
7
  6
BYLAYER
 70
0
 71
3
 72
24
 73
20
 74
0
 42
0.0000001
 43
0.0000001
 44
0.0000000001
 40
0.0
 40
0.0
 40
0.0
 40
0.0
 40
0.0342008794
 40
0.0708179618
 40
0.111059769
 40
0.1565304346
 40
0.2084865464
 40
0.2673707103
 40
0.3314544316
 40
0.3968639132
 40
0.4634894968
 40
0.5331525306
 40
0.6057331503
 40
0.6801094006
 40
0.7535923458
 40
0.8231216004
 40
0.8877571499
 40
0.9469225691
 40
1.0
 40
1.0
 40
1.0
 40
1.0
 10
26.1578726154
 20
47.3053869994
 30
0.0
 10
26.1929555004
 20
47.2956805634
 30
0.0
 10
26.2642601925
 20
47.2702282103
 30
0.0
 10
26.3682630971
 20
47.2129971581
 30
0.0
 10
26.4714117541
 20
47.1328010643
 30
0.0
 10
26.5752198706
 20
47.0290568177
 30
0.0
 10
26.6840602801
 20
46.9032100754
 30
0.0
 10
26.8063590501
 20
46.7628077453
 30
0.0
 10
26.9483048138
 20
46.6208104524
 30
0.0
 10
27.1110470268
 20
46.4893570809
 30
0.0
 10
27.2935285743
 20
46.3752497478
 30
0.0
 10
27.4957000273
 20
46.2814810584
 30
0.0
 10
27.715321901
 20
46.2096413426
 30
0.0
 10
27.945627622
 20
46.1624148955
 30
0.0
 10
28.1762219256
 20
46.1395321138
 30
0.0
 10
28.3974235508
 20
46.1367373846
 30
0.0
 10
28.6029981081
 20
46.1479029983
 30
0.0
 10
28.7903068515
 20
46.1672951056
 30
0.0
 10
28.9086321861
 20
46.1838816697
 30
0.0
 10
28.9644756563
 20
46.192414905
 30
0.0
  0
SPLINE
  5
302
100
AcDbEntity
  8
0
100
AcDbSpline
 62
7
  6
BYLAYER
 70
0
 71
3
 72
22
 73
18
 74
0
 42
0.0000001
 43
0.0000001
 44
0.0000000001
 40
0.0
 40
0.0
 40
0.0
 40
0.0
 40
0.1379205643
 40
0.2525448737
 40
0.3482270717
 40
0.4290656339
 40
0.4985284343
 40
0.5587689535
 40
0.610809191
 40
0.6788552391
 40
0.7415602629
 40
0.7929354371
 40
0.8408298066
 40
0.8810182964
 40
0.9158477701
 40
0.9538095209
 40
1.0
 40
1.0
 40
1.0
 40
1.0
 10
25.5291409045
 20
47.1617807012
 30
0.0
 10
25.5649867599
 20
47.1561710727
 30
0.0
 10
25.6310247168
 20
47.1484251449
 30
0.0
 10
25.7224206387
 20
47.1419801571
 30
0.0
 10
25.7989803384
 20
47.13933923
 30
0.0
 10
25.8636995869
 20
47.139124467
 30
0.0
 10
25.9190734911
 20
47.140666585
 30
0.0
 10
25.9668064215
 20
47.1435526027
 30
0.0
 10
26.0140355455
 20
47.1480901301
 30
0.0
 10
26.0616568516
 20
47.1550017476
 30
0.0
 10
26.1084661045
 20
47.1655205406
 30
0.0
 10
26.1488046084
 20
47.1797401041
 30
0.0
 10
26.1809516356
 20
47.1977434987
 30
0.0
 10
26.2027077019
 20
47.2243387605
 30
0.0
 10
26.2015847246
 20
47.2562353291
 30
0.0
 10
26.1840127381
 20
47.283062582
 30
0.0
 10
26.1675078915
 20
47.2979835445
 30
0.0
 10
26.1578726154
 20
47.3053869994
 30
0.0
  0
SPLINE
  5
303
100
AcDbEntity
  8
0
100
AcDbSpline
 62
7
  6
BYLAYER
 70
0
 71
3
 72
12
 73
8
 74
0
 42
0.0000001
 43
0.0000001
 44
0.0000000001
 40
0.0
 40
0.0
 40
0.0
 40
0.0
 40
0.1360661609
 40
0.3025971897
 40
0.5008772854
 40
0.7326888164
 40
1.0
 40
1.0
 40
1.0
 40
1.0
 10
25.3311427372
 20
47.2257970807
 30
0.0
 10
25.3383673241
 20
47.2195890658
 30
0.0
 10
25.3564487181
 20
47.2081712163
 30
0.0
 10
25.3887324329
 20
47.1943421321
 30
0.0
 10
25.4286656344
 20
47.1818983782
 30
0.0
 10
25.4762311647
 20
47.170776208
 30
0.0
 10
25.5106525441
 20
47.1646740017
 30
0.0
 10
25.5291409045
 20
47.1617807012
 30
0.0
  0
SPLINE
  5
304
100
AcDbEntity
  8
0
100
AcDbSpline
 62
7
  6
BYLAYER
 70
0
 71
3
 72
10
 73
6
 74
0
 42
0.0000001
 43
0.0000001
 44
0.0000000001
 40
0.0
 40
0.0
 40
0.0
 40
0.0
 40
0.3143577955
 40
0.6251748988
 40
1.0
 40
1.0
 40
1.0
 40
1.0
 10
24.0056616862
 20
46.3447597767
 30
0.0
 10
23.9965678664
 20
46.3512719333
 30
0.0
 10
23.9802691853
 20
46.3680024622
 30
0.0
 10
23.9730091239
 20
46.4045444767
 30
0.0
 10
23.9796793798
 20
46.4286543228
 30
0.0
 10
23.9845627525
 20
46.441064636
 30
0.0
  0
SPLINE
  5
305
100
AcDbEntity
  8
0
100
AcDbSpline
 62
7
  6
BYLAYER
 70
0
 71
3
 72
20
 73
16
 74
0
 42
0.0000001
 43
0.0000001
 44
0.0000000001
 40
0.0
 40
0.0
 40
0.0
 40
0.0
 40
0.0877337832
 40
0.1743746012
 40
0.2598218486
 40
0.3439949103
 40
0.4267955383
 40
0.5082848553
 40
0.5885081343
 40
0.6676662663
 40
0.7459323482
 40
0.8235261242
 40
0.9006387109
 40
0.9774642583
 40
1.0
 40
1.0
 40
1.0
 40
1.0
 10
23.8553118083
 20
44.0305590073
 30
0.0
 10
23.818784186
 20
44.0921949906
 30
0.0
 10
23.7528665633
 20
44.2186897822
 30
0.0
 10
23.6757780967
 20
44.416735558
 30
0.0
 10
23.6216013677
 20
44.6192131459
 30
0.0
 10
23.589696021
 20
44.8231704413
 30
0.0
 10
23.5793804147
 20
45.0260850683
 30
0.0
 10
23.5889739304
 20
45.2257625676
 30
0.0
 10
23.6167837641
 20
45.4206876785
 30
0.0
 10
23.6610340521
 20
45.6098090326
 30
0.0
 10
23.7199977177
 20
45.7925880113
 30
0.0
 10
23.7924494193
 20
45.9686263873
 30
0.0
 10
23.8772198415
 20
46.1377354533
 30
0.0
 10
23.9508898083
 20
46.2616831541
 30
0.0
 10
23.9953964066
 20
46.3294998172
 30
0.0
 10
24.0056425349
 20
46.3447770821
 30
0.0
  0
SPLINE
  5
306
100
AcDbEntity
  8
0
100
AcDbSpline
 62
7
  6
BYLAYER
 70
0
 71
3
 72
44
 73
40
 74
0
 42
0.0000001
 43
0.0000001
 44
0.0000000001
 40
0.0
 40
0.0
 40
0.0
 40
0.0
 40
0.0070959303
 40
0.0173806604
 40
0.0308060821
 40
0.0472996123
 40
0.0665739667
 40
0.0889232661
 40
0.1151533432
 40
0.1460944871
 40
0.1816545255
 40
0.2210225262
 40
0.2628956528
 40
0.3057588029
 40
0.3475909229
 40
0.386832862
 40
0.4224437959
 40
0.4545637869
 40
0.4836444643
 40
0.5097336299
 40
0.5331296185
 40
0.5547503791
 40
0.5758413452
 40
0.5980659175
 40
0.623280339
 40
0.6525464549
 40
0.6858438658
 40
0.7225174766
 40
0.7618390325
 40
0.8030729694
 40
0.843037015
 40
0.878640296
 40
0.908803405
 40
0.9339646798
 40
0.9545379599
 40
0.9708323923
 40
0.9833859644
 40
0.9928818838
 40
1.0
 40
1.0
 40
1.0
 40
1.0
 10
29.5432161741
 20
46.2311456296
 30
0.0
 10
29.5328121802
 20
46.2229641837
 30
0.0
 10
29.5038879768
 20
46.2075073001
 30
0.0
 10
29.4492758889
 20
46.1892726816
 30
0.0
 10
29.3753775538
 20
46.1752642291
 30
0.0
 10
29.2837484208
 20
46.1682390661
 30
0.0
 10
29.175228023
 20
46.1698964273
 30
0.0
 10
29.0491040034
 20
46.18149658
 30
0.0
 10
28.902371186
 20
46.2034917111
 30
0.0
 10
28.732199493
 20
46.2344656281
 30
0.0
 10
28.5379228491
 20
46.2698592528
 30
0.0
 10
28.3222371022
 20
46.301226366
 30
0.0
 10
28.0912197853
 20
46.3193047891
 30
0.0
 10
27.8548292669
 20
46.3173710756
 30
0.0
 10
27.624433638
 20
46.2961259571
 30
0.0
 10
27.4091073996
 20
46.2641939749
 30
0.0
 10
27.2122287223
 20
46.2318128869
 30
0.0
 10
27.0337522502
 20
46.2042972224
 30
0.0
 10
26.872138968
 20
46.1841996867
 30
0.0
 10
26.7258963203
 20
46.1735476523
 30
0.0
 10
26.5931511935
 20
46.1728008517
 30
0.0
 10
26.4700357152
 20
46.1817606621
 30
0.0
 10
26.3502315667
 20
46.2004116629
 30
0.0
 10
26.2256217976
 20
46.2292460257
 30
0.0
 10
26.0877853907
 20
46.267597137
 30
0.0
 10
25.9296701469
 20
46.3102046722
 30
0.0
 10
25.7480038088
 20
46.3467600239
 30
0.0
 10
25.5451751834
 20
46.3695011707
 30
0.0
 10
25.326494584
 20
46.3774315025
 30
0.0
 10
25.101663831
 20
46.3720318101
 30
0.0
 10
24.8842283632
 20
46.3579249485
 30
0.0
 10
24.6877437095
 20
46.3409570721
 30
0.0
 10
24.5188718178
 20
46.3252596559
 30
0.0
 10
24.3777813115
 20
46.3135807554
 30
0.0
 10
24.2622159489
 20
46.3074252248
 30
0.0
 10
24.1699829085
 20
46.307166609
 30
0.0
 10
24.0985435677
 20
46.3128350314
 30
0.0
 10
24.0451500713
 20
46.3240754027
 30
0.0
 10
24.0164330309
 20
46.3370439652
 30
0.0
 10
24.0056386501
 20
46.3447742702
 30
0.0
  0
SPLINE
  5
307
100
AcDbEntity
  8
0
100
AcDbSpline
 62
7
  6
BYLAYER
 70
0
 71
3
 72
65
 73
61
 74
0
 42
0.0000001
 43
0.0000001
 44
0.0000000001
 40
0.0
 40
0.0
 40
0.0
 40
0.0
 40
0.0044215117
 40
0.0085771483
 40
0.0163051501
 40
0.0235947533
 40
0.0307956924
 40
0.0382073382
 40
0.0460129932
 40
0.0632060103
 40
0.072616853
 40
0.0824880573
 40
0.0927233265
 40
0.1031975115
 40
0.1137747372
 40
0.1243010018
 40
0.1346111856
 40
0.1445369601
 40
0.1539117232
 40
0.1625669439
 40
0.1703309376
 40
0.1770608481
 40
0.180005989
 40
0.1826441621
 40
0.1849917136
 40
0.1872354013
 40
0.1920530147
 40
0.1975731532
 40
0.2040489756
 40
0.2116254577
 40
0.2203985672
 40
0.2303700493
 40
0.2415136294
 40
0.2537725532
 40
0.2670779486
 40
0.2813584153
 40
0.2965412055
 40
0.3125491328
 40
0.3467018838
 40
0.3831592927
 40
0.4214143313
 40
0.4610091798
 40
0.501589009
 40
0.542875904
 40
0.5847840947
 40
0.627406121
 40
0.6491224795
 40
0.6712055945
 40
0.6937537823
 40
0.7169079526
 40
0.740834358
 40
0.765689191
 40
0.7916311461
 40
0.8187186846
 40
0.846993889
 40
0.8763333589
 40
0.9065758538
 40
0.9374381423
 40
0.9686361827
 40
1.0
 40
1.0
 40
1.0
 40
1.0
 10
25.3180347433
 20
44.7902666341
 30
0.0
 10
25.3129334397
 20
44.7988721918
 30
0.0
 10
25.3034558826
 20
44.8158174377
 30
0.0
 10
25.2872365579
 20
44.8489670418
 30
0.0
 10
25.2714831401
 20
44.8894873887
 30
0.0
 10
25.2584995677
 20
44.938154491
 30
0.0
 10
25.2511334725
 20
44.9872486721
 30
0.0
 10
25.2486206509
 20
45.0379887799
 30
0.0
 10
25.2521834833
 20
45.1113226411
 30
0.0
 10
25.2669933521
 20
45.1882464913
 30
0.0
 10
25.2924669268
 20
45.2667960081
 30
0.0
 10
25.3179805249
 20
45.3285884989
 30
0.0
 10
25.3490846781
 20
45.3904535242
 30
0.0
 10
25.3853074838
 20
45.4513365186
 30
0.0
 10
25.4261133425
 20
45.5100458224
 30
0.0
 10
25.4704356229
 20
45.565664861
 30
0.0
 10
25.5172098224
 20
45.6172632327
 30
0.0
 10
25.5653622294
 20
45.6639132589
 30
0.0
 10
25.6138061256
 20
45.7046555842
 30
0.0
 10
25.6609639177
 20
45.7391095277
 30
0.0
 10
25.7053576024
 20
45.7669795582
 30
0.0
 10
25.7402871418
 20
45.7854221067
 30
0.0
 10
25.7656964693
 20
45.7968585415
 30
0.0
 10
25.782330871
 20
45.8035947606
 30
0.0
 10
25.7977102001
 20
45.8091774078
 30
0.0
 10
25.8180648583
 20
45.8154344626
 30
0.0
 10
25.8458488252
 20
45.8218122837
 30
0.0
 10
25.8835564916
 20
45.827123414
 30
0.0
 10
25.9277993506
 20
45.8298186804
 30
0.0
 10
25.9794798124
 20
45.8291106109
 30
0.0
 10
26.0388668278
 20
45.824171964
 30
0.0
 10
26.1058145673
 20
45.8143755345
 30
0.0
 10
26.1797966894
 20
45.7991003578
 30
0.0
 10
26.2602388912
 20
45.7783450763
 30
0.0
 10
26.3464996321
 20
45.7520809552
 30
0.0
 10
26.437915015
 20
45.7202958957
 30
0.0
 10
26.5338102601
 20
45.6829961626
 30
0.0
 10
26.6699429727
 20
45.6253095071
 30
0.0
 10
26.8474410655
 20
45.5421037941
 30
0.0
 10
27.0667754715
 20
45.4300016085
 30
0.0
 10
27.2947396854
 20
45.3078737118
 30
0.0
 10
27.5300268403
 20
45.1796952076
 30
0.0
 10
27.7722237539
 20
45.0498627986
 30
0.0
 10
28.0216295547
 20
44.9224472196
 30
0.0
 10
28.2798169033
 20
44.8023898707
 30
0.0
 10
28.5031041907
 20
44.7128738728
 30
0.0
 10
28.6884390158
 20
44.650425265
 30
0.0
 10
28.832746138
 20
44.6088971274
 30
0.0
 10
28.9821836372
 20
44.5740912663
 30
0.0
 10
29.1375642597
 20
44.5475446241
 30
0.0
 10
29.2995832546
 20
44.5307895342
 30
0.0
 10
29.4687486111
 20
44.5261090209
 30
0.0
 10
29.6449104423
 20
44.5357404806
 30
0.0
 10
29.8271876997
 20
44.5624548176
 30
0.0
 10
30.013457146
 20
44.6087914696
 30
0.0
 10
30.2009229388
 20
44.6759127575
 30
0.0
 10
30.3856788282
 20
44.7646930206
 30
0.0
 10
30.5642441836
 20
44.873650054
 30
0.0
 10
30.7329794586
 20
45.0014740213
 30
0.0
 10
30.8375109238
 20
45.0972507075
 30
0.0
 10
30.8876966479
 20
45.1474037252
 30
0.0
  0
SPLINE
  5
308
100
AcDbEntity
  8
0
100
AcDbSpline
 62
7
  6
BYLAYER
 70
0
 71
3
 72
12
 73
8
 74
0
 42
0.0000001
 43
0.0000001
 44
0.0000000001
 40
0.0
 40
0.0
 40
0.0
 40
0.0
 40
0.181229836
 40
0.3664610502
 40
0.6805201584
 40
0.8398344452
 40
1.0
 40
1.0
 40
1.0
 40
1.0
 10
28.9644682617
 20
46.1924139921
 30
0.0
 10
28.996504291
 20
46.2125163421
 30
0.0
 10
29.0603841018
 20
46.2545804675
 30
0.0
 10
29.17549833
 20
46.3377853502
 30
0.0
 10
29.282096665
 20
46.4247225428
 30
0.0
 10
29.380179306
 20
46.5133777349
 30
0.0
 10
29.4281041587
 20
46.5597279087
 30
0.0
 10
29.4517396608
 20
46.5833607124
 30
0.0
  0
SPLINE
  5
309
100
AcDbEntity
  8
0
100
AcDbSpline
 62
7
  6
BYLAYER
 70
0
 71
3
 72
41
 73
37
 74
0
 42
0.0000001
 43
0.0000001
 44
0.0000000001
 40
0.0
 40
0.0
 40
0.0
 40
0.0
 40
0.0134635769
 40
0.0263024099
 40
0.05018593
 40
0.0718168677
 40
0.091354028
 40
0.1089770916
 40
0.1249629842
 40
0.1396130121
 40
0.1532722534
 40
0.1662932539
 40
0.1790369103
 40
0.1918511422
 40
0.2050369737
 40
0.2335035487
 40
0.2491603477
 40
0.2659072604
 40
0.283810682
 40
0.3028802011
 40
0.3231061369
 40
0.3444745364
 40
0.3669658545
 40
0.3905444151
 40
0.4151645138
 40
0.4407746658
 40
0.4947419818
 40
0.5520068664
 40
0.612089316
 40
0.6744994251
 40
0.7387303617
 40
0.8042760126
 40
0.8706208258
 40
0.9372473357
 40
0.9686779711
 40
1.0
 40
1.0
 40
1.0
 40
1.0
 10
17.6333282323
 20
44.5551870827
 30
0.0
 10
17.6268332789
 20
44.5896808577
 30
0.0
 10
17.6150570469
 20
44.6572388264
 30
0.0
 10
17.5963507707
 20
44.7867382635
 30
0.0
 10
17.581270568
 20
44.9382174314
 30
0.0
 10
17.5755670303
 20
45.1078338174
 30
0.0
 10
17.5813439099
 20
45.2611288791
 30
0.0
 10
17.5973217886
 20
45.3989033549
 30
0.0
 10
17.6221998598
 20
45.5223764942
 30
0.0
 10
17.6546924911
 20
45.6333434444
 30
0.0
 10
17.6944361906
 20
45.7336546861
 30
0.0
 10
17.7411027067
 20
45.8253976844
 30
0.0
 10
17.7952554716
 20
45.9103245038
 30
0.0
 10
17.8573635737
 20
45.9901598658
 30
0.0
 10
17.9545949453
 20
46.0938628624
 30
0.0
 10
18.0708694349
 20
46.1888890111
 30
0.0
 10
18.2039049252
 20
46.2755174068
 30
0.0
 10
18.3185483466
 20
46.3394304458
 30
0.0
 10
18.4450424196
 20
46.3997119708
 30
0.0
 10
18.583176975
 20
46.4560631182
 30
0.0
 10
18.7325998282
 20
46.5080569368
 30
0.0
 10
18.8929221326
 20
46.5552573138
 30
0.0
 10
19.0636996379
 20
46.5972234952
 30
0.0
 10
19.2443242479
 20
46.633971916
 30
0.0
 10
19.4341736878
 20
46.6655028159
 30
0.0
 10
19.7034908121
 20
46.7011987914
 30
0.0
 10
20.0590962397
 20
46.7319395433
 30
0.0
 10
20.505526645
 20
46.7485532727
 30
0.0
 10
20.9742461666
 20
46.7464659929
 30
0.0
 10
21.4607186882
 20
46.7272776392
 30
0.0
 10
21.9605885237
 20
46.6925790849
 30
0.0
 10
22.469618333
 20
46.644315837
 30
0.0
 10
22.9836865172
 20
46.5844277766
 30
0.0
 10
23.4084418098
 20
46.527160101
 30
0.0
 10
23.7421737128
 20
46.4783723944
 30
0.0
 10
23.9038847413
 20
46.4536473412
 30
0.0
 10
23.9845627973
 20
46.4410648293
 30
0.0
  0
SPLINE
  5
30A
100
AcDbEntity
  8
0
100
AcDbSpline
 62
7
  6
BYLAYER
 70
0
 71
3
 72
65
 73
61
 74
0
 42
0.0000001
 43
0.0000001
 44
0.0000000001
 40
0.0
 40
0.0
 40
0.0
 40
0.0
 40
0.019141902
 40
0.0376455515
 40
0.0555907833
 40
0.073071117
 40
0.0901806189
 40
0.1069742306
 40
0.1235025332
 40
0.1397985804
 40
0.155891886
 40
0.1718027929
 40
0.1875479387
 40
0.2031526
 40
0.2186391316
 40
0.234046717
 40
0.2494106623
 40
0.2647763957
 40
0.2801838065
 40
0.2956828965
 40
0.3271072165
 40
0.3592785134
 40
0.3923251296
 40
0.4263020492
 40
0.4611871895
 40
0.4969096913
 40
0.5333555095
 40
0.5703834566
 40
0.6078251811
 40
0.6454967841
 40
0.6831997924
 40
0.757855162
 40
0.794363079
 40
0.8300109629
 40
0.8645549402
 40
0.881335797
 40
0.8977357508
 40
0.9137237976
 40
0.9214963167
 40
0.9289543962
 40
0.9360957884
 40
0.9429248077
 40
0.9494350923
 40
0.9556184529
 40
0.9669568943
 40
0.9720768101
 40
0.9768062391
 40
0.981125375
 40
0.9850004212
 40
0.9883965575
 40
0.9912865368
 40
0.993648903
 40
0.9954830634
 40
0.9968042647
 40
0.9976873143
 40
0.9982396899
 40
0.9986568185
 40
0.9991610609
 40
0.9995226744
 40
1.0
 40
1.0
 40
1.0
 40
1.0
 10
15.9400167439
 20
44.2656368939
 30
0.0
 10
15.921776895
 20
44.3625169947
 30
0.0
 10
15.8909877366
 20
44.5541078615
 30
0.0
 10
15.86274114
 20
44.8392259126
 30
0.0
 10
15.8537456889
 20
45.117084388
 30
0.0
 10
15.8645388434
 20
45.3877181853
 30
0.0
 10
15.8955546315
 20
45.650844122
 30
0.0
 10
15.9472678795
 20
45.9057326448
 30
0.0
 10
16.0200984461
 20
46.151065403
 30
0.0
 10
16.113537882
 20
46.3854502833
 30
0.0
 10
16.2270181712
 20
46.6072525897
 30
0.0
 10
16.3590439141
 20
46.8151792906
 30
0.0
 10
16.5081991988
 20
47.0079894435
 30
0.0
 10
16.6724569861
 20
47.1850994652
 30
0.0
 10
16.8500541055
 20
47.3462118877
 30
0.0
 10
17.0391521246
 20
47.491574299
 30
0.0
 10
17.2382399486
 20
47.6217287772
 30
0.0
 10
17.4459529418
 20
47.7375458696
 30
0.0
 10
17.66126493
 20
47.8401065311
 30
0.0
 10
17.9589007227
 20
47.9608904308
 30
0.0
 10
18.3482057795
 20
48.0833291522
 30
0.0
 10
18.834539875
 20
48.1916632796
 30
0.0
 10
19.3403324694
 20
48.2665571689
 30
0.0
 10
19.8634948057
 20
48.312380528
 30
0.0
 10
20.4020009955
 20
48.3324589142
 30
0.0
 10
20.9535385586
 20
48.330050786
 30
0.0
 10
21.5156422093
 20
48.3077862178
 30
0.0
 10
22.0856481811
 20
48.2682885795
 30
0.0
 10
22.6607434579
 20
48.2138319384
 30
0.0
 10
23.2379838458
 20
48.1466986226
 30
0.0
 10
24.0038687954
 20
48.0435019251
 30
0.0
 10
24.7613571349
 20
47.9238674811
 30
0.0
 10
25.5064301611
 20
47.7946492109
 30
0.0
 10
26.0472133723
 20
47.696637689
 30
0.0
 10
26.4875929255
 20
47.6144719681
 30
0.0
 10
26.830346026
 20
47.5496104671
 30
0.0
 10
27.0791807787
 20
47.5024818266
 30
0.0
 10
27.2824796792
 20
47.4642715141
 30
0.0
 10
27.4404264764
 20
47.4341099307
 30
0.0
 10
27.5537194531
 20
47.4130479837
 30
0.0
 10
27.6623832465
 20
47.3936865274
 30
0.0
 10
27.7664291601
 20
47.3762680728
 30
0.0
 10
27.8658327556
 20
47.361042917
 30
0.0
 10
27.9885209331
 20
47.3445842898
 30
0.0
 10
28.1046453197
 20
47.3330735184
 30
0.0
 10
28.2136517228
 20
47.3274459839
 30
0.0
 10
28.286641222
 20
47.3263053153
 30
0.0
 10
28.3532053824
 20
47.3281165492
 30
0.0
 10
28.4127657716
 20
47.3325653653
 30
0.0
 10
28.4646884318
 20
47.3393697478
 30
0.0
 10
28.5084708634
 20
47.3477389434
 30
0.0
 10
28.5438232489
 20
47.3569384712
 30
0.0
 10
28.570810837
 20
47.3659049016
 30
0.0
 10
28.590111642
 20
47.3737156714
 30
0.0
 10
28.6028543252
 20
47.3799899756
 30
0.0
 10
28.6112013246
 20
47.3846390801
 30
0.0
 10
28.6174114732
 20
47.3890197918
 30
0.0
 10
28.6225500804
 20
47.3931837666
 30
0.0
 10
28.6276474575
 20
47.3978637063
 30
0.0
 10
28.6307261606
 20
47.4008994656
 30
0.0
 10
28.6324719265
 20
47.4026284467
 30
0.0
  0
SPLINE
  5
30B
100
AcDbEntity
  8
0
100
AcDbSpline
 62
7
  6
BYLAYER
 70
0
 71
3
 72
18
 73
14
 74
0
 42
0.0000001
 43
0.0000001
 44
0.0000000001
 40
0.0
 40
0.0
 40
0.0
 40
0.0
 40
0.148171066
 40
0.2927565106
 40
0.4284494165
 40
0.5504427156
 40
0.6560234384
 40
0.7457147848
 40
0.8211550512
 40
0.8829923074
 40
0.9323532974
 40
0.970775064
 40
1.0
 40
1.0
 40
1.0
 40
1.0
 10
25.3311427372
 20
47.2257970807
 30
0.0
 10
25.2564693315
 20
47.2023696486
 30
0.0
 10
25.1102331576
 20
47.1518751875
 30
0.0
 10
24.8998033318
 20
47.0684239195
 30
0.0
 10
24.7062136361
 20
46.9806312384
 30
0.0
 10
24.5356462969
 20
46.8925726192
 30
0.0
 10
24.3908635171
 20
46.8080363672
 30
0.0
 10
24.2715256411
 20
46.7291270565
 30
0.0
 10
24.1756841323
 20
46.6569733255
 30
0.0
 10
24.1011003194
 20
46.5923802149
 30
0.0
 10
24.0458260498
 20
46.5357150754
 30
0.0
 10
24.007704063
 20
46.486910264
 30
0.0
 10
23.9902151285
 20
46.4554291813
 30
0.0
 10
23.9845629098
 20
46.4410649791
 30
0.0
  0
LINE
  5
30C
100
AcDbEntity
  8
0
100
AcDbLine
 62
7
  6
BYLAYER
 10
29.4333327238
 20
46.6017676494
 11
29.5041151224
 21
46.672406607
  0
SPLINE
  5
30D
100
AcDbEntity
  8
0
100
AcDbSpline
 62
7
  6
BYLAYER
 70
0
 71
3
 72
48
 73
44
 74
0
 42
0.0000001
 43
0.0000001
 44
0.0000000001
 40
0.0
 40
0.0
 40
0.0
 40
0.0
 40
0.0068352174
 40
0.0125334036
 40
0.0171015346
 40
0.020559855
 40
0.0218897807
 40
0.0229716837
 40
0.0245221629
 40
0.0251775325
 40
0.0259113025
 40
0.026821059
 40
0.0279606447
 40
0.0293576661
 40
0.0310254146
 40
0.0351949802
 40
0.0404920112
 40
0.0469168411
 40
0.0544619958
 40
0.0631163238
 40
0.0728667271
 40
0.083698985
 40
0.0955948001
 40
0.108521853
 40
0.1373249809
 40
0.1698176278
 40
0.2057066648
 40
0.2446781724
 40
0.2863387614
 40
0.3302748094
 40
0.3760723691
 40
0.4715215772
 40
0.5690049585
 40
0.6647883023
 40
0.7552253792
 40
0.8368078597
 40
0.8733190628
 40
0.9064885855
 40
0.9359752143
 40
0.9615336777
 40
0.9829454407
 40
0.9920301363
 40
1.0
 40
1.0
 40
1.0
 40
1.0
 10
17.6333282323
 20
44.5551870827
 30
0.0
 10
17.6371850146
 20
44.5566380809
 30
0.0
 10
17.6442505711
 20
44.5593424924
 30
0.0
 10
17.653723711
 20
44.5634345112
 30
0.0
 10
17.6611330153
 20
44.5671429378
 30
0.0
 10
17.6659547671
 20
44.5700969456
 30
0.0
 10
17.6687049281
 20
44.5723594553
 30
0.0
 10
17.6703288381
 20
44.5740773149
 30
0.0
 10
17.6713561473
 20
44.5759939915
 30
0.0
 10
17.6709233702
 20
44.5777895025
 30
0.0
 10
17.6700151107
 20
44.5788803149
 30
0.0
 10
17.6686083323
 20
44.5798192882
 30
0.0
 10
17.6666929597
 20
44.5806465492
 30
0.0
 10
17.6642586113
 20
44.5813714058
 30
0.0
 10
17.6599849456
 20
44.5822715228
 30
0.0
 10
17.6533030965
 20
44.5830537171
 30
0.0
 10
17.6437274885
 20
44.5835567878
 30
0.0
 10
17.6321021687
 20
44.5836582663
 30
0.0
 10
17.6184562897
 20
44.5833568412
 30
0.0
 10
17.6028172403
 20
44.5826473618
 30
0.0
 10
17.585215137
 20
44.5815284363
 30
0.0
 10
17.5656820784
 20
44.5799987691
 30
0.0
 10
17.5442607004
 20
44.578059291
 30
0.0
 10
17.5120739864
 20
44.574815765
 30
0.0
 10
17.4675868177
 20
44.5697379799
 30
0.0
 10
17.4094287411
 20
44.5623391979
 30
0.0
 10
17.345275531
 20
44.5534898967
 30
0.0
 10
17.2757324916
 20
44.5432639255
 30
0.0
 10
17.2014721795
 20
44.5317672139
 30
0.0
 10
17.1232260255
 20
44.5191138717
 30
0.0
 10
17.0130608413
 20
44.500599763
 30
0.0
 10
16.8712527386
 20
44.4754872778
 30
0.0
 10
16.7000770591
 20
44.4433429389
 30
0.0
 10
16.5322152701
 20
44.4099828541
 30
0.0
 10
16.3741210219
 20
44.3767346468
 30
0.0
 10
16.2513641838
 20
44.3492353505
 30
0.0
 10
16.1625891199
 20
44.3281313091
 30
0.0
 10
16.1045315624
 20
44.3137059275
 30
0.0
 10
16.0530515556
 20
44.3002229139
 30
0.0
 10
16.0086263285
 20
44.2878206948
 30
0.0
 10
15.9762557048
 20
44.2780294204
 30
0.0
 10
15.9542210368
 20
44.2707494175
 30
0.0
 10
15.9445257043
 20
44.2673069932
 30
0.0
 10
15.9400167768
 20
44.2656369061
 30
0.0
  0
SPLINE
  5
30E
100
AcDbEntity
  8
0
100
AcDbSpline
 62
7
  6
BYLAYER
 70
0
 71
3
 72
48
 73
44
 74
0
 42
0.0000001
 43
0.0000001
 44
0.0000000001
 40
0.0
 40
0.0
 40
0.0
 40
0.0
 40
0.0068352169
 40
0.0125334027
 40
0.0171015335
 40
0.0205598536
 40
0.0218897792
 40
0.0229716821
 40
0.0245221612
 40
0.0251775308
 40
0.0259113009
 40
0.0268210573
 40
0.027960643
 40
0.0293576644
 40
0.0310254129
 40
0.0351949784
 40
0.0404920093
 40
0.046916839
 40
0.0544619936
 40
0.0631163215
 40
0.0728667246
 40
0.0836989823
 40
0.0955947972
 40
0.1085218499
 40
0.1373249773
 40
0.1698176236
 40
0.20570666
 40
0.2446781669
 40
0.2863387553
 40
0.3302748025
 40
0.3760723614
 40
0.4715215678
 40
0.5690049475
 40
0.6647882896
 40
0.7552253649
 40
0.8368078441
 40
0.8733190465
 40
0.9064885687
 40
0.9359752056
 40
0.9615336746
 40
0.9829454406
 40
0.9920301366
 40
1.0
 40
1.0
 40
1.0
 40
1.0
 10
15.9400167439
 20
44.2656368939
 30
0.0
 10
15.9361599617
 20
44.2641858958
 30
0.0
 10
15.9290944056
 20
44.2614814843
 30
0.0
 10
15.9196212662
 20
44.2573894657
 30
0.0
 10
15.9122119623
 20
44.2536810393
 30
0.0
 10
15.9073902108
 20
44.2507270315
 30
0.0
 10
15.90464005
 20
44.2484645219
 30
0.0
 10
15.9030161401
 20
44.2467466624
 30
0.0
 10
15.901988831
 20
44.2448299858
 30
0.0
 10
15.9024216082
 20
44.2430344748
 30
0.0
 10
15.9033298677
 20
44.2419436625
 30
0.0
 10
15.9047366461
 20
44.2410046892
 30
0.0
 10
15.9066520186
 20
44.2401774282
 30
0.0
 10
15.909086367
 20
44.2394525716
 30
0.0
 10
15.9133600327
 20
44.2385524546
 30
0.0
 10
15.9200418818
 20
44.2377702603
 30
0.0
 10
15.9296174898
 20
44.2372671897
 30
0.0
 10
15.9412428096
 20
44.2371657111
 30
0.0
 10
15.9548886886
 20
44.2374671362
 30
0.0
 10
15.9705277381
 20
44.2381766156
 30
0.0
 10
15.9881298413
 20
44.2392955411
 30
0.0
 10
16.0076628999
 20
44.2408252083
 30
0.0
 10
16.0290842779
 20
44.2427646864
 30
0.0
 10
16.0612709919
 20
44.2460082124
 30
0.0
 10
16.1057581606
 20
44.2510859975
 30
0.0
 10
16.1639162372
 20
44.2584847795
 30
0.0
 10
16.2280694473
 20
44.2673340807
 30
0.0
 10
16.2976124867
 20
44.2775600519
 30
0.0
 10
16.3718727988
 20
44.2890567635
 30
0.0
 10
16.4501189528
 20
44.3017101057
 30
0.0
 10
16.560284137
 20
44.3202242144
 30
0.0
 10
16.7020922397
 20
44.3453366996
 30
0.0
 10
16.8732679192
 20
44.3774810385
 30
0.0
 10
17.0411297082
 20
44.4108411233
 30
0.0
 10
17.1992239564
 20
44.4440893306
 30
0.0
 10
17.3219807945
 20
44.4715886269
 30
0.0
 10
17.4107558584
 20
44.4926926683
 30
0.0
 10
17.4688134209
 20
44.5071180511
 30
0.0
 10
17.5202934362
 20
44.5206010671
 30
0.0
 10
17.5647186737
 20
44.5330032895
 30
0.0
 10
17.597089303
 20
44.5427945662
 30
0.0
 10
17.619123973
 20
44.5500745706
 30
0.0
 10
17.6288193055
 20
44.5535169956
 30
0.0
 10
17.6333282328
 20
44.5551870829
 30
0.0
  0
SPLINE
  5
30F
100
AcDbEntity
  8
0
100
AcDbSpline
 62
7
  6
BYLAYER
 70
0
 71
3
 72
43
 73
39
 74
0
 42
0.0000001
 43
0.0000001
 44
0.0000000001
 40
0.0
 40
0.0
 40
0.0
 40
0.0
 40
0.009585204
 40
0.0181399774
 40
0.0256706423
 40
0.0321928844
 40
0.0377385862
 40
0.0423691568
 40
0.0462017559
 40
0.0494549137
 40
0.0524904205
 40
0.055747685
 40
0.0595827755
 40
0.0642130316
 40
0.0697569711
 40
0.0762783397
 40
0.0838116974
 40
0.0923755234
 40
0.1125955216
 40
0.1368221405
 40
0.1648602906
 40
0.1964936367
 40
0.2314736557
 40
0.2694595094
 40
0.3100842693
 40
0.3529782504
 40
0.4439891188
 40
0.539029281
 40
0.6345221009
 40
0.7268667987
 40
0.8125490593
 40
0.8519011853
 40
0.8884179328
 40
0.9217426938
 40
0.9516057581
 40
0.9777659677
 40
0.9893870356
 40
1.0
 40
1.0
 40
1.0
 40
1.0
 10
25.3180347433
 20
44.7902666341
 30
0.0
 10
25.3220712773
 20
44.7945490076
 30
0.0
 10
25.3296034808
 20
44.8027664432
 30
0.0
 10
25.3397337804
 20
44.8148541996
 30
0.0
 10
25.3480733725
 20
44.8259668892
 30
0.0
 10
25.3546101034
 20
44.8360897921
 30
0.0
 10
25.359343239
 20
44.8452114621
 30
0.0
 10
25.3622684556
 20
44.8533407772
 30
0.0
 10
25.3633627693
 20
44.8605177295
 30
0.0
 10
25.3624809574
 20
44.866800774
 30
0.0
 10
25.3593893097
 20
44.8719744211
 30
0.0
 10
25.3542892871
 20
44.8757496757
 30
0.0
 10
25.3474636776
 20
44.878233163
 30
0.0
 10
25.338928104
 20
44.879570575
 30
0.0
 10
25.3286558442
 20
44.8797991094
 30
0.0
 10
25.3166376154
 20
44.8789234432
 30
0.0
 10
25.3028794209
 20
44.8769390621
 30
0.0
 10
25.281001196
 20
44.8725521244
 30
0.0
 10
25.2495452759
 20
44.8640330287
 30
0.0
 10
25.2072616558
 20
44.850065704
 30
0.0
 10
25.159015323
 20
44.831935842
 30
0.0
 10
25.1052570796
 20
44.8097922715
 30
0.0
 10
25.0464967407
 20
44.783809578
 30
0.0
 10
24.9832957207
 20
44.7542563977
 30
0.0
 10
24.9162765579
 20
44.7214239247
 30
0.0
 10
24.8207893212
 20
44.6727078348
 30
0.0
 10
24.69699148
 20
44.6059864689
 30
0.0
 10
24.5468835451
 20
44.5201133405
 30
0.0
 10
24.3982456738
 20
44.4301249334
 30
0.0
 10
24.256737538
 20
44.3395592498
 30
0.0
 10
24.146330135
 20
44.2644491463
 30
0.0
 10
24.0657649475
 20
44.2065257104
 30
0.0
 10
24.0120854154
 20
44.1663158568
 30
0.0
 10
23.9639378528
 20
44.1284666851
 30
0.0
 10
23.9217581391
 20
44.0933513621
 30
0.0
 10
23.890771057
 20
44.0656575824
 30
0.0
 10
23.8693509187
 20
44.0450455174
 30
0.0
 10
23.8597920221
 20
44.0352917989
 30
0.0
 10
23.8553102055
 20
44.0305573121
 30
0.0
  0
SPLINE
  5
310
100
AcDbEntity
  8
0
100
AcDbSpline
 62
7
  6
BYLAYER
 70
0
 71
3
 72
43
 73
39
 74
0
 42
0.0000001
 43
0.0000001
 44
0.0000000001
 40
0.0
 40
0.0
 40
0.0
 40
0.0
 40
0.0095851992
 40
0.0181399684
 40
0.0256706297
 40
0.0321928687
 40
0.0377385681
 40
0.0423691369
 40
0.0462017347
 40
0.0494548916
 40
0.0524903984
 40
0.055747663
 40
0.0595827536
 40
0.0642130098
 40
0.0697569494
 40
0.0762783182
 40
0.083811676
 40
0.0923755022
 40
0.112595501
 40
0.1368221204
 40
0.1648602712
 40
0.196493618
 40
0.2314736378
 40
0.2694594924
 40
0.3100842532
 40
0.3529782353
 40
0.4439891059
 40
0.5390292702
 40
0.6345220924
 40
0.7268667924
 40
0.812549055
 40
0.8519011819
 40
0.8884179302
 40
0.921742692
 40
0.9516057569
 40
0.9777659672
 40
0.9893870353
 40
1.0
 40
1.0
 40
1.0
 40
1.0
 10
23.8553102055
 20
44.0305573121
 30
0.0
 10
23.8512736739
 20
44.0262749405
 30
0.0
 10
23.843741475
 20
44.0180575085
 30
0.0
 10
23.8336111817
 20
44.0059697574
 30
0.0
 10
23.8252715949
 20
43.9948570725
 30
0.0
 10
23.8187348683
 20
43.9847341738
 30
0.0
 10
23.814001736
 20
43.9756125075
 30
0.0
 10
23.8110765216
 20
43.9674831955
 30
0.0
 10
23.8099822092
 20
43.9603062458
 30
0.0
 10
23.8108640212
 20
43.9540232029
 30
0.0
 10
23.8139556686
 20
43.9488495563
 30
0.0
 10
23.8190556912
 20
43.9450743017
 30
0.0
 10
23.8258813008
 20
43.9425908144
 30
0.0
 10
23.8344168743
 20
43.9412534024
 30
0.0
 10
23.8446891341
 20
43.941024868
 30
0.0
 10
23.8567073629
 20
43.9419005342
 30
0.0
 10
23.8704655574
 20
43.9438849153
 30
0.0
 10
23.8923437823
 20
43.9482718531
 30
0.0
 10
23.9237997024
 20
43.9567909487
 30
0.0
 10
23.9660833225
 20
43.9707582734
 30
0.0
 10
24.0143296553
 20
43.9888881354
 30
0.0
 10
24.0680878987
 20
44.0110317059
 30
0.0
 10
24.1268482376
 20
44.0370143994
 30
0.0
 10
24.1900492576
 20
44.0665675797
 30
0.0
 10
24.2570684204
 20
44.0994000528
 30
0.0
 10
24.3525556571
 20
44.1481161427
 30
0.0
 10
24.4763534983
 20
44.2148375085
 30
0.0
 10
24.6264614333
 20
44.300710637
 30
0.0
 10
24.7750993045
 20
44.3906990441
 30
0.0
 10
24.9166074403
 20
44.4812647276
 30
0.0
 10
25.0270148433
 20
44.5563748311
 30
0.0
 10
25.1075800308
 20
44.614298267
 30
0.0
 10
25.1612595629
 20
44.6545081207
 30
0.0
 10
25.2094071255
 20
44.6923572924
 30
0.0
 10
25.2515868392
 20
44.7274726153
 30
0.0
 10
25.2825739213
 20
44.755166395
 30
0.0
 10
25.3039940596
 20
44.77577846
 30
0.0
 10
25.3135529562
 20
44.7855321786
 30
0.0
 10
25.3180347728
 20
44.7902666654
 30
0.0
  0
ENDSEC
  0
SECTION
  2
OBJECTS
  0
DICTIONARY
  5
C
100
AcDbDictionary
280
0
281
1
  3
ACAD_GROUP
350
D
  3
ACAD_MLINESTYLE
350
17
  3
ACAD_LAYOUT
350
1A
  3
ACAD_PLOTSETTINGS
350
19
  3
ACAD_PLOTSTYLENAME
350
E
  0
DICTIONARY
  5
D
102
{ACAD_REACTORS
330
C
102
}
100
AcDbDictionary
280
0
281
1
  0
ACDBDICTIONARYWDFLT
  5
E
102
{ACAD_REACTORS
330
C
102
}
100
AcDbDictionary
281
1
  3
Normal
350
F
100
AcDbDictionaryWithDefault
340
F
  0
DICTIONARY
  5
17
102
{ACAD_REACTORS
330
C
102
}
100
AcDbDictionary
280
0
281
1
  3
Standard
350
18
  0
DICTIONARY
  5
19
102
{ACAD_REACTORS
330
C
102
}
100
AcDbDictionary
281
1
  0
DICTIONARY
  5
1A
102
{ACAD_REACTORS
330
C
102
}
100
AcDbDictionary
281
1
  3
Model
350
311
  3
Layout1
350
312
  0
ACDBPLACEHOLDER
  5
F
102
{ACAD_REACTORS
330
E
102
}
  0
MLINESTYLE
  5
18
102
{ACAD_REACTORS
330
17
102
}
100
AcDbMlineStyle
  2
STANDARD
 70
0
  3

 62
256
 51
90.0
 52
90.0
 71
2
 49
0.5
 62
256
  6
BYLAYER
 49
-0.5
 62
256
  6
BYLAYER
  0
LAYOUT
  5
311
102
{ACAD_REACTORS
330
1A
102
}
100
AcDbPlotSettings
  1

  2
none_device
  4

  6

 40
0.0
 41
0.0
 42
0.0
 43
0.0
 44
210.0
 45
297.0
 46
0.0
 47
0.0
 48
0.0
 49
0.0
140
0.0
141
0.0
142
1.0
143
1.0
 70
1024
 72
1
 73
0
 74
0
  7

 75
0
147
1.0
148
0.0
149
0.0
100
AcDbLayout
  1
Model
 70
0
 71
0
 10
0.0
 20
0.0
 11
210.0
 21
297.0
 12
0.0
 22
0.0
 32
0.0
 14
0.0
 24
0.0
 34
0.0
 15
0.0
 25
0.0
 35
0.0
146
0.0
 13
0.0
 23
0.0
 33
0.0
 16
1.0
 26
0.0
 36
0.0
 17
0.0
 27
1.0
 37
0.0
 76
0
330
210
345
0
346
0
  0
LAYOUT
  5
312
102
{ACAD_REACTORS
330
1A
102
}
100
AcDbPlotSettings
  1

  2
none_device
  4

  6

 40
0.0
 41
0.0
 42
0.0
 43
0.0
 44
210.0
 45
297.0
 46
0.0
 47
0.0
 48
0.0
 49
0.0
140
0.0
141
0.0
142
1.0
143
1.0
 70
0
 72
1
 73
0
 74
0
  7

 75
0
147
1.0
148
0.0
149
0.0
100
AcDbLayout
  1
Layout1
 70
0
 71
1
 10
0.0
 20
0.0
 11
210.0
 21
297.0
 12
0.0
 22
0.0
 32
0.0
 14
0.0
 24
0.0
 34
0.0
 15
0.0
 25
0.0
 35
0.0
146
0.0
 13
0.0
 23
0.0
 33
0.0
 16
1.0
 26
0.0
 36
0.0
 17
0.0
 27
1.0
 37
0.0
 76
0
330
211
345
0
346
0
  0
ENDSEC
  0
EOF
