999
DXF file: C:\Users\sesa63760\Dev\_Creo\CAD\MCADID0005507_3D-CAD\drw0001_6.dxf
999
Pro/ENGINEER 2019471 by Parametric Technology Corporation
  0
SECTION
  2
HEADER
  9
$ACADVER
  1
AC1024
  9
$DWGCODEPAGE
  3
ANSI_1252
  9
$EXTMAX
 10
62.5957671188
 20
88.5282992108
 30
0.0
  9
$EXTMIN
 10
0.0
 20
0.0
 30
0.0
  9
$LIMMIN
 10
0.0
 20
0.0
  9
$LIMMAX
 10
62.5957671188
 20
88.5282992108
  9
$VIEWCTR
 10
31.2978835594
 20
44.2641496054
  9
$VIEWSIZE
 40
88.5282992108
  9
$CLAYER
  8
0
  9
$LTSCALE
 40
5.7707335782
  9
$CELTYPE
  6
BYLAYER
  9
$DIMSCALE
 40
1.0
  9
$DIMASZ
 40
0.7451877038
  9
$DIMEXO
 40
1.0
  9
$DIMDLI
 40
3.9870522904
  9
$DIMEXE
 40
1.0
  9
$DIMCEN
 40
0.9443018582
  9
$DIMLFAC
 40
1.0
  9
$DIMBLK
  1
_FILLED
  9
$DIMALT
 70
0
  9
$DIMALTF
 40
0.0393700787
  9
$DIMTXT
 40
1.0432627853
  9
$DIMTOL
 70
1
  9
$DIMLIM
 70
0
  9
$DIMTFAC
 40
1.0
  9
$DIMTP
 40
0.01
  9
$DIMTM
 40
0.01
  9
$DIMGAP
 40
0.625
  9
$DIMDSEP
 70
46
  9
$AUNITS
 70
0
  9
$PDMODE
 70
3
  9
$PDSIZE
 40
0.3125
  9
$HANDSEED
  5
2A3
  9
$TILEMODE
 70
1
  9
$MEASUREMENT
 70
1
  9
$INSUNITS
 70
4
  0
ENDSEC
  0
SECTION
  2
CLASSES
  0
CLASS
  1
ACDBDICTIONARYWDFLT
  2
AcDbDictionaryWithDefault
  3
AutoCAD 2000
 90
0
 91
1
280
0
281
0
  0
CLASS
  1
ACDBPLACEHOLDER
  2
AcDbPlaceHolder
  3
AutoCAD 2000
 90
0
 91
1
280
0
281
0
  0
CLASS
  1
LAYOUT
  2
AcDbLayout
  3
AutoCAD 2000
 90
0
 91
0
280
0
281
0
  0
ENDSEC
  0
SECTION
  2
TABLES
  0
TABLE
  2
VPORT
  5
8
100
AcDbSymbolTable
 70
2
  0
VPORT
  5
1F4
100
AcDbSymbolTableRecord
100
AcDbViewportTableRecord
  2
*ACTIVE
 70
0
 10
0.0
 20
0.0
 11
1.0
 21
1.0
 12
31.2978835594
 22
44.2641496054
 13
0.0
 23
0.0
 14
1.0
 24
1.0
 15
0.0
 25
0.0
 16
0.0
 26
0.0
 36
1.0
 17
0.0
 27
0.0
 37
0.0
 40
88.5282992108
 41
0.7070707071
 42
50.0
 43
0.0
 44
0.0
 50
0.0
 51
0.0
 71
0
 72
100
 73
1
 74
1
 75
0
 76
0
 77
0
 78
0
  0
ENDTAB
  0
TABLE
  2
LTYPE
  5
5
100
AcDbSymbolTable
 70
6
  0
LTYPE
  5
14
100
AcDbSymbolTableRecord
100
AcDbLinetypeTableRecord
  2
BYBLOCK
 70
0
  3

 72
65
 73
0
 40
0.0
  0
LTYPE
  5
15
100
AcDbSymbolTableRecord
100
AcDbLinetypeTableRecord
  2
BYLAYER
 70
0
  3

 72
65
 73
0
 40
0.0
  0
LTYPE
  5
16
100
AcDbSymbolTableRecord
100
AcDbLinetypeTableRecord
  2
CONTINUOUS
 70
64
  3
Solid line
 72
65
 73
0
 40
0.0
  0
LTYPE
  5
1F5
100
AcDbSymbolTableRecord
100
AcDbLinetypeTableRecord
  2
CENTER
 70
64
  3
____ _ ____ _ ____ _ ____ _ ____ _ ____ _ ____
 72
65
 73
4
 40
0.6
 49
0.375
 74
0
 49
-0.075
 74
0
 49
0.075
 74
0
 49
-0.075
 74
0
  0
LTYPE
  5
1F6
100
AcDbSymbolTableRecord
100
AcDbLinetypeTableRecord
  2
HIDDEN
 70
64
  3
- - - - - - - - - - - - - - - - - - - -
 72
65
 73
2
 40
0.2
 49
0.1
 74
0
 49
-0.1
 74
0
  0
LTYPE
  5
1F7
100
AcDbSymbolTableRecord
100
AcDbLinetypeTableRecord
  2
PHANTOM
 70
64
  3
_____ _ _ _____ _ _ _____ _ _ _____
 72
65
 73
6
 40
0.8
 49
0.45
 74
0
 49
-0.05
 74
0
 49
0.1
 74
0
 49
-0.05
 74
0
 49
0.1
 74
0
 49
-0.05
 74
0
  0
LTYPE
  5
1F8
100
AcDbSymbolTableRecord
100
AcDbLinetypeTableRecord
  2
DOT
 70
64
  3
. . . . . . . . . . . . . . . . . . . .
 72
65
 73
2
 40
0.2
 49
0.1
 74
0
 49
-0.1
 74
0
  0
LTYPE
  5
1F9
100
AcDbSymbolTableRecord
100
AcDbLinetypeTableRecord
  2
DASHED
 70
64
  3
- - - - - - - - - - - - - - - - - - - -
 72
65
 73
2
 40
0.2
 49
0.1
 74
0
 49
-0.1
 74
0
  0
ENDTAB
  0
TABLE
  2
LAYER
  5
2
100
AcDbSymbolTable
 70
36
  0
LAYER
  5
10
100
AcDbSymbolTableRecord
100
AcDbLayerTableRecord
  2
0
 70
0
 62
7
  6
CONTINUOUS
370
-3
390
F
  0
LAYER
  5
1FA
100
AcDbSymbolTableRecord
100
AcDbLayerTableRecord
  2
DEFAULT_1
 70
0
 62
7
  6
CENTER
370
-3
390
F
  0
LAYER
  5
1FB
100
AcDbSymbolTableRecord
100
AcDbLayerTableRecord
  2
DEFAULT_2
 70
0
 62
7
  6
HIDDEN
370
-3
390
F
  0
LAYER
  5
1FC
100
AcDbSymbolTableRecord
100
AcDbLayerTableRecord
  2
DEFAULT_3
 70
0
 62
7
  6
PHANTOM
370
-3
390
F
  0
LAYER
  5
1FD
100
AcDbSymbolTableRecord
100
AcDbLayerTableRecord
  2
00_COMPONENTS
 70
0
 62
7
  6
CONTINUOUS
370
-3
390
F
  0
LAYER
  5
1FE
100
AcDbSymbolTableRecord
100
AcDbLayerTableRecord
  2
00_COMPONENTS_1
 70
0
 62
7
  6
CONTINUOUS
370
-3
390
F
  0
LAYER
  5
1FF
100
AcDbSymbolTableRecord
100
AcDbLayerTableRecord
  2
00_COMPONENTS_10
 70
0
 62
7
  6
CONTINUOUS
370
-3
390
F
  0
LAYER
  5
200
100
AcDbSymbolTableRecord
100
AcDbLayerTableRecord
  2
00_COMPONENTS_11
 70
0
 62
7
  6
CONTINUOUS
370
-3
390
F
  0
LAYER
  5
201
100
AcDbSymbolTableRecord
100
AcDbLayerTableRecord
  2
00_COMPONENTS_12
 70
0
 62
7
  6
CONTINUOUS
370
-3
390
F
  0
LAYER
  5
202
100
AcDbSymbolTableRecord
100
AcDbLayerTableRecord
  2
00_COMPONENTS_13
 70
0
 62
7
  6
CONTINUOUS
370
-3
390
F
  0
LAYER
  5
203
100
AcDbSymbolTableRecord
100
AcDbLayerTableRecord
  2
00_COMPONENTS_2
 70
0
 62
7
  6
CONTINUOUS
370
-3
390
F
  0
LAYER
  5
204
100
AcDbSymbolTableRecord
100
AcDbLayerTableRecord
  2
00_COMPONENTS_3
 70
0
 62
7
  6
CONTINUOUS
370
-3
390
F
  0
LAYER
  5
205
100
AcDbSymbolTableRecord
100
AcDbLayerTableRecord
  2
00_COMPONENTS_4
 70
0
 62
7
  6
CONTINUOUS
370
-3
390
F
  0
LAYER
  5
206
100
AcDbSymbolTableRecord
100
AcDbLayerTableRecord
  2
00_COMPONENTS_5
 70
0
 62
7
  6
CONTINUOUS
370
-3
390
F
  0
LAYER
  5
207
100
AcDbSymbolTableRecord
100
AcDbLayerTableRecord
  2
00_COMPONENTS_8
 70
0
 62
7
  6
CONTINUOUS
370
-3
390
F
  0
LAYER
  5
208
100
AcDbSymbolTableRecord
100
AcDbLayerTableRecord
  2
00_COMPONENTS_9
 70
0
 62
7
  6
CONTINUOUS
370
-3
390
F
  0
LAYER
  5
209
100
AcDbSymbolTableRecord
100
AcDbLayerTableRecord
  2
01_1_DEFAULT_DATUMS
 70
0
 62
7
  6
CONTINUOUS
370
-3
390
F
  0
LAYER
  5
20A
100
AcDbSymbolTableRecord
100
AcDbLayerTableRecord
  2
01_PLANES
 70
0
 62
7
  6
CONTINUOUS
370
-3
390
F
  0
LAYER
  5
20B
100
AcDbSymbolTableRecord
100
AcDbLayerTableRecord
  2
02_COORD_SYS
 70
0
 62
7
  6
CONTINUOUS
370
-3
390
F
  0
LAYER
  5
20C
100
AcDbSymbolTableRecord
100
AcDbLayerTableRecord
  2
03_AXES
 70
0
 62
7
  6
CONTINUOUS
370
-3
390
F
  0
LAYER
  5
20D
100
AcDbSymbolTableRecord
100
AcDbLayerTableRecord
  2
04_POINTS
 70
0
 62
7
  6
CONTINUOUS
370
-3
390
F
  0
LAYER
  5
20E
100
AcDbSymbolTableRecord
100
AcDbLayerTableRecord
  2
05_CURVES
 70
0
 62
7
  6
CONTINUOUS
370
-3
390
F
  0
LAYER
  5
20F
100
AcDbSymbolTableRecord
100
AcDbLayerTableRecord
  2
06_SURFS
 70
0
 62
7
  6
CONTINUOUS
370
-3
390
F
  0
LAYER
  5
210
100
AcDbSymbolTableRecord
100
AcDbLayerTableRecord
  2
07_COSMETICS
 70
0
 62
7
  6
CONTINUOUS
370
-3
390
F
  0
LAYER
  5
211
100
AcDbSymbolTableRecord
100
AcDbLayerTableRecord
  2
10_NOTES
 70
0
 62
7
  6
CONTINUOUS
370
-3
390
F
  0
LAYER
  5
212
100
AcDbSymbolTableRecord
100
AcDbLayerTableRecord
  2
11_NOTES_PUB
 70
0
 62
7
  6
CONTINUOUS
370
-3
390
F
  0
LAYER
  5
213
100
AcDbSymbolTableRecord
100
AcDbLayerTableRecord
  2
13_REF_GTOL
 70
0
 62
7
  6
CONTINUOUS
370
-3
390
F
  0
LAYER
  5
214
100
AcDbSymbolTableRecord
100
AcDbLayerTableRecord
  2
16_MISC
 70
0
 62
7
  6
CONTINUOUS
370
-3
390
F
  0
LAYER
  5
215
100
AcDbSymbolTableRecord
100
AcDbLayerTableRecord
  2
17_NO_PRINT
 70
0
 62
7
  6
CONTINUOUS
370
-3
390
F
  0
LAYER
  5
216
100
AcDbSymbolTableRecord
100
AcDbLayerTableRecord
  2
18_DATUM_CAMS_JOINTS
 70
0
 62
7
  6
CONTINUOUS
370
-3
390
F
  0
LAYER
  5
217
100
AcDbSymbolTableRecord
100
AcDbLayerTableRecord
  2
19_DATUM_FUNCTIONAL
 70
0
 62
7
  6
CONTINUOUS
370
-3
390
F
  0
LAYER
  5
218
100
AcDbSymbolTableRecord
100
AcDbLayerTableRecord
  2
20_DATUM_KINEMATIC_SCHEME
 70
0
 62
7
  6
CONTINUOUS
370
-3
390
F
  0
ENDTAB
  0
TABLE
  2
STYLE
  5
3
100
AcDbSymbolTable
 70
1
  0
STYLE
  5
11
100
AcDbSymbolTableRecord
100
AcDbTextStyleTableRecord
  2
STANDARD
 70
0
 40
0.0
 41
1.0
 50
0.0
 71
0
 42
0.2
  3
ARIAL.TTF
  4

  0
STYLE
  5
219
100
AcDbSymbolTableRecord
100
AcDbTextStyleTableRecord
  2
TEXTSTYLE_1
 70
0
 40
0.0
 41
0.8
 50
0.0
 71
0
 42
0.2
  3
gdt
  4

  0
ENDTAB
  0
TABLE
  2
VIEW
  5
6
100
AcDbSymbolTable
 70
0
  0
ENDTAB
  0
TABLE
  2
UCS
  5
7
100
AcDbSymbolTable
 70
0
  0
ENDTAB
  0
TABLE
  2
APPID
  5
9
100
AcDbSymbolTable
 70
1
  0
APPID
  5
21A
100
AcDbSymbolTableRecord
100
AcDbRegAppTableRecord
  2
ACAD
 70
0
  0
ENDTAB
  0
TABLE
  2
BLOCK_RECORD
  5
1
100
AcDbSymbolTable
 70
0
  0
BLOCK_RECORD
  5
21B
100
AcDbSymbolTableRecord
100
AcDbBlockTableRecord
  2
*Model_Space
  0
BLOCK_RECORD
  5
21C
100
AcDbSymbolTableRecord
100
AcDbBlockTableRecord
  2
*Paper_Space
  0
BLOCK_RECORD
  5
21D
100
AcDbSymbolTableRecord
100
AcDbBlockTableRecord
  2
_FILLED
  0
ENDTAB
  0
TABLE
  2
DIMSTYLE
  5
A
100
AcDbSymbolTable
 70
1
100
AcDbDimStyleTable
 71
0
  0
DIMSTYLE
105
21E
100
AcDbSymbolTableRecord
100
AcDbDimStyleTableRecord
  2
STANDARD
 70
0
  3

  4

 40
1.0
 41
0.7451877038
 42
1.0
 43
0.38
 44
1.0
 45
0.0
 46
0.0
 47
0.01
 48
0.01
140
1.0432627853
141
0.09
142
0.0
143
25.4
144
1.0
145
0.0
146
1.0
147
0.625
 71
1
 72
0
 73
0
 74
0
 75
0
 76
0
 77
1
 78
8
 79
2
170
0
171
1
172
0
173
0
174
0
175
0
176
0
177
0
178
0
270
2
179
2
271
2
272
2
273
2
274
2
275
0
280
0
281
0
282
0
283
1
284
8
285
0
286
0
287
3
288
0
340
11
278
46
341
21D
342
21D
343
21D
344
21D
  0
ENDTAB
  0
ENDSEC
  0
SECTION
  2
BLOCKS
  0
BLOCK
  5
20
100
AcDbEntity
  8
0
100
AcDbBlockBegin
  2
*Model_Space
 70
0
 10
0.0
 20
0.0
 30
0.0
  3
*Model_Space
  1

  0
ENDBLK
  5
21
100
AcDbEntity
  8
0
100
AcDbBlockEnd
  0
BLOCK
  5
1C
100
AcDbEntity
  8
0
100
AcDbBlockBegin
  2
*Paper_Space
 70
0
 10
0.0
 20
0.0
 30
0.0
  3
*Paper_Space
  1

  0
ENDBLK
  5
1D
100
AcDbEntity
  8
0
100
AcDbBlockEnd
  0
BLOCK
  5
21F
100
AcDbEntity
  8
0
100
AcDbBlockBegin
  2
_FILLED
 70
64
 10
0.0
 20
0.0
  3
_FILLED
  1

  0
SOLID
  5
220
100
AcDbEntity
  8
0
  6
BYBLOCK
 62
0
100
AcDbTrace
 10
0.0
 20
0.0
 11
-1.0
 21
0.25
 12
-1.0
 22
-0.25
 13
-1.0
 23
-0.25
  0
ENDBLK
  5
221
100
AcDbEntity
  8
0
  6
BYBLOCK
 62
0
100
AcDbBlockEnd
  0
ENDSEC
  0
SECTION
  2
ENTITIES
  0
LINE
  5
222
100
AcDbEntity
  8
00_COMPONENTS_10
100
AcDbLine
 62
7
  6
BYLAYER
 10
18.0395161913
 20
7.3141496432
 11
45.6396723503
 21
7.3141496432
  0
LINE
  5
223
100
AcDbEntity
  8
00_COMPONENTS_10
100
AcDbLine
 62
7
  6
BYLAYER
 10
18.0396724162
 20
7.5141496432
 11
45.6396724162
 21
7.5141496432
  0
LINE
  5
224
100
AcDbEntity
  8
00_COMPONENTS_10
100
AcDbLine
 62
7
  6
BYLAYER
 10
17.8397881546
 20
7.9641496432
 11
45.8395566778
 21
7.9641496432
  0
LINE
  5
225
100
AcDbEntity
  8
00_COMPONENTS_11
100
AcDbLine
 62
7
  6
BYLAYER
 10
17.639687866
 20
8.2641496432
 11
46.0396569664
 21
8.2641496432
  0
LINE
  5
226
100
AcDbEntity
  8
00_COMPONENTS_11
100
AcDbLine
 62
7
  6
BYLAYER
 10
17.6396724162
 20
8.2641496432
 11
16.8396724162
 21
9.0641496432
  0
LINE
  5
227
100
AcDbEntity
  8
00_COMPONENTS_11
100
AcDbLine
 62
7
  6
BYLAYER
 10
16.8396724162
 20
9.0641496432
 11
46.8396724162
 21
9.0641496432
  0
LINE
  5
228
100
AcDbEntity
  8
00_COMPONENTS_13
100
AcDbLine
 62
7
  6
BYLAYER
 10
25.5396724162
 20
79.0141496432
 11
25.0396724162
 21
78.5141496432
  0
LINE
  5
229
100
AcDbEntity
  8
00_COMPONENTS_5
100
AcDbLine
 62
7
  6
BYLAYER
 10
13.839679103
 20
15.3141496432
 11
49.8396657295
 21
15.3141496432
  0
LINE
  5
22A
100
AcDbEntity
  8
00_COMPONENTS_5
100
AcDbLine
 62
7
  6
BYLAYER
 10
13.8321647071
 20
15.8500480281
 11
15.2801646952
 21
15.8500480281
  0
LINE
  5
22B
100
AcDbEntity
  8
00_COMPONENTS_5
100
AcDbLine
 62
7
  6
BYLAYER
 10
30.3723135605
 20
15.8500480281
 11
33.2726436125
 21
15.8500480281
  0
LINE
  5
22C
100
AcDbEntity
  8
00_COMPONENTS_5
100
AcDbLine
 62
7
  6
BYLAYER
 10
48.3798212696
 20
15.8500480281
 11
49.8321513335
 21
15.8500480281
  0
LINE
  5
22D
100
AcDbEntity
  8
00_COMPONENTS_5
100
AcDbLine
 62
7
  6
BYLAYER
 10
49.8321513335
 20
18.7782512584
 11
48.3798212696
 21
18.7782512584
  0
LINE
  5
22E
100
AcDbEntity
  8
00_COMPONENTS_5
100
AcDbLine
 62
7
  6
BYLAYER
 10
33.2726436125
 20
18.7782512584
 11
30.3723135605
 21
18.7782512584
  0
LINE
  5
22F
100
AcDbEntity
  8
00_COMPONENTS_5
100
AcDbLine
 62
7
  6
BYLAYER
 10
15.2801646952
 20
18.7782512584
 11
13.8321647071
 21
18.7782512584
  0
LINE
  5
230
100
AcDbEntity
  8
00_COMPONENTS_5
100
AcDbLine
 62
7
  6
BYLAYER
 10
49.8396657295
 20
19.3141496432
 11
13.839679103
 21
19.3141496432
  0
LINE
  5
231
100
AcDbEntity
  8
00_COMPONENTS_11
100
AcDbLine
 62
7
  6
BYLAYER
 10
18.1896724162
 20
62.4641496432
 11
18.0896724162
 21
62.2909445625
  0
LINE
  5
232
100
AcDbEntity
  8
00_COMPONENTS_11
100
AcDbLine
 62
7
  6
BYLAYER
 10
18.0896724162
 20
59.4641496432
 11
16.8396724162
 21
58.2141496432
  0
LINE
  5
233
100
AcDbEntity
  8
00_COMPONENTS_5
100
AcDbLine
 62
7
  6
BYLAYER
 10
13.8396724162
 20
24.7141496432
 11
49.8396724162
 21
24.7141496432
  0
LINE
  5
234
100
AcDbEntity
  8
00_COMPONENTS_5
100
AcDbLine
 62
7
  6
BYLAYER
 10
13.8396724162
 20
25.2500480281
 11
15.289837981
 21
25.2500480281
  0
LINE
  5
235
100
AcDbEntity
  8
00_COMPONENTS_5
100
AcDbLine
 62
7
  6
BYLAYER
 10
30.3895068515
 20
25.2500480281
 11
33.289837981
 21
25.2500480281
  0
LINE
  5
236
100
AcDbEntity
  8
00_COMPONENTS_5
100
AcDbLine
 62
7
  6
BYLAYER
 10
48.3895068515
 20
25.2500480281
 11
49.8396724162
 21
25.2500480281
  0
LINE
  5
237
100
AcDbEntity
  8
00_COMPONENTS_5
100
AcDbLine
 62
7
  6
BYLAYER
 10
13.839679103
 20
15.3141496432
 11
13.8321647071
 21
15.8500480281
  0
LINE
  5
238
100
AcDbEntity
  8
00_COMPONENTS_5
100
AcDbLine
 62
7
  6
BYLAYER
 10
13.8321647071
 20
15.8500480281
 11
13.8321647071
 21
18.7782512584
  0
LINE
  5
239
100
AcDbEntity
  8
00_COMPONENTS_5
100
AcDbLine
 62
7
  6
BYLAYER
 10
13.8396724162
 20
24.7141496432
 11
13.8396724162
 21
28.7141496432
  0
LINE
  5
23A
100
AcDbEntity
  8
00_COMPONENTS_5
100
AcDbLine
 62
7
  6
BYLAYER
 10
15.2801646952
 20
18.7782512584
 11
15.2801646952
 21
15.8500480281
  0
LINE
  5
23B
100
AcDbEntity
  8
00_COMPONENTS_5
100
AcDbLine
 62
7
  6
BYLAYER
 10
15.289837981
 20
28.1782512584
 11
15.289837981
 21
25.2500480281
  0
LINE
  5
23C
100
AcDbEntity
  8
00_COMPONENTS_5
100
AcDbLine
 62
7
  6
BYLAYER
 10
13.8321647071
 20
18.7782512584
 11
13.839679103
 21
19.3141496432
  0
LINE
  5
23D
100
AcDbEntity
  8
00_COMPONENTS_13
100
AcDbLine
 62
7
  6
BYLAYER
 10
37.0396724162
 20
72.7141496432
 11
36.5396724162
 21
72.2141496432
  0
LINE
  5
23E
100
AcDbEntity
  8
00_COMPONENTS_5
100
AcDbLine
 62
7
  6
BYLAYER
 10
49.8396724162
 20
28.1782512584
 11
48.3895068515
 21
28.1782512584
  0
LINE
  5
23F
100
AcDbEntity
  8
00_COMPONENTS_5
100
AcDbLine
 62
7
  6
BYLAYER
 10
33.289837981
 20
28.1782512584
 11
30.3895068515
 21
28.1782512584
  0
LINE
  5
240
100
AcDbEntity
  8
00_COMPONENTS_5
100
AcDbLine
 62
7
  6
BYLAYER
 10
15.289837981
 20
28.1782512584
 11
13.8396724162
 21
28.1782512584
  0
LINE
  5
241
100
AcDbEntity
  8
00_COMPONENTS_11
100
AcDbLine
 62
7
  6
BYLAYER
 10
16.8396724162
 20
9.0641496432
 11
16.8396724162
 21
15.3141496432
  0
LINE
  5
242
100
AcDbEntity
  8
00_COMPONENTS_11
100
AcDbLine
 62
7
  6
BYLAYER
 10
16.8396724162
 20
19.3141496432
 11
16.8396724162
 21
24.7141496432
  0
LINE
  5
243
100
AcDbEntity
  8
00_COMPONENTS_11
100
AcDbLine
 62
7
  6
BYLAYER
 10
16.8396724162
 20
28.7141496432
 11
16.8396724162
 21
58.2141496432
  0
LINE
  5
244
100
AcDbEntity
  8
00_COMPONENTS_10
100
AcDbLine
 62
7
  6
BYLAYER
 10
17.8396724162
 20
7.9641496432
 11
17.8396724162
 21
8.2641496432
  0
LINE
  5
245
100
AcDbEntity
  8
00_COMPONENTS_10
100
AcDbLine
 62
7
  6
BYLAYER
 10
18.0396724162
 20
7.3141495676
 11
18.0396724162
 21
7.9641496432
  0
LINE
  5
246
100
AcDbEntity
  8
00_COMPONENTS_13
100
AcDbLine
 62
7
  6
BYLAYER
 10
18.0896724162
 20
65.9641496432
 11
18.0896724162
 21
65.4641496432
  0
LINE
  5
247
100
AcDbEntity
  8
00_COMPONENTS_11
100
AcDbLine
 62
7
  6
BYLAYER
 10
18.0896724162
 20
59.4641496432
 11
18.0896724162
 21
62.2909445625
  0
LINE
  5
248
100
AcDbEntity
  8
00_COMPONENTS_11
100
AcDbLine
 62
7
  6
BYLAYER
 10
18.0896724162
 20
62.637354724
 11
18.0896724162
 21
65.4641496432
  0
LINE
  5
249
100
AcDbEntity
  8
00_COMPONENTS_5
100
AcDbLine
 62
7
  6
BYLAYER
 10
49.8396724162
 20
28.7141496432
 11
13.8396724162
 21
28.7141496432
  0
LINE
  5
24A
100
AcDbEntity
  8
00_COMPONENTS_13
100
AcDbLine
 62
7
  6
BYLAYER
 10
25.0396724162
 20
78.5141496432
 11
25.0396724162
 21
72.7141496432
  0
LINE
  5
24B
100
AcDbEntity
  8
00_COMPONENTS_13
100
AcDbLine
 62
7
  6
BYLAYER
 10
25.5396724162
 20
80.2141496432
 11
25.5396724162
 21
79.0141496432
  0
LINE
  5
24C
100
AcDbEntity
  8
00_COMPONENTS_13
100
AcDbLine
 62
7
  6
BYLAYER
 10
25.5396724162
 20
72.2141496432
 11
25.5396724162
 21
69.0641496432
  0
LINE
  5
24D
100
AcDbEntity
  8
00_COMPONENTS_9
100
AcDbLine
 62
7
  6
BYLAYER
 10
25.6896724162
 20
81.0141496432
 11
25.6896724162
 21
80.2141496432
  0
LINE
  5
24E
100
AcDbEntity
  8
00_COMPONENTS_11
100
AcDbLine
 62
7
  6
BYLAYER
 10
18.1896724162
 20
62.4641496432
 11
18.0896724162
 21
62.637354724
  0
LINE
  5
24F
100
AcDbEntity
  8
00_COMPONENTS_5
100
AcDbLine
 62
7
  6
BYLAYER
 10
30.3723135605
 20
15.8500480281
 11
30.3723135605
 21
18.7782512584
  0
LINE
  5
250
100
AcDbEntity
  8
00_COMPONENTS_5
100
AcDbLine
 62
7
  6
BYLAYER
 10
30.3895068515
 20
25.2500480281
 11
30.3895068515
 21
28.1782512584
  0
LINE
  5
251
100
AcDbEntity
  8
00_COMPONENTS_5
100
AcDbLine
 62
7
  6
BYLAYER
 10
33.2726436125
 20
18.7782512584
 11
33.2726436125
 21
15.8500480281
  0
LINE
  5
252
100
AcDbEntity
  8
00_COMPONENTS_5
100
AcDbLine
 62
7
  6
BYLAYER
 10
33.289837981
 20
28.1782512584
 11
33.289837981
 21
25.2500480281
  0
LINE
  5
253
100
AcDbEntity
  8
00_COMPONENTS_11
100
AcDbLine
 62
7
  6
BYLAYER
 10
45.4896724162
 20
62.4641496432
 11
45.5896724162
 21
62.637354724
  0
LINE
  5
254
100
AcDbEntity
  8
00_COMPONENTS_9
100
AcDbLine
 62
7
  6
BYLAYER
 10
36.3896724162
 20
81.0141496432
 11
36.3896724162
 21
80.2141496432
  0
LINE
  5
255
100
AcDbEntity
  8
00_COMPONENTS_9
100
AcDbLine
 62
7
  6
BYLAYER
 10
36.4396724162
 20
80.2141496432
 11
36.4396724162
 21
79.645398405
  0
LINE
  5
256
100
AcDbEntity
  8
00_COMPONENTS_13
100
AcDbLine
 62
7
  6
BYLAYER
 10
36.5396724162
 20
79.2141496432
 11
36.5396724162
 21
79.0141496432
  0
LINE
  5
257
100
AcDbEntity
  8
00_COMPONENTS_13
100
AcDbLine
 62
7
  6
BYLAYER
 10
36.5396724162
 20
72.2141496432
 11
36.5396724162
 21
69.0641496432
  0
LINE
  5
258
100
AcDbEntity
  8
00_COMPONENTS_13
100
AcDbLine
 62
7
  6
BYLAYER
 10
37.0396724162
 20
78.5141496432
 11
37.0396724162
 21
72.7141496432
  0
LINE
  5
259
100
AcDbEntity
  8
00_COMPONENTS_13
100
AcDbLine
 62
7
  6
BYLAYER
 10
36.5388567376
 20
66.0672304323
 11
36.5396724715
 21
66.0641496432
  0
LINE
  5
25A
100
AcDbEntity
  8
00_COMPONENTS_13
100
AcDbLine
 62
7
  6
BYLAYER
 10
45.5896724162
 20
65.9641496432
 11
45.5896724162
 21
65.4641496432
  0
LINE
  5
25B
100
AcDbEntity
  8
00_COMPONENTS_11
100
AcDbLine
 62
7
  6
BYLAYER
 10
45.5896724162
 20
59.4641496432
 11
45.5896724162
 21
62.2909445625
  0
LINE
  5
25C
100
AcDbEntity
  8
00_COMPONENTS_11
100
AcDbLine
 62
7
  6
BYLAYER
 10
45.5896724162
 20
62.637354724
 11
45.5896724162
 21
65.4641496432
  0
LINE
  5
25D
100
AcDbEntity
  8
00_COMPONENTS_10
100
AcDbLine
 62
7
  6
BYLAYER
 10
45.6396724162
 20
7.3141496432
 11
45.6396724162
 21
7.9641496432
  0
LINE
  5
25E
100
AcDbEntity
  8
00_COMPONENTS_10
100
AcDbLine
 62
7
  6
BYLAYER
 10
45.8396724162
 20
7.9641496432
 11
45.8396724162
 21
8.2641496432
  0
LINE
  5
25F
100
AcDbEntity
  8
00_COMPONENTS_11
100
AcDbLine
 62
7
  6
BYLAYER
 10
46.8396724162
 20
58.2141496432
 11
16.8396724162
 21
58.2141496432
  0
LINE
  5
260
100
AcDbEntity
  8
00_COMPONENTS_11
100
AcDbLine
 62
7
  6
BYLAYER
 10
46.8396724162
 20
9.0641496432
 11
46.8396724162
 21
15.3141496432
  0
LINE
  5
261
100
AcDbEntity
  8
00_COMPONENTS_11
100
AcDbLine
 62
7
  6
BYLAYER
 10
46.8396724162
 20
19.3141496432
 11
46.8396724162
 21
24.7141496432
  0
LINE
  5
262
100
AcDbEntity
  8
00_COMPONENTS_11
100
AcDbLine
 62
7
  6
BYLAYER
 10
46.8396724162
 20
28.7141496432
 11
46.8396724162
 21
58.2141496432
  0
LINE
  5
263
100
AcDbEntity
  8
00_COMPONENTS_5
100
AcDbLine
 62
7
  6
BYLAYER
 10
48.3798212696
 20
15.8500480281
 11
48.3798212696
 21
18.7782512584
  0
LINE
  5
264
100
AcDbEntity
  8
00_COMPONENTS_5
100
AcDbLine
 62
7
  6
BYLAYER
 10
48.3895068515
 20
25.2500480281
 11
48.3895068515
 21
28.1782512584
  0
LINE
  5
265
100
AcDbEntity
  8
00_COMPONENTS_11
100
AcDbLine
 62
7
  6
BYLAYER
 10
18.0896724162
 20
59.4641496432
 11
45.5896724162
 21
59.4641496432
  0
LINE
  5
266
100
AcDbEntity
  8
00_COMPONENTS_13
100
AcDbLine
 62
7
  6
BYLAYER
 10
25.0396724162
 20
72.7141496432
 11
25.5396724162
 21
72.2141496432
  0
LINE
  5
267
100
AcDbEntity
  8
00_COMPONENTS_5
100
AcDbLine
 62
7
  6
BYLAYER
 10
49.8321513335
 20
15.8500480281
 11
49.8396657295
 21
15.3141496432
  0
LINE
  5
268
100
AcDbEntity
  8
00_COMPONENTS_5
100
AcDbLine
 62
7
  6
BYLAYER
 10
49.8471801254
 20
18.7782512584
 11
49.8396657295
 21
19.3141496432
  0
LINE
  5
269
100
AcDbEntity
  8
00_COMPONENTS_5
100
AcDbLine
 62
7
  6
BYLAYER
 10
49.8321513335
 20
18.7782512584
 11
49.8321513335
 21
15.8500480281
  0
LINE
  5
26A
100
AcDbEntity
  8
00_COMPONENTS_5
100
AcDbLine
 62
7
  6
BYLAYER
 10
49.8396724162
 20
28.7141496432
 11
49.8396724162
 21
24.7141496432
  0
LINE
  5
26B
100
AcDbEntity
  8
00_COMPONENTS_5
100
AcDbLine
 62
7
  6
BYLAYER
 10
49.8471801254
 20
15.8500480281
 11
49.8471801254
 21
18.7782512584
  0
LINE
  5
26C
100
AcDbEntity
  8
00_COMPONENTS_5
100
AcDbLine
 62
7
  6
BYLAYER
 10
49.8396657295
 20
19.3141496432
 11
49.8321513335
 21
18.7782512584
  0
LINE
  5
26D
100
AcDbEntity
  8
00_COMPONENTS_5
100
AcDbLine
 62
7
  6
BYLAYER
 10
49.8396657295
 20
15.3141496432
 11
49.8471801254
 21
15.8500480281
  0
LINE
  5
26E
100
AcDbEntity
  8
00_COMPONENTS_11
100
AcDbLine
 62
7
  6
BYLAYER
 10
45.5896724162
 20
62.2909445625
 11
18.0896724162
 21
62.2909445625
  0
LINE
  5
26F
100
AcDbEntity
  8
00_COMPONENTS_11
100
AcDbLine
 62
7
  6
BYLAYER
 10
18.1896724162
 20
62.4641496432
 11
45.4896724162
 21
62.4641496432
  0
LINE
  5
270
100
AcDbEntity
  8
00_COMPONENTS_11
100
AcDbLine
 62
7
  6
BYLAYER
 10
18.0896724162
 20
62.637354724
 11
45.5896724162
 21
62.637354724
  0
LINE
  5
271
100
AcDbEntity
  8
00_COMPONENTS_11
100
AcDbLine
 62
7
  6
BYLAYER
 10
45.5896576126
 20
65.4641496432
 11
18.0896872198
 21
65.4641496432
  0
LINE
  5
272
100
AcDbEntity
  8
00_COMPONENTS_13
100
AcDbLine
 62
7
  6
BYLAYER
 10
18.0897904533
 20
65.4641496432
 11
45.5895543792
 21
65.4641496432
  0
LINE
  5
273
100
AcDbEntity
  8
00_COMPONENTS_13
100
AcDbLine
 62
7
  6
BYLAYER
 10
45.5895543792
 20
65.9641496432
 11
18.0897904533
 21
65.9641496432
  0
LINE
  5
274
100
AcDbEntity
  8
00_COMPONENTS_13
100
AcDbLine
 62
7
  6
BYLAYER
 10
25.5396724165
 20
66.0641496432
 11
31.0397238749
 21
66.0641496432
  0
LINE
  5
275
100
AcDbEntity
  8
00_COMPONENTS_11
100
AcDbLine
 62
7
  6
BYLAYER
 10
45.5896724162
 20
59.4641496432
 11
46.8396724162
 21
58.2141496432
  0
LINE
  5
276
100
AcDbEntity
  8
00_COMPONENTS_11
100
AcDbLine
 62
7
  6
BYLAYER
 10
45.4896724162
 20
62.4641496432
 11
45.5896724162
 21
62.2909445625
  0
LINE
  5
277
100
AcDbEntity
  8
00_COMPONENTS_9
100
AcDbLine
 62
7
  6
BYLAYER
 10
32.2340667967
 20
66.6749191587
 11
29.845155332
 21
66.6749191587
  0
LINE
  5
278
100
AcDbEntity
  8
00_COMPONENTS_9
100
AcDbLine
 62
7
  6
BYLAYER
 10
29.6157975604
 20
67.1512331308
 11
32.4635620769
 21
67.1512331308
  0
LINE
  5
279
100
AcDbEntity
  8
00_COMPONENTS_13
100
AcDbLine
 62
7
  6
BYLAYER
 10
36.5396724162
 20
72.2141496432
 11
25.5396724162
 21
72.2141496432
  0
LINE
  5
27A
100
AcDbEntity
  8
00_COMPONENTS_13
100
AcDbLine
 62
7
  6
BYLAYER
 10
25.0396724162
 20
72.7141496432
 11
37.0396724162
 21
72.7141496432
  0
LINE
  5
27B
100
AcDbEntity
  8
00_COMPONENTS_13
100
AcDbLine
 62
7
  6
BYLAYER
 10
36.5396724162
 20
79.0141496432
 11
37.0396724162
 21
78.5141496432
  0
LINE
  5
27C
100
AcDbEntity
  8
00_COMPONENTS_11
100
AcDbLine
 62
7
  6
BYLAYER
 10
46.0396724162
 20
8.2641496432
 11
46.8396724162
 21
9.0641496432
  0
LINE
  5
27D
100
AcDbEntity
  8
00_COMPONENTS_13
100
AcDbLine
 62
7
  6
BYLAYER
 10
37.0396724162
 20
78.5141496432
 11
25.0396724162
 21
78.5141496432
  0
LINE
  5
27E
100
AcDbEntity
  8
00_COMPONENTS_13
100
AcDbLine
 62
7
  6
BYLAYER
 10
25.5396724162
 20
79.0141496432
 11
36.5396724162
 21
79.0141496432
  0
LINE
  5
27F
100
AcDbEntity
  8
00_COMPONENTS_13
100
AcDbLine
 62
7
  6
BYLAYER
 10
36.3547453226
 20
80.2141496432
 11
25.5396724162
 21
80.2141496432
  0
LINE
  5
280
100
AcDbEntity
  8
00_COMPONENTS_9
100
AcDbLine
 62
7
  6
BYLAYER
 10
36.3547453226
 20
80.2141496432
 11
36.4396724162
 21
80.2141496432
  0
LINE
  5
281
100
AcDbEntity
  8
00_COMPONENTS_9
100
AcDbLine
 62
7
  6
BYLAYER
 10
36.3896724162
 20
81.0141496432
 11
25.6896724162
 21
81.0141496432
  0
LINE
  5
282
100
AcDbEntity
  8
00_COMPONENTS_9
100
AcDbLine
 62
7
  6
BYLAYER
 10
36.1896721842
 20
81.2141496432
 11
25.8896726483
 21
81.2141496432
  0
ARC
  5
283
100
AcDbEntity
  8
00_COMPONENTS_13
100
AcDbCircle
 62
7
  6
BYLAYER
 10
42.4183938621
 20
80.8228627767
 40
6.09486044
100
AcDbArc
 50
193.7942673952
 51
195.304324584
  0
ARC
  5
284
100
AcDbEntity
  8
00_COMPONENTS_13
100
AcDbCircle
 62
7
  6
BYLAYER
 10
41.7132982509
 20
80.7182447803
 40
5.3822115708
100
AcDbArc
 50
185.3741696578
 51
185.5093936321
  0
ARC
  5
285
100
AcDbEntity
  8
00_COMPONENTS_9
100
AcDbCircle
 62
7
  6
BYLAYER
 10
41.7300032436
 20
80.2144265725
 40
5.3576485826
100
AcDbArc
 50
180.0029615373
 51
181.5386451951
  0
CIRCLE
  5
286
100
AcDbEntity
  8
00_COMPONENTS_13
100
AcDbCircle
 62
7
  6
BYLAYER
 10
31.0396724162
 20
67.5641496432
 40
1.5
  0
ARC
  5
287
100
AcDbEntity
  8
00_COMPONENTS_9
100
AcDbCircle
 62
7
  6
BYLAYER
 10
25.8896724162
 20
81.0141496432
 40
0.2
100
AcDbArc
 50
89.9999335114
 51
180.0
  0
ARC
  5
288
100
AcDbEntity
  8
00_COMPONENTS_9
100
AcDbCircle
 62
7
  6
BYLAYER
 10
36.1896724162
 20
81.0141496432
 40
0.2
100
AcDbArc
 50
0.0
 51
90.0000664886
  0
ARC
  5
289
100
AcDbEntity
  8
00_COMPONENTS_13
100
AcDbCircle
 62
7
  6
BYLAYER
 10
25.4396724162
 20
66.0641496432
 40
0.1
100
AcDbArc
 50
270.0000802674
 51
0.0002624357
  0
ARC
  5
28A
100
AcDbEntity
  8
00_COMPONENTS_13
100
AcDbCircle
 62
7
  6
BYLAYER
 10
36.6396724162
 20
66.0641496432
 40
0.1
100
AcDbArc
 50
179.9994811348
 51
269.9999197326
  0
SPLINE
  5
28B
100
AcDbEntity
  8
00_COMPONENTS_5
100
AcDbSpline
 62
7
  6
BYLAYER
 70
0
 71
3
 72
10
 73
6
 74
0
 42
0.0000001
 43
0.0000001
 44
0.0000000001
 40
0.0
 40
0.0
 40
0.0
 40
0.0
 40
0.5002655181
 40
0.750174752
 40
1.0
 40
1.0
 40
1.0
 40
1.0
 10
48.3798212696
 20
18.7782512584
 30
0.0
 10
47.1275521122
 20
18.9470543485
 30
0.0
 10
45.2420037814
 20
19.1499199045
 30
0.0
 10
42.7196476281
 20
19.2903498515
 30
0.0
 10
41.4572532546
 20
19.3141496432
 30
0.0
 10
40.8262324409
 20
19.3141496432
 30
0.0
  0
SPLINE
  5
28C
100
AcDbEntity
  8
00_COMPONENTS_5
100
AcDbSpline
 62
7
  6
BYLAYER
 70
0
 71
3
 72
10
 73
6
 74
0
 42
0.0000001
 43
0.0000001
 44
0.0000000001
 40
0.0
 40
0.0
 40
0.0
 40
0.0
 40
0.2498237653
 40
0.4997321873
 40
1.0
 40
1.0
 40
1.0
 40
1.0
 10
22.8262391286
 20
19.3141496432
 30
0.0
 10
22.1958458414
 20
19.3141496433
 30
0.0
 10
20.934704897
 20
19.2903498707
 30
0.0
 10
18.414849127
 20
19.1499190578
 30
0.0
 10
16.5311794387
 20
18.9470531824
 30
0.0
 10
15.2801646952
 20
18.7782512584
 30
0.0
  0
SPLINE
  5
28D
100
AcDbEntity
  8
00_COMPONENTS_5
100
AcDbSpline
 62
7
  6
BYLAYER
 70
0
 71
3
 72
10
 73
6
 74
0
 42
0.0000001
 43
0.0000001
 44
0.0000000001
 40
0.0
 40
0.0
 40
0.0
 40
0.0
 40
0.5002678131
 40
0.750176235
 40
1.0
 40
1.0
 40
1.0
 40
1.0
 10
15.2801646952
 20
15.8500480281
 30
0.0
 10
16.5311794397
 20
15.681246104
 30
0.0
 10
18.4148491285
 20
15.4783802273
 30
0.0
 10
20.9347048987
 20
15.3379494152
 30
0.0
 10
22.195845842
 20
15.3141496432
 30
0.0
 10
22.8262391286
 20
15.3141496432
 30
0.0
  0
SPLINE
  5
28E
100
AcDbEntity
  8
00_COMPONENTS_5
100
AcDbSpline
 62
7
  6
BYLAYER
 70
0
 71
3
 72
10
 73
6
 74
0
 42
0.0000001
 43
0.0000001
 44
0.0000000001
 40
0.0
 40
0.0
 40
0.0
 40
0.0
 40
0.2498252483
 40
0.4997344825
 40
1.0
 40
1.0
 40
1.0
 40
1.0
 10
40.8262324409
 20
19.3141496432
 30
0.0
 10
40.1952116266
 20
19.3141496432
 30
0.0
 10
38.9328172487
 20
19.2903499506
 30
0.0
 10
36.4104611049
 20
19.1499198077
 30
0.0
 10
34.5249127687
 20
18.9470543483
 30
0.0
 10
33.2726436125
 20
18.7782512584
 30
0.0
  0
SPLINE
  5
28F
100
AcDbEntity
  8
00_COMPONENTS_5
100
AcDbSpline
 62
7
  6
BYLAYER
 70
0
 71
3
 72
10
 73
6
 74
0
 42
0.0000001
 43
0.0000001
 44
0.0000000001
 40
0.0
 40
0.0
 40
0.0
 40
0.0
 40
0.5002678133
 40
0.750176235
 40
1.0
 40
1.0
 40
1.0
 40
1.0
 10
30.3723135605
 20
18.7782512584
 30
0.0
 10
29.121298816
 20
18.9470531825
 30
0.0
 10
27.2376291337
 20
19.1499191545
 30
0.0
 10
24.7177733546
 20
19.2903497715
 30
0.0
 10
23.456632415
 20
19.3141496432
 30
0.0
 10
22.8262391286
 20
19.3141496432
 30
0.0
  0
SPLINE
  5
290
100
AcDbEntity
  8
00_COMPONENTS_5
100
AcDbSpline
 62
7
  6
BYLAYER
 70
0
 71
3
 72
10
 73
6
 74
0
 42
0.0000001
 43
0.0000001
 44
0.0000000001
 40
0.0
 40
0.0
 40
0.0
 40
0.0
 40
0.2498237653
 40
0.4997321871
 40
1.0
 40
1.0
 40
1.0
 40
1.0
 10
22.8262391286
 20
15.3141496432
 30
0.0
 10
23.4566324156
 20
15.3141496432
 30
0.0
 10
24.7177733562
 20
15.3379495156
 30
0.0
 10
27.2376291352
 20
15.4783801333
 30
0.0
 10
29.121298817
 20
15.6812461041
 30
0.0
 10
30.3723135605
 20
15.8500480281
 30
0.0
  0
SPLINE
  5
291
100
AcDbEntity
  8
00_COMPONENTS_5
100
AcDbSpline
 62
7
  6
BYLAYER
 70
0
 71
3
 72
10
 73
6
 74
0
 42
0.0000001
 43
0.0000001
 44
0.0000000001
 40
0.0
 40
0.0
 40
0.0
 40
0.0
 40
0.5002655179
 40
0.750174752
 40
1.0
 40
1.0
 40
1.0
 40
1.0
 10
33.2726436125
 20
15.8500480281
 30
0.0
 10
34.5249127697
 20
15.681244938
 30
0.0
 10
36.4104611065
 20
15.4783794774
 30
0.0
 10
38.9328172503
 20
15.3379493352
 30
0.0
 10
40.1952116272
 20
15.3141496432
 30
0.0
 10
40.8262324409
 20
15.3141496432
 30
0.0
  0
SPLINE
  5
292
100
AcDbEntity
  8
00_COMPONENTS_5
100
AcDbSpline
 62
7
  6
BYLAYER
 70
0
 71
3
 72
10
 73
6
 74
0
 42
0.0000001
 43
0.0000001
 44
0.0000000001
 40
0.0
 40
0.0
 40
0.0
 40
0.0
 40
0.2498252483
 40
0.4997344823
 40
1.0
 40
1.0
 40
1.0
 40
1.0
 10
40.8262324409
 20
15.3141496432
 30
0.0
 10
41.4572532552
 20
15.3141496432
 30
0.0
 10
42.7196476297
 20
15.3379494356
 30
0.0
 10
45.2420037829
 20
15.4783793833
 30
0.0
 10
47.1275521131
 20
15.6812449381
 30
0.0
 10
48.3798212696
 20
15.8500480281
 30
0.0
  0
SPLINE
  5
293
100
AcDbEntity
  8
00_COMPONENTS_5
100
AcDbSpline
 62
7
  6
BYLAYER
 70
0
 71
3
 72
10
 73
6
 74
0
 42
0.0000001
 43
0.0000001
 44
0.0000000001
 40
0.0
 40
0.0
 40
0.0
 40
0.0
 40
0.500266664
 40
0.7501754924
 40
1.0
 40
1.0
 40
1.0
 40
1.0
 10
15.289837981
 20
25.2500480281
 30
0.0
 10
16.5414804012
 20
25.0812455201
 30
0.0
 10
18.4260901095
 20
24.8783797564
 30
0.0
 10
20.947197008
 20
24.7379494749
 30
0.0
 10
22.2089651322
 20
24.7141496432
 30
0.0
 10
22.8396724164
 20
24.7141496432
 30
0.0
  0
SPLINE
  5
294
100
AcDbEntity
  8
00_COMPONENTS_5
100
AcDbSpline
 62
7
  6
BYLAYER
 70
0
 71
3
 72
10
 73
6
 74
0
 42
0.0000001
 43
0.0000001
 44
0.0000000001
 40
0.0
 40
0.0
 40
0.0
 40
0.0
 40
0.2498245079
 40
0.4997333366
 40
1.0
 40
1.0
 40
1.0
 40
1.0
 10
40.8396724155
 20
24.7141496432
 30
0.0
 10
41.4703797005
 20
24.7141496432
 30
0.0
 10
42.7321478292
 20
24.7379493757
 30
0.0
 10
45.2532547184
 20
24.8783798531
 30
0.0
 10
47.1378644324
 20
25.0812455202
 30
0.0
 10
48.3895068515
 20
25.2500480281
 30
0.0
  0
SPLINE
  5
295
100
AcDbEntity
  8
00_COMPONENTS_5
100
AcDbSpline
 62
7
  6
BYLAYER
 70
0
 71
3
 72
10
 73
6
 74
0
 42
0.0000001
 43
0.0000001
 44
0.0000000001
 40
0.0
 40
0.0
 40
0.0
 40
0.0
 40
0.5002666638
 40
0.7501754924
 40
1.0
 40
1.0
 40
1.0
 40
1.0
 10
48.3895068515
 20
28.1782512584
 30
0.0
 10
47.1378644314
 20
28.3470537664
 30
0.0
 10
45.2532547169
 20
28.5499194347
 30
0.0
 10
42.7321478276
 20
28.6903499113
 30
0.0
 10
41.4703796998
 20
28.7141496433
 30
0.0
 10
40.8396724155
 20
28.7141496432
 30
0.0
  0
SPLINE
  5
296
100
AcDbEntity
  8
00_COMPONENTS_5
100
AcDbSpline
 62
7
  6
BYLAYER
 70
0
 71
3
 72
10
 73
6
 74
0
 42
0.0000001
 43
0.0000001
 44
0.0000000001
 40
0.0
 40
0.0
 40
0.0
 40
0.0
 40
0.2498245079
 40
0.4997333366
 40
1.0
 40
1.0
 40
1.0
 40
1.0
 10
22.8396724164
 20
24.7141496432
 30
0.0
 10
23.4703797013
 20
24.7141496432
 30
0.0
 10
24.7321478299
 20
24.7379493758
 30
0.0
 10
27.2532547188
 20
24.8783798532
 30
0.0
 10
29.1378644326
 20
25.0812455203
 30
0.0
 10
30.3895068515
 20
25.2500480281
 30
0.0
  0
SPLINE
  5
297
100
AcDbEntity
  8
00_COMPONENTS_5
100
AcDbSpline
 62
7
  6
BYLAYER
 70
0
 71
3
 72
10
 73
6
 74
0
 42
0.0000001
 43
0.0000001
 44
0.0000000001
 40
0.0
 40
0.0
 40
0.0
 40
0.0
 40
0.500266664
 40
0.7501754924
 40
1.0
 40
1.0
 40
1.0
 40
1.0
 10
33.289837981
 20
25.2500480281
 30
0.0
 10
34.5414804011
 20
25.0812455201
 30
0.0
 10
36.4260901091
 20
24.8783797564
 30
0.0
 10
38.9471970073
 20
24.7379494749
 30
0.0
 10
40.2089651313
 20
24.7141496432
 30
0.0
 10
40.8396724155
 20
24.7141496432
 30
0.0
  0
SPLINE
  5
298
100
AcDbEntity
  8
00_COMPONENTS_5
100
AcDbSpline
 62
7
  6
BYLAYER
 70
0
 71
3
 72
10
 73
6
 74
0
 42
0.0000001
 43
0.0000001
 44
0.0000000001
 40
0.0
 40
0.0
 40
0.0
 40
0.0
 40
0.2498245079
 40
0.4997333364
 40
1.0
 40
1.0
 40
1.0
 40
1.0
 10
40.8396724155
 20
28.7141496432
 30
0.0
 10
40.2089651307
 20
28.7141496432
 30
0.0
 10
38.9471970057
 20
28.6903498109
 30
0.0
 10
36.4260901076
 20
28.5499195287
 30
0.0
 10
34.5414804001
 20
28.3470537662
 30
0.0
 10
33.289837981
 20
28.1782512584
 30
0.0
  0
SPLINE
  5
299
100
AcDbEntity
  8
00_COMPONENTS_5
100
AcDbSpline
 62
7
  6
BYLAYER
 70
0
 71
3
 72
10
 73
6
 74
0
 42
0.0000001
 43
0.0000001
 44
0.0000000001
 40
0.0
 40
0.0
 40
0.0
 40
0.0
 40
0.5002666638
 40
0.7501754924
 40
1.0
 40
1.0
 40
1.0
 40
1.0
 10
30.3895068515
 20
28.1782512584
 30
0.0
 10
29.1378644316
 20
28.3470537663
 30
0.0
 10
27.2532547173
 20
28.5499194347
 30
0.0
 10
24.7321478283
 20
28.6903499113
 30
0.0
 10
23.4703797007
 20
28.7141496432
 30
0.0
 10
22.8396724164
 20
28.7141496432
 30
0.0
  0
SPLINE
  5
29A
100
AcDbEntity
  8
00_COMPONENTS_5
100
AcDbSpline
 62
7
  6
BYLAYER
 70
0
 71
3
 72
10
 73
6
 74
0
 42
0.0000001
 43
0.0000001
 44
0.0000000001
 40
0.0
 40
0.0
 40
0.0
 40
0.0
 40
0.2498245079
 40
0.4997333364
 40
1.0
 40
1.0
 40
1.0
 40
1.0
 10
22.8396724164
 20
28.7141496432
 30
0.0
 10
22.2089651315
 20
28.7141496432
 30
0.0
 10
20.9471970064
 20
28.6903498109
 30
0.0
 10
18.426090108
 20
28.5499195287
 30
0.0
 10
16.5414804003
 20
28.3470537662
 30
0.0
 10
15.289837981
 20
28.1782512584
 30
0.0
  0
SPLINE
  5
29B
100
AcDbEntity
  8
00_COMPONENTS_13
100
AcDbSpline
 62
7
  6
BYLAYER
 70
0
 71
3
 72
9
 73
5
 74
0
 42
0.0000001
 43
0.0000001
 44
0.0000000001
 40
0.0
 40
0.0
 40
0.0
 40
0.0
 40
0.1829858812
 40
1.0
 40
1.0
 40
1.0
 40
1.0
 10
36.4993205275
 20
79.3696268553
 30
0.0
 10
36.487000545
 20
79.4196401842
 30
0.0
 10
36.4230105091
 20
79.693741426
 30
0.0
 10
36.3780298905
 20
79.9725867242
 30
0.0
 10
36.355949962
 20
80.201504319
 30
0.0
  0
SPLINE
  5
29C
100
AcDbEntity
  8
00_COMPONENTS_13
100
AcDbSpline
 62
7
  6
BYLAYER
 70
0
 71
3
 72
21
 73
17
 74
0
 42
0.0000001
 43
0.0000001
 44
0.0000000001
 40
0.0
 40
0.0
 40
0.0
 40
0.0
 40
0.00126137
 40
0.005020253
 40
0.0112456241
 40
0.019906468
 40
0.0444020357
 40
0.0781920915
 40
0.1209336806
 40
0.1721306059
 40
0.2311278054
 40
0.2972747997
 40
0.4484907407
 40
0.6202803708
 40
0.8064496814
 40
1.0
 40
1.0
 40
1.0
 40
1.0
 10
25.5396724165
 20
66.0641496432
 30
0.0
 10
25.5398145918
 20
66.0647722261
 30
0.0
 10
25.5405417898
 20
66.0672097941
 30
0.0
 10
25.5419685851
 20
66.0727207258
 30
0.0
 10
25.5444560043
 20
66.0818275095
 30
0.0
 10
25.5495985532
 20
66.1010908858
 30
0.0
 10
25.5583289142
 20
66.1338414489
 30
0.0
 10
25.571104568
 20
66.1833692447
 30
0.0
 10
25.5866630952
 20
66.2461377582
 30
0.0
 10
25.6044156387
 20
66.321506016
 30
0.0
 10
25.6237136578
 20
66.408677245
 30
0.0
 10
25.6518760705
 20
66.5457351309
 30
0.0
 10
25.6861368073
 20
66.7398105585
 30
0.0
 10
25.7199546785
 20
66.9954649935
 30
0.0
 10
25.7428019161
 20
67.2738701995
 30
0.0
 10
25.7481697941
 20
67.4661583855
 30
0.0
 10
25.7481697941
 20
67.5641496432
 30
0.0
  0
SPLINE
  5
29D
100
AcDbEntity
  8
00_COMPONENTS_13
100
AcDbSpline
 62
7
  6
BYLAYER
 70
0
 71
3
 72
11
 73
7
 74
0
 42
0.0000001
 43
0.0000001
 44
0.0000000001
 40
0.0
 40
0.0
 40
0.0
 40
0.0
 40
0.3796816696
 40
0.7026930907
 40
0.9218019036
 40
1.0
 40
1.0
 40
1.0
 40
1.0
 10
25.7481697941
 20
67.5641496432
 30
0.0
 10
25.7481697941
 20
67.7563302557
 30
0.0
 10
25.7286344476
 20
68.1123180116
 30
0.0
 10
25.6575362131
 20
68.5739942987
 30
0.0
 10
25.5884207994
 20
68.8804335389
 30
0.0
 10
25.5501009099
 20
69.0259686269
 30
0.0
 10
25.5396724162
 20
69.0641496432
 30
0.0
  0
SPLINE
  5
29E
100
AcDbEntity
  8
00_COMPONENTS_13
100
AcDbSpline
 62
7
  6
BYLAYER
 70
0
 71
3
 72
11
 73
7
 74
0
 42
0.0000001
 43
0.0000001
 44
0.0000000001
 40
0.0
 40
0.0
 40
0.0
 40
0.0
 40
0.078199114
 40
0.2973094699
 40
0.620321889
 40
1.0
 40
1.0
 40
1.0
 40
1.0
 10
36.5396724162
 20
69.0641496432
 30
0.0
 10
36.5292437674
 20
69.0259681365
 30
0.0
 10
36.4909234709
 20
68.8804318147
 30
0.0
 10
36.4218075965
 20
68.573990817
 30
0.0
 10
36.3507107325
 20
68.1123148483
 30
0.0
 10
36.3311750384
 20
67.7563284535
 30
0.0
 10
36.3311750384
 20
67.5641496432
 30
0.0
  0
SPLINE
  5
29F
100
AcDbEntity
  8
00_COMPONENTS_13
100
AcDbSpline
 62
7
  6
BYLAYER
 70
0
 71
3
 72
11
 73
7
 74
0
 42
0.0000001
 43
0.0000001
 44
0.0000000001
 40
0.0
 40
0.0
 40
0.0
 40
0.0
 40
0.365992763
 40
0.6814165291
 40
0.9036709576
 40
1.0
 40
1.0
 40
1.0
 40
1.0
 10
36.3311750384
 20
67.5641496432
 30
0.0
 10
36.3311750384
 20
67.3790579929
 30
0.0
 10
36.3493898334
 20
67.0341671013
 30
0.0
 10
36.4168182169
 20
66.5816540703
 30
0.0
 10
36.4858012069
 20
66.2683469795
 30
0.0
 10
36.5266070707
 20
66.1124806652
 30
0.0
 10
36.5389017683
 20
66.0653416311
 30
0.0
  0
SPLINE
  5
2A0
100
AcDbEntity
  8
00_COMPONENTS_13
100
AcDbSpline
 62
7
  6
BYLAYER
 70
0
 71
3
 72
22
 73
18
 74
0
 42
0.0000001
 43
0.0000001
 44
0.0000000001
 40
0.0
 40
0.0
 40
0.0
 40
0.0
 40
0.1930701505
 40
0.3788634274
 40
0.5504156059
 40
0.6288021007
 40
0.7012587439
 40
0.7671085903
 40
0.8257242303
 40
0.8765577384
 40
0.9191274066
 40
0.9530354776
 40
0.9779590112
 40
0.9869696399
 40
0.9936510112
 40
0.9979966181
 40
1.0
 40
1.0
 40
1.0
 40
1.0
 10
31.0397238178
 20
66.0641496432
 30
0.0
 10
31.3936333754
 20
66.0641496432
 30
0.0
 10
32.08811353
 20
66.0641495319
 30
0.0
 10
33.097059465
 20
66.064149931
 30
0.0
 10
33.8957831482
 20
66.0641494044
 30
0.0
 10
34.4867537536
 20
66.0641482637
 30
0.0
 10
34.8839654316
 20
66.0641535275
 30
0.0
 10
35.2449359023
 20
66.0641524118
 30
0.0
 10
35.5662698397
 20
66.0641311112
 30
0.0
 10
35.8449297229
 20
66.0641507361
 30
0.0
 10
36.0782992223
 20
66.0642309263
 30
0.0
 10
36.2641738033
 20
66.0640897142
 30
0.0
 10
36.3885331517
 20
66.0638902641
 30
0.0
 10
36.4629835051
 20
66.0642453705
 30
0.0
 10
36.4997113579
 20
66.064702759
 30
0.0
 10
36.5235936728
 20
66.0650447924
 30
0.0
 10
36.535229445
 20
66.0653410127
 30
0.0
 10
36.5389017683
 20
66.0653416311
 30
0.0
  0
ENDSEC
  0
SECTION
  2
OBJECTS
  0
DICTIONARY
  5
C
100
AcDbDictionary
280
0
281
1
  3
ACAD_GROUP
350
D
  3
ACAD_MLINESTYLE
350
17
  3
ACAD_LAYOUT
350
1A
  3
ACAD_PLOTSETTINGS
350
19
  3
ACAD_PLOTSTYLENAME
350
E
  0
DICTIONARY
  5
D
102
{ACAD_REACTORS
330
C
102
}
100
AcDbDictionary
280
0
281
1
  0
ACDBDICTIONARYWDFLT
  5
E
102
{ACAD_REACTORS
330
C
102
}
100
AcDbDictionary
281
1
  3
Normal
350
F
100
AcDbDictionaryWithDefault
340
F
  0
DICTIONARY
  5
17
102
{ACAD_REACTORS
330
C
102
}
100
AcDbDictionary
280
0
281
1
  3
Standard
350
18
  0
DICTIONARY
  5
19
102
{ACAD_REACTORS
330
C
102
}
100
AcDbDictionary
281
1
  0
DICTIONARY
  5
1A
102
{ACAD_REACTORS
330
C
102
}
100
AcDbDictionary
281
1
  3
Model
350
2A1
  3
Layout1
350
2A2
  0
ACDBPLACEHOLDER
  5
F
102
{ACAD_REACTORS
330
E
102
}
  0
MLINESTYLE
  5
18
102
{ACAD_REACTORS
330
17
102
}
100
AcDbMlineStyle
  2
STANDARD
 70
0
  3

 62
256
 51
90.0
 52
90.0
 71
2
 49
0.5
 62
256
  6
BYLAYER
 49
-0.5
 62
256
  6
BYLAYER
  0
LAYOUT
  5
2A1
102
{ACAD_REACTORS
330
1A
102
}
100
AcDbPlotSettings
  1

  2
none_device
  4

  6

 40
0.0
 41
0.0
 42
0.0
 43
0.0
 44
210.0
 45
297.0
 46
0.0
 47
0.0
 48
0.0
 49
0.0
140
0.0
141
0.0
142
1.0
143
1.0
 70
1024
 72
1
 73
0
 74
0
  7

 75
0
147
1.0
148
0.0
149
0.0
100
AcDbLayout
  1
Model
 70
0
 71
0
 10
0.0
 20
0.0
 11
210.0
 21
297.0
 12
0.0
 22
0.0
 32
0.0
 14
0.0
 24
0.0
 34
0.0
 15
0.0
 25
0.0
 35
0.0
146
0.0
 13
0.0
 23
0.0
 33
0.0
 16
1.0
 26
0.0
 36
0.0
 17
0.0
 27
1.0
 37
0.0
 76
0
330
21B
345
0
346
0
  0
LAYOUT
  5
2A2
102
{ACAD_REACTORS
330
1A
102
}
100
AcDbPlotSettings
  1

  2
none_device
  4

  6

 40
0.0
 41
0.0
 42
0.0
 43
0.0
 44
210.0
 45
297.0
 46
0.0
 47
0.0
 48
0.0
 49
0.0
140
0.0
141
0.0
142
1.0
143
1.0
 70
0
 72
1
 73
0
 74
0
  7

 75
0
147
1.0
148
0.0
149
0.0
100
AcDbLayout
  1
Layout1
 70
0
 71
1
 10
0.0
 20
0.0
 11
210.0
 21
297.0
 12
0.0
 22
0.0
 32
0.0
 14
0.0
 24
0.0
 34
0.0
 15
0.0
 25
0.0
 35
0.0
146
0.0
 13
0.0
 23
0.0
 33
0.0
 16
1.0
 26
0.0
 36
0.0
 17
0.0
 27
1.0
 37
0.0
 76
0
330
21C
345
0
346
0
  0
ENDSEC
  0
EOF
