999
DXF file: C:\Users\sesa63760\Dev\_Creo\CAD\MCADID0004244_3D-CAD\drw0001_6.dxf
999
Pro/ENGINEER 2019471 by Parametric Technology Corporation
  0
SECTION
  2
HEADER
  9
$ACADVER
  1
AC1024
  9
$DWGCODEPAGE
  3
ANSI_1252
  9
$EXTMAX
 10
969.09089428
 20
1370.5714076246
 30
0.0
  9
$EXTMIN
 10
0.0
 20
0.0
 30
0.0
  9
$LIMMIN
 10
0.0
 20
0.0
  9
$LIMMAX
 10
969.09089428
 20
1370.5714076246
  9
$VIEWCTR
 10
484.54544714
 20
685.2857038123
  9
$VIEWSIZE
 40
1370.5714076246
  9
$CLAYER
  8
0
  9
$LTSCALE
 40
89.3409510155
  9
$CELTYPE
  6
BYLAYER
  9
$DIMSCALE
 40
1.0
  9
$DIMASZ
 40
11.5367963605
  9
$DIMEXO
 40
1.0
  9
$DIMDLI
 40
61.7264752471
  9
$DIMEXE
 40
1.0
  9
$DIMCEN
 40
14.619428348
  9
$DIMLFAC
 40
1.0
  9
$DIMBLK
  1
_FILLED
  9
$DIMALT
 70
0
  9
$DIMALTF
 40
0.0393700787
  9
$DIMTXT
 40
16.1515149047
  9
$DIMTOL
 70
1
  9
$DIMLIM
 70
0
  9
$DIMTFAC
 40
1.0
  9
$DIMTP
 40
0.01
  9
$DIMTM
 40
0.01
  9
$DIMGAP
 40
0.625
  9
$DIMDSEP
 70
46
  9
$AUNITS
 70
0
  9
$PDMODE
 70
3
  9
$PDSIZE
 40
0.3125
  9
$HANDSEED
  5
31D
  9
$TILEMODE
 70
1
  9
$MEASUREMENT
 70
1
  9
$INSUNITS
 70
4
  0
ENDSEC
  0
SECTION
  2
CLASSES
  0
CLASS
  1
ACDBDICTIONARYWDFLT
  2
AcDbDictionaryWithDefault
  3
AutoCAD 2000
 90
0
 91
1
280
0
281
0
  0
CLASS
  1
ACDBPLACEHOLDER
  2
AcDbPlaceHolder
  3
AutoCAD 2000
 90
0
 91
1
280
0
281
0
  0
CLASS
  1
LAYOUT
  2
AcDbLayout
  3
AutoCAD 2000
 90
0
 91
0
280
0
281
0
  0
ENDSEC
  0
SECTION
  2
TABLES
  0
TABLE
  2
VPORT
  5
8
100
AcDbSymbolTable
 70
2
  0
VPORT
  5
1F4
100
AcDbSymbolTableRecord
100
AcDbViewportTableRecord
  2
*ACTIVE
 70
0
 10
0.0
 20
0.0
 11
1.0
 21
1.0
 12
484.54544714
 22
685.2857038123
 13
0.0
 23
0.0
 14
1.0
 24
1.0
 15
0.0
 25
0.0
 16
0.0
 26
0.0
 36
1.0
 17
0.0
 27
0.0
 37
0.0
 40
1370.5714076246
 41
0.7070707071
 42
50.0
 43
0.0
 44
0.0
 50
0.0
 51
0.0
 71
0
 72
100
 73
1
 74
1
 75
0
 76
0
 77
0
 78
0
  0
ENDTAB
  0
TABLE
  2
LTYPE
  5
5
100
AcDbSymbolTable
 70
6
  0
LTYPE
  5
14
100
AcDbSymbolTableRecord
100
AcDbLinetypeTableRecord
  2
BYBLOCK
 70
0
  3

 72
65
 73
0
 40
0.0
  0
LTYPE
  5
15
100
AcDbSymbolTableRecord
100
AcDbLinetypeTableRecord
  2
BYLAYER
 70
0
  3

 72
65
 73
0
 40
0.0
  0
LTYPE
  5
16
100
AcDbSymbolTableRecord
100
AcDbLinetypeTableRecord
  2
CONTINUOUS
 70
64
  3
Solid line
 72
65
 73
0
 40
0.0
  0
LTYPE
  5
1F5
100
AcDbSymbolTableRecord
100
AcDbLinetypeTableRecord
  2
CENTER
 70
64
  3
____ _ ____ _ ____ _ ____ _ ____ _ ____ _ ____
 72
65
 73
4
 40
0.6
 49
0.375
 74
0
 49
-0.075
 74
0
 49
0.075
 74
0
 49
-0.075
 74
0
  0
LTYPE
  5
1F6
100
AcDbSymbolTableRecord
100
AcDbLinetypeTableRecord
  2
HIDDEN
 70
64
  3
- - - - - - - - - - - - - - - - - - - -
 72
65
 73
2
 40
0.2
 49
0.1
 74
0
 49
-0.1
 74
0
  0
LTYPE
  5
1F7
100
AcDbSymbolTableRecord
100
AcDbLinetypeTableRecord
  2
PHANTOM
 70
64
  3
_____ _ _ _____ _ _ _____ _ _ _____
 72
65
 73
6
 40
0.8
 49
0.45
 74
0
 49
-0.05
 74
0
 49
0.1
 74
0
 49
-0.05
 74
0
 49
0.1
 74
0
 49
-0.05
 74
0
  0
LTYPE
  5
1F8
100
AcDbSymbolTableRecord
100
AcDbLinetypeTableRecord
  2
DOT
 70
64
  3
. . . . . . . . . . . . . . . . . . . .
 72
65
 73
2
 40
0.2
 49
0.1
 74
0
 49
-0.1
 74
0
  0
LTYPE
  5
1F9
100
AcDbSymbolTableRecord
100
AcDbLinetypeTableRecord
  2
DASHED
 70
64
  3
- - - - - - - - - - - - - - - - - - - -
 72
65
 73
2
 40
0.2
 49
0.1
 74
0
 49
-0.1
 74
0
  0
ENDTAB
  0
TABLE
  2
LAYER
  5
2
100
AcDbSymbolTable
 70
36
  0
LAYER
  5
10
100
AcDbSymbolTableRecord
100
AcDbLayerTableRecord
  2
0
 70
0
 62
7
  6
CONTINUOUS
370
-3
390
F
  0
LAYER
  5
1FA
100
AcDbSymbolTableRecord
100
AcDbLayerTableRecord
  2
DEFAULT_1
 70
0
 62
7
  6
CENTER
370
-3
390
F
  0
LAYER
  5
1FB
100
AcDbSymbolTableRecord
100
AcDbLayerTableRecord
  2
DEFAULT_2
 70
0
 62
7
  6
HIDDEN
370
-3
390
F
  0
LAYER
  5
1FC
100
AcDbSymbolTableRecord
100
AcDbLayerTableRecord
  2
DEFAULT_3
 70
0
 62
7
  6
PHANTOM
370
-3
390
F
  0
LAYER
  5
1FD
100
AcDbSymbolTableRecord
100
AcDbLayerTableRecord
  2
00_COMPONENTS
 70
0
 62
7
  6
CONTINUOUS
370
-3
390
F
  0
LAYER
  5
1FE
100
AcDbSymbolTableRecord
100
AcDbLayerTableRecord
  2
01_1_DEFAULT_DATUMS
 70
0
 62
7
  6
CONTINUOUS
370
-3
390
F
  0
LAYER
  5
1FF
100
AcDbSymbolTableRecord
100
AcDbLayerTableRecord
  2
01_PLANES
 70
0
 62
7
  6
CONTINUOUS
370
-3
390
F
  0
LAYER
  5
200
100
AcDbSymbolTableRecord
100
AcDbLayerTableRecord
  2
02_COORD_SYS
 70
0
 62
7
  6
CONTINUOUS
370
-3
390
F
  0
LAYER
  5
201
100
AcDbSymbolTableRecord
100
AcDbLayerTableRecord
  2
03_AXES
 70
0
 62
7
  6
CONTINUOUS
370
-3
390
F
  0
LAYER
  5
202
100
AcDbSymbolTableRecord
100
AcDbLayerTableRecord
  2
04_POINTS
 70
0
 62
7
  6
CONTINUOUS
370
-3
390
F
  0
LAYER
  5
203
100
AcDbSymbolTableRecord
100
AcDbLayerTableRecord
  2
05_CURVES
 70
0
 62
7
  6
CONTINUOUS
370
-3
390
F
  0
LAYER
  5
204
100
AcDbSymbolTableRecord
100
AcDbLayerTableRecord
  2
06_SURFS
 70
0
 62
7
  6
CONTINUOUS
370
-3
390
F
  0
LAYER
  5
205
100
AcDbSymbolTableRecord
100
AcDbLayerTableRecord
  2
07_COSMETICS
 70
0
 62
7
  6
CONTINUOUS
370
-3
390
F
  0
LAYER
  5
206
100
AcDbSymbolTableRecord
100
AcDbLayerTableRecord
  2
10_NOTES
 70
0
 62
7
  6
CONTINUOUS
370
-3
390
F
  0
LAYER
  5
207
100
AcDbSymbolTableRecord
100
AcDbLayerTableRecord
  2
11_NOTES_PUB
 70
0
 62
7
  6
CONTINUOUS
370
-3
390
F
  0
LAYER
  5
208
100
AcDbSymbolTableRecord
100
AcDbLayerTableRecord
  2
13_REF_GTOL
 70
0
 62
7
  6
CONTINUOUS
370
-3
390
F
  0
LAYER
  5
209
100
AcDbSymbolTableRecord
100
AcDbLayerTableRecord
  2
16_MISC
 70
0
 62
7
  6
CONTINUOUS
370
-3
390
F
  0
LAYER
  5
20A
100
AcDbSymbolTableRecord
100
AcDbLayerTableRecord
  2
17_NO_PRINT
 70
0
 62
7
  6
CONTINUOUS
370
-3
390
F
  0
LAYER
  5
20B
100
AcDbSymbolTableRecord
100
AcDbLayerTableRecord
  2
18_DATUM_CAMS_JOINTS
 70
0
 62
7
  6
CONTINUOUS
370
-3
390
F
  0
LAYER
  5
20C
100
AcDbSymbolTableRecord
100
AcDbLayerTableRecord
  2
19_DATUM_FUNCTIONAL
 70
0
 62
7
  6
CONTINUOUS
370
-3
390
F
  0
LAYER
  5
20D
100
AcDbSymbolTableRecord
100
AcDbLayerTableRecord
  2
20_DATUM_KINEMATIC_SCHEME
 70
0
 62
7
  6
CONTINUOUS
370
-3
390
F
  0
LAYER
  5
20E
100
AcDbSymbolTableRecord
100
AcDbLayerTableRecord
  2
3
 70
0
 62
7
  6
CONTINUOUS
370
-3
390
F
  0
LAYER
  5
20F
100
AcDbSymbolTableRecord
100
AcDbLayerTableRecord
  2
4
 70
0
 62
7
  6
CONTINUOUS
370
-3
390
F
  0
ENDTAB
  0
TABLE
  2
STYLE
  5
3
100
AcDbSymbolTable
 70
1
  0
STYLE
  5
11
100
AcDbSymbolTableRecord
100
AcDbTextStyleTableRecord
  2
STANDARD
 70
0
 40
0.0
 41
1.0
 50
0.0
 71
0
 42
0.2
  3
ARIAL.TTF
  4

  0
STYLE
  5
210
100
AcDbSymbolTableRecord
100
AcDbTextStyleTableRecord
  2
TEXTSTYLE_1
 70
0
 40
0.0
 41
0.8
 50
0.0
 71
0
 42
0.2
  3
gdt
  4

  0
ENDTAB
  0
TABLE
  2
VIEW
  5
6
100
AcDbSymbolTable
 70
0
  0
ENDTAB
  0
TABLE
  2
UCS
  5
7
100
AcDbSymbolTable
 70
0
  0
ENDTAB
  0
TABLE
  2
APPID
  5
9
100
AcDbSymbolTable
 70
1
  0
APPID
  5
211
100
AcDbSymbolTableRecord
100
AcDbRegAppTableRecord
  2
ACAD
 70
0
  0
ENDTAB
  0
TABLE
  2
BLOCK_RECORD
  5
1
100
AcDbSymbolTable
 70
0
  0
BLOCK_RECORD
  5
212
100
AcDbSymbolTableRecord
100
AcDbBlockTableRecord
  2
*Model_Space
  0
BLOCK_RECORD
  5
213
100
AcDbSymbolTableRecord
100
AcDbBlockTableRecord
  2
*Paper_Space
  0
BLOCK_RECORD
  5
214
100
AcDbSymbolTableRecord
100
AcDbBlockTableRecord
  2
_FILLED
  0
ENDTAB
  0
TABLE
  2
DIMSTYLE
  5
A
100
AcDbSymbolTable
 70
1
100
AcDbDimStyleTable
 71
0
  0
DIMSTYLE
105
215
100
AcDbSymbolTableRecord
100
AcDbDimStyleTableRecord
  2
STANDARD
 70
0
  3

  4

 40
1.0
 41
11.5367963605
 42
1.0
 43
0.38
 44
1.0
 45
0.0
 46
0.0
 47
0.01
 48
0.01
140
16.1515149047
141
0.09
142
0.0
143
25.4
144
1.0
145
0.0
146
1.0
147
0.625
 71
1
 72
0
 73
0
 74
0
 75
0
 76
0
 77
1
 78
8
 79
2
170
0
171
1
172
0
173
0
174
0
175
0
176
0
177
0
178
0
270
2
179
2
271
2
272
2
273
2
274
2
275
0
280
0
281
0
282
0
283
1
284
8
285
0
286
0
287
3
288
0
340
11
278
46
341
214
342
214
343
214
344
214
  0
ENDTAB
  0
ENDSEC
  0
SECTION
  2
BLOCKS
  0
BLOCK
  5
20
100
AcDbEntity
  8
0
100
AcDbBlockBegin
  2
*Model_Space
 70
0
 10
0.0
 20
0.0
 30
0.0
  3
*Model_Space
  1

  0
ENDBLK
  5
21
100
AcDbEntity
  8
0
100
AcDbBlockEnd
  0
BLOCK
  5
1C
100
AcDbEntity
  8
0
100
AcDbBlockBegin
  2
*Paper_Space
 70
0
 10
0.0
 20
0.0
 30
0.0
  3
*Paper_Space
  1

  0
ENDBLK
  5
1D
100
AcDbEntity
  8
0
100
AcDbBlockEnd
  0
BLOCK
  5
216
100
AcDbEntity
  8
0
100
AcDbBlockBegin
  2
_FILLED
 70
64
 10
0.0
 20
0.0
  3
_FILLED
  1

  0
SOLID
  5
217
100
AcDbEntity
  8
0
  6
BYBLOCK
 62
0
100
AcDbTrace
 10
0.0
 20
0.0
 11
-1.0
 21
0.25
 12
-1.0
 22
-0.25
 13
-1.0
 23
-0.25
  0
ENDBLK
  5
218
100
AcDbEntity
  8
0
  6
BYBLOCK
 62
0
100
AcDbBlockEnd
  0
ENDSEC
  0
SECTION
  2
ENTITIES
  0
LINE
  5
219
100
AcDbEntity
  8
0
100
AcDbLine
 62
7
  6
BYLAYER
 10
462.8265916173
 20
113.33595875
 11
462.8269436142
 21
113.3359777121
  0
LINE
  5
21A
100
AcDbEntity
  8
0
100
AcDbLine
 62
7
  6
BYLAYER
 10
462.8145480577
 20
113.3355994089
 11
462.8265916173
 21
113.33595875
  0
LINE
  5
21B
100
AcDbEntity
  8
0
100
AcDbLine
 62
7
  6
BYLAYER
 10
462.8244649397
 20
113.3356615203
 11
462.8160107125
 21
113.3355987756
  0
LINE
  5
21C
100
AcDbEntity
  8
0
100
AcDbLine
 62
7
  6
BYLAYER
 10
493.1127238086
 20
113.2357038123
 11
488.5129005063
 21
113.2357038123
  0
LINE
  5
21D
100
AcDbEntity
  8
0
100
AcDbLine
 62
7
  6
BYLAYER
 10
453.1127356875
 20
113.2357038123
 11
448.5129123852
 21
113.2357038123
  0
LINE
  5
21E
100
AcDbEntity
  8
0
100
AcDbLine
 62
7
  6
BYLAYER
 10
448.1400341256
 20
113.3355936738
 11
441.3128164077
 21
113.3355936738
  0
LINE
  5
21F
100
AcDbEntity
  8
0
100
AcDbLine
 62
7
  6
BYLAYER
 10
453.4856224475
 20
113.3355936738
 11
462.8160107125
 21
113.3355987756
  0
LINE
  5
220
100
AcDbEntity
  8
0
100
AcDbLine
 62
7
  6
BYLAYER
 10
493.4856105687
 20
113.3355936738
 11
494.3128164077
 21
113.3355936738
  0
LINE
  5
221
100
AcDbEntity
  8
0
100
AcDbLine
 62
7
  6
BYLAYER
 10
471.9566455778
 20
113.8355936738
 11
463.6689130488
 21
113.8355936738
  0
LINE
  5
222
100
AcDbEntity
  8
0
100
AcDbLine
 62
7
  6
BYLAYER
 10
494.1128164077
 20
114.2357038123
 11
487.5128164077
 21
114.2357038123
  0
LINE
  5
223
100
AcDbEntity
  8
0
100
AcDbLine
 62
7
  6
BYLAYER
 10
454.1128282866
 20
114.2357038123
 11
447.5128282866
 21
114.2357038123
  0
LINE
  5
224
100
AcDbEntity
  8
0
100
AcDbLine
 62
7
  6
BYLAYER
 10
495.3128164077
 20
114.3355936738
 11
494.1128164077
 21
114.3355936738
  0
LINE
  5
225
100
AcDbEntity
  8
0
100
AcDbLine
 62
7
  6
BYLAYER
 10
487.5128164077
 20
114.3355936738
 11
471.8128164077
 21
114.3355936804
  0
LINE
  5
226
100
AcDbEntity
  8
0
100
AcDbLine
 62
7
  6
BYLAYER
 10
463.8128164077
 20
114.3355936739
 11
454.1128282866
 21
114.3355936738
  0
LINE
  5
227
100
AcDbEntity
  8
0
100
AcDbLine
 62
7
  6
BYLAYER
 10
447.5128282866
 20
114.3355936738
 11
440.3128164077
 21
114.3355936738
  0
LINE
  5
228
100
AcDbEntity
  8
0
100
AcDbLine
 62
7
  6
BYLAYER
 10
446.9005011782
 20
115.3355936738
 11
447.5128282866
 21
115.3355936738
  0
LINE
  5
229
100
AcDbEntity
  8
0
100
AcDbLine
 62
7
  6
BYLAYER
 10
454.1128282866
 20
115.3355936738
 11
455.3128164077
 21
115.3355936167
  0
LINE
  5
22A
100
AcDbEntity
  8
0
100
AcDbLine
 62
7
  6
BYLAYER
 10
486.3128164077
 20
115.3355936049
 11
487.5128164077
 21
115.3355936738
  0
LINE
  5
22B
100
AcDbEntity
  8
0
100
AcDbLine
 62
7
  6
BYLAYER
 10
494.1128164077
 20
115.3355936738
 11
495.3128164077
 21
115.3355936049
  0
LINE
  5
22C
100
AcDbEntity
  8
0
100
AcDbLine
 62
7
  6
BYLAYER
 10
487.8128164077
 20
115.8355936738
 11
494.8128164077
 21
115.8355936738
  0
LINE
  5
22D
100
AcDbEntity
  8
0
100
AcDbLine
 62
7
  6
BYLAYER
 10
447.2630629263
 20
115.8355936738
 11
453.8128164077
 21
115.8355936738
  0
LINE
  5
22E
100
AcDbEntity
  8
0
100
AcDbLine
 62
7
  6
BYLAYER
 10
488.1400222468
 20
113.3355936738
 11
462.8244649397
 21
113.3355936738
  0
LINE
  5
22F
100
AcDbEntity
  8
0
100
AcDbLine
 62
7
  6
BYLAYER
 10
472.8102177027
 20
113.3355972674
 11
472.8015904775
 21
113.3356566901
  0
LINE
  5
230
100
AcDbEntity
  8
0
100
AcDbLine
 62
7
  6
BYLAYER
 10
472.7990877077
 20
113.335956289
 11
472.8110843441
 21
113.3355994118
  0
LINE
  5
231
100
AcDbEntity
  8
0
100
AcDbLine
 62
7
  6
BYLAYER
 10
495.3128164077
 20
116.3355936738
 11
487.8128164077
 21
116.3355936738
  0
LINE
  5
232
100
AcDbEntity
  8
0
100
AcDbLine
 62
7
  6
BYLAYER
 10
453.8128164077
 20
116.3355936738
 11
445.4007347159
 21
116.3355936738
  0
LINE
  5
233
100
AcDbEntity
  8
0
100
AcDbLine
 62
7
  6
BYLAYER
 10
440.3128164077
 20
130.8355936738
 11
471.8123176185
 21
130.8355936738
  0
LINE
  5
234
100
AcDbEntity
  8
0
100
AcDbLine
 62
7
  6
BYLAYER
 10
471.8128164077
 20
130.8355936738
 11
495.3128164077
 21
130.8355936738
  0
LINE
  5
235
100
AcDbEntity
  8
3
100
AcDbLine
 62
7
  6
BYLAYER
 10
440.3123176185
 20
130.8357166208
 11
495.3123349334
 21
130.8357166208
  0
LINE
  5
236
100
AcDbEntity
  8
0
100
AcDbLine
 62
7
  6
BYLAYER
 10
472.2931032987
 20
113.481252921
 11
472.8095420749
 21
113.3355869204
  0
LINE
  5
237
100
AcDbEntity
  8
0
100
AcDbLine
 62
7
  6
BYLAYER
 10
472.8015904775
 20
113.3356566901
 11
472.2930985611
 21
113.4812557142
  0
LINE
  5
238
100
AcDbEntity
  8
4
100
AcDbLine
 62
7
  6
BYLAYER
 10
540.5542364856
 20
158.1838789356
 11
495.5542364856
 21
158.1838789356
  0
LINE
  5
239
100
AcDbEntity
  8
4
100
AcDbLine
 62
7
  6
BYLAYER
 10
523.8542364856
 20
164.9338789356
 11
537.3542364856
 21
164.9338789356
  0
LINE
  5
23A
100
AcDbEntity
  8
4
100
AcDbLine
 62
7
  6
BYLAYER
 10
495.5542364856
 20
165.1838789356
 11
495.3123349334
 21
165.1838789356
  0
LINE
  5
23B
100
AcDbEntity
  8
4
100
AcDbLine
 62
7
  6
BYLAYER
 10
495.5542364856
 20
171.1838789356
 11
495.3123349334
 21
171.1838789356
  0
LINE
  5
23C
100
AcDbEntity
  8
4
100
AcDbLine
 62
7
  6
BYLAYER
 10
537.3542364856
 20
171.4338789356
 11
523.8542364856
 21
171.4338789356
  0
LINE
  5
23D
100
AcDbEntity
  8
4
100
AcDbLine
 62
7
  6
BYLAYER
 10
523.8542364856
 20
194.9338789356
 11
537.3542364856
 21
194.9338789356
  0
LINE
  5
23E
100
AcDbEntity
  8
4
100
AcDbLine
 62
7
  6
BYLAYER
 10
495.5542364856
 20
195.1838789356
 11
495.3123349334
 21
195.1838789356
  0
LINE
  5
23F
100
AcDbEntity
  8
4
100
AcDbLine
 62
7
  6
BYLAYER
 10
495.5542364856
 20
201.1838789356
 11
495.3123349334
 21
201.1838789356
  0
LINE
  5
240
100
AcDbEntity
  8
4
100
AcDbLine
 62
7
  6
BYLAYER
 10
537.3542364856
 20
201.4338789356
 11
523.8542364856
 21
201.4338789356
  0
LINE
  5
241
100
AcDbEntity
  8
4
100
AcDbLine
 62
7
  6
BYLAYER
 10
495.5542364856
 20
208.1838789356
 11
540.5542364856
 21
208.1838789356
  0
LINE
  5
242
100
AcDbEntity
  8
0
100
AcDbLine
 62
7
  6
BYLAYER
 10
451.8125736919
 20
1257.3357038123
 11
451.3125756706
 21
1256.8357059708
  0
LINE
  5
243
100
AcDbEntity
  8
0
100
AcDbLine
 62
7
  6
BYLAYER
 10
450.0625756706
 20
1253.3357038123
 11
449.5625756706
 21
1252.8357038123
  0
LINE
  5
244
100
AcDbEntity
  8
0
100
AcDbLine
 62
7
  6
BYLAYER
 10
450.0625756706
 20
1248.3357038123
 11
449.5625756706
 21
1247.8357038123
  0
LINE
  5
245
100
AcDbEntity
  8
0
100
AcDbLine
 62
7
  6
BYLAYER
 10
465.0625756706
 20
1247.0357038123
 11
464.8625756706
 21
1246.8357038123
  0
LINE
  5
246
100
AcDbEntity
  8
0
100
AcDbLine
 62
7
  6
BYLAYER
 10
472.5625756706
 20
1253.3357038123
 11
472.0625756706
 21
1252.8357038123
  0
LINE
  5
247
100
AcDbEntity
  8
3
100
AcDbLine
 62
7
  6
BYLAYER
 10
440.3123176185
 20
1229.3357166208
 11
440.3123176185
 21
130.8357166208
  0
LINE
  5
248
100
AcDbEntity
  8
0
100
AcDbLine
 62
7
  6
BYLAYER
 10
440.3125756706
 20
1245.8357038029
 11
440.3125756706
 21
1229.3357038123
  0
LINE
  5
249
100
AcDbEntity
  8
0
100
AcDbLine
 62
7
  6
BYLAYER
 10
440.3128164077
 20
130.8355936738
 11
440.3128164077
 21
114.3355936738
  0
LINE
  5
24A
100
AcDbEntity
  8
3
100
AcDbLine
 62
7
  6
BYLAYER
 10
441.7628753627
 20
130.8357166208
 11
441.7628753627
 21
1229.3357166208
  0
LINE
  5
24B
100
AcDbEntity
  8
0
100
AcDbLine
 62
7
  6
BYLAYER
 10
441.7631334148
 20
1229.3357038123
 11
441.7631334148
 21
1245.8357038123
  0
LINE
  5
24C
100
AcDbEntity
  8
0
100
AcDbLine
 62
7
  6
BYLAYER
 10
441.7633741519
 20
114.3355936813
 11
441.7633741519
 21
130.8355936738
  0
LINE
  5
24D
100
AcDbEntity
  8
0
100
AcDbLine
 62
7
  6
BYLAYER
 10
445.4004939787
 20
1245.8357038123
 11
445.4004939787
 21
1243.8357038123
  0
LINE
  5
24E
100
AcDbEntity
  8
0
100
AcDbLine
 62
7
  6
BYLAYER
 10
445.4007347159
 20
116.3355936738
 11
445.4007347159
 21
114.3355936811
  0
LINE
  5
24F
100
AcDbEntity
  8
3
100
AcDbLine
 62
7
  6
BYLAYER
 10
445.965655786
 20
1229.3357166208
 11
445.965655786
 21
130.8357166208
  0
LINE
  5
250
100
AcDbEntity
  8
0
100
AcDbLine
 62
7
  6
BYLAYER
 10
445.965913838
 20
1243.8357038123
 11
445.965913838
 21
1229.3357038123
  0
LINE
  5
251
100
AcDbEntity
  8
0
100
AcDbLine
 62
7
  6
BYLAYER
 10
445.9661545752
 20
130.8355936738
 11
445.9661545752
 21
116.3355936738
  0
LINE
  5
252
100
AcDbEntity
  8
0
100
AcDbLine
 62
7
  6
BYLAYER
 10
447.3125756706
 20
1244.8357038123
 11
447.3125756706
 21
1245.8357038123
  0
LINE
  5
253
100
AcDbEntity
  8
0
100
AcDbLine
 62
7
  6
BYLAYER
 10
447.3128164077
 20
114.3355936738
 11
447.3128164077
 21
115.3355936738
  0
LINE
  5
254
100
AcDbEntity
  8
0
100
AcDbLine
 62
7
  6
BYLAYER
 10
447.5125756706
 20
1244.437302689
 11
447.5125756706
 21
1245.9357038123
  0
LINE
  5
255
100
AcDbEntity
  8
0
100
AcDbLine
 62
7
  6
BYLAYER
 10
447.5128282866
 20
115.734006676
 11
447.5128282866
 21
114.2357038123
  0
LINE
  5
256
100
AcDbEntity
  8
3
100
AcDbLine
 62
7
  6
BYLAYER
 10
448.7128670649
 20
130.8357166208
 11
448.7128670649
 21
1229.3357166208
  0
LINE
  5
257
100
AcDbEntity
  8
0
100
AcDbLine
 62
7
  6
BYLAYER
 10
448.713125117
 20
1229.3357038123
 11
448.713125117
 21
1244.3357038123
  0
LINE
  5
258
100
AcDbEntity
  8
0
100
AcDbLine
 62
7
  6
BYLAYER
 10
448.7133658541
 20
115.8355936738
 11
448.7133658541
 21
130.8355936738
  0
LINE
  5
259
100
AcDbEntity
  8
0
100
AcDbLine
 62
7
  6
BYLAYER
 10
449.5625756706
 20
1246.9357038123
 11
449.5625756706
 21
1252.8357038123
  0
LINE
  5
25A
100
AcDbEntity
  8
0
100
AcDbLine
 62
7
  6
BYLAYER
 10
451.3125756706
 20
1249.3357038123
 11
451.3125756706
 21
1256.8357059708
  0
LINE
  5
25B
100
AcDbEntity
  8
0
100
AcDbLine
 62
7
  6
BYLAYER
 10
451.8125756706
 20
1248.3357038123
 11
451.8125756706
 21
1249.3357038123
  0
LINE
  5
25C
100
AcDbEntity
  8
0
100
AcDbLine
 62
7
  6
BYLAYER
 10
453.8125755977
 20
1244.3357038123
 11
453.8125755977
 21
1243.8357038123
  0
LINE
  5
25D
100
AcDbEntity
  8
0
100
AcDbLine
 62
7
  6
BYLAYER
 10
453.8128163402
 20
116.3355936738
 11
453.8128163402
 21
115.8355936738
  0
LINE
  5
25E
100
AcDbEntity
  8
0
100
AcDbLine
 62
7
  6
BYLAYER
 10
454.1125756706
 20
1244.4398862475
 11
454.1125756706
 21
1245.9357038123
  0
LINE
  5
25F
100
AcDbEntity
  8
0
100
AcDbLine
 62
7
  6
BYLAYER
 10
454.1128282866
 20
115.7339829184
 11
454.1128282866
 21
114.2357038123
  0
LINE
  5
260
100
AcDbEntity
  8
0
100
AcDbLine
 62
7
  6
BYLAYER
 10
454.3125756706
 20
1245.8357038123
 11
454.3125756706
 21
1244.8357038123
  0
LINE
  5
261
100
AcDbEntity
  8
0
100
AcDbLine
 62
7
  6
BYLAYER
 10
454.3128164077
 20
115.3355936738
 11
454.3128164077
 21
114.3355936738
  0
LINE
  5
262
100
AcDbEntity
  8
0
100
AcDbLine
 62
7
  6
BYLAYER
 10
455.3125756706
 20
1244.8357038123
 11
455.3125756706
 21
1246.8357038123
  0
LINE
  5
263
100
AcDbEntity
  8
0
100
AcDbLine
 62
7
  6
BYLAYER
 10
455.3128164077
 20
113.3355936738
 11
455.3128164077
 21
115.3355936738
  0
LINE
  5
264
100
AcDbEntity
  8
0
100
AcDbLine
 62
7
  6
BYLAYER
 10
462.8125756706
 20
1249.3357038123
 11
462.8125756706
 21
1248.3357038123
  0
LINE
  5
265
100
AcDbEntity
  8
3
100
AcDbLine
 62
7
  6
BYLAYER
 10
463.3123176185
 20
1229.3357166208
 11
463.3123176185
 21
130.8357166208
  0
LINE
  5
266
100
AcDbEntity
  8
0
100
AcDbLine
 62
7
  6
BYLAYER
 10
463.3125756706
 20
1245.8357038123
 11
463.3125756706
 21
1229.3357038123
  0
LINE
  5
267
100
AcDbEntity
  8
0
100
AcDbLine
 62
7
  6
BYLAYER
 10
463.3125756706
 20
1249.3357038123
 11
463.3125756706
 21
1256.8357059708
  0
LINE
  5
268
100
AcDbEntity
  8
0
100
AcDbLine
 62
7
  6
BYLAYER
 10
463.3128164077
 20
130.8355936738
 11
463.3128164077
 21
114.3355936738
  0
LINE
  5
269
100
AcDbEntity
  8
3
100
AcDbLine
 62
7
  6
BYLAYER
 10
463.8123176185
 20
130.8357166208
 11
463.8123176185
 21
1229.3357166208
  0
LINE
  5
26A
100
AcDbEntity
  8
0
100
AcDbLine
 62
7
  6
BYLAYER
 10
463.8125756706
 20
1229.3357038123
 11
463.8125756706
 21
1245.8357038083
  0
LINE
  5
26B
100
AcDbEntity
  8
0
100
AcDbLine
 62
7
  6
BYLAYER
 10
463.8128164077
 20
114.3355936738
 11
463.8128164077
 21
130.8355936738
  0
LINE
  5
26C
100
AcDbEntity
  8
0
100
AcDbLine
 62
7
  6
BYLAYER
 10
465.0625756706
 20
1246.8357038123
 11
465.0625756706
 21
1252.8357038123
  0
LINE
  5
26D
100
AcDbEntity
  8
3
100
AcDbLine
 62
7
  6
BYLAYER
 10
471.8123176185
 20
1229.3357166208
 11
471.8123176185
 21
130.8357166208
  0
LINE
  5
26E
100
AcDbEntity
  8
0
100
AcDbLine
 62
7
  6
BYLAYER
 10
471.8125756706
 20
1245.8357038123
 11
471.8125756706
 21
1229.3357038123
  0
LINE
  5
26F
100
AcDbEntity
  8
0
100
AcDbLine
 62
7
  6
BYLAYER
 10
471.8128164077
 20
130.8355936738
 11
471.8128164077
 21
114.3355936773
  0
LINE
  5
270
100
AcDbEntity
  8
0
100
AcDbLine
 62
7
  6
BYLAYER
 10
472.0625756706
 20
1246.8357038123
 11
472.0625756706
 21
1252.8357038123
  0
LINE
  5
271
100
AcDbEntity
  8
3
100
AcDbLine
 62
7
  6
BYLAYER
 10
472.3123176185
 20
130.8357166208
 11
472.3123176185
 21
1229.3357166208
  0
LINE
  5
272
100
AcDbEntity
  8
0
100
AcDbLine
 62
7
  6
BYLAYER
 10
472.3125756706
 20
1229.3357038123
 11
472.3125756706
 21
1245.8357038123
  0
LINE
  5
273
100
AcDbEntity
  8
0
100
AcDbLine
 62
7
  6
BYLAYER
 10
472.3128164077
 20
114.3355936738
 11
472.3128164077
 21
130.8355936738
  0
LINE
  5
274
100
AcDbEntity
  8
0
100
AcDbLine
 62
7
  6
BYLAYER
 10
475.6863156706
 20
1254.5357038123
 11
475.6863156706
 21
1253.3357038123
  0
LINE
  5
275
100
AcDbEntity
  8
0
100
AcDbLine
 62
7
  6
BYLAYER
 10
483.9363156706
 20
1254.5357038123
 11
483.9363156706
 21
1253.3357038123
  0
LINE
  5
276
100
AcDbEntity
  8
0
100
AcDbLine
 62
7
  6
BYLAYER
 10
486.3125756706
 20
1246.8357038123
 11
486.3125756706
 21
1244.8357038123
  0
LINE
  5
277
100
AcDbEntity
  8
0
100
AcDbLine
 62
7
  6
BYLAYER
 10
486.3128164077
 20
115.3355936738
 11
486.3128164077
 21
113.3355936738
  0
LINE
  5
278
100
AcDbEntity
  8
0
100
AcDbLine
 62
7
  6
BYLAYER
 10
487.3125756706
 20
1244.8357038123
 11
487.3125756706
 21
1245.8357038123
  0
LINE
  5
279
100
AcDbEntity
  8
0
100
AcDbLine
 62
7
  6
BYLAYER
 10
487.3128164077
 20
114.3355936738
 11
487.3128164077
 21
115.3355936738
  0
LINE
  5
27A
100
AcDbEntity
  8
0
100
AcDbLine
 62
7
  6
BYLAYER
 10
487.5125756706
 20
1244.4397708068
 11
487.5125756706
 21
1245.9357038123
  0
LINE
  5
27B
100
AcDbEntity
  8
0
100
AcDbLine
 62
7
  6
BYLAYER
 10
487.5128164077
 20
115.7314112388
 11
487.5128164077
 21
114.2357038123
  0
LINE
  5
27C
100
AcDbEntity
  8
0
100
AcDbLine
 62
7
  6
BYLAYER
 10
487.5625756706
 20
1246.8357038123
 11
487.5625756706
 21
1252.8357038123
  0
LINE
  5
27D
100
AcDbEntity
  8
0
100
AcDbLine
 62
7
  6
BYLAYER
 10
487.8125757431
 20
1243.8357038123
 11
487.8125757431
 21
1244.3357038123
  0
LINE
  5
27E
100
AcDbEntity
  8
0
100
AcDbLine
 62
7
  6
BYLAYER
 10
487.8128164806
 20
115.8355936738
 11
487.8128164806
 21
116.3355936738
  0
LINE
  5
27F
100
AcDbEntity
  8
3
100
AcDbLine
 62
7
  6
BYLAYER
 10
491.3123349334
 20
1229.3357166208
 11
491.3123349334
 21
130.8357166208
  0
LINE
  5
280
100
AcDbEntity
  8
0
100
AcDbLine
 62
7
  6
BYLAYER
 10
491.3125756706
 20
1244.3357038123
 11
491.3125756706
 21
1229.3357038123
  0
LINE
  5
281
100
AcDbEntity
  8
0
100
AcDbLine
 62
7
  6
BYLAYER
 10
491.3128164077
 20
130.8355936738
 11
491.3128164077
 21
115.8355936738
  0
LINE
  5
282
100
AcDbEntity
  8
0
100
AcDbLine
 62
7
  6
BYLAYER
 10
494.1125756706
 20
1244.3357038123
 11
494.1125756706
 21
1245.9357038123
  0
LINE
  5
283
100
AcDbEntity
  8
0
100
AcDbLine
 62
7
  6
BYLAYER
 10
494.1128164077
 20
115.8357038123
 11
494.1128164077
 21
114.2357038123
  0
LINE
  5
284
100
AcDbEntity
  8
0
100
AcDbLine
 62
7
  6
BYLAYER
 10
494.3125756706
 20
1246.8357038123
 11
494.3125756706
 21
1244.8357038123
  0
LINE
  5
285
100
AcDbEntity
  8
0
100
AcDbLine
 62
7
  6
BYLAYER
 10
494.3128164077
 20
115.3355936738
 11
494.3128164077
 21
113.3355936738
  0
LINE
  5
286
100
AcDbEntity
  8
3
100
AcDbLine
 62
7
  6
BYLAYER
 10
495.3123349334
 20
130.8357166208
 11
495.3123349334
 21
1229.3357166208
  0
LINE
  5
287
100
AcDbEntity
  8
0
100
AcDbLine
 62
7
  6
BYLAYER
 10
495.3125756706
 20
1229.3357038123
 11
495.3125756706
 21
1245.8357038123
  0
LINE
  5
288
100
AcDbEntity
  8
0
100
AcDbLine
 62
7
  6
BYLAYER
 10
495.3128164077
 20
114.3355936738
 11
495.3128164077
 21
116.3234811737
  0
LINE
  5
289
100
AcDbEntity
  8
0
100
AcDbLine
 62
7
  6
BYLAYER
 10
495.3128164077
 20
116.3355936738
 11
495.3128164077
 21
130.8355936738
  0
LINE
  5
28A
100
AcDbEntity
  8
4
100
AcDbLine
 62
7
  6
BYLAYER
 10
495.5542364856
 20
1204.5187813964
 11
495.5542364856
 21
1154.5187813964
  0
LINE
  5
28B
100
AcDbEntity
  8
4
100
AcDbLine
 62
7
  6
BYLAYER
 10
495.5542364856
 20
208.1838789356
 11
495.5542364856
 21
158.1838789356
  0
LINE
  5
28C
100
AcDbEntity
  8
4
100
AcDbLine
 62
7
  6
BYLAYER
 10
502.5542364856
 20
158.1838789356
 11
502.5542364856
 21
208.1838789356
  0
LINE
  5
28D
100
AcDbEntity
  8
4
100
AcDbLine
 62
7
  6
BYLAYER
 10
502.5542364856
 20
1154.5187813964
 11
502.5542364856
 21
1204.5187813964
  0
LINE
  5
28E
100
AcDbEntity
  8
4
100
AcDbLine
 62
7
  6
BYLAYER
 10
545.5542364856
 20
1199.5187813964
 11
545.5542364856
 21
1159.5187813964
  0
LINE
  5
28F
100
AcDbEntity
  8
4
100
AcDbLine
 62
7
  6
BYLAYER
 10
545.5542364856
 20
203.1838789356
 11
545.5542364856
 21
163.1838789356
  0
LINE
  5
290
100
AcDbEntity
  8
0
100
AcDbLine
 62
7
  6
BYLAYER
 10
449.6625756706
 20
1246.9357038123
 11
449.5625756706
 21
1247.0357038123
  0
LINE
  5
291
100
AcDbEntity
  8
0
100
AcDbLine
 62
7
  6
BYLAYER
 10
465.0625756706
 20
1247.8357038123
 11
464.5625756706
 21
1248.3357038123
  0
LINE
  5
292
100
AcDbEntity
  8
0
100
AcDbLine
 62
7
  6
BYLAYER
 10
465.0625756706
 20
1252.8357038123
 11
464.5625756706
 21
1253.3357038123
  0
LINE
  5
293
100
AcDbEntity
  8
0
100
AcDbLine
 62
7
  6
BYLAYER
 10
463.3125756706
 20
1256.8357059708
 11
462.8125776492
 21
1257.3357038123
  0
LINE
  5
294
100
AcDbEntity
  8
0
100
AcDbLine
 62
7
  6
BYLAYER
 10
487.5625756706
 20
1252.8357038123
 11
487.0625756706
 21
1253.3357038123
  0
LINE
  5
295
100
AcDbEntity
  8
4
100
AcDbLine
 62
7
  6
BYLAYER
 10
540.5542364856
 20
1154.5187813964
 11
495.5542364856
 21
1154.5187813964
  0
LINE
  5
296
100
AcDbEntity
  8
4
100
AcDbLine
 62
7
  6
BYLAYER
 10
523.8542364856
 20
1161.2687813964
 11
537.3542364856
 21
1161.2687813964
  0
LINE
  5
297
100
AcDbEntity
  8
4
100
AcDbLine
 62
7
  6
BYLAYER
 10
495.5542364856
 20
1161.5187813964
 11
495.3123349334
 21
1161.5187813964
  0
LINE
  5
298
100
AcDbEntity
  8
4
100
AcDbLine
 62
7
  6
BYLAYER
 10
495.5542364856
 20
1167.5187813964
 11
495.3123349334
 21
1167.5187813964
  0
LINE
  5
299
100
AcDbEntity
  8
4
100
AcDbLine
 62
7
  6
BYLAYER
 10
537.3542364856
 20
1167.7687813964
 11
523.8542364856
 21
1167.7687813964
  0
LINE
  5
29A
100
AcDbEntity
  8
0
100
AcDbLine
 62
7
  6
BYLAYER
 10
472.7987823742
 20
1246.8353377736
 11
472.7984548901
 21
1246.8353201246
  0
LINE
  5
29B
100
AcDbEntity
  8
0
100
AcDbLine
 62
7
  6
BYLAYER
 10
472.8108440204
 20
1246.8356980772
 11
472.7987823742
 21
1246.8353377736
  0
LINE
  5
29C
100
AcDbEntity
  8
0
100
AcDbLine
 62
7
  6
BYLAYER
 10
472.8019480008
 20
1246.835647337
 11
472.8093816219
 21
1246.8356987113
  0
LINE
  5
29D
100
AcDbEntity
  8
4
100
AcDbLine
 62
7
  6
BYLAYER
 10
523.8542364856
 20
1191.2687813964
 11
537.3542364856
 21
1191.2687813964
  0
LINE
  5
29E
100
AcDbEntity
  8
4
100
AcDbLine
 62
7
  6
BYLAYER
 10
495.5542364856
 20
1191.5187813964
 11
495.3123349334
 21
1191.5187813964
  0
LINE
  5
29F
100
AcDbEntity
  8
4
100
AcDbLine
 62
7
  6
BYLAYER
 10
495.5542364856
 20
1197.5187813964
 11
495.3123349334
 21
1197.5187813964
  0
LINE
  5
2A0
100
AcDbEntity
  8
4
100
AcDbLine
 62
7
  6
BYLAYER
 10
537.3542364856
 20
1197.7687813964
 11
523.8542364856
 21
1197.7687813964
  0
LINE
  5
2A1
100
AcDbEntity
  8
4
100
AcDbLine
 62
7
  6
BYLAYER
 10
495.5542364856
 20
1204.5187813964
 11
540.5542364856
 21
1204.5187813964
  0
LINE
  5
2A2
100
AcDbEntity
  8
0
100
AcDbLine
 62
7
  6
BYLAYER
 10
440.3125756706
 20
1229.3357038123
 11
495.3125756706
 21
1229.3357038123
  0
LINE
  5
2A3
100
AcDbEntity
  8
3
100
AcDbLine
 62
7
  6
BYLAYER
 10
440.3123176185
 20
1229.3357166208
 11
495.3123349334
 21
1229.3357166208
  0
LINE
  5
2A4
100
AcDbEntity
  8
0
100
AcDbLine
 62
7
  6
BYLAYER
 10
445.4004939787
 20
1243.8357038123
 11
453.8125756706
 21
1243.8357038123
  0
LINE
  5
2A5
100
AcDbEntity
  8
0
100
AcDbLine
 62
7
  6
BYLAYER
 10
487.8125756706
 20
1243.8357038123
 11
495.3125756706
 21
1243.8357038123
  0
LINE
  5
2A6
100
AcDbEntity
  8
0
100
AcDbLine
 62
7
  6
BYLAYER
 10
447.2628221891
 20
1244.3357038123
 11
453.8125756706
 21
1244.3357038123
  0
LINE
  5
2A7
100
AcDbEntity
  8
0
100
AcDbLine
 62
7
  6
BYLAYER
 10
487.8125756706
 20
1244.3357038123
 11
494.8125756706
 21
1244.3357038123
  0
LINE
  5
2A8
100
AcDbEntity
  8
0
100
AcDbLine
 62
7
  6
BYLAYER
 10
495.3125756706
 20
1244.8357038812
 11
494.1125756706
 21
1244.8357038123
  0
LINE
  5
2A9
100
AcDbEntity
  8
0
100
AcDbLine
 62
7
  6
BYLAYER
 10
487.5125756706
 20
1244.8357038123
 11
486.3125756706
 21
1244.8357038813
  0
LINE
  5
2AA
100
AcDbEntity
  8
0
100
AcDbLine
 62
7
  6
BYLAYER
 10
455.3125756706
 20
1244.8357038812
 11
454.1125756706
 21
1244.8357038123
  0
LINE
  5
2AB
100
AcDbEntity
  8
0
100
AcDbLine
 62
7
  6
BYLAYER
 10
447.5125756706
 20
1244.8357038123
 11
446.9002604617
 21
1244.8357038123
  0
LINE
  5
2AC
100
AcDbEntity
  8
0
100
AcDbLine
 62
7
  6
BYLAYER
 10
440.3125756706
 20
1245.8357038123
 11
447.5125756706
 21
1245.8357038123
  0
LINE
  5
2AD
100
AcDbEntity
  8
0
100
AcDbLine
 62
7
  6
BYLAYER
 10
454.1125756706
 20
1245.8357038123
 11
463.8125756706
 21
1245.8357038058
  0
LINE
  5
2AE
100
AcDbEntity
  8
0
100
AcDbLine
 62
7
  6
BYLAYER
 10
471.8125756706
 20
1245.8357038123
 11
487.5125756706
 21
1245.8357038123
  0
LINE
  5
2AF
100
AcDbEntity
  8
0
100
AcDbLine
 62
7
  6
BYLAYER
 10
494.1125756706
 20
1245.8357038123
 11
495.3125756706
 21
1245.8357038123
  0
LINE
  5
2B0
100
AcDbEntity
  8
0
100
AcDbLine
 62
7
  6
BYLAYER
 10
447.5125756706
 20
1245.9357038123
 11
454.1125756706
 21
1245.9357038123
  0
LINE
  5
2B1
100
AcDbEntity
  8
0
100
AcDbLine
 62
7
  6
BYLAYER
 10
487.5125756706
 20
1245.9357038123
 11
494.1125756706
 21
1245.9357038123
  0
LINE
  5
2B2
100
AcDbEntity
  8
0
100
AcDbLine
 62
7
  6
BYLAYER
 10
463.6686686227
 20
1246.3357038123
 11
471.9562673547
 21
1246.3357038123
  0
LINE
  5
2B3
100
AcDbEntity
  8
0
100
AcDbLine
 62
7
  6
BYLAYER
 10
494.3125756706
 20
1246.8357038123
 11
493.4857808741
 21
1246.8357038123
  0
LINE
  5
2B4
100
AcDbEntity
  8
0
100
AcDbLine
 62
7
  6
BYLAYER
 10
441.3125756706
 20
1246.8357038123
 11
448.1393704671
 21
1246.8357038123
  0
LINE
  5
2B5
100
AcDbEntity
  8
0
100
AcDbLine
 62
7
  6
BYLAYER
 10
448.5126597692
 20
1246.9357038123
 11
453.1124830715
 21
1246.9357038123
  0
LINE
  5
2B6
100
AcDbEntity
  8
0
100
AcDbLine
 62
7
  6
BYLAYER
 10
488.5126597692
 20
1246.9357038123
 11
493.1124830715
 21
1246.9357038123
  0
LINE
  5
2B7
100
AcDbEntity
  8
0
100
AcDbLine
 62
7
  6
BYLAYER
 10
465.0625756706
 20
1247.0357038123
 11
449.5625756706
 21
1247.0357038123
  0
LINE
  5
2B8
100
AcDbEntity
  8
0
100
AcDbLine
 62
7
  6
BYLAYER
 10
449.5625756706
 20
1247.8357038123
 11
465.0625756706
 21
1247.8357038123
  0
LINE
  5
2B9
100
AcDbEntity
  8
0
100
AcDbLine
 62
7
  6
BYLAYER
 10
487.5625113737
 20
1248.3357038123
 11
472.0626399674
 21
1248.3357038123
  0
LINE
  5
2BA
100
AcDbEntity
  8
0
100
AcDbLine
 62
7
  6
BYLAYER
 10
449.5626399674
 20
1248.3357038123
 11
465.0625113737
 21
1248.3357038123
  0
LINE
  5
2BB
100
AcDbEntity
  8
0
100
AcDbLine
 62
7
  6
BYLAYER
 10
463.3125690872
 20
1249.3357038123
 11
451.3125822539
 21
1249.3357038123
  0
LINE
  5
2BC
100
AcDbEntity
  8
0
100
AcDbLine
 62
7
  6
BYLAYER
 10
487.5625756706
 20
1251.3357038123
 11
472.0625756706
 21
1251.3357038123
  0
LINE
  5
2BD
100
AcDbEntity
  8
0
100
AcDbLine
 62
7
  6
BYLAYER
 10
465.0625756706
 20
1251.3357038123
 11
463.3125756706
 21
1251.3357038123
  0
LINE
  5
2BE
100
AcDbEntity
  8
0
100
AcDbLine
 62
7
  6
BYLAYER
 10
451.3125756706
 20
1251.3357038123
 11
449.5625756706
 21
1251.3357038123
  0
LINE
  5
2BF
100
AcDbEntity
  8
0
100
AcDbLine
 62
7
  6
BYLAYER
 10
449.5625756706
 20
1252.8357038123
 11
451.3125756706
 21
1252.8357038123
  0
LINE
  5
2C0
100
AcDbEntity
  8
0
100
AcDbLine
 62
7
  6
BYLAYER
 10
463.3125756706
 20
1252.8357038123
 11
465.0625756706
 21
1252.8357038123
  0
LINE
  5
2C1
100
AcDbEntity
  8
0
100
AcDbLine
 62
7
  6
BYLAYER
 10
472.0625756706
 20
1252.8357038123
 11
487.5625756706
 21
1252.8357038123
  0
LINE
  5
2C2
100
AcDbEntity
  8
0
100
AcDbLine
 62
7
  6
BYLAYER
 10
450.0625756706
 20
1253.3357038123
 11
451.3125756706
 21
1253.3357038123
  0
LINE
  5
2C3
100
AcDbEntity
  8
0
100
AcDbLine
 62
7
  6
BYLAYER
 10
463.3125756706
 20
1253.3357038123
 11
464.5625756706
 21
1253.3357038123
  0
LINE
  5
2C4
100
AcDbEntity
  8
0
100
AcDbLine
 62
7
  6
BYLAYER
 10
472.5625756706
 20
1253.3357038123
 11
487.0625756706
 21
1253.3357038123
  0
LINE
  5
2C5
100
AcDbEntity
  8
0
100
AcDbLine
 62
7
  6
BYLAYER
 10
475.6863156706
 20
1254.5357038123
 11
483.9363156706
 21
1254.5357038123
  0
LINE
  5
2C6
100
AcDbEntity
  8
0
100
AcDbLine
 62
7
  6
BYLAYER
 10
475.9862479475
 20
1254.8357038123
 11
483.6363449167
 21
1254.8357038123
  0
LINE
  5
2C7
100
AcDbEntity
  8
0
100
AcDbLine
 62
7
  6
BYLAYER
 10
451.3125756706
 20
1256.8357059708
 11
463.3125756706
 21
1256.8357059708
  0
LINE
  5
2C8
100
AcDbEntity
  8
0
100
AcDbLine
 62
7
  6
BYLAYER
 10
451.8125736919
 20
1257.3357038123
 11
462.8125776492
 21
1257.3357038123
  0
LINE
  5
2C9
100
AcDbEntity
  8
0
100
AcDbLine
 62
7
  6
BYLAYER
 10
453.4857808741
 20
1246.8357038123
 11
488.1393704671
 21
1246.8357038123
  0
LINE
  5
2CA
100
AcDbEntity
  8
0
100
AcDbLine
 62
7
  6
BYLAYER
 10
462.8142186651
 20
1246.8356986495
 11
462.8125756672
 21
1246.8357038123
  0
LINE
  5
2CB
100
AcDbEntity
  8
0
100
AcDbLine
 62
7
  6
BYLAYER
 10
462.8218074326
 20
1246.8356545848
 11
462.8151743899
 21
1246.8357002187
  0
LINE
  5
2CC
100
AcDbEntity
  8
0
100
AcDbLine
 62
7
  6
BYLAYER
 10
494.3308871282
 20
1246.8355361435
 11
494.3157860344
 21
1246.8356986591
  0
LINE
  5
2CD
100
AcDbEntity
  8
0
100
AcDbLine
 62
7
  6
BYLAYER
 10
462.8175824232
 20
1246.8356557901
 11
462.8143077351
 21
1246.8356980743
  0
LINE
  5
2CE
100
AcDbEntity
  8
0
100
AcDbLine
 62
7
  6
BYLAYER
 10
462.8262905949
 20
1246.835341927
 11
462.8175824232
 21
1246.8356557901
  0
LINE
  5
2CF
100
AcDbEntity
  8
0
100
AcDbLine
 62
7
  6
BYLAYER
 10
494.8355178254
 20
1246.6880719377
 11
494.3158702456
 21
1246.8357097335
  0
ARC
  5
2D0
100
AcDbEntity
  8
0
100
AcDbCircle
 62
7
  6
BYLAYER
 10
468.7473006542
 20
100.9967331869
 40
27.339436621
100
AcDbArc
 50
146.3901752757
 51
146.9058661842
  0
ARC
  5
2D1
100
AcDbEntity
  8
0
100
AcDbCircle
 62
7
  6
BYLAYER
 10
488.5128164077
 20
114.2357038123
 40
1.0
100
AcDbArc
 50
180.0
 51
270.0
  0
ARC
  5
2D2
100
AcDbEntity
  8
0
100
AcDbCircle
 62
7
  6
BYLAYER
 10
453.1128282866
 20
114.2357038123
 40
1.0
100
AcDbArc
 50
270.0
 51
360.0
  0
ARC
  5
2D3
100
AcDbEntity
  8
0
100
AcDbCircle
 62
7
  6
BYLAYER
 10
448.5128282866
 20
114.2357038123
 40
1.0
100
AcDbArc
 50
180.0
 51
270.0
  0
ARC
  5
2D4
100
AcDbEntity
  8
0
100
AcDbCircle
 62
7
  6
BYLAYER
 10
472.8128164122
 20
114.3355936773
 40
1.0
100
AcDbArc
 50
180.0
 51
238.6866725918
  0
ARC
  5
2D5
100
AcDbEntity
  8
0
100
AcDbCircle
 62
7
  6
BYLAYER
 10
486.3128164077
 20
114.3355936738
 40
1.0
100
AcDbArc
 50
270.0
 51
360.0
  0
ARC
  5
2D6
100
AcDbEntity
  8
0
100
AcDbCircle
 62
7
  6
BYLAYER
 10
462.8128164077
 20
114.3355936738
 40
1.0
100
AcDbArc
 50
270.6674268157
 51
360.0
  0
ARC
  5
2D7
100
AcDbEntity
  8
0
100
AcDbCircle
 62
7
  6
BYLAYER
 10
441.3128164079
 20
114.3355936739
 40
1.0
100
AcDbArc
 50
180.0000000033
 51
269.9999999921
  0
ARC
  5
2D8
100
AcDbEntity
  8
0
100
AcDbCircle
 62
7
  6
BYLAYER
 10
455.3128164077
 20
114.3355936738
 40
1.0
100
AcDbArc
 50
180.0
 51
270.0
  0
ARC
  5
2D9
100
AcDbEntity
  8
0
100
AcDbCircle
 62
7
  6
BYLAYER
 10
446.3128164077
 20
114.3355936739
 40
1.0
100
AcDbArc
 50
270.0
 51
359.9999999991
  0
ARC
  5
2DA
100
AcDbEntity
  8
0
100
AcDbCircle
 62
7
  6
BYLAYER
 10
447.8128164077
 20
115.3355936738
 40
0.5
100
AcDbArc
 50
90.0
 51
180.0
  0
ARC
  5
2DB
100
AcDbEntity
  8
0
100
AcDbCircle
 62
7
  6
BYLAYER
 10
487.8128164077
 20
115.3355936738
 40
0.5
100
AcDbArc
 50
90.0
 51
180.0
  0
ARC
  5
2DC
100
AcDbEntity
  8
0
100
AcDbCircle
 62
7
  6
BYLAYER
 10
453.8128164077
 20
115.3355936738
 40
0.5
100
AcDbArc
 50
0.0
 51
90.0
  0
ARC
  5
2DD
100
AcDbEntity
  8
0
100
AcDbCircle
 62
7
  6
BYLAYER
 10
472.8127296758
 20
113.5899503585
 40
0.254354974
100
AcDbArc
 50
265.0200911361
 51
266.914068125
  0
ARC
  5
2DE
100
AcDbEntity
  8
0
100
AcDbCircle
 62
7
  6
BYLAYER
 10
467.2881236117
 20
1258.2143265684
 40
25.5928728253
100
AcDbArc
 50
213.0765374052
 51
213.627421462
  0
ARC
  5
2DF
100
AcDbEntity
  8
0
100
AcDbCircle
 62
7
  6
BYLAYER
 10
488.5125756706
 20
1245.9357038123
 40
1.0
100
AcDbArc
 50
90.0
 51
180.0
  0
ARC
  5
2E0
100
AcDbEntity
  8
0
100
AcDbCircle
 62
7
  6
BYLAYER
 10
453.1125756706
 20
1245.9357038123
 40
1.0
100
AcDbArc
 50
0.0
 51
90.0
  0
ARC
  5
2E1
100
AcDbEntity
  8
0
100
AcDbCircle
 62
7
  6
BYLAYER
 10
448.5125756706
 20
1245.9357038123
 40
1.0
100
AcDbArc
 50
90.0
 51
180.0
  0
ARC
  5
2E2
100
AcDbEntity
  8
0
100
AcDbCircle
 62
7
  6
BYLAYER
 10
462.8125756672
 20
1245.8357038083
 40
1.0
100
AcDbArc
 50
0.0
 51
89.8213671859
  0
ARC
  5
2E3
100
AcDbEntity
  8
0
100
AcDbCircle
 62
7
  6
BYLAYER
 10
441.3125756706
 20
1245.8357038124
 40
1.0
100
AcDbArc
 50
90.0000000027
 51
180.0000005426
  0
ARC
  5
2E4
100
AcDbEntity
  8
0
100
AcDbCircle
 62
7
  6
BYLAYER
 10
446.3125756706
 20
1245.8357038123
 40
1.0
100
AcDbArc
 50
0.0
 51
90.0
  0
ARC
  5
2E5
100
AcDbEntity
  8
0
100
AcDbCircle
 62
7
  6
BYLAYER
 10
455.3125756706
 20
1245.8357038123
 40
1.0
100
AcDbArc
 50
90.0
 51
180.0
  0
ARC
  5
2E6
100
AcDbEntity
  8
0
100
AcDbCircle
 62
7
  6
BYLAYER
 10
472.8125756706
 20
1245.8357038123
 40
1.0
100
AcDbArc
 50
90.6089320864
 51
180.0
  0
ARC
  5
2E7
100
AcDbEntity
  8
0
100
AcDbCircle
 62
7
  6
BYLAYER
 10
486.3125756706
 20
1245.8357038123
 40
1.0
100
AcDbArc
 50
0.0
 51
90.0
  0
ARC
  5
2E8
100
AcDbEntity
  8
0
100
AcDbCircle
 62
7
  6
BYLAYER
 10
487.8125756706
 20
1244.8357038123
 40
0.5
100
AcDbArc
 50
180.0
 51
270.0
  0
ARC
  5
2E9
100
AcDbEntity
  8
0
100
AcDbCircle
 62
7
  6
BYLAYER
 10
453.8125756706
 20
1244.8357038123
 40
0.5
100
AcDbArc
 50
270.0
 51
360.0
  0
ARC
  5
2EA
100
AcDbEntity
  8
0
100
AcDbCircle
 62
7
  6
BYLAYER
 10
447.8125756706
 20
1244.8357038123
 40
0.5
100
AcDbArc
 50
180.0
 51
270.0
  0
ARC
  5
2EB
100
AcDbEntity
  8
0
100
AcDbCircle
 62
7
  6
BYLAYER
 10
475.9863156706
 20
1254.5357038123
 40
0.3
100
AcDbArc
 50
90.0
 51
180.0
  0
ARC
  5
2EC
100
AcDbEntity
  8
0
100
AcDbCircle
 62
7
  6
BYLAYER
 10
483.6363156706
 20
1254.5357038123
 40
0.3
100
AcDbArc
 50
0.0
 51
90.0
  0
ARC
  5
2ED
100
AcDbEntity
  8
0
100
AcDbCircle
 62
7
  6
BYLAYER
 10
462.8126632501
 20
1246.581359952
 40
0.2543421226
100
AcDbArc
 50
84.9226166123
 51
86.9113981296
  0
ARC
  5
2EE
100
AcDbEntity
  8
4
100
AcDbCircle
 62
7
  6
BYLAYER
 10
540.5542364856
 20
203.1838789356
 40
5.0
100
AcDbArc
 50
0.0
 51
90.0
  0
ARC
  5
2EF
100
AcDbEntity
  8
4
100
AcDbCircle
 62
7
  6
BYLAYER
 10
540.5542364856
 20
163.1838789356
 40
5.0
100
AcDbArc
 50
270.0
 51
360.0
  0
ARC
  5
2F0
100
AcDbEntity
  8
4
100
AcDbCircle
 62
7
  6
BYLAYER
 10
537.3542364856
 20
198.1838789356
 40
3.25
100
AcDbArc
 50
270.0
 51
90.0
  0
ARC
  5
2F1
100
AcDbEntity
  8
4
100
AcDbCircle
 62
7
  6
BYLAYER
 10
523.8542364856
 20
198.1838789356
 40
3.25
100
AcDbArc
 50
90.0
 51
270.0
  0
ARC
  5
2F2
100
AcDbEntity
  8
4
100
AcDbCircle
 62
7
  6
BYLAYER
 10
523.8542364856
 20
168.1838789356
 40
3.25
100
AcDbArc
 50
90.0
 51
270.0
  0
ARC
  5
2F3
100
AcDbEntity
  8
4
100
AcDbCircle
 62
7
  6
BYLAYER
 10
537.3542364856
 20
168.1838789356
 40
3.25
100
AcDbArc
 50
270.0
 51
90.0
  0
ARC
  5
2F4
100
AcDbEntity
  8
0
100
AcDbCircle
 62
7
  6
BYLAYER
 10
493.1128164077
 20
114.2357038123
 40
1.0
100
AcDbArc
 50
270.0
 51
360.0
  0
ARC
  5
2F5
100
AcDbEntity
  8
0
100
AcDbCircle
 62
7
  6
BYLAYER
 10
494.3128164077
 20
114.3355936738
 40
1.0
100
AcDbArc
 50
270.0
 51
360.0
  0
ARC
  5
2F6
100
AcDbEntity
  8
0
100
AcDbCircle
 62
7
  6
BYLAYER
 10
494.8128164077
 20
116.3355936738
 40
0.5
100
AcDbArc
 50
270.0
 51
360.0
  0
ARC
  5
2F7
100
AcDbEntity
  8
4
100
AcDbCircle
 62
7
  6
BYLAYER
 10
540.5542364856
 20
1199.5187813964
 40
5.0
100
AcDbArc
 50
0.0
 51
90.0
  0
ARC
  5
2F8
100
AcDbEntity
  8
4
100
AcDbCircle
 62
7
  6
BYLAYER
 10
540.5542364856
 20
1159.5187813964
 40
5.0
100
AcDbArc
 50
270.0
 51
360.0
  0
ARC
  5
2F9
100
AcDbEntity
  8
4
100
AcDbCircle
 62
7
  6
BYLAYER
 10
537.3542364856
 20
1194.5187813964
 40
3.25
100
AcDbArc
 50
270.0
 51
90.0
  0
ARC
  5
2FA
100
AcDbEntity
  8
4
100
AcDbCircle
 62
7
  6
BYLAYER
 10
523.8542364856
 20
1194.5187813964
 40
3.25
100
AcDbArc
 50
90.0
 51
270.0
  0
ARC
  5
2FB
100
AcDbEntity
  8
4
100
AcDbCircle
 62
7
  6
BYLAYER
 10
523.8542364856
 20
1164.5187813964
 40
3.25
100
AcDbArc
 50
90.0
 51
270.0
  0
ARC
  5
2FC
100
AcDbEntity
  8
4
100
AcDbCircle
 62
7
  6
BYLAYER
 10
537.3542364856
 20
1164.5187813964
 40
3.25
100
AcDbArc
 50
270.0
 51
90.0
  0
ARC
  5
2FD
100
AcDbEntity
  8
0
100
AcDbCircle
 62
7
  6
BYLAYER
 10
493.1125756706
 20
1245.9357038123
 40
1.0
100
AcDbArc
 50
0.0
 51
90.0
  0
ARC
  5
2FE
100
AcDbEntity
  8
0
100
AcDbCircle
 62
7
  6
BYLAYER
 10
494.3125756706
 20
1245.8357038123
 40
1.0
100
AcDbArc
 50
0.0
 51
90.0
  0
ARC
  5
2FF
100
AcDbEntity
  8
0
100
AcDbCircle
 62
7
  6
BYLAYER
 10
494.8125756706
 20
1243.8357038123
 40
0.5
100
AcDbArc
 50
0.0
 51
90.0
  0
SPLINE
  5
300
100
AcDbEntity
  8
0
100
AcDbSpline
 62
7
  6
BYLAYER
 70
0
 71
3
 72
12
 73
8
 74
0
 42
0.0000001
 43
0.0000001
 44
0.0000000001
 40
0.0
 40
0.0
 40
0.0
 40
0.0
 40
0.1249612752
 40
0.2501494132
 40
0.4995021241
 40
0.7494103699
 40
1.0
 40
1.0
 40
1.0
 40
1.0
 10
486.3128164077
 20
115.3355936738
 30
0.0
 10
486.312816628
 20
115.4186021276
 30
0.0
 10
486.3449631113
 20
115.5858645401
 30
0.0
 10
486.5078523612
 20
115.8791005464
 30
0.0
 10
486.8326330426
 20
116.1576958193
 30
0.0
 10
487.3110193822
 20
116.3286739101
 30
0.0
 10
487.6463563769
 20
116.3355937152
 30
0.0
 10
487.8128164077
 20
116.3355936738
 30
0.0
  0
SPLINE
  5
301
100
AcDbEntity
  8
0
100
AcDbSpline
 62
7
  6
BYLAYER
 70
0
 71
3
 72
16
 73
12
 74
0
 42
0.0000001
 43
0.0000001
 44
0.0000000001
 40
0.0
 40
0.0
 40
0.0
 40
0.0
 40
0.2636273647
 40
0.4178764038
 40
0.5741876959
 40
0.7240052304
 40
0.8563237188
 40
0.9120390276
 40
0.957262702
 40
0.9883504454
 40
1.0
 40
1.0
 40
1.0
 40
1.0
 10
494.3128163961
 20
115.3355936738
 30
0.0
 10
494.312816551
 20
115.3988876886
 30
0.0
 10
494.3823627367
 20
115.4888132653
 30
0.0
 10
494.4787301579
 20
115.5830671849
 30
0.0
 10
494.5635153799
 20
115.655132216
 30
0.0
 10
494.6454451786
 20
115.7209487094
 30
0.0
 10
494.710575585
 20
115.7694348713
 30
0.0
 10
494.7563063527
 20
115.8016886353
 30
0.0
 10
494.7836074182
 20
115.8180985606
 30
0.0
 10
494.8003581435
 20
115.8305713997
 30
0.0
 10
494.811081206
 20
115.8334000628
 30
0.0
 10
494.8128163995
 20
115.835593671
 30
0.0
  0
SPLINE
  5
302
100
AcDbEntity
  8
0
100
AcDbSpline
 62
7
  6
BYLAYER
 70
0
 71
3
 72
10
 73
6
 74
0
 42
0.0000001
 43
0.0000001
 44
0.0000000001
 40
0.0
 40
0.0
 40
0.0
 40
0.0
 40
0.5192781938
 40
0.770670408
 40
1.0
 40
1.0
 40
1.0
 40
1.0
 10
445.9782976138
 20
116.1300507268
 30
0.0
 10
446.1940119036
 20
116.0535475387
 30
0.0
 10
446.5198155523
 20
115.9545045496
 30
0.0
 10
446.9504074079
 20
115.8606086755
 30
0.0
 10
447.1619827597
 20
115.8355939019
 30
0.0
 10
447.2630627321
 20
115.8355936738
 30
0.0
  0
SPLINE
  5
303
100
AcDbEntity
  8
0
100
AcDbSpline
 62
7
  6
BYLAYER
 70
0
 71
3
 72
9
 73
5
 74
0
 42
0.0000001
 43
0.0000001
 44
0.0000000001
 40
0.0
 40
0.0
 40
0.0
 40
0.0
 40
0.2566268573
 40
1.0
 40
1.0
 40
1.0
 40
1.0
 10
445.9661545752
 20
116.3355936738
 30
0.0
 10
445.9661545752
 20
116.3179744181
 30
0.0
 10
445.9671593356
 20
116.2493248676
 30
0.0
 10
445.9720227921
 20
116.180701609
 30
0.0
 10
445.9782976839
 20
116.1300509698
 30
0.0
  0
SPLINE
  5
304
100
AcDbEntity
  8
0
100
AcDbSpline
 62
7
  6
BYLAYER
 70
0
 71
3
 72
11
 73
7
 74
0
 42
0.0000001
 43
0.0000001
 44
0.0000000001
 40
0.0
 40
0.0
 40
0.0
 40
0.0
 40
0.2853926475
 40
0.5514859482
 40
0.7876080354
 40
1.0
 40
1.0
 40
1.0
 40
1.0
 10
446.9005012967
 20
115.3355936738
 30
0.0
 10
446.9005012967
 20
115.4000342713
 30
0.0
 10
446.9178510503
 20
115.5253723536
 30
0.0
 10
446.9940455451
 20
115.6893189714
 30
0.0
 10
447.112587386
 20
115.8055768325
 30
0.0
 10
447.2151056113
 20
115.8355936738
 30
0.0
 10
447.2630629263
 20
115.8355936738
 30
0.0
  0
SPLINE
  5
305
100
AcDbEntity
  8
0
100
AcDbSpline
 62
7
  6
BYLAYER
 70
0
 71
3
 72
12
 73
8
 74
0
 42
0.0000001
 43
0.0000001
 44
0.0000000001
 40
0.0
 40
0.0
 40
0.0
 40
0.0
 40
0.1249607169
 40
0.2501491118
 40
0.4995020359
 40
0.7494105011
 40
1.0
 40
1.0
 40
1.0
 40
1.0
 10
455.3128164077
 20
115.3355936738
 30
0.0
 10
455.312816272
 20
115.4186017561
 30
0.0
 10
455.2806698455
 20
115.5858639565
 30
0.0
 10
455.1177809511
 20
115.8791000916
 30
0.0
 10
454.7929999497
 20
116.1576957915
 30
0.0
 10
454.3146133919
 20
116.3286738965
 30
0.0
 10
453.9792763501
 20
116.3355936816
 30
0.0
 10
453.8128164077
 20
116.3355936738
 30
0.0
  0
SPLINE
  5
306
100
AcDbEntity
  8
0
100
AcDbSpline
 62
7
  6
BYLAYER
 70
0
 71
3
 72
11
 73
7
 74
0
 42
0.0000001
 43
0.0000001
 44
0.0000000001
 40
0.0
 40
0.0
 40
0.0
 40
0.0
 40
0.1629740121
 40
0.3807502866
 40
0.6664956627
 40
1.0
 40
1.0
 40
1.0
 40
1.0
 10
462.8269378695
 20
113.335982876
 30
0.0
 10
462.891485771
 20
113.3395502011
 30
0.0
 10
463.0370816495
 20
113.413224349
 30
0.0
 10
463.1864024871
 20
113.6380310724
 30
0.0
 10
463.2888768916
 20
113.9567119768
 30
0.0
 10
463.3126219921
 20
114.2033036713
 30
0.0
 10
463.3128164077
 20
114.3355936738
 30
0.0
  0
SPLINE
  5
307
100
AcDbEntity
  8
0
100
AcDbSpline
 62
7
  6
BYLAYER
 70
0
 71
3
 72
12
 73
8
 74
0
 42
0.0000001
 43
0.0000001
 44
0.0000000001
 40
0.0
 40
0.0
 40
0.0
 40
0.0
 40
0.1204256772
 40
0.2168040679
 40
0.3384901845
 40
0.6444154225
 40
1.0
 40
1.0
 40
1.0
 40
1.0
 10
442.0380952798
 20
113.3355936813
 30
0.0
 10
441.9948247319
 20
113.3355936813
 30
0.0
 10
441.9299292003
 20
113.4042341537
 30
0.0
 10
441.8803293045
 20
113.5107787619
 30
0.0
 10
441.8211055336
 20
113.6918760506
 30
0.0
 10
441.7759654479
 20
113.9697731001
 30
0.0
 10
441.7633741519
 20
114.2078274122
 30
0.0
 10
441.7633741519
 20
114.3355936813
 30
0.0
  0
SPLINE
  5
308
100
AcDbEntity
  8
0
100
AcDbSpline
 62
7
  6
BYLAYER
 70
0
 71
3
 72
9
 73
5
 74
0
 42
0.0000001
 43
0.0000001
 44
0.0000000001
 40
0.0
 40
0.0
 40
0.0
 40
0.0
 40
0.246955164
 40
1.0
 40
1.0
 40
1.0
 40
1.0
 10
445.4007347159
 20
116.3355936738
 30
0.0
 10
445.4480997185
 20
116.31817754
 30
0.0
 10
445.6400327124
 20
116.2480323701
 30
0.0
 10
445.8325970694
 20
116.1795737203
 30
0.0
 10
445.9783041573
 20
116.1300748877
 30
0.0
  0
SPLINE
  5
309
100
AcDbEntity
  8
0
100
AcDbSpline
 62
7
  6
BYLAYER
 70
0
 71
3
 72
9
 73
5
 74
0
 42
0.0000001
 43
0.0000001
 44
0.0000000001
 40
0.0
 40
0.0
 40
0.0
 40
0.0
 40
0.2520685873
 40
1.0
 40
1.0
 40
1.0
 40
1.0
 10
445.8429700944
 20
115.9244574495
 30
0.0
 10
445.8046848999
 20
115.9577556916
 30
0.0
 10
445.6541656936
 20
116.0914256151
 30
0.0
 10
445.5082098876
 20
116.2301633299
 30
0.0
 10
445.4007347159
 20
116.3355936738
 30
0.0
  0
SPLINE
  5
30A
100
AcDbEntity
  8
0
100
AcDbSpline
 62
7
  6
BYLAYER
 70
0
 71
3
 72
11
 73
7
 74
0
 42
0.0000001
 43
0.0000001
 44
0.0000000001
 40
0.0
 40
0.0
 40
0.0
 40
0.0
 40
0.1004118823
 40
0.212106958
 40
0.4601412144
 40
1.0
 40
1.0
 40
1.0
 40
1.0
 10
446.9005011782
 20
115.3355936738
 30
0.0
 10
446.859460944
 20
115.3340077694
 30
0.0
 10
446.7727505335
 20
115.3499501357
 30
0.0
 10
446.5940541488
 20
115.4089188589
 30
0.0
 10
446.2690464319
 20
115.5861451314
 30
0.0
 10
446.0096061619
 20
115.7795721314
 30
0.0
 10
445.8430142735
 20
115.9245082658
 30
0.0
  0
SPLINE
  5
30B
100
AcDbEntity
  8
0
100
AcDbSpline
 62
7
  6
BYLAYER
 70
0
 71
3
 72
12
 73
8
 74
0
 42
0.0000001
 43
0.0000001
 44
0.0000000001
 40
0.0
 40
0.0
 40
0.0
 40
0.0
 40
0.3555845776
 40
0.6615098155
 40
0.7831959321
 40
0.8795743228
 40
1.0
 40
1.0
 40
1.0
 40
1.0
 10
445.4007347159
 20
114.3355936811
 30
0.0
 10
445.4007347159
 20
114.207827412
 30
0.0
 10
445.4133260119
 20
113.9697730999
 30
0.0
 10
445.4584660976
 20
113.6918760503
 30
0.0
 10
445.5176898685
 20
113.5107787617
 30
0.0
 10
445.5672897643
 20
113.4042341535
 30
0.0
 10
445.6321852959
 20
113.3355936811
 30
0.0
 10
445.6754558438
 20
113.3355936811
 30
0.0
  0
SPLINE
  5
30C
100
AcDbEntity
  8
0
100
AcDbSpline
 62
7
  6
BYLAYER
 70
0
 71
3
 72
9
 73
5
 74
0
 42
0.0000001
 43
0.0000001
 44
0.0000000001
 40
0.0
 40
0.0
 40
0.0
 40
0.0
 40
0.5473342695
 40
1.0
 40
1.0
 40
1.0
 40
1.0
 10
472.3128164077
 20
114.3355936738
 30
0.0
 10
472.3130343963
 20
114.1887615288
 30
0.0
 10
472.341677381
 20
113.9200385675
 30
0.0
 10
472.4339833176
 20
113.662727776
 30
0.0
 10
472.4976716133
 20
113.5593331678
 30
0.0
  0
SPLINE
  5
30D
100
AcDbEntity
  8
0
100
AcDbSpline
 62
7
  6
BYLAYER
 70
0
 71
3
 72
9
 73
5
 74
0
 42
0.0000001
 43
0.0000001
 44
0.0000000001
 40
0.0
 40
0.0
 40
0.0
 40
0.0
 40
0.5608543086
 40
1.0
 40
1.0
 40
1.0
 40
1.0
 10
472.4976716133
 20
113.5593331678
 30
0.0
 10
472.5347379708
 20
113.4991578802
 30
0.0
 10
472.6142366759
 20
113.3977376148
 30
0.0
 10
472.7355206938
 20
113.3413595133
 30
0.0
 10
472.7906500323
 20
113.3365555239
 30
0.0
  0
SPLINE
  5
30E
100
AcDbEntity
  8
0
100
AcDbSpline
 62
7
  6
BYLAYER
 70
0
 71
3
 72
16
 73
12
 74
0
 42
0.0000001
 43
0.0000001
 44
0.0000000001
 40
0.0
 40
0.0
 40
0.0
 40
0.0
 40
0.0116495546
 40
0.042737298
 40
0.0879609725
 40
0.1436762813
 40
0.2759947698
 40
0.4258123044
 40
0.5821235967
 40
0.7363726357
 40
1.0
 40
1.0
 40
1.0
 40
1.0
 10
494.8125756632
 20
1244.3357038152
 30
0.0
 10
494.8108398023
 20
1244.3378968953
 30
0.0
 10
494.8001182576
 20
1244.3407267594
 30
0.0
 10
494.7833662217
 20
1244.3531985614
 30
0.0
 10
494.7560657908
 20
1244.3696089888
 30
0.0
 10
494.7103347181
 20
1244.4018625115
 30
0.0
 10
494.6452044955
 20
1244.4503488188
 30
0.0
 10
494.5632746282
 20
1244.5161652581
 30
0.0
 10
494.4784894262
 20
1244.588230305
 30
0.0
 10
494.3821219991
 20
1244.6824842195
 30
0.0
 10
494.3125758155
 20
1244.7724097978
 30
0.0
 10
494.3125756606
 20
1244.8357038123
 30
0.0
  0
SPLINE
  5
30F
100
AcDbEntity
  8
0
100
AcDbSpline
 62
7
  6
BYLAYER
 70
0
 71
3
 72
12
 73
8
 74
0
 42
0.0000001
 43
0.0000001
 44
0.0000000001
 40
0.0
 40
0.0
 40
0.0
 40
0.0
 40
0.1249608927
 40
0.2501492077
 40
0.4995019733
 40
0.7494104792
 40
1.0
 40
1.0
 40
1.0
 40
1.0
 10
486.3125756706
 20
1244.8357038123
 30
0.0
 10
486.3125758909
 20
1244.7526956131
 30
0.0
 10
486.3447222488
 20
1244.5854333451
 30
0.0
 10
486.5076112635
 20
1244.2921973005
 30
0.0
 10
486.8323921312
 20
1244.0136017109
 30
0.0
 10
487.3107786286
 20
1243.8426235995
 30
0.0
 10
487.6461157131
 20
1243.835703771
 30
0.0
 10
487.8125756706
 20
1243.8357038123
 30
0.0
  0
SPLINE
  5
310
100
AcDbEntity
  8
0
100
AcDbSpline
 62
7
  6
BYLAYER
 70
0
 71
3
 72
12
 73
8
 74
0
 42
0.0000001
 43
0.0000001
 44
0.0000000001
 40
0.0
 40
0.0
 40
0.0
 40
0.0
 40
0.1249612752
 40
0.2501494132
 40
0.4995021241
 40
0.7494103699
 40
1.0
 40
1.0
 40
1.0
 40
1.0
 10
455.3125756706
 20
1244.8357038123
 30
0.0
 10
455.3125754502
 20
1244.7526953586
 30
0.0
 10
455.280428967
 20
1244.5854329461
 30
0.0
 10
455.117539717
 20
1244.2921969398
 30
0.0
 10
454.7927590357
 20
1244.0136016668
 30
0.0
 10
454.3143726961
 20
1243.8426235761
 30
0.0
 10
453.9790357014
 20
1243.8357037709
 30
0.0
 10
453.8125756706
 20
1243.8357038123
 30
0.0
  0
SPLINE
  5
311
100
AcDbEntity
  8
0
100
AcDbSpline
 62
7
  6
BYLAYER
 70
0
 71
3
 72
9
 73
5
 74
0
 42
0.0000001
 43
0.0000001
 44
0.0000000001
 40
0.0
 40
0.0
 40
0.0
 40
0.0
 40
0.2472696881
 40
1.0
 40
1.0
 40
1.0
 40
1.0
 10
445.4004939787
 20
1243.8357038123
 30
0.0
 10
445.4360243229
 20
1243.8705597439
 30
0.0
 10
445.5804952204
 20
1244.0107157808
 30
0.0
 10
445.7284020374
 20
1244.1474082806
 30
0.0
 10
445.8427270374
 20
1244.2468427044
 30
0.0
  0
SPLINE
  5
312
100
AcDbEntity
  8
0
100
AcDbSpline
 62
7
  6
BYLAYER
 70
0
 71
3
 72
11
 73
7
 74
0
 42
0.0000001
 43
0.0000001
 44
0.0000000001
 40
0.0
 40
0.0
 40
0.0
 40
0.0
 40
0.1004117043
 40
0.212105835
 40
0.4601359707
 40
1.0
 40
1.0
 40
1.0
 40
1.0
 10
446.9002604617
 20
1244.8357038123
 30
0.0
 10
446.8592202952
 20
1244.8372897148
 30
0.0
 10
446.7725099281
 20
1244.8213496802
 30
0.0
 10
446.5938169104
 20
1244.7623769915
 30
0.0
 10
446.268806728
 20
1244.5851568056
 30
0.0
 10
446.0093670502
 20
1244.3917267957
 30
0.0
 10
445.8427735363
 20
1244.2467892203
 30
0.0
  0
SPLINE
  5
313
100
AcDbEntity
  8
0
100
AcDbSpline
 62
7
  6
BYLAYER
 70
0
 71
3
 72
11
 73
7
 74
0
 42
0.0000001
 43
0.0000001
 44
0.0000000001
 40
0.0
 40
0.0
 40
0.0
 40
0.0
 40
0.2123919655
 40
0.4485140518
 40
0.7146073529
 40
1.0
 40
1.0
 40
1.0
 40
1.0
 10
447.2628221891
 20
1244.3357038123
 30
0.0
 10
447.214864874
 20
1244.3357038123
 30
0.0
 10
447.1123466486
 20
1244.3657206538
 30
0.0
 10
446.9938048078
 20
1244.481978515
 30
0.0
 10
446.9176103131
 20
1244.6459251327
 30
0.0
 10
446.9002605595
 20
1244.771263215
 30
0.0
 10
446.9002605595
 20
1244.8357038123
 30
0.0
  0
SPLINE
  5
314
100
AcDbEntity
  8
0
100
AcDbSpline
 62
7
  6
BYLAYER
 70
0
 71
3
 72
9
 73
5
 74
0
 42
0.0000001
 43
0.0000001
 44
0.0000000001
 40
0.0
 40
0.0
 40
0.0
 40
0.0
 40
0.2408658181
 40
1.0
 40
1.0
 40
1.0
 40
1.0
 10
445.9780569468
 20
1244.0412465163
 30
0.0
 10
445.9760237427
 20
1244.0248345864
 30
0.0
 10
445.9687847605
 20
1243.9565515098
 30
0.0
 10
445.965913838
 20
1243.8878245338
 30
0.0
 10
445.965913838
 20
1243.8357038123
 30
0.0
  0
SPLINE
  5
315
100
AcDbEntity
  8
0
100
AcDbSpline
 62
7
  6
BYLAYER
 70
0
 71
3
 72
10
 73
6
 74
0
 42
0.0000001
 43
0.0000001
 44
0.0000000001
 40
0.0
 40
0.0
 40
0.0
 40
0.0
 40
0.2293296054
 40
0.4807218264
 40
1.0
 40
1.0
 40
1.0
 40
1.0
 10
447.2628219843
 20
1244.3357038123
 30
0.0
 10
447.1617420067
 20
1244.3357035859
 30
0.0
 10
446.9501666471
 20
1244.3106888135
 30
0.0
 10
446.5195747943
 20
1244.2167929416
 30
0.0
 10
446.1937711513
 20
1244.1177499618
 30
0.0
 10
445.9780568721
 20
1244.0412467748
 30
0.0
  0
SPLINE
  5
316
100
AcDbEntity
  8
0
100
AcDbSpline
 62
7
  6
BYLAYER
 70
0
 71
3
 72
9
 73
5
 74
0
 42
0.0000001
 43
0.0000001
 44
0.0000000001
 40
0.0
 40
0.0
 40
0.0
 40
0.0
 40
0.252784676
 40
1.0
 40
1.0
 40
1.0
 40
1.0
 10
445.9780636391
 20
1244.0412217892
 30
0.0
 10
445.9291519691
 20
1244.0246058212
 30
0.0
 10
445.7360040395
 20
1243.9578632698
 30
0.0
 10
445.5438063322
 20
1243.8884032795
 30
0.0
 10
445.4004939787
 20
1243.8357038123
 30
0.0
  0
SPLINE
  5
317
100
AcDbEntity
  8
0
100
AcDbSpline
 62
7
  6
BYLAYER
 70
0
 71
3
 72
12
 73
8
 74
0
 42
0.0000001
 43
0.0000001
 44
0.0000000001
 40
0.0
 40
0.0
 40
0.0
 40
0.0
 40
0.3555845775
 40
0.6615098154
 40
0.7831959321
 40
0.8795743228
 40
1.0
 40
1.0
 40
1.0
 40
1.0
 10
441.7631334146
 20
1245.8357038123
 30
0.0
 10
441.7631334146
 20
1245.9634700814
 30
0.0
 10
441.7757247106
 20
1246.2015243935
 30
0.0
 10
441.8208647963
 20
1246.479421443
 30
0.0
 10
441.8800885672
 20
1246.6605187317
 30
0.0
 10
441.929688463
 20
1246.7670633399
 30
0.0
 10
441.9945839947
 20
1246.8357038123
 30
0.0
 10
442.0378545425
 20
1246.8357038123
 30
0.0
  0
SPLINE
  5
318
100
AcDbEntity
  8
0
100
AcDbSpline
 62
7
  6
BYLAYER
 70
0
 71
3
 72
12
 73
8
 74
0
 42
0.0000001
 43
0.0000001
 44
0.0000000001
 40
0.0
 40
0.0
 40
0.0
 40
0.0
 40
0.3555830565
 40
0.6615139372
 40
0.7832009215
 40
0.8795793335
 40
1.0
 40
1.0
 40
1.0
 40
1.0
 10
445.4004939689
 20
1245.8357038123
 30
0.0
 10
445.4004930484
 20
1245.9634679871
 30
0.0
 10
445.4130817702
 20
1246.2015210026
 30
0.0
 10
445.4582146967
 20
1246.4794171211
 30
0.0
 10
445.5174325946
 20
1246.6605167703
 30
0.0
 10
445.5670262701
 20
1246.7670600262
 30
0.0
 10
445.6319161528
 20
1246.8357038123
 30
0.0
 10
445.6751843761
 20
1246.8357038123
 30
0.0
  0
SPLINE
  5
319
100
AcDbEntity
  8
0
100
AcDbSpline
 62
7
  6
BYLAYER
 70
0
 71
3
 72
11
 73
7
 74
0
 42
0.0000001
 43
0.0000001
 44
0.0000000001
 40
0.0
 40
0.0
 40
0.0
 40
0.0
 40
0.162973556
 40
0.3807491241
 40
0.666494651
 40
1.0
 40
1.0
 40
1.0
 40
1.0
 10
472.7984606299
 20
1246.8353149649
 30
0.0
 10
472.7339124848
 20
1246.8317492613
 30
0.0
 10
472.588314399
 20
1246.7580777271
 30
0.0
 10
472.4389914379
 20
1246.5332707834
 30
0.0
 10
472.336515529
 20
1246.2145883821
 30
0.0
 10
472.3127700878
 20
1245.9679949009
 30
0.0
 10
472.3125756706
 20
1245.8357038123
 30
0.0
  0
SPLINE
  5
31A
100
AcDbEntity
  8
0
100
AcDbSpline
 62
7
  6
BYLAYER
 70
0
 71
3
 72
11
 73
7
 74
0
 42
0.0000001
 43
0.0000001
 44
0.0000000001
 40
0.0
 40
0.0
 40
0.0
 40
0.0
 40
0.3358815152
 40
0.488420384
 40
0.625203662
 40
1.0
 40
1.0
 40
1.0
 40
1.0
 10
463.3125756706
 20
1245.8357038123
 30
0.0
 10
463.3123814047
 20
1245.9665564018
 30
0.0
 10
463.2945072205
 20
1246.1572239979
 30
0.0
 10
463.2305027896
 20
1246.39431905
 30
0.0
 10
463.137078261
 20
1246.6292849268
 30
0.0
 10
462.9806129734
 20
1246.821780979
 30
0.0
 10
462.8351728124
 20
1246.8347040558
 30
0.0
  0
ENDSEC
  0
SECTION
  2
OBJECTS
  0
DICTIONARY
  5
C
100
AcDbDictionary
280
0
281
1
  3
ACAD_GROUP
350
D
  3
ACAD_MLINESTYLE
350
17
  3
ACAD_LAYOUT
350
1A
  3
ACAD_PLOTSETTINGS
350
19
  3
ACAD_PLOTSTYLENAME
350
E
  0
DICTIONARY
  5
D
102
{ACAD_REACTORS
330
C
102
}
100
AcDbDictionary
280
0
281
1
  0
ACDBDICTIONARYWDFLT
  5
E
102
{ACAD_REACTORS
330
C
102
}
100
AcDbDictionary
281
1
  3
Normal
350
F
100
AcDbDictionaryWithDefault
340
F
  0
DICTIONARY
  5
17
102
{ACAD_REACTORS
330
C
102
}
100
AcDbDictionary
280
0
281
1
  3
Standard
350
18
  0
DICTIONARY
  5
19
102
{ACAD_REACTORS
330
C
102
}
100
AcDbDictionary
281
1
  0
DICTIONARY
  5
1A
102
{ACAD_REACTORS
330
C
102
}
100
AcDbDictionary
281
1
  3
Model
350
31B
  3
Layout1
350
31C
  0
ACDBPLACEHOLDER
  5
F
102
{ACAD_REACTORS
330
E
102
}
  0
MLINESTYLE
  5
18
102
{ACAD_REACTORS
330
17
102
}
100
AcDbMlineStyle
  2
STANDARD
 70
0
  3

 62
256
 51
90.0
 52
90.0
 71
2
 49
0.5
 62
256
  6
BYLAYER
 49
-0.5
 62
256
  6
BYLAYER
  0
LAYOUT
  5
31B
102
{ACAD_REACTORS
330
1A
102
}
100
AcDbPlotSettings
  1

  2
none_device
  4

  6

 40
0.0
 41
0.0
 42
0.0
 43
0.0
 44
210.0
 45
297.0
 46
0.0
 47
0.0
 48
0.0
 49
0.0
140
0.0
141
0.0
142
1.0
143
1.0
 70
1024
 72
1
 73
0
 74
0
  7

 75
0
147
1.0
148
0.0
149
0.0
100
AcDbLayout
  1
Model
 70
0
 71
0
 10
0.0
 20
0.0
 11
210.0
 21
297.0
 12
0.0
 22
0.0
 32
0.0
 14
0.0
 24
0.0
 34
0.0
 15
0.0
 25
0.0
 35
0.0
146
0.0
 13
0.0
 23
0.0
 33
0.0
 16
1.0
 26
0.0
 36
0.0
 17
0.0
 27
1.0
 37
0.0
 76
0
330
212
345
0
346
0
  0
LAYOUT
  5
31C
102
{ACAD_REACTORS
330
1A
102
}
100
AcDbPlotSettings
  1

  2
none_device
  4

  6

 40
0.0
 41
0.0
 42
0.0
 43
0.0
 44
210.0
 45
297.0
 46
0.0
 47
0.0
 48
0.0
 49
0.0
140
0.0
141
0.0
142
1.0
143
1.0
 70
0
 72
1
 73
0
 74
0
  7

 75
0
147
1.0
148
0.0
149
0.0
100
AcDbLayout
  1
Layout1
 70
0
 71
1
 10
0.0
 20
0.0
 11
210.0
 21
297.0
 12
0.0
 22
0.0
 32
0.0
 14
0.0
 24
0.0
 34
0.0
 15
0.0
 25
0.0
 35
0.0
146
0.0
 13
0.0
 23
0.0
 33
0.0
 16
1.0
 26
0.0
 36
0.0
 17
0.0
 27
1.0
 37
0.0
 76
0
330
213
345
0
346
0
  0
ENDSEC
  0
EOF
