999
DXF file: C:\SESA671053\Gen2D\CAD\MCADPP0003734_3D-simplified\drw0001_3.dxf
999
Pro/ENGINEER 2019471 by Parametric Technology Corporation
  0
SECTION
  2
HEADER
  9
$ACADVER
  1
AC1024
  9
$DWGCODEPAGE
  3
ANSI_1252
  9
$EXTMAX
 10
115.3467235848
 20
163.1332233556
 30
0.0
  9
$EXTMIN
 10
0.0
 20
0.0
 30
0.0
  9
$LIMMIN
 10
0.0
 20
0.0
  9
$LIMMAX
 10
115.3467235848
 20
163.1332233556
  9
$VIEWCTR
 10
57.6733617924
 20
81.5666116778
  9
$VIEWSIZE
 40
163.1332233556
  9
$CLAYER
  8
0
  9
$LTSCALE
 40
10.6338693743
  9
$CELTYPE
  6
BYLAYER
  9
$DIMSCALE
 40
1.0
  9
$DIMASZ
 40
1.3731752808
  9
$DIMEXO
 40
1.0
  9
$DIMDLI
 40
7.3470370222
  9
$DIMEXE
 40
1.0
  9
$DIMCEN
 40
1.7400877158
  9
$DIMLFAC
 40
1.0
  9
$DIMBLK
  1
_FILLED
  9
$DIMALT
 70
0
  9
$DIMALTF
 40
0.0393700787
  9
$DIMTXT
 40
1.9224453931
  9
$DIMTOL
 70
1
  9
$DIMLIM
 70
0
  9
$DIMTFAC
 40
1.0
  9
$DIMTP
 40
0.01
  9
$DIMTM
 40
0.01
  9
$DIMGAP
 40
0.625
  9
$DIMDSEP
 70
46
  9
$AUNITS
 70
0
  9
$PDMODE
 70
3
  9
$PDSIZE
 40
0.3125
  9
$HANDSEED
  5
3C1
  9
$TILEMODE
 70
1
  9
$MEASUREMENT
 70
1
  9
$INSUNITS
 70
4
  0
ENDSEC
  0
SECTION
  2
CLASSES
  0
CLASS
  1
ACDBDICTIONARYWDFLT
  2
AcDbDictionaryWithDefault
  3
AutoCAD 2000
 90
0
 91
1
280
0
281
0
  0
CLASS
  1
ACDBPLACEHOLDER
  2
AcDbPlaceHolder
  3
AutoCAD 2000
 90
0
 91
1
280
0
281
0
  0
CLASS
  1
LAYOUT
  2
AcDbLayout
  3
AutoCAD 2000
 90
0
 91
0
280
0
281
0
  0
ENDSEC
  0
SECTION
  2
TABLES
  0
TABLE
  2
VPORT
  5
8
100
AcDbSymbolTable
 70
2
  0
VPORT
  5
1F4
100
AcDbSymbolTableRecord
100
AcDbViewportTableRecord
  2
*ACTIVE
 70
0
 10
0.0
 20
0.0
 11
1.0
 21
1.0
 12
57.6733617924
 22
81.5666116778
 13
0.0
 23
0.0
 14
1.0
 24
1.0
 15
0.0
 25
0.0
 16
0.0
 26
0.0
 36
1.0
 17
0.0
 27
0.0
 37
0.0
 40
163.1332233556
 41
0.7070707071
 42
50.0
 43
0.0
 44
0.0
 50
0.0
 51
0.0
 71
0
 72
100
 73
1
 74
1
 75
0
 76
0
 77
0
 78
0
  0
ENDTAB
  0
TABLE
  2
LTYPE
  5
5
100
AcDbSymbolTable
 70
6
  0
LTYPE
  5
14
100
AcDbSymbolTableRecord
100
AcDbLinetypeTableRecord
  2
BYBLOCK
 70
0
  3

 72
65
 73
0
 40
0.0
  0
LTYPE
  5
15
100
AcDbSymbolTableRecord
100
AcDbLinetypeTableRecord
  2
BYLAYER
 70
0
  3

 72
65
 73
0
 40
0.0
  0
LTYPE
  5
16
100
AcDbSymbolTableRecord
100
AcDbLinetypeTableRecord
  2
CONTINUOUS
 70
64
  3
Solid line
 72
65
 73
0
 40
0.0
  0
LTYPE
  5
1F5
100
AcDbSymbolTableRecord
100
AcDbLinetypeTableRecord
  2
CENTER
 70
64
  3
____ _ ____ _ ____ _ ____ _ ____ _ ____ _ ____
 72
65
 73
4
 40
0.6
 49
0.375
 74
0
 49
-0.075
 74
0
 49
0.075
 74
0
 49
-0.075
 74
0
  0
LTYPE
  5
1F6
100
AcDbSymbolTableRecord
100
AcDbLinetypeTableRecord
  2
HIDDEN
 70
64
  3
- - - - - - - - - - - - - - - - - - - -
 72
65
 73
2
 40
0.2
 49
0.1
 74
0
 49
-0.1
 74
0
  0
LTYPE
  5
1F7
100
AcDbSymbolTableRecord
100
AcDbLinetypeTableRecord
  2
PHANTOM
 70
64
  3
_____ _ _ _____ _ _ _____ _ _ _____
 72
65
 73
6
 40
0.8
 49
0.45
 74
0
 49
-0.05
 74
0
 49
0.1
 74
0
 49
-0.05
 74
0
 49
0.1
 74
0
 49
-0.05
 74
0
  0
LTYPE
  5
1F8
100
AcDbSymbolTableRecord
100
AcDbLinetypeTableRecord
  2
DOT
 70
64
  3
. . . . . . . . . . . . . . . . . . . .
 72
65
 73
2
 40
0.2
 49
0.1
 74
0
 49
-0.1
 74
0
  0
LTYPE
  5
1F9
100
AcDbSymbolTableRecord
100
AcDbLinetypeTableRecord
  2
DASHED
 70
64
  3
- - - - - - - - - - - - - - - - - - - -
 72
65
 73
2
 40
0.2
 49
0.1
 74
0
 49
-0.1
 74
0
  0
ENDTAB
  0
TABLE
  2
LAYER
  5
2
100
AcDbSymbolTable
 70
36
  0
LAYER
  5
10
100
AcDbSymbolTableRecord
100
AcDbLayerTableRecord
  2
0
 70
0
 62
7
  6
CONTINUOUS
370
-3
390
F
  0
LAYER
  5
1FA
100
AcDbSymbolTableRecord
100
AcDbLayerTableRecord
  2
DEFAULT_1
 70
0
 62
7
  6
CENTER
370
-3
390
F
  0
LAYER
  5
1FB
100
AcDbSymbolTableRecord
100
AcDbLayerTableRecord
  2
DEFAULT_2
 70
0
 62
8
  6
HIDDEN
370
-3
390
F
  0
LAYER
  5
1FC
100
AcDbSymbolTableRecord
100
AcDbLayerTableRecord
  2
DEFAULT_3
 70
0
 62
7
  6
PHANTOM
370
-3
390
F
  0
LAYER
  5
1FD
100
AcDbSymbolTableRecord
100
AcDbLayerTableRecord
  2
00_COMPONENTS
 70
0
 62
7
  6
CONTINUOUS
370
-3
390
F
  0
LAYER
  5
1FE
100
AcDbSymbolTableRecord
100
AcDbLayerTableRecord
  2
00_COMPONENTS_1
 70
0
 62
7
  6
CONTINUOUS
370
-3
390
F
  0
LAYER
  5
1FF
100
AcDbSymbolTableRecord
100
AcDbLayerTableRecord
  2
01_1_DEFAULT_DATUMS
 70
0
 62
7
  6
CONTINUOUS
370
-3
390
F
  0
LAYER
  5
200
100
AcDbSymbolTableRecord
100
AcDbLayerTableRecord
  2
01_PLANES
 70
0
 62
7
  6
CONTINUOUS
370
-3
390
F
  0
LAYER
  5
201
100
AcDbSymbolTableRecord
100
AcDbLayerTableRecord
  2
02_COORD_SYS
 70
0
 62
7
  6
CONTINUOUS
370
-3
390
F
  0
LAYER
  5
202
100
AcDbSymbolTableRecord
100
AcDbLayerTableRecord
  2
03_AXES
 70
0
 62
7
  6
CONTINUOUS
370
-3
390
F
  0
LAYER
  5
203
100
AcDbSymbolTableRecord
100
AcDbLayerTableRecord
  2
03_AXES_1
 70
0
 62
7
  6
CONTINUOUS
370
-3
390
F
  0
LAYER
  5
204
100
AcDbSymbolTableRecord
100
AcDbLayerTableRecord
  2
04_POINTS
 70
0
 62
7
  6
CONTINUOUS
370
-3
390
F
  0
LAYER
  5
205
100
AcDbSymbolTableRecord
100
AcDbLayerTableRecord
  2
05_CURVES
 70
0
 62
7
  6
CONTINUOUS
370
-3
390
F
  0
LAYER
  5
206
100
AcDbSymbolTableRecord
100
AcDbLayerTableRecord
  2
06_SURFS
 70
0
 62
7
  6
CONTINUOUS
370
-3
390
F
  0
LAYER
  5
207
100
AcDbSymbolTableRecord
100
AcDbLayerTableRecord
  2
07_COSMETICS
 70
0
 62
7
  6
CONTINUOUS
370
-3
390
F
  0
LAYER
  5
208
100
AcDbSymbolTableRecord
100
AcDbLayerTableRecord
  2
10_NOTES
 70
0
 62
7
  6
CONTINUOUS
370
-3
390
F
  0
LAYER
  5
209
100
AcDbSymbolTableRecord
100
AcDbLayerTableRecord
  2
11_NOTES_PUB
 70
0
 62
7
  6
CONTINUOUS
370
-3
390
F
  0
LAYER
  5
20A
100
AcDbSymbolTableRecord
100
AcDbLayerTableRecord
  2
13_REF_GTOL
 70
0
 62
7
  6
CONTINUOUS
370
-3
390
F
  0
LAYER
  5
20B
100
AcDbSymbolTableRecord
100
AcDbLayerTableRecord
  2
16_MISC
 70
0
 62
7
  6
CONTINUOUS
370
-3
390
F
  0
LAYER
  5
20C
100
AcDbSymbolTableRecord
100
AcDbLayerTableRecord
  2
17_NO_PRINT
 70
0
 62
7
  6
CONTINUOUS
370
-3
390
F
  0
LAYER
  5
20D
100
AcDbSymbolTableRecord
100
AcDbLayerTableRecord
  2
18_DATUM_CAMS_JOINTS
 70
0
 62
7
  6
CONTINUOUS
370
-3
390
F
  0
LAYER
  5
20E
100
AcDbSymbolTableRecord
100
AcDbLayerTableRecord
  2
19_DATUM_FUNCTIONAL
 70
0
 62
7
  6
CONTINUOUS
370
-3
390
F
  0
LAYER
  5
20F
100
AcDbSymbolTableRecord
100
AcDbLayerTableRecord
  2
20_DATUM_KINEMATIC_SCHEME
 70
0
 62
7
  6
CONTINUOUS
370
-3
390
F
  0
LAYER
  5
210
100
AcDbSymbolTableRecord
100
AcDbLayerTableRecord
  2
INTFCLR_18
 70
0
 62
7
  6
CONTINUOUS
370
-3
390
F
  0
LAYER
  5
211
100
AcDbSymbolTableRecord
100
AcDbLayerTableRecord
  2
INTFCLR_21
 70
0
 62
7
  6
CONTINUOUS
370
-3
390
F
  0
LAYER
  5
212
100
AcDbSymbolTableRecord
100
AcDbLayerTableRecord
  2
INTFCLR_45
 70
0
 62
7
  6
CONTINUOUS
370
-3
390
F
  0
LAYER
  5
213
100
AcDbSymbolTableRecord
100
AcDbLayerTableRecord
  2
INTF_BLANK
 70
0
 62
7
  6
CONTINUOUS
370
-3
390
F
  0
LAYER
  5
214
100
AcDbSymbolTableRecord
100
AcDbLayerTableRecord
  2
INTF_YELLOW
 70
0
 62
7
  6
CONTINUOUS
370
-3
390
F
  0
LAYER
  5
215
100
AcDbSymbolTableRecord
100
AcDbLayerTableRecord
  2
_BLACK_HOLE
 70
0
 62
7
  6
CONTINUOUS
370
-3
390
F
  0
ENDTAB
  0
TABLE
  2
STYLE
  5
3
100
AcDbSymbolTable
 70
1
  0
STYLE
  5
11
100
AcDbSymbolTableRecord
100
AcDbTextStyleTableRecord
  2
STANDARD
 70
0
 40
0.0
 41
0.8
 50
0.0
 71
0
 42
0.2
  3
txt
  4

  0
STYLE
  5
216
100
AcDbSymbolTableRecord
100
AcDbTextStyleTableRecord
  2
TEXTSTYLE_1
 70
0
 40
0.0
 41
0.8
 50
0.0
 71
0
 42
0.2
  3
gdt
  4

  0
ENDTAB
  0
TABLE
  2
VIEW
  5
6
100
AcDbSymbolTable
 70
0
  0
ENDTAB
  0
TABLE
  2
UCS
  5
7
100
AcDbSymbolTable
 70
0
  0
ENDTAB
  0
TABLE
  2
APPID
  5
9
100
AcDbSymbolTable
 70
1
  0
APPID
  5
217
100
AcDbSymbolTableRecord
100
AcDbRegAppTableRecord
  2
ACAD
 70
0
  0
ENDTAB
  0
TABLE
  2
BLOCK_RECORD
  5
1
100
AcDbSymbolTable
 70
0
  0
BLOCK_RECORD
  5
218
100
AcDbSymbolTableRecord
100
AcDbBlockTableRecord
  2
*Model_Space
  0
BLOCK_RECORD
  5
219
100
AcDbSymbolTableRecord
100
AcDbBlockTableRecord
  2
*Paper_Space
  0
BLOCK_RECORD
  5
21A
100
AcDbSymbolTableRecord
100
AcDbBlockTableRecord
  2
_FILLED
  0
ENDTAB
  0
TABLE
  2
DIMSTYLE
  5
A
100
AcDbSymbolTable
 70
1
100
AcDbDimStyleTable
 71
0
  0
DIMSTYLE
105
21B
100
AcDbSymbolTableRecord
100
AcDbDimStyleTableRecord
  2
STANDARD
 70
0
  3

  4

 40
1.0
 41
1.3731752808
 42
1.0
 43
0.38
 44
1.0
 45
0.0
 46
0.0
 47
0.01
 48
0.01
140
1.9224453931
141
0.09
142
0.0
143
25.4
144
1.0
145
0.0
146
1.0
147
0.625
 71
1
 72
0
 73
0
 74
0
 75
0
 76
0
 77
1
 78
8
 79
2
170
0
171
1
172
0
173
0
174
0
175
0
176
0
177
0
178
0
270
2
179
2
271
2
272
2
273
2
274
2
275
0
280
0
281
0
282
0
283
1
284
8
285
0
286
0
287
3
288
0
340
11
278
46
341
21A
342
21A
343
21A
344
21A
  0
ENDTAB
  0
ENDSEC
  0
SECTION
  2
BLOCKS
  0
BLOCK
  5
20
100
AcDbEntity
  8
0
100
AcDbBlockBegin
  2
*Model_Space
 70
0
 10
0.0
 20
0.0
 30
0.0
  3
*Model_Space
  1

  0
ENDBLK
  5
21
100
AcDbEntity
  8
0
100
AcDbBlockEnd
  0
BLOCK
  5
1C
100
AcDbEntity
  8
0
100
AcDbBlockBegin
  2
*Paper_Space
 70
0
 10
0.0
 20
0.0
 30
0.0
  3
*Paper_Space
  1

  0
ENDBLK
  5
1D
100
AcDbEntity
  8
0
100
AcDbBlockEnd
  0
BLOCK
  5
21C
100
AcDbEntity
  8
0
100
AcDbBlockBegin
  2
_FILLED
 70
64
 10
0.0
 20
0.0
  3
_FILLED
  1

  0
SOLID
  5
21D
100
AcDbEntity
  8
0
  6
BYBLOCK
 62
0
100
AcDbTrace
 10
0.0
 20
0.0
 11
-1.0
 21
0.25
 12
-1.0
 22
-0.25
 13
-1.0
 23
-0.25
  0
ENDBLK
  5
21E
100
AcDbEntity
  8
0
  6
BYBLOCK
 62
0
100
AcDbBlockEnd
  0
ENDSEC
  0
SECTION
  2
ENTITIES
  0
LINE
  5
21F
100
AcDbEntity
  8
INTFCLR_18
100
AcDbLine
 62
7
420
3368703
  6
CONTINUOUS
 10
86.6707495364
 20
33.164028698
 11
70.2707495364
 21
33.164028698
  0
LINE
  5
220
100
AcDbEntity
  8
INTFCLR_18
100
AcDbLine
 62
7
420
3368703
  6
CONTINUOUS
 10
68.5707495364
 20
33.164028698
 11
49.9707495364
 21
33.164028698
  0
LINE
  5
221
100
AcDbEntity
  8
INTFCLR_18
100
AcDbLine
 62
7
420
3368703
  6
CONTINUOUS
 10
48.249111391
 20
33.164028698
 11
31.8707495364
 21
33.164028698
  0
LINE
  5
222
100
AcDbEntity
  8
00_COMPONENTS_1
100
AcDbLine
 62
7
  6
CONTINUOUS
 10
31.8707495364
 20
33.164028698
 11
86.6707495364
 21
33.164028698
  0
LINE
  5
223
100
AcDbEntity
  8
00_COMPONENTS_1
100
AcDbLine
 62
7
  6
CONTINUOUS
 10
63.7707495363
 20
33.264028698
 11
54.7707495364
 21
33.264028698
  0
LINE
  5
224
100
AcDbEntity
  8
INTFCLR_18
100
AcDbLine
 62
7
420
3368703
  6
CONTINUOUS
 10
54.7707495364
 20
33.264028698
 11
63.7707495363
 21
33.264028698
  0
LINE
  5
225
100
AcDbEntity
  8
00_COMPONENTS_1
100
AcDbLine
 62
7
  6
CONTINUOUS
 10
65.4707495363
 20
33.464028698
 11
64.3857653434
 21
33.464028698
  0
LINE
  5
226
100
AcDbEntity
  8
00_COMPONENTS_1
100
AcDbLine
 62
7
  6
CONTINUOUS
 10
54.1557946779
 20
33.464028698
 11
53.0707495364
 21
33.464028698
  0
LINE
  5
227
100
AcDbEntity
  8
00_COMPONENTS_1
100
AcDbLine
 62
7
  6
CONTINUOUS
 10
53.0707495364
 20
33.6640286979
 11
53.6960131222
 21
33.6640286979
  0
LINE
  5
228
100
AcDbEntity
  8
00_COMPONENTS_1
100
AcDbLine
 62
7
  6
CONTINUOUS
 10
64.8454728302
 20
33.6640286979
 11
65.4707495363
 21
33.6640286979
  0
LINE
  5
229
100
AcDbEntity
  8
00_COMPONENTS_1
100
AcDbLine
 62
7
  6
CONTINUOUS
 10
52.5628192
 20
33.7414104362
 11
53.0707495364
 21
33.7414104362
  0
LINE
  5
22A
100
AcDbEntity
  8
00_COMPONENTS_1
100
AcDbLine
 62
7
  6
CONTINUOUS
 10
65.4707495363
 20
33.7414104362
 11
65.9786798727
 21
33.7414104362
  0
LINE
  5
22B
100
AcDbEntity
  8
INTFCLR_18
100
AcDbLine
 62
7
420
3368703
  6
CONTINUOUS
 10
63.7707495363
 20
34.364028698
 11
54.7707495364
 21
34.364028698
  0
LINE
  5
22C
100
AcDbEntity
  8
00_COMPONENTS_1
100
AcDbLine
 62
7
  6
CONTINUOUS
 10
54.7707495364
 20
34.364028698
 11
63.7707495363
 21
34.364028698
  0
LINE
  5
22D
100
AcDbEntity
  8
00_COMPONENTS_1
100
AcDbLine
 62
7
  6
CONTINUOUS
 10
54.2707495364
 20
34.964028698
 11
54.1707495364
 21
34.964028698
  0
LINE
  5
22E
100
AcDbEntity
  8
00_COMPONENTS_1
100
AcDbLine
 62
7
  6
CONTINUOUS
 10
64.2707495363
 20
34.964028698
 11
64.3707495363
 21
34.964028698
  0
LINE
  5
22F
100
AcDbEntity
  8
00_COMPONENTS_1
100
AcDbLine
 62
7
  6
CONTINUOUS
 10
56.5207495364
 20
35.114028698
 11
62.0207495364
 21
35.114028698
  0
LINE
  5
230
100
AcDbEntity
  8
00_COMPONENTS_1
100
AcDbLine
 62
7
  6
CONTINUOUS
 10
61.6207495364
 20
35.364028698
 11
56.9207495364
 21
35.364028698
  0
LINE
  5
231
100
AcDbEntity
  8
00_COMPONENTS_1
100
AcDbLine
 62
7
  6
CONTINUOUS
 10
65.9786798727
 20
35.7285413578
 11
65.4707495363
 21
35.7285413578
  0
LINE
  5
232
100
AcDbEntity
  8
00_COMPONENTS_1
100
AcDbLine
 62
7
  6
CONTINUOUS
 10
53.0707495364
 20
35.7285413578
 11
52.5628192
 21
35.7285413578
  0
LINE
  5
233
100
AcDbEntity
  8
00_COMPONENTS_1
100
AcDbLine
 62
7
  6
CONTINUOUS
 10
64.2707495363
 20
37.2385918469
 11
62.6207495364
 21
37.2385918469
  0
LINE
  5
234
100
AcDbEntity
  8
00_COMPONENTS_1
100
AcDbLine
 62
7
  6
CONTINUOUS
 10
55.9207495364
 20
37.2385918469
 11
54.2707495364
 21
37.2385918469
  0
LINE
  5
235
100
AcDbEntity
  8
00_COMPONENTS_1
100
AcDbLine
 62
7
  6
CONTINUOUS
 10
65.9786798727
 20
37.764028698
 11
65.4707495363
 21
37.764028698
  0
LINE
  5
236
100
AcDbEntity
  8
00_COMPONENTS_1
100
AcDbLine
 62
7
  6
CONTINUOUS
 10
53.0707495364
 20
37.764028698
 11
52.5628192
 21
37.764028698
  0
LINE
  5
237
100
AcDbEntity
  8
00_COMPONENTS_1
100
AcDbLine
 62
7
  6
CONTINUOUS
 10
65.9786798727
 20
37.964028698
 11
65.4707495363
 21
37.964028698
  0
LINE
  5
238
100
AcDbEntity
  8
00_COMPONENTS_1
100
AcDbLine
 62
7
  6
CONTINUOUS
 10
55.9207495364
 20
37.964028698
 11
54.1707495364
 21
37.9640286984
  0
LINE
  5
239
100
AcDbEntity
  8
00_COMPONENTS_1
100
AcDbLine
 62
7
  6
CONTINUOUS
 10
53.0707495364
 20
37.964028698
 11
52.5628192
 21
37.964028698
  0
LINE
  5
23A
100
AcDbEntity
  8
00_COMPONENTS_1
100
AcDbLine
 62
7
  6
CONTINUOUS
 10
62.6207495364
 20
37.964028698
 11
64.3707495363
 21
37.9640286981
  0
LINE
  5
23B
100
AcDbEntity
  8
00_COMPONENTS_1
100
AcDbLine
 62
7
  6
CONTINUOUS
 10
54.1707495364
 20
38.0640286984
 11
54.2707495364
 21
38.0640286984
  0
LINE
  5
23C
100
AcDbEntity
  8
00_COMPONENTS_1
100
AcDbLine
 62
7
  6
CONTINUOUS
 10
64.2707495363
 20
38.0640286984
 11
64.3707495363
 21
38.0640286984
  0
LINE
  5
23D
100
AcDbEntity
  8
00_COMPONENTS_1
100
AcDbLine
 62
7
  6
CONTINUOUS
 10
85.5026628411
 20
35.1567992986
 11
70.2705694908
 21
35.1605684248
  0
LINE
  5
23E
100
AcDbEntity
  8
00_COMPONENTS_1
100
AcDbLine
 62
7
  6
CONTINUOUS
 10
68.2707495363
 20
38.664028698
 11
66.1707495363
 21
38.664028698
  0
LINE
  5
23F
100
AcDbEntity
  8
00_COMPONENTS_1
100
AcDbLine
 62
7
  6
CONTINUOUS
 10
52.3707495364
 20
38.664028698
 11
50.2707495364
 21
38.664028698
  0
LINE
  5
240
100
AcDbEntity
  8
INTFCLR_18
100
AcDbLine
 62
7
420
3368703
  6
CONTINUOUS
 10
50.2707495364
 20
38.664028698
 11
52.3707495364
 21
38.664028698
  0
LINE
  5
241
100
AcDbEntity
  8
INTFCLR_18
100
AcDbLine
 62
7
420
3368703
  6
CONTINUOUS
 10
66.1707495363
 20
38.664028698
 11
68.2707495363
 21
38.664028698
  0
LINE
  5
242
100
AcDbEntity
  8
00_COMPONENTS_1
100
AcDbLine
 62
7
  6
CONTINUOUS
 10
64.2707495363
 20
38.864028698
 11
62.6207495364
 21
38.864028698
  0
LINE
  5
243
100
AcDbEntity
  8
00_COMPONENTS_1
100
AcDbLine
 62
7
  6
CONTINUOUS
 10
55.9207495364
 20
38.864028698
 11
54.2707495364
 21
38.864028698
  0
LINE
  5
244
100
AcDbEntity
  8
INTFCLR_18
100
AcDbLine
 62
7
420
3368703
  6
CONTINUOUS
 10
64.2707495363
 20
38.964028698
 11
62.6207495364
 21
38.964028698
  0
LINE
  5
245
100
AcDbEntity
  8
INTFCLR_18
100
AcDbLine
 62
7
420
3368703
  6
CONTINUOUS
 10
55.9207495364
 20
38.964028698
 11
54.2707495364
 21
38.964028698
  0
LINE
  5
246
100
AcDbEntity
  8
00_COMPONENTS_1
100
AcDbLine
 62
7
  6
CONTINUOUS
 10
64.2707495363
 20
38.964028698
 11
64.6740865816
 21
38.964028698
  0
LINE
  5
247
100
AcDbEntity
  8
00_COMPONENTS_1
100
AcDbLine
 62
7
  6
CONTINUOUS
 10
54.2707495364
 20
39.464028698
 11
53.3657369734
 21
39.464028698
  0
LINE
  5
248
100
AcDbEntity
  8
00_COMPONENTS_1
100
AcDbLine
 62
7
  6
CONTINUOUS
 10
64.2707495363
 20
39.464028698
 11
65.1757620993
 21
39.464028698
  0
LINE
  5
249
100
AcDbEntity
  8
INTFCLR_18
100
AcDbLine
 62
7
420
3368703
  6
CONTINUOUS
 10
68.2707495363
 20
39.764028698
 11
66.1707495363
 21
39.764028698
  0
LINE
  5
24A
100
AcDbEntity
  8
INTFCLR_18
100
AcDbLine
 62
7
420
3368703
  6
CONTINUOUS
 10
52.3707495364
 20
39.764028698
 11
50.2707495364
 21
39.764028698
  0
LINE
  5
24B
100
AcDbEntity
  8
00_COMPONENTS_1
100
AcDbLine
 62
7
  6
CONTINUOUS
 10
50.2707495364
 20
39.764028698
 11
52.3707495364
 21
39.764028698
  0
LINE
  5
24C
100
AcDbEntity
  8
00_COMPONENTS_1
100
AcDbLine
 62
7
  6
CONTINUOUS
 10
66.1707495363
 20
39.764028698
 11
68.2707495363
 21
39.764028698
  0
LINE
  5
24D
100
AcDbEntity
  8
INTFCLR_18
100
AcDbLine
 62
7
420
3368703
  6
CONTINUOUS
 10
66.0178746224
 20
39.964028698
 11
52.5236244503
 21
39.964028698
  0
LINE
  5
24E
100
AcDbEntity
  8
00_COMPONENTS_1
100
AcDbLine
 62
7
  6
CONTINUOUS
 10
52.5236244503
 20
39.964028698
 11
55.9207495364
 21
39.964028698
  0
LINE
  5
24F
100
AcDbEntity
  8
00_COMPONENTS_1
100
AcDbLine
 62
7
  6
CONTINUOUS
 10
62.6207495364
 20
39.964028698
 11
66.0178746224
 21
39.964028698
  0
LINE
  5
250
100
AcDbEntity
  8
INTFCLR_18
100
AcDbLine
 62
7
420
3368703
  6
CONTINUOUS
 10
53.2707495364
 20
40.164028698
 11
55.91637551
 21
40.164028698
  0
LINE
  5
251
100
AcDbEntity
  8
INTFCLR_18
100
AcDbLine
 62
7
420
3368703
  6
CONTINUOUS
 10
57.0207495364
 20
40.164028698
 11
61.5207495303
 21
40.164028698
  0
LINE
  5
252
100
AcDbEntity
  8
00_COMPONENTS_1
100
AcDbLine
 62
7
  6
CONTINUOUS
 10
53.2707495364
 20
40.164028698
 11
65.2707495364
 21
40.164028698
  0
LINE
  5
253
100
AcDbEntity
  8
INTFCLR_18
100
AcDbLine
 62
7
420
3368703
  6
CONTINUOUS
 10
62.6251235614
 20
40.164028698
 11
65.2707495364
 21
40.164028698
  0
LINE
  5
254
100
AcDbEntity
  8
INTFCLR_18
100
AcDbLine
 62
7
420
3368703
  6
CONTINUOUS
 10
45.8207495364
 20
40.364028698
 11
48.249111391
 21
40.364028698
  0
LINE
  5
255
100
AcDbEntity
  8
INTFCLR_18
100
AcDbLine
 62
7
420
3368703
  6
CONTINUOUS
 10
70.2707495364
 20
40.364028698
 11
72.7207495364
 21
40.364028698
  0
LINE
  5
256
100
AcDbEntity
  8
00_COMPONENTS_1
100
AcDbLine
 62
7
  6
CONTINUOUS
 10
65.2707495364
 20
41.664028698
 11
53.2707495364
 21
41.664028698
  0
LINE
  5
257
100
AcDbEntity
  8
INTFCLR_18
100
AcDbLine
 62
7
420
3368703
  6
CONTINUOUS
 10
49.9707495364
 20
43.1738456536
 11
68.5707495364
 21
43.1738456536
  0
LINE
  5
258
100
AcDbEntity
  8
INTFCLR_18
100
AcDbLine
 62
7
420
3368703
  6
CONTINUOUS
 10
47.6949427963
 20
43.964028698
 11
48.249043032
 21
43.964028698
  0
LINE
  5
259
100
AcDbEntity
  8
INTFCLR_18
100
AcDbLine
 62
7
420
3368703
  6
CONTINUOUS
 10
49.9706505806
 20
43.964028698
 11
68.5708608972
 21
43.964028698
  0
LINE
  5
25A
100
AcDbEntity
  8
00_COMPONENTS_1
100
AcDbLine
 62
7
  6
CONTINUOUS
 10
48.249111391
 20
43.964028698
 11
70.2707495364
 21
43.964028698
  0
LINE
  5
25B
100
AcDbEntity
  8
INTFCLR_18
100
AcDbLine
 62
7
420
3368703
  6
CONTINUOUS
 10
72.7207495364
 20
44.364028698
 11
70.2707495364
 21
44.364028698
  0
LINE
  5
25C
100
AcDbEntity
  8
INTFCLR_18
100
AcDbLine
 62
7
420
3368703
  6
CONTINUOUS
 10
48.249111391
 20
44.364028698
 11
45.8207495364
 21
44.364028698
  0
LINE
  5
25D
100
AcDbEntity
  8
00_COMPONENTS_1
100
AcDbLine
 62
7
  6
CONTINUOUS
 10
33.0388363177
 20
46.5832887314
 11
45.2704133512
 21
46.5832887314
  0
LINE
  5
25E
100
AcDbEntity
  8
INTFCLR_18
100
AcDbLine
 62
7
420
3368703
  6
CONTINUOUS
 10
33.2971137369
 20
46.5832887314
 11
45.2704133512
 21
46.5832887314
  0
LINE
  5
25F
100
AcDbEntity
  8
INTFCLR_18
100
AcDbLine
 62
7
420
3368703
  6
CONTINUOUS
 10
73.2710857215
 20
46.5832887314
 11
85.2443853141
 21
46.5832887314
  0
LINE
  5
260
100
AcDbEntity
  8
00_COMPONENTS_1
100
AcDbLine
 62
7
  6
CONTINUOUS
 10
73.2710857215
 20
46.5832887314
 11
85.5026628411
 21
46.5832887314
  0
LINE
  5
261
100
AcDbEntity
  8
INTFCLR_18
100
AcDbLine
 62
7
420
3368703
  6
CONTINUOUS
 10
75.3742548104
 20
50.7014664122
 11
73.3429423181
 21
50.6999503915
  0
LINE
  5
262
100
AcDbEntity
  8
00_COMPONENTS_1
100
AcDbLine
 62
7
  6
CONTINUOUS
 10
43.1672445496
 20
50.7181581249
 11
48.1804050238
 21
50.7181581249
  0
LINE
  5
263
100
AcDbEntity
  8
INTFCLR_18
100
AcDbLine
 62
7
420
3368703
  6
CONTINUOUS
 10
70.2707495364
 20
50.7181581249
 11
73.3432601352
 21
50.7181581249
  0
LINE
  5
264
100
AcDbEntity
  8
00_COMPONENTS_1
100
AcDbLine
 62
7
  6
CONTINUOUS
 10
73.3432601352
 20
50.7181581249
 11
75.3742548104
 21
50.7181581249
  0
LINE
  5
265
100
AcDbEntity
  8
00_COMPONENTS_1
100
AcDbLine
 62
7
  6
CONTINUOUS
 10
70.2707495364
 20
51.0181467018
 11
73.3484964553
 21
51.0181467018
  0
LINE
  5
266
100
AcDbEntity
  8
INTFCLR_18
100
AcDbLine
 62
7
420
3368703
  6
CONTINUOUS
 10
44.0638160096
 20
50.7007972777
 11
43.1672445496
 21
50.701466412
  0
LINE
  5
267
100
AcDbEntity
  8
INTFCLR_18
100
AcDbLine
 62
7
420
3368703
  6
CONTINUOUS
 10
31.8707495364
 20
13.078612154
 11
31.8707495364
 21
143.064028698
  0
LINE
  5
268
100
AcDbEntity
  8
00_COMPONENTS_1
100
AcDbLine
 62
7
  6
CONTINUOUS
 10
31.8707495364
 20
33.164028698
 11
31.8707495364
 21
145.516339234
  0
LINE
  5
269
100
AcDbEntity
  8
00_COMPONENTS_1
100
AcDbLine
 62
7
  6
CONTINUOUS
 10
33.0388380406
 20
34.3054794493
 11
33.0388363177
 21
46.5832887314
  0
LINE
  5
26A
100
AcDbEntity
  8
INTFCLR_18
100
AcDbLine
 62
7
420
3368703
  6
CONTINUOUS
 10
33.2971137369
 20
50.7111185686
 11
33.2971137369
 21
46.5832887314
  0
LINE
  5
26B
100
AcDbEntity
  8
00_COMPONENTS_1
100
AcDbLine
 62
7
  6
CONTINUOUS
 10
33.2971137369
 20
46.5832887314
 11
33.2971137369
 21
50.7111185686
  0
LINE
  5
26C
100
AcDbEntity
  8
INTFCLR_18
100
AcDbLine
 62
7
420
3368703
  6
CONTINUOUS
 10
36.5207495364
 20
82.871208375
 11
36.5207495364
 21
72.6539329394
  0
LINE
  5
26D
100
AcDbEntity
  8
00_COMPONENTS_1
100
AcDbLine
 62
7
  6
CONTINUOUS
 10
36.5207495364
 20
72.6539329394
 11
36.5207495364
 21
82.871208375
  0
LINE
  5
26E
100
AcDbEntity
  8
INTFCLR_18
100
AcDbLine
 62
7
420
3368703
  6
CONTINUOUS
 10
36.9207495364
 20
94.2091702063
 11
36.9207495364
 21
84.364028698
  0
LINE
  5
26F
100
AcDbEntity
  8
00_COMPONENTS_1
100
AcDbLine
 62
7
  6
CONTINUOUS
 10
36.9207495364
 20
84.364028698
 11
36.9207495364
 21
94.2091702063
  0
LINE
  5
270
100
AcDbEntity
  8
00_COMPONENTS_1
100
AcDbLine
 62
7
  6
CONTINUOUS
 10
37.0207495364
 20
72.6539329394
 11
37.0207495364
 21
82.8053821262
  0
LINE
  5
271
100
AcDbEntity
  8
INTFCLR_18
100
AcDbLine
 62
7
420
3368703
  6
CONTINUOUS
 10
37.1307495364
 20
145.2631044836
 11
37.1307495364
 21
150.8533050736
  0
LINE
  5
272
100
AcDbEntity
  8
00_COMPONENTS_1
100
AcDbLine
 62
7
  6
CONTINUOUS
 10
37.1307495364
 20
145.5920334625
 11
37.1307495364
 21
150.1464197308
  0
LINE
  5
273
100
AcDbEntity
  8
INTFCLR_18
100
AcDbLine
 62
7
420
3368703
  6
CONTINUOUS
 10
37.2207495364
 20
86.2881204817
 11
37.2207495364
 21
83.7881204817
  0
LINE
  5
274
100
AcDbEntity
  8
00_COMPONENTS_1
100
AcDbLine
 62
7
  6
CONTINUOUS
 10
37.4207495364
 20
86.2881204817
 11
37.4207495364
 21
93.9095896622
  0
LINE
  5
275
100
AcDbEntity
  8
00_COMPONENTS_1
100
AcDbLine
 62
7
  6
CONTINUOUS
 10
36.9207495364
 20
84.364028698
 11
36.5207495364
 21
82.871208375
  0
LINE
  5
276
100
AcDbEntity
  8
INTFCLR_18
100
AcDbLine
 62
7
420
3368703
  6
CONTINUOUS
 10
36.9207495364
 20
84.364028698
 11
36.5207495364
 21
82.871208375
  0
LINE
  5
277
100
AcDbEntity
  8
00_COMPONENTS_1
100
AcDbLine
 62
7
  6
CONTINUOUS
 10
37.2840734851
 20
83.7881204817
 11
37.0207495364
 21
82.8053821262
  0
LINE
  5
278
100
AcDbEntity
  8
00_COMPONENTS_1
100
AcDbLine
 62
7
  6
CONTINUOUS
 10
45.1983448766
 20
50.7120888804
 11
45.2704133512
 21
46.5832887314
  0
LINE
  5
279
100
AcDbEntity
  8
INTFCLR_18
100
AcDbLine
 62
7
420
3368703
  6
CONTINUOUS
 10
45.2704133512
 20
46.5832887314
 11
45.1985567547
 21
50.6999503915
  0
LINE
  5
27A
100
AcDbEntity
  8
00_COMPONENTS_1
100
AcDbLine
 62
7
  6
CONTINUOUS
 10
40.2419300946
 20
150.1464197308
 11
40.2419300946
 21
145.5776564729
  0
LINE
  5
27B
100
AcDbEntity
  8
00_COMPONENTS_1
100
AcDbLine
 62
7
  6
CONTINUOUS
 10
44.0638289664
 20
50.7181581249
 11
44.0638289664
 21
67.164028698
  0
LINE
  5
27C
100
AcDbEntity
  8
00_COMPONENTS_1
100
AcDbLine
 62
7
  6
CONTINUOUS
 10
48.0648100646
 20
63.964028698
 11
70.2707495364
 21
63.964028698
  0
LINE
  5
27D
100
AcDbEntity
  8
00_COMPONENTS_1
100
AcDbLine
 62
7
  6
CONTINUOUS
 10
86.6707495364
 20
67.164028698
 11
68.2707495364
 21
67.164028698
  0
LINE
  5
27E
100
AcDbEntity
  8
INTFCLR_18
100
AcDbLine
 62
7
420
3368703
  6
CONTINUOUS
 10
70.2707495364
 20
67.164028698
 11
48.0368840881
 21
67.164028698
  0
LINE
  5
27F
100
AcDbEntity
  8
00_COMPONENTS_1
100
AcDbLine
 62
7
  6
CONTINUOUS
 10
50.0369602449
 20
67.164028698
 11
31.8707495364
 21
67.164028698
  0
LINE
  5
280
100
AcDbEntity
  8
00_COMPONENTS_1
100
AcDbLine
 62
7
  6
CONTINUOUS
 10
48.2413255349
 20
43.964028698
 11
48.0648100646
 21
63.964028698
  0
LINE
  5
281
100
AcDbEntity
  8
INTFCLR_18
100
AcDbLine
 62
7
420
3368703
  6
CONTINUOUS
 10
48.0368840881
 20
67.164028698
 11
48.2393481609
 21
43.9639434956
  0
LINE
  5
282
100
AcDbEntity
  8
00_COMPONENTS_1
100
AcDbLine
 62
7
  6
CONTINUOUS
 10
48.0648100646
 20
63.964028698
 11
48.0368840881
 21
67.164028698
  0
LINE
  5
283
100
AcDbEntity
  8
00_COMPONENTS_1
100
AcDbLine
 62
7
  6
CONTINUOUS
 10
50.0648862213
 20
63.964028698
 11
50.0369602449
 21
67.164028698
  0
LINE
  5
284
100
AcDbEntity
  8
INTFCLR_18
100
AcDbLine
 62
7
420
3368703
  6
CONTINUOUS
 10
45.8207495364
 20
44.364028698
 11
45.8207495364
 21
40.364028698
  0
LINE
  5
285
100
AcDbEntity
  8
00_COMPONENTS_1
100
AcDbLine
 62
7
  6
CONTINUOUS
 10
46.1207495364
 20
93.9095896622
 11
46.1207495364
 21
86.2881204817
  0
LINE
  5
286
100
AcDbEntity
  8
INTFCLR_18
100
AcDbLine
 62
7
420
3368703
  6
CONTINUOUS
 10
46.3207495364
 20
83.7881204817
 11
46.3207495364
 21
86.2881204817
  0
LINE
  5
287
100
AcDbEntity
  8
00_COMPONENTS_1
100
AcDbLine
 62
7
  6
CONTINUOUS
 10
46.5207495364
 20
82.8053821262
 11
46.5207495364
 21
72.6539329394
  0
LINE
  5
288
100
AcDbEntity
  8
00_COMPONENTS_1
100
AcDbLine
 62
7
  6
CONTINUOUS
 10
46.6207495364
 20
94.2091702063
 11
46.6207495364
 21
84.364028698
  0
LINE
  5
289
100
AcDbEntity
  8
INTFCLR_18
100
AcDbLine
 62
7
420
3368703
  6
CONTINUOUS
 10
46.6207495364
 20
84.364028698
 11
46.6207495364
 21
94.2091702063
  0
LINE
  5
28A
100
AcDbEntity
  8
00_COMPONENTS_1
100
AcDbLine
 62
7
  6
CONTINUOUS
 10
47.0207495364
 20
82.871208375
 11
47.0207495364
 21
72.6539329394
  0
LINE
  5
28B
100
AcDbEntity
  8
INTFCLR_18
100
AcDbLine
 62
7
420
3368703
  6
CONTINUOUS
 10
47.0207495364
 20
72.6539329394
 11
47.0207495364
 21
82.871208375
  0
LINE
  5
28C
100
AcDbEntity
  8
00_COMPONENTS_1
100
AcDbLine
 62
7
  6
CONTINUOUS
 10
48.1707495364
 20
142.264028698
 11
48.1707495364
 21
129.2372578591
  0
LINE
  5
28D
100
AcDbEntity
  8
00_COMPONENTS_1
100
AcDbLine
 62
7
  6
CONTINUOUS
 10
48.249111391
 20
33.164028698
 11
48.249111391
 21
43.964028698
  0
LINE
  5
28E
100
AcDbEntity
  8
00_COMPONENTS_1
100
AcDbLine
 62
7
  6
CONTINUOUS
 10
49.1707495364
 20
129.2935237085
 11
49.1707495364
 21
142.264028698
  0
LINE
  5
28F
100
AcDbEntity
  8
00_COMPONENTS_1
100
AcDbLine
 62
7
  6
CONTINUOUS
 10
49.7207495364
 20
137.5674315721
 11
49.7207495364
 21
132.164028698
  0
LINE
  5
290
100
AcDbEntity
  8
INTFCLR_18
100
AcDbLine
 62
7
420
3368703
  6
CONTINUOUS
 10
49.7207495364
 20
137.5674315721
 11
49.7207495364
 21
132.164028698
  0
LINE
  5
291
100
AcDbEntity
  8
00_COMPONENTS_1
100
AcDbLine
 62
7
  6
CONTINUOUS
 10
49.8631090699
 20
63.964028698
 11
49.8631090699
 21
43.964028698
  0
LINE
  5
292
100
AcDbEntity
  8
00_COMPONENTS_1
100
AcDbLine
 62
7
  6
CONTINUOUS
 10
49.9707495364
 20
43.964028698
 11
49.9707495364
 21
33.164028698
  0
LINE
  5
293
100
AcDbEntity
  8
00_COMPONENTS_1
100
AcDbLine
 62
7
  6
CONTINUOUS
 10
48.2437489277
 20
63.964028698
 11
48.2413255349
 21
43.964028698
  0
LINE
  5
294
100
AcDbEntity
  8
00_COMPONENTS_1
100
AcDbLine
 62
7
  6
CONTINUOUS
 10
46.5207495364
 20
82.8053821262
 11
46.2574255876
 21
83.7881204817
  0
LINE
  5
295
100
AcDbEntity
  8
00_COMPONENTS_1
100
AcDbLine
 62
7
  6
CONTINUOUS
 10
47.0207495364
 20
82.871208375
 11
46.6207495364
 21
84.364028698
  0
LINE
  5
296
100
AcDbEntity
  8
INTFCLR_18
100
AcDbLine
 62
7
420
3368703
  6
CONTINUOUS
 10
47.0207495364
 20
82.871208375
 11
46.6207495364
 21
84.364028698
  0
LINE
  5
297
100
AcDbEntity
  8
INTFCLR_18
100
AcDbLine
 62
7
420
3368703
  6
CONTINUOUS
 10
50.2707495364
 20
39.764028698
 11
50.2707495364
 21
38.664028698
  0
LINE
  5
298
100
AcDbEntity
  8
00_COMPONENTS_1
100
AcDbLine
 62
7
  6
CONTINUOUS
 10
50.2707495364
 20
38.664028698
 11
50.2707495364
 21
39.764028698
  0
LINE
  5
299
100
AcDbEntity
  8
00_COMPONENTS_1
100
AcDbLine
 62
7
  6
CONTINUOUS
 10
50.9207495364
 20
136.364028698
 11
50.9207495364
 21
137.5674315721
  0
LINE
  5
29A
100
AcDbEntity
  8
00_COMPONENTS_1
100
AcDbLine
 62
7
  6
CONTINUOUS
 10
52.2207495364
 20
136.364028698
 11
52.2207495364
 21
132.164028698
  0
LINE
  5
29B
100
AcDbEntity
  8
00_COMPONENTS_1
100
AcDbLine
 62
7
  6
CONTINUOUS
 10
52.3707495364
 20
135.914028698
 11
52.3707495364
 21
136.5674315721
  0
LINE
  5
29C
100
AcDbEntity
  8
INTFCLR_18
100
AcDbLine
 62
7
420
3368703
  6
CONTINUOUS
 10
52.3707495364
 20
135.914028698
 11
52.3707495364
 21
136.5674315721
  0
LINE
  5
29D
100
AcDbEntity
  8
INTFCLR_18
100
AcDbLine
 62
7
420
3368703
  6
CONTINUOUS
 10
52.5236244503
 20
39.964028698
 11
52.5236244503
 21
39.7575250768
  0
LINE
  5
29E
100
AcDbEntity
  8
00_COMPONENTS_1
100
AcDbLine
 62
7
  6
CONTINUOUS
 10
52.5236244503
 20
39.7575250768
 11
52.5236244503
 21
39.964028698
  0
LINE
  5
29F
100
AcDbEntity
  8
00_COMPONENTS_1
100
AcDbLine
 62
7
  6
CONTINUOUS
 10
52.5628192
 20
43.964028698
 11
52.5628192
 21
39.964028698
  0
LINE
  5
2A0
100
AcDbEntity
  8
00_COMPONENTS_1
100
AcDbLine
 62
7
  6
CONTINUOUS
 10
52.5628192
 20
38.6371625957
 11
52.5628192
 21
33.164028698
  0
LINE
  5
2A1
100
AcDbEntity
  8
INTFCLR_18
100
AcDbLine
 62
7
420
3368703
  6
CONTINUOUS
 10
53.0707495364
 20
37.964028698
 11
53.0707495364
 21
34.964028698
  0
LINE
  5
2A2
100
AcDbEntity
  8
00_COMPONENTS_1
100
AcDbLine
 62
7
  6
CONTINUOUS
 10
53.0707495364
 20
34.764028698
 11
53.0707495364
 21
33.464028698
  0
LINE
  5
2A3
100
AcDbEntity
  8
INTFCLR_18
100
AcDbLine
 62
7
420
3368703
  6
CONTINUOUS
 10
53.0707495364
 20
33.464028698
 11
53.0707495364
 21
34.764028698
  0
LINE
  5
2A4
100
AcDbEntity
  8
00_COMPONENTS_1
100
AcDbLine
 62
7
  6
CONTINUOUS
 10
53.0707495364
 20
34.964028698
 11
53.0707495364
 21
37.964028698
  0
LINE
  5
2A5
100
AcDbEntity
  8
00_COMPONENTS_1
100
AcDbLine
 62
7
  6
CONTINUOUS
 10
53.2707495364
 20
41.664028698
 11
53.2707495364
 21
40.164028698
  0
LINE
  5
2A6
100
AcDbEntity
  8
INTFCLR_18
100
AcDbLine
 62
7
420
3368703
  6
CONTINUOUS
 10
54.0207495364
 20
82.871208375
 11
54.0207495364
 21
72.6539329394
  0
LINE
  5
2A7
100
AcDbEntity
  8
00_COMPONENTS_1
100
AcDbLine
 62
7
  6
CONTINUOUS
 10
54.0207495364
 20
72.6539329394
 11
54.0207495364
 21
82.871208375
  0
LINE
  5
2A8
100
AcDbEntity
  8
00_COMPONENTS_1
100
AcDbLine
 62
7
  6
CONTINUOUS
 10
54.1707495364
 20
37.964028698
 11
54.1707495364
 21
34.964028698
  0
LINE
  5
2A9
100
AcDbEntity
  8
INTFCLR_18
100
AcDbLine
 62
7
420
3368703
  6
CONTINUOUS
 10
54.1707495364
 20
37.964028698
 11
54.1707495364
 21
34.964028698
  0
LINE
  5
2AA
100
AcDbEntity
  8
00_COMPONENTS_1
100
AcDbLine
 62
7
  6
CONTINUOUS
 10
54.2707495364
 20
34.7226252215
 11
54.2707495364
 21
37.9640286984
  0
LINE
  5
2AB
100
AcDbEntity
  8
00_COMPONENTS_1
100
AcDbLine
 62
7
  6
CONTINUOUS
 10
54.2707495364
 20
38.0108198098
 11
54.2707495364
 21
39.464028698
  0
LINE
  5
2AC
100
AcDbEntity
  8
INTFCLR_18
100
AcDbLine
 62
7
420
3368703
  6
CONTINUOUS
 10
54.4207495364
 20
94.2091702063
 11
54.4207495364
 21
84.364028698
  0
LINE
  5
2AD
100
AcDbEntity
  8
00_COMPONENTS_1
100
AcDbLine
 62
7
  6
CONTINUOUS
 10
54.4207495364
 20
84.364028698
 11
54.4207495364
 21
94.2091702063
  0
LINE
  5
2AE
100
AcDbEntity
  8
00_COMPONENTS_1
100
AcDbLine
 62
7
  6
CONTINUOUS
 10
54.4707495364
 20
40.164028698
 11
54.4707495364
 21
41.664028698
  0
LINE
  5
2AF
100
AcDbEntity
  8
00_COMPONENTS_1
100
AcDbLine
 62
7
  6
CONTINUOUS
 10
54.5207495364
 20
72.6539329394
 11
54.5207495364
 21
82.8053821262
  0
LINE
  5
2B0
100
AcDbEntity
  8
INTFCLR_18
100
AcDbLine
 62
7
420
3368703
  6
CONTINUOUS
 10
54.7207495364
 20
86.2881204817
 11
54.7207495364
 21
83.7881204817
  0
LINE
  5
2B1
100
AcDbEntity
  8
00_COMPONENTS_1
100
AcDbLine
 62
7
  6
CONTINUOUS
 10
54.7707495364
 20
40.164028698
 11
54.7707495364
 21
41.664028698
  0
LINE
  5
2B2
100
AcDbEntity
  8
00_COMPONENTS_1
100
AcDbLine
 62
7
  6
CONTINUOUS
 10
54.9207495364
 20
86.2881204817
 11
54.9207495364
 21
93.9095896622
  0
LINE
  5
2B3
100
AcDbEntity
  8
00_COMPONENTS_1
100
AcDbLine
 62
7
  6
CONTINUOUS
 10
54.4207495364
 20
84.364028698
 11
54.0207495364
 21
82.871208375
  0
LINE
  5
2B4
100
AcDbEntity
  8
INTFCLR_18
100
AcDbLine
 62
7
420
3368703
  6
CONTINUOUS
 10
54.4207495364
 20
84.364028698
 11
54.0207495364
 21
82.871208375
  0
LINE
  5
2B5
100
AcDbEntity
  8
00_COMPONENTS_1
100
AcDbLine
 62
7
  6
CONTINUOUS
 10
54.7840734851
 20
83.7881204817
 11
54.5207495364
 21
82.8053821262
  0
LINE
  5
2B6
100
AcDbEntity
  8
00_COMPONENTS_1
100
AcDbLine
 62
7
  6
CONTINUOUS
 10
55.5707495364
 20
136.5674315721
 11
55.5707495364
 21
135.914028698
  0
LINE
  5
2B7
100
AcDbEntity
  8
INTFCLR_18
100
AcDbLine
 62
7
420
3368703
  6
CONTINUOUS
 10
55.5707495364
 20
136.5674315721
 11
55.5707495364
 21
135.914028698
  0
LINE
  5
2B8
100
AcDbEntity
  8
00_COMPONENTS_1
100
AcDbLine
 62
7
  6
CONTINUOUS
 10
55.7207495364
 20
136.364028698
 11
55.7207495364
 21
132.164028698
  0
LINE
  5
2B9
100
AcDbEntity
  8
00_COMPONENTS_1
100
AcDbLine
 62
7
  6
CONTINUOUS
 10
55.9207495364
 20
36.364028698
 11
55.9207495364
 21
40.164028698
  0
LINE
  5
2BA
100
AcDbEntity
  8
00_COMPONENTS_1
100
AcDbLine
 62
7
  6
CONTINUOUS
 10
56.5207495364
 20
35.4744680614
 11
56.5207495364
 21
34.364028698
  0
LINE
  5
2BB
100
AcDbEntity
  8
00_COMPONENTS_1
100
AcDbLine
 62
7
  6
CONTINUOUS
 10
56.5207495364
 20
33.264028698
 11
56.5207495364
 21
33.164028698
  0
LINE
  5
2BC
100
AcDbEntity
  8
00_COMPONENTS_1
100
AcDbLine
 62
7
  6
CONTINUOUS
 10
57.0207495364
 20
136.364028698
 11
57.0207495364
 21
137.5674315721
  0
LINE
  5
2BD
100
AcDbEntity
  8
00_COMPONENTS_1
100
AcDbLine
 62
7
  6
CONTINUOUS
 10
58.2207495364
 20
132.164028698
 11
58.2207495364
 21
137.5674315721
  0
LINE
  5
2BE
100
AcDbEntity
  8
INTFCLR_18
100
AcDbLine
 62
7
420
3368703
  6
CONTINUOUS
 10
58.2207495364
 20
132.164028698
 11
58.2207495364
 21
137.5674315721
  0
LINE
  5
2BF
100
AcDbEntity
  8
00_COMPONENTS_1
100
AcDbLine
 62
7
  6
CONTINUOUS
 10
58.7707495364
 20
142.264028698
 11
58.7707495364
 21
129.5633662346
  0
LINE
  5
2C0
100
AcDbEntity
  8
0
100
AcDbLine
 62
7
420
3368703
  6
CONTINUOUS
 10
59.2707495364
 20
41.664028698
 11
59.2707495364
 21
63.9600736053
  0
LINE
  5
2C1
100
AcDbEntity
  8
00_COMPONENTS_1
100
AcDbLine
 62
7
  6
CONTINUOUS
 10
59.7707495364
 20
129.5633662346
 11
59.7707495364
 21
142.264028698
  0
LINE
  5
2C2
100
AcDbEntity
  8
00_COMPONENTS_1
100
AcDbLine
 62
7
  6
CONTINUOUS
 10
60.3207495364
 20
137.5674315721
 11
60.3207495364
 21
132.164028698
  0
LINE
  5
2C3
100
AcDbEntity
  8
INTFCLR_18
100
AcDbLine
 62
7
420
3368703
  6
CONTINUOUS
 10
60.3207495364
 20
137.5674315721
 11
60.3207495364
 21
132.164028698
  0
LINE
  5
2C4
100
AcDbEntity
  8
00_COMPONENTS_1
100
AcDbLine
 62
7
  6
CONTINUOUS
 10
61.5207495364
 20
136.364028698
 11
61.5207495364
 21
137.5674315721
  0
LINE
  5
2C5
100
AcDbEntity
  8
00_COMPONENTS_1
100
AcDbLine
 62
7
  6
CONTINUOUS
 10
62.0207495364
 20
33.164028698
 11
62.0207495364
 21
33.264028698
  0
LINE
  5
2C6
100
AcDbEntity
  8
00_COMPONENTS_1
100
AcDbLine
 62
7
  6
CONTINUOUS
 10
62.0207495364
 20
34.364028698
 11
62.0207495364
 21
35.4744680614
  0
LINE
  5
2C7
100
AcDbEntity
  8
00_COMPONENTS_1
100
AcDbLine
 62
7
  6
CONTINUOUS
 10
62.6207495364
 20
40.164028698
 11
62.6207495364
 21
36.364028698
  0
LINE
  5
2C8
100
AcDbEntity
  8
00_COMPONENTS_1
100
AcDbLine
 62
7
  6
CONTINUOUS
 10
62.8207495364
 20
136.364028698
 11
62.8207495364
 21
132.164028698
  0
LINE
  5
2C9
100
AcDbEntity
  8
00_COMPONENTS_1
100
AcDbLine
 62
7
  6
CONTINUOUS
 10
62.9707495364
 20
135.914028698
 11
62.9707495364
 21
136.5674315721
  0
LINE
  5
2CA
100
AcDbEntity
  8
INTFCLR_18
100
AcDbLine
 62
7
420
3368703
  6
CONTINUOUS
 10
62.9707495364
 20
135.914028698
 11
62.9707495364
 21
136.5674315721
  0
LINE
  5
2CB
100
AcDbEntity
  8
00_COMPONENTS_1
100
AcDbLine
 62
7
  6
CONTINUOUS
 10
63.6207495364
 20
93.9095896622
 11
63.6207495364
 21
86.2881204817
  0
LINE
  5
2CC
100
AcDbEntity
  8
00_COMPONENTS_1
100
AcDbLine
 62
7
  6
CONTINUOUS
 10
63.7707495364
 20
41.664028698
 11
63.7707495364
 21
40.164028698
  0
LINE
  5
2CD
100
AcDbEntity
  8
INTFCLR_18
100
AcDbLine
 62
7
420
3368703
  6
CONTINUOUS
 10
63.8207495364
 20
83.7881204817
 11
63.8207495364
 21
86.2881204817
  0
LINE
  5
2CE
100
AcDbEntity
  8
00_COMPONENTS_1
100
AcDbLine
 62
7
  6
CONTINUOUS
 10
64.0207495364
 20
82.8053821262
 11
64.0207495364
 21
72.6539329394
  0
LINE
  5
2CF
100
AcDbEntity
  8
00_COMPONENTS_1
100
AcDbLine
 62
7
  6
CONTINUOUS
 10
64.0707495364
 20
41.664028698
 11
64.0707495364
 21
40.164028698
  0
LINE
  5
2D0
100
AcDbEntity
  8
00_COMPONENTS_1
100
AcDbLine
 62
7
  6
CONTINUOUS
 10
64.1207495364
 20
94.2091702063
 11
64.1207495364
 21
84.364028698
  0
LINE
  5
2D1
100
AcDbEntity
  8
INTFCLR_18
100
AcDbLine
 62
7
420
3368703
  6
CONTINUOUS
 10
64.1207495364
 20
84.364028698
 11
64.1207495364
 21
94.2091702063
  0
LINE
  5
2D2
100
AcDbEntity
  8
00_COMPONENTS_1
100
AcDbLine
 62
7
  6
CONTINUOUS
 10
64.2707495363
 20
34.7226252215
 11
64.2707495363
 21
39.464028698
  0
LINE
  5
2D3
100
AcDbEntity
  8
INTFCLR_18
100
AcDbLine
 62
7
420
3368703
  6
CONTINUOUS
 10
64.3707495363
 20
37.964028698
 11
64.3707495363
 21
34.964028698
  0
LINE
  5
2D4
100
AcDbEntity
  8
00_COMPONENTS_1
100
AcDbLine
 62
7
  6
CONTINUOUS
 10
64.3707495363
 20
34.964028698
 11
64.3707495363
 21
37.964028698
  0
LINE
  5
2D5
100
AcDbEntity
  8
00_COMPONENTS_1
100
AcDbLine
 62
7
  6
CONTINUOUS
 10
64.5207495364
 20
82.871208375
 11
64.5207495364
 21
72.6539329394
  0
LINE
  5
2D6
100
AcDbEntity
  8
INTFCLR_18
100
AcDbLine
 62
7
420
3368703
  6
CONTINUOUS
 10
64.5207495364
 20
72.6539329394
 11
64.5207495364
 21
82.871208375
  0
LINE
  5
2D7
100
AcDbEntity
  8
00_COMPONENTS_1
100
AcDbLine
 62
7
  6
CONTINUOUS
 10
81.2574255876
 20
83.7881204817
 11
72.2840734851
 21
83.7881204817
  0
LINE
  5
2D8
100
AcDbEntity
  8
00_COMPONENTS_1
100
AcDbLine
 62
7
  6
CONTINUOUS
 10
63.7574255876
 20
83.7881204817
 11
54.7840734851
 21
83.7881204817
  0
LINE
  5
2D9
100
AcDbEntity
  8
00_COMPONENTS_1
100
AcDbLine
 62
7
  6
CONTINUOUS
 10
46.2574255876
 20
83.7881204817
 11
37.2840734851
 21
83.7881204817
  0
LINE
  5
2DA
100
AcDbEntity
  8
INTFCLR_18
100
AcDbLine
 62
7
420
3368703
  6
CONTINUOUS
 10
37.2207495364
 20
83.7881204817
 11
46.3207495364
 21
83.7881204817
  0
LINE
  5
2DB
100
AcDbEntity
  8
INTFCLR_18
100
AcDbLine
 62
7
420
3368703
  6
CONTINUOUS
 10
54.7207495364
 20
83.7881204817
 11
63.8207495364
 21
83.7881204817
  0
LINE
  5
2DC
100
AcDbEntity
  8
INTFCLR_18
100
AcDbLine
 62
7
420
3368703
  6
CONTINUOUS
 10
72.2207495364
 20
83.7881204817
 11
81.3207495364
 21
83.7881204817
  0
LINE
  5
2DD
100
AcDbEntity
  8
INTFCLR_18
100
AcDbLine
 62
7
420
3368703
  6
CONTINUOUS
 10
81.3207495364
 20
86.2881204817
 11
72.2207495364
 21
86.2881204817
  0
LINE
  5
2DE
100
AcDbEntity
  8
INTFCLR_18
100
AcDbLine
 62
7
420
3368703
  6
CONTINUOUS
 10
63.8207495364
 20
86.2881204817
 11
54.7207495364
 21
86.2881204817
  0
LINE
  5
2DF
100
AcDbEntity
  8
INTFCLR_18
100
AcDbLine
 62
7
420
3368703
  6
CONTINUOUS
 10
46.3207495364
 20
86.2881204817
 11
37.2207495364
 21
86.2881204817
  0
LINE
  5
2E0
100
AcDbEntity
  8
00_COMPONENTS_1
100
AcDbLine
 62
7
  6
CONTINUOUS
 10
37.4207495364
 20
86.2881204817
 11
46.1207495364
 21
86.2881204817
  0
LINE
  5
2E1
100
AcDbEntity
  8
00_COMPONENTS_1
100
AcDbLine
 62
7
  6
CONTINUOUS
 10
54.9207495364
 20
86.2881204817
 11
63.6207495364
 21
86.2881204817
  0
LINE
  5
2E2
100
AcDbEntity
  8
00_COMPONENTS_1
100
AcDbLine
 62
7
  6
CONTINUOUS
 10
72.4207495364
 20
86.2881204817
 11
81.1207495364
 21
86.2881204817
  0
LINE
  5
2E3
100
AcDbEntity
  8
00_COMPONENTS_1
100
AcDbLine
 62
7
  6
CONTINUOUS
 10
64.0207495364
 20
82.8053821262
 11
63.7574255876
 21
83.7881204817
  0
LINE
  5
2E4
100
AcDbEntity
  8
00_COMPONENTS_1
100
AcDbLine
 62
7
  6
CONTINUOUS
 10
64.5207495364
 20
82.871208375
 11
64.1207495364
 21
84.364028698
  0
LINE
  5
2E5
100
AcDbEntity
  8
INTFCLR_18
100
AcDbLine
 62
7
420
3368703
  6
CONTINUOUS
 10
64.5207495364
 20
82.871208375
 11
64.1207495364
 21
84.364028698
  0
LINE
  5
2E6
100
AcDbEntity
  8
00_COMPONENTS_1
100
AcDbLine
 62
7
  6
CONTINUOUS
 10
65.2707495364
 20
41.664028698
 11
65.2707495364
 21
40.164028698
  0
LINE
  5
2E7
100
AcDbEntity
  8
00_COMPONENTS_1
100
AcDbLine
 62
7
  6
CONTINUOUS
 10
65.4707495363
 20
37.964028698
 11
65.4707495363
 21
34.9640286954
  0
LINE
  5
2E8
100
AcDbEntity
  8
INTFCLR_18
100
AcDbLine
 62
7
420
3368703
  6
CONTINUOUS
 10
65.4707495364
 20
34.7640286971
 11
65.4707495364
 21
33.464028698
  0
LINE
  5
2E9
100
AcDbEntity
  8
00_COMPONENTS_1
100
AcDbLine
 62
7
  6
CONTINUOUS
 10
65.4707495363
 20
33.464028698
 11
65.4707495363
 21
34.764028698
  0
LINE
  5
2EA
100
AcDbEntity
  8
INTFCLR_18
100
AcDbLine
 62
7
420
3368703
  6
CONTINUOUS
 10
65.4707495363
 20
34.9640286954
 11
65.4707495363
 21
37.964028698
  0
LINE
  5
2EB
100
AcDbEntity
  8
00_COMPONENTS_1
100
AcDbLine
 62
7
  6
CONTINUOUS
 10
65.9786798727
 20
43.964028698
 11
65.9786798727
 21
39.964028698
  0
LINE
  5
2EC
100
AcDbEntity
  8
00_COMPONENTS_1
100
AcDbLine
 62
7
  6
CONTINUOUS
 10
65.9786798727
 20
38.6371625957
 11
65.9786798727
 21
33.164028698
  0
LINE
  5
2ED
100
AcDbEntity
  8
00_COMPONENTS_1
100
AcDbLine
 62
7
  6
CONTINUOUS
 10
66.0178746224
 20
39.964028698
 11
66.0178746224
 21
39.7575250768
  0
LINE
  5
2EE
100
AcDbEntity
  8
INTFCLR_18
100
AcDbLine
 62
7
420
3368703
  6
CONTINUOUS
 10
66.0178746224
 20
39.7575250768
 11
66.0178746224
 21
39.964028698
  0
LINE
  5
2EF
100
AcDbEntity
  8
00_COMPONENTS_1
100
AcDbLine
 62
7
  6
CONTINUOUS
 10
66.1707495364
 20
136.5674315721
 11
66.1707495364
 21
135.914028698
  0
LINE
  5
2F0
100
AcDbEntity
  8
INTFCLR_18
100
AcDbLine
 62
7
420
3368703
  6
CONTINUOUS
 10
66.1707495364
 20
136.5674315721
 11
66.1707495364
 21
135.914028698
  0
LINE
  5
2F1
100
AcDbEntity
  8
00_COMPONENTS_1
100
AcDbLine
 62
7
  6
CONTINUOUS
 10
66.3207495364
 20
136.364028698
 11
66.3207495364
 21
132.164028698
  0
LINE
  5
2F2
100
AcDbEntity
  8
00_COMPONENTS_1
100
AcDbLine
 62
7
  6
CONTINUOUS
 10
67.6207495364
 20
136.364028698
 11
67.6207495364
 21
137.5674315721
  0
LINE
  5
2F3
100
AcDbEntity
  8
00_COMPONENTS_1
100
AcDbLine
 62
7
  6
CONTINUOUS
 10
68.2707495363
 20
39.764028698
 11
68.2707495363
 21
38.664028698
  0
LINE
  5
2F4
100
AcDbEntity
  8
INTFCLR_18
100
AcDbLine
 62
7
420
3368703
  6
CONTINUOUS
 10
68.2707495363
 20
38.664028698
 11
68.2707495363
 21
39.764028698
  0
LINE
  5
2F5
100
AcDbEntity
  8
00_COMPONENTS_1
100
AcDbLine
 62
7
  6
CONTINUOUS
 10
68.2707495364
 20
63.964028698
 11
68.2707495364
 21
67.164028698
  0
LINE
  5
2F6
100
AcDbEntity
  8
00_COMPONENTS_1
100
AcDbLine
 62
7
  6
CONTINUOUS
 10
68.5707495364
 20
43.964028698
 11
68.5707495364
 21
33.164028698
  0
LINE
  5
2F7
100
AcDbEntity
  8
00_COMPONENTS_1
100
AcDbLine
 62
7
  6
CONTINUOUS
 10
68.6457495364
 20
63.964028698
 11
68.6457495364
 21
43.964028698
  0
LINE
  5
2F8
100
AcDbEntity
  8
00_COMPONENTS_1
100
AcDbLine
 62
7
  6
CONTINUOUS
 10
68.8207495364
 20
132.164028698
 11
68.8207495364
 21
137.5674315721
  0
LINE
  5
2F9
100
AcDbEntity
  8
INTFCLR_18
100
AcDbLine
 62
7
420
3368703
  6
CONTINUOUS
 10
68.8207495364
 20
132.164028698
 11
68.8207495364
 21
137.5674315721
  0
LINE
  5
2FA
100
AcDbEntity
  8
00_COMPONENTS_1
100
AcDbLine
 62
7
  6
CONTINUOUS
 10
69.3707495364
 20
142.264028698
 11
69.3707495364
 21
129.2935237085
  0
LINE
  5
2FB
100
AcDbEntity
  8
00_COMPONENTS_1
100
AcDbLine
 62
7
  6
CONTINUOUS
 10
70.2707495364
 20
67.164028698
 11
70.2707495364
 21
33.164028698
  0
LINE
  5
2FC
100
AcDbEntity
  8
INTFCLR_18
100
AcDbLine
 62
7
420
3368703
  6
CONTINUOUS
 10
70.2707495364
 20
43.964028698
 11
70.2707495364
 21
67.164028698
  0
LINE
  5
2FD
100
AcDbEntity
  8
00_COMPONENTS_1
100
AcDbLine
 62
7
  6
CONTINUOUS
 10
70.3707495364
 20
129.2372578591
 11
70.3707495364
 21
142.264028698
  0
LINE
  5
2FE
100
AcDbEntity
  8
00_COMPONENTS_1
100
AcDbLine
 62
7
  6
CONTINUOUS
 10
70.9207495364
 20
137.5674315721
 11
70.9207495364
 21
132.164028698
  0
LINE
  5
2FF
100
AcDbEntity
  8
INTFCLR_18
100
AcDbLine
 62
7
420
3368703
  6
CONTINUOUS
 10
70.9207495364
 20
137.5674315721
 11
70.9207495364
 21
132.164028698
  0
LINE
  5
300
100
AcDbEntity
  8
INTFCLR_18
100
AcDbLine
 62
7
420
3368703
  6
CONTINUOUS
 10
71.5207495364
 20
82.871208375
 11
71.5207495364
 21
72.6539329394
  0
LINE
  5
301
100
AcDbEntity
  8
00_COMPONENTS_1
100
AcDbLine
 62
7
  6
CONTINUOUS
 10
71.5207495364
 20
72.6539329394
 11
71.5207495364
 21
82.871208375
  0
LINE
  5
302
100
AcDbEntity
  8
INTFCLR_18
100
AcDbLine
 62
7
420
3368703
  6
CONTINUOUS
 10
71.9207495364
 20
94.2091702063
 11
71.9207495364
 21
84.364028698
  0
LINE
  5
303
100
AcDbEntity
  8
00_COMPONENTS_1
100
AcDbLine
 62
7
  6
CONTINUOUS
 10
71.9207495364
 20
84.364028698
 11
71.9207495364
 21
94.2091702063
  0
LINE
  5
304
100
AcDbEntity
  8
00_COMPONENTS_1
100
AcDbLine
 62
7
  6
CONTINUOUS
 10
72.0207495364
 20
82.8053821262
 11
72.0207495364
 21
72.6539329394
  0
LINE
  5
305
100
AcDbEntity
  8
00_COMPONENTS_1
100
AcDbLine
 62
7
  6
CONTINUOUS
 10
72.1207495364
 20
136.364028698
 11
72.1207495364
 21
137.5674315721
  0
LINE
  5
306
100
AcDbEntity
  8
INTFCLR_18
100
AcDbLine
 62
7
420
3368703
  6
CONTINUOUS
 10
72.2207495364
 20
86.2881204817
 11
72.2207495364
 21
83.7881204817
  0
LINE
  5
307
100
AcDbEntity
  8
00_COMPONENTS_1
100
AcDbLine
 62
7
  6
CONTINUOUS
 10
72.4207495364
 20
93.9095896622
 11
72.4207495364
 21
86.2881204817
  0
LINE
  5
308
100
AcDbEntity
  8
INTFCLR_18
100
AcDbLine
 62
7
420
3368703
  6
CONTINUOUS
 10
72.7207495364
 20
40.364028698
 11
72.7207495364
 21
44.364028698
  0
LINE
  5
309
100
AcDbEntity
  8
00_COMPONENTS_1
100
AcDbLine
 62
7
  6
CONTINUOUS
 10
73.4207495364
 20
136.364028698
 11
73.4207495364
 21
132.164028698
  0
LINE
  5
30A
100
AcDbEntity
  8
00_COMPONENTS_1
100
AcDbLine
 62
7
  6
CONTINUOUS
 10
73.5707495364
 20
135.914028698
 11
73.5707495364
 21
136.5674315721
  0
LINE
  5
30B
100
AcDbEntity
  8
INTFCLR_18
100
AcDbLine
 62
7
420
3368703
  6
CONTINUOUS
 10
73.5707495364
 20
135.914028698
 11
73.5707495364
 21
136.5674315721
  0
LINE
  5
30C
100
AcDbEntity
  8
00_COMPONENTS_1
100
AcDbLine
 62
7
  6
CONTINUOUS
 10
74.4776701063
 20
67.164028698
 11
74.4776701063
 21
50.7181581249
  0
LINE
  5
30D
100
AcDbEntity
  8
00_COMPONENTS_1
100
AcDbLine
 62
7
  6
CONTINUOUS
 10
73.2710857215
 20
46.5832887314
 11
73.3429423181
 21
50.706019636
  0
LINE
  5
30E
100
AcDbEntity
  8
00_COMPONENTS_1
100
AcDbLine
 62
7
  6
CONTINUOUS
 10
73.3484964553
 20
51.0181467018
 11
73.3432601352
 21
50.7181581249
  0
LINE
  5
30F
100
AcDbEntity
  8
INTFCLR_18
100
AcDbLine
 62
7
420
3368703
  6
CONTINUOUS
 10
73.3429423181
 20
50.6999503915
 11
73.2710857215
 21
46.5832887314
  0
LINE
  5
310
100
AcDbEntity
  8
00_COMPONENTS_1
100
AcDbLine
 62
7
  6
CONTINUOUS
 10
71.9207495364
 20
84.364028698
 11
71.5207495364
 21
82.871208375
  0
LINE
  5
311
100
AcDbEntity
  8
INTFCLR_18
100
AcDbLine
 62
7
420
3368703
  6
CONTINUOUS
 10
71.9207495364
 20
84.364028698
 11
71.5207495364
 21
82.871208375
  0
LINE
  5
312
100
AcDbEntity
  8
00_COMPONENTS_1
100
AcDbLine
 62
7
  6
CONTINUOUS
 10
72.2840734851
 20
83.7881204817
 11
72.0207495364
 21
82.8053821262
  0
LINE
  5
313
100
AcDbEntity
  8
00_COMPONENTS_1
100
AcDbLine
 62
7
  6
CONTINUOUS
 10
76.7707495364
 20
136.5674315721
 11
76.7707495364
 21
135.914028698
  0
LINE
  5
314
100
AcDbEntity
  8
INTFCLR_18
100
AcDbLine
 62
7
420
3368703
  6
CONTINUOUS
 10
76.7707495364
 20
136.5674315721
 11
76.7707495364
 21
135.914028698
  0
LINE
  5
315
100
AcDbEntity
  8
00_COMPONENTS_1
100
AcDbLine
 62
7
  6
CONTINUOUS
 10
76.9207495364
 20
136.364028698
 11
76.9207495364
 21
132.164028698
  0
LINE
  5
316
100
AcDbEntity
  8
00_COMPONENTS_1
100
AcDbLine
 62
7
  6
CONTINUOUS
 10
77.9307495364
 20
145.3034926536
 11
77.9307495364
 21
145.516339234
  0
LINE
  5
317
100
AcDbEntity
  8
00_COMPONENTS_1
100
AcDbLine
 62
7
  6
CONTINUOUS
 10
78.2207495364
 20
136.364028698
 11
78.2207495364
 21
137.5674315721
  0
LINE
  5
318
100
AcDbEntity
  8
00_COMPONENTS_1
100
AcDbLine
 62
7
  6
CONTINUOUS
 10
78.8195689781
 20
145.516339234
 11
78.8195689781
 21
150.1464197308
  0
LINE
  5
319
100
AcDbEntity
  8
00_COMPONENTS_1
100
AcDbLine
 62
7
  6
CONTINUOUS
 10
79.4207495364
 20
132.164028698
 11
79.4207495364
 21
137.5674315721
  0
LINE
  5
31A
100
AcDbEntity
  8
INTFCLR_18
100
AcDbLine
 62
7
420
3368703
  6
CONTINUOUS
 10
79.4207495364
 20
132.164028698
 11
79.4207495364
 21
137.5674315721
  0
LINE
  5
31B
100
AcDbEntity
  8
00_COMPONENTS_1
100
AcDbLine
 62
7
  6
CONTINUOUS
 10
77.9088326014
 20
145.4035950011
 11
77.9083704991
 21
145.3035960688
  0
LINE
  5
31C
100
AcDbEntity
  8
00_COMPONENTS_1
100
AcDbLine
 62
7
  6
CONTINUOUS
 10
79.9707495364
 20
142.264028698
 11
79.9707495364
 21
128.5120880669
  0
LINE
  5
31D
100
AcDbEntity
  8
00_COMPONENTS_1
100
AcDbLine
 62
7
  6
CONTINUOUS
 10
80.9707495364
 20
128.5120880669
 11
80.9707495364
 21
142.264028698
  0
LINE
  5
31E
100
AcDbEntity
  8
00_COMPONENTS_1
100
AcDbLine
 62
7
  6
CONTINUOUS
 10
81.1207495364
 20
86.2881204817
 11
81.1207495364
 21
93.9095896622
  0
LINE
  5
31F
100
AcDbEntity
  8
00_COMPONENTS_1
100
AcDbLine
 62
7
  6
CONTINUOUS
 10
81.1707495364
 20
142.764028698
 11
81.1707495364
 21
131.264028698
  0
LINE
  5
320
100
AcDbEntity
  8
INTFCLR_18
100
AcDbLine
 62
7
420
3368703
  6
CONTINUOUS
 10
81.3207495364
 20
83.7881204817
 11
81.3207495364
 21
86.2881204817
  0
LINE
  5
321
100
AcDbEntity
  8
00_COMPONENTS_1
100
AcDbLine
 62
7
  6
CONTINUOUS
 10
81.5207495364
 20
72.6539329394
 11
81.5207495364
 21
82.8053821262
  0
LINE
  5
322
100
AcDbEntity
  8
00_COMPONENTS_1
100
AcDbLine
 62
7
  6
CONTINUOUS
 10
81.6207495364
 20
94.2091702063
 11
81.6207495364
 21
84.364028698
  0
LINE
  5
323
100
AcDbEntity
  8
INTFCLR_18
100
AcDbLine
 62
7
420
3368703
  6
CONTINUOUS
 10
81.6207495364
 20
84.364028698
 11
81.6207495364
 21
94.2091702063
  0
LINE
  5
324
100
AcDbEntity
  8
00_COMPONENTS_1
100
AcDbLine
 62
7
  6
CONTINUOUS
 10
81.9307495364
 20
150.1464197308
 11
81.9307495364
 21
145.2850083653
  0
LINE
  5
325
100
AcDbEntity
  8
00_COMPONENTS_1
100
AcDbLine
 62
7
  6
CONTINUOUS
 10
82.0207495364
 20
82.871208375
 11
82.0207495364
 21
72.6539329394
  0
LINE
  5
326
100
AcDbEntity
  8
INTFCLR_18
100
AcDbLine
 62
7
420
3368703
  6
CONTINUOUS
 10
82.0207495364
 20
72.6539329394
 11
82.0207495364
 21
82.871208375
  0
LINE
  5
327
100
AcDbEntity
  8
00_COMPONENTS_1
100
AcDbLine
 62
7
  6
CONTINUOUS
 10
81.5207495364
 20
82.8053821262
 11
81.2574255876
 21
83.7881204817
  0
LINE
  5
328
100
AcDbEntity
  8
00_COMPONENTS_1
100
AcDbLine
 62
7
  6
CONTINUOUS
 10
82.0207495364
 20
82.871208375
 11
81.6207495364
 21
84.364028698
  0
LINE
  5
329
100
AcDbEntity
  8
INTFCLR_18
100
AcDbLine
 62
7
420
3368703
  6
CONTINUOUS
 10
82.0207495364
 20
82.871208375
 11
81.6207495364
 21
84.364028698
  0
LINE
  5
32A
100
AcDbEntity
  8
00_COMPONENTS_1
100
AcDbLine
 62
7
  6
CONTINUOUS
 10
85.2443853141
 20
50.7111185686
 11
85.2443853141
 21
46.5832887314
  0
LINE
  5
32B
100
AcDbEntity
  8
INTFCLR_18
100
AcDbLine
 62
7
420
3368703
  6
CONTINUOUS
 10
85.2443853141
 20
46.5832887314
 11
85.2443853141
 21
50.7111185686
  0
LINE
  5
32C
100
AcDbEntity
  8
00_COMPONENTS_1
100
AcDbLine
 62
7
  6
CONTINUOUS
 10
85.5026628411
 20
46.5832887314
 11
85.5026628411
 21
35.1567992986
  0
LINE
  5
32D
100
AcDbEntity
  8
00_COMPONENTS_1
100
AcDbLine
 62
7
  6
CONTINUOUS
 10
85.8707495364
 20
130.6034867749
 11
85.8707495364
 21
142.1034867749
  0
LINE
  5
32E
100
AcDbEntity
  8
INTFCLR_18
100
AcDbLine
 62
7
420
3368703
  6
CONTINUOUS
 10
86.6707495364
 20
33.164028698
 11
86.6707495364
 21
143.064028698
  0
LINE
  5
32F
100
AcDbEntity
  8
00_COMPONENTS_1
100
AcDbLine
 62
7
  6
CONTINUOUS
 10
86.6707495364
 20
33.164028698
 11
86.6707495364
 21
145.2631044836
  0
LINE
  5
330
100
AcDbEntity
  8
00_COMPONENTS_1
100
AcDbLine
 62
7
  6
CONTINUOUS
 10
79.9707495364
 20
128.5120880669
 11
80.9707495364
 21
128.5120880669
  0
LINE
  5
331
100
AcDbEntity
  8
00_COMPONENTS_1
100
AcDbLine
 62
7
  6
CONTINUOUS
 10
86.6707495364
 20
132.023074776
 11
85.8707495364
 21
132.023074776
  0
LINE
  5
332
100
AcDbEntity
  8
00_COMPONENTS_1
100
AcDbLine
 62
7
  6
CONTINUOUS
 10
49.7207495364
 20
132.164028698
 11
58.2207495364
 21
132.164028698
  0
LINE
  5
333
100
AcDbEntity
  8
INTFCLR_18
100
AcDbLine
 62
7
420
3368703
  6
CONTINUOUS
 10
49.7207495364
 20
132.164028698
 11
58.2207495364
 21
132.164028698
  0
LINE
  5
334
100
AcDbEntity
  8
00_COMPONENTS_1
100
AcDbLine
 62
7
  6
CONTINUOUS
 10
60.3207495364
 20
132.164028698
 11
68.8207495364
 21
132.164028698
  0
LINE
  5
335
100
AcDbEntity
  8
INTFCLR_18
100
AcDbLine
 62
7
420
3368703
  6
CONTINUOUS
 10
60.3207495364
 20
132.164028698
 11
68.8207495364
 21
132.164028698
  0
LINE
  5
336
100
AcDbEntity
  8
00_COMPONENTS_1
100
AcDbLine
 62
7
  6
CONTINUOUS
 10
70.9207495364
 20
132.164028698
 11
79.4207495364
 21
132.164028698
  0
LINE
  5
337
100
AcDbEntity
  8
INTFCLR_18
100
AcDbLine
 62
7
420
3368703
  6
CONTINUOUS
 10
70.9207495364
 20
132.164028698
 11
79.4207495364
 21
132.164028698
  0
LINE
  5
338
100
AcDbEntity
  8
00_COMPONENTS_1
100
AcDbLine
 62
7
  6
CONTINUOUS
 10
85.8707495364
 20
135.1796380663
 11
86.6707495364
 21
135.1796380663
  0
LINE
  5
339
100
AcDbEntity
  8
00_COMPONENTS_1
100
AcDbLine
 62
7
  6
CONTINUOUS
 10
76.2707495364
 20
135.414028698
 11
74.0707495364
 21
135.414028698
  0
LINE
  5
33A
100
AcDbEntity
  8
INTFCLR_18
100
AcDbLine
 62
7
420
3368703
  6
CONTINUOUS
 10
76.2707495364
 20
135.414028698
 11
74.0707495364
 21
135.414028698
  0
LINE
  5
33B
100
AcDbEntity
  8
00_COMPONENTS_1
100
AcDbLine
 62
7
  6
CONTINUOUS
 10
65.6707495364
 20
135.414028698
 11
63.4707495364
 21
135.414028698
  0
LINE
  5
33C
100
AcDbEntity
  8
INTFCLR_18
100
AcDbLine
 62
7
420
3368703
  6
CONTINUOUS
 10
65.6707495364
 20
135.414028698
 11
63.4707495364
 21
135.414028698
  0
LINE
  5
33D
100
AcDbEntity
  8
00_COMPONENTS_1
100
AcDbLine
 62
7
  6
CONTINUOUS
 10
55.0707495364
 20
135.414028698
 11
52.8707495364
 21
135.414028698
  0
LINE
  5
33E
100
AcDbEntity
  8
INTFCLR_18
100
AcDbLine
 62
7
420
3368703
  6
CONTINUOUS
 10
55.0707495364
 20
135.414028698
 11
52.8707495364
 21
135.414028698
  0
LINE
  5
33F
100
AcDbEntity
  8
00_COMPONENTS_1
100
AcDbLine
 62
7
  6
CONTINUOUS
 10
80.9707495364
 20
136.0190306996
 11
79.9707495364
 21
136.0190306996
  0
LINE
  5
340
100
AcDbEntity
  8
00_COMPONENTS_1
100
AcDbLine
 62
7
  6
CONTINUOUS
 10
70.3707495364
 20
136.0190306996
 11
69.3707495364
 21
136.0190306996
  0
LINE
  5
341
100
AcDbEntity
  8
00_COMPONENTS_1
100
AcDbLine
 62
7
  6
CONTINUOUS
 10
59.7707495364
 20
136.0190306996
 11
58.7707495364
 21
136.0190306996
  0
LINE
  5
342
100
AcDbEntity
  8
00_COMPONENTS_1
100
AcDbLine
 62
7
  6
CONTINUOUS
 10
49.1707495364
 20
136.0190306996
 11
48.1707495364
 21
136.0190306996
  0
LINE
  5
343
100
AcDbEntity
  8
00_COMPONENTS_1
100
AcDbLine
 62
7
  6
CONTINUOUS
 10
50.9207495364
 20
136.364028698
 11
52.3707495364
 21
136.364028698
  0
LINE
  5
344
100
AcDbEntity
  8
00_COMPONENTS_1
100
AcDbLine
 62
7
  6
CONTINUOUS
 10
55.5707495364
 20
136.364028698
 11
57.0207495364
 21
136.364028698
  0
LINE
  5
345
100
AcDbEntity
  8
00_COMPONENTS_1
100
AcDbLine
 62
7
  6
CONTINUOUS
 10
61.5207495364
 20
136.364028698
 11
62.9707495364
 21
136.364028698
  0
LINE
  5
346
100
AcDbEntity
  8
00_COMPONENTS_1
100
AcDbLine
 62
7
  6
CONTINUOUS
 10
66.1707495364
 20
136.364028698
 11
67.6207495364
 21
136.364028698
  0
LINE
  5
347
100
AcDbEntity
  8
00_COMPONENTS_1
100
AcDbLine
 62
7
  6
CONTINUOUS
 10
72.1207495364
 20
136.364028698
 11
73.5707495364
 21
136.364028698
  0
LINE
  5
348
100
AcDbEntity
  8
00_COMPONENTS_1
100
AcDbLine
 62
7
  6
CONTINUOUS
 10
76.7707495364
 20
136.364028698
 11
78.2207495364
 21
136.364028698
  0
LINE
  5
349
100
AcDbEntity
  8
00_COMPONENTS_1
100
AcDbLine
 62
7
  6
CONTINUOUS
 10
81.1707495364
 20
131.264028698
 11
85.8707495364
 21
130.6034867749
  0
LINE
  5
34A
100
AcDbEntity
  8
00_COMPONENTS_1
100
AcDbLine
 62
7
  6
CONTINUOUS
 10
85.8707495364
 20
137.1495370717
 11
86.6707495364
 21
137.1495370717
  0
LINE
  5
34B
100
AcDbEntity
  8
00_COMPONENTS_1
100
AcDbLine
 62
7
  6
CONTINUOUS
 10
79.4207495364
 20
137.5674315721
 11
77.7707493931
 21
137.5674315721
  0
LINE
  5
34C
100
AcDbEntity
  8
INTFCLR_18
100
AcDbLine
 62
7
420
3368703
  6
CONTINUOUS
 10
79.4207495364
 20
137.5674315721
 11
77.7707493931
 21
137.5674315721
  0
LINE
  5
34D
100
AcDbEntity
  8
00_COMPONENTS_1
100
AcDbLine
 62
7
  6
CONTINUOUS
 10
72.5707495199
 20
137.5674315721
 11
70.9207495364
 21
137.5674315721
  0
LINE
  5
34E
100
AcDbEntity
  8
INTFCLR_18
100
AcDbLine
 62
7
420
3368703
  6
CONTINUOUS
 10
72.5707495199
 20
137.5674315721
 11
70.9207495364
 21
137.5674315721
  0
LINE
  5
34F
100
AcDbEntity
  8
00_COMPONENTS_1
100
AcDbLine
 62
7
  6
CONTINUOUS
 10
68.8207495364
 20
137.5674315721
 11
67.1707493834
 21
137.5674315721
  0
LINE
  5
350
100
AcDbEntity
  8
INTFCLR_18
100
AcDbLine
 62
7
420
3368703
  6
CONTINUOUS
 10
68.8207495364
 20
137.5674315721
 11
67.1707493834
 21
137.5674315721
  0
LINE
  5
351
100
AcDbEntity
  8
00_COMPONENTS_1
100
AcDbLine
 62
7
  6
CONTINUOUS
 10
61.9707495137
 20
137.5674315721
 11
60.3207495364
 21
137.5674315721
  0
LINE
  5
352
100
AcDbEntity
  8
INTFCLR_18
100
AcDbLine
 62
7
420
3368703
  6
CONTINUOUS
 10
61.9707495137
 20
137.5674315721
 11
60.3207495364
 21
137.5674315721
  0
LINE
  5
353
100
AcDbEntity
  8
00_COMPONENTS_1
100
AcDbLine
 62
7
  6
CONTINUOUS
 10
58.2207495364
 20
137.5674315721
 11
56.5707493751
 21
137.5674315721
  0
LINE
  5
354
100
AcDbEntity
  8
INTFCLR_18
100
AcDbLine
 62
7
420
3368703
  6
CONTINUOUS
 10
58.2207495364
 20
137.5674315721
 11
56.5707493751
 21
137.5674315721
  0
LINE
  5
355
100
AcDbEntity
  8
00_COMPONENTS_1
100
AcDbLine
 62
7
  6
CONTINUOUS
 10
51.3707494991
 20
137.5674315721
 11
49.7207495364
 21
137.5674315721
  0
LINE
  5
356
100
AcDbEntity
  8
INTFCLR_18
100
AcDbLine
 62
7
420
3368703
  6
CONTINUOUS
 10
51.3707494991
 20
137.5674315721
 11
49.7207495364
 21
137.5674315721
  0
LINE
  5
357
100
AcDbEntity
  8
00_COMPONENTS_1
100
AcDbLine
 62
7
  6
CONTINUOUS
 10
85.8707495364
 20
137.7640286774
 11
86.6707495364
 21
137.7640286774
  0
LINE
  5
358
100
AcDbEntity
  8
00_COMPONENTS_1
100
AcDbLine
 62
7
  6
CONTINUOUS
 10
48.1707495364
 20
142.264028698
 11
49.1707495364
 21
142.264028698
  0
LINE
  5
359
100
AcDbEntity
  8
00_COMPONENTS_1
100
AcDbLine
 62
7
  6
CONTINUOUS
 10
58.7707495364
 20
142.264028698
 11
59.7707495364
 21
142.264028698
  0
LINE
  5
35A
100
AcDbEntity
  8
00_COMPONENTS_1
100
AcDbLine
 62
7
  6
CONTINUOUS
 10
69.3707495364
 20
142.264028698
 11
70.3707495364
 21
142.264028698
  0
LINE
  5
35B
100
AcDbEntity
  8
00_COMPONENTS_1
100
AcDbLine
 62
7
  6
CONTINUOUS
 10
79.9707495364
 20
142.264028698
 11
80.9707495364
 21
142.264028698
  0
LINE
  5
35C
100
AcDbEntity
  8
00_COMPONENTS_1
100
AcDbLine
 62
7
  6
CONTINUOUS
 10
53.5109805888
 20
145.516339234
 11
78.8195689781
 21
145.516339234
  0
LINE
  5
35D
100
AcDbEntity
  8
00_COMPONENTS_1
100
AcDbLine
 62
7
  6
CONTINUOUS
 10
31.8707495364
 20
145.516339234
 11
77.9083704991
 21
145.3035960688
  0
LINE
  5
35E
100
AcDbEntity
  8
00_COMPONENTS_1
100
AcDbLine
 62
7
  6
CONTINUOUS
 10
77.9307495364
 20
145.3034926536
 11
86.6707495364
 21
145.2631044836
  0
LINE
  5
35F
100
AcDbEntity
  8
INTFCLR_18
100
AcDbLine
 62
7
420
3368703
  6
CONTINUOUS
 10
40.5853915713
 20
145.4760682449
 11
78.2300106544
 21
145.3021097464
  0
LINE
  5
360
100
AcDbEntity
  8
00_COMPONENTS_1
100
AcDbLine
 62
7
  6
CONTINUOUS
 10
37.1307495364
 20
145.5920334625
 11
77.9088326014
 21
145.4035950011
  0
LINE
  5
361
100
AcDbEntity
  8
00_COMPONENTS_1
100
AcDbLine
 62
7
  6
CONTINUOUS
 10
85.8707495364
 20
142.1034867749
 11
81.1707495364
 21
142.764028698
  0
LINE
  5
362
100
AcDbEntity
  8
00_COMPONENTS_1
100
AcDbLine
 62
7
  6
CONTINUOUS
 10
37.1307495364
 20
150.1464197308
 11
81.9307495364
 21
150.1464197308
  0
ARC
  5
363
100
AcDbEntity
  8
00_COMPONENTS_1
100
AcDbCircle
 62
7
  6
CONTINUOUS
 10
52.3707495364
 20
37.964028698
 40
1.8
100
AcDbArc
 50
0.0
 51
90.0
  0
ARC
  5
364
100
AcDbEntity
  8
INTFCLR_18
100
AcDbCircle
 62
7
420
3368703
  6
CONTINUOUS
 10
52.3707495364
 20
37.964028698
 40
1.8
100
AcDbArc
 50
0.0
 51
90.0
  0
ARC
  5
365
100
AcDbEntity
  8
00_COMPONENTS_1
100
AcDbCircle
 62
7
  6
CONTINUOUS
 10
54.7707495364
 20
34.964028698
 40
1.7
100
AcDbArc
 50
180.0
 51
270.0
  0
ARC
  5
366
100
AcDbEntity
  8
INTFCLR_18
100
AcDbCircle
 62
7
420
3368703
  6
CONTINUOUS
 10
54.7707495364
 20
34.964028698
 40
1.7
100
AcDbArc
 50
180.0
 51
270.0
  0
ARC
  5
367
100
AcDbEntity
  8
00_COMPONENTS_1
100
AcDbCircle
 62
7
  6
CONTINUOUS
 10
56.9207495364
 20
36.364028698
 40
1.0
100
AcDbArc
 50
180.0
 51
270.0
  0
ARC
  5
368
100
AcDbEntity
  8
00_COMPONENTS_1
100
AcDbCircle
 62
7
  6
CONTINUOUS
 10
52.3707495364
 20
37.964028698
 40
0.7
100
AcDbArc
 50
0.0
 51
90.0
  0
ARC
  5
369
100
AcDbEntity
  8
INTFCLR_18
100
AcDbCircle
 62
7
420
3368703
  6
CONTINUOUS
 10
52.3707495364
 20
37.964028698
 40
0.7
100
AcDbArc
 50
0.0
 51
90.0
  0
ARC
  5
36A
100
AcDbEntity
  8
00_COMPONENTS_1
100
AcDbCircle
 62
7
  6
CONTINUOUS
 10
54.7707495364
 20
34.964028698
 40
0.6
100
AcDbArc
 50
180.0
 51
270.0
  0
ARC
  5
36B
100
AcDbEntity
  8
INTFCLR_18
100
AcDbCircle
 62
7
420
3368703
  6
CONTINUOUS
 10
54.7707495364
 20
34.964028698
 40
0.6
100
AcDbArc
 50
180.0000000001
 51
270.0
  0
ARC
  5
36C
100
AcDbEntity
  8
00_COMPONENTS_1
100
AcDbCircle
 62
7
  6
CONTINUOUS
 10
41.7707495364
 20
79.964028698
 40
10.0
100
AcDbArc
 50
246.0305176822
 51
293.9694823178
  0
ARC
  5
36D
100
AcDbEntity
  8
00_COMPONENTS_1
100
AcDbCircle
 62
7
  6
CONTINUOUS
 10
41.7707495364
 20
85.464028698
 40
10.0
100
AcDbArc
 50
60.9875275911
 51
119.0124724089
  0
ARC
  5
36E
100
AcDbEntity
  8
INTFCLR_18
100
AcDbCircle
 62
7
420
3368703
  6
CONTINUOUS
 10
41.7707495364
 20
79.964028698
 40
10.0
100
AcDbArc
 50
246.0305176822
 51
293.9694823178
  0
ARC
  5
36F
100
AcDbEntity
  8
INTFCLR_18
100
AcDbCircle
 62
7
420
3368703
  6
CONTINUOUS
 10
41.7707495364
 20
85.464028698
 40
10.0
100
AcDbArc
 50
60.9875275911
 51
119.0124724089
  0
ARC
  5
370
100
AcDbEntity
  8
00_COMPONENTS_1
100
AcDbCircle
 62
7
  6
CONTINUOUS
 10
41.7707495364
 20
79.964028698
 40
9.5
100
AcDbArc
 50
246.0305176822
 51
293.9694823178
  0
ARC
  5
371
100
AcDbEntity
  8
00_COMPONENTS_1
100
AcDbCircle
 62
7
  6
CONTINUOUS
 10
41.7707495364
 20
85.464028698
 40
9.5
100
AcDbArc
 50
62.7486580639
 51
117.2513419361
  0
ARC
  5
372
100
AcDbEntity
  8
00_COMPONENTS_1
100
AcDbCircle
 62
7
  6
CONTINUOUS
 10
56.0207495364
 20
72.6539329394
 40
2.0
100
AcDbArc
 50
180.0
 51
246.0305176822
  0
ARC
  5
373
100
AcDbEntity
  8
00_COMPONENTS_1
100
AcDbCircle
 62
7
  6
CONTINUOUS
 10
38.5207495364
 20
72.6539329394
 40
2.0
100
AcDbArc
 50
180.0
 51
246.0305176822
  0
ARC
  5
374
100
AcDbEntity
  8
00_COMPONENTS_1
100
AcDbCircle
 62
7
  6
CONTINUOUS
 10
45.0207495364
 20
72.6539329394
 40
2.0
100
AcDbArc
 50
293.9694823178
 51
360.0
  0
ARC
  5
375
100
AcDbEntity
  8
INTFCLR_18
100
AcDbCircle
 62
7
420
3368703
  6
CONTINUOUS
 10
38.5207495364
 20
72.6539329394
 40
2.0
100
AcDbArc
 50
180.0
 51
246.0305176822
  0
ARC
  5
376
100
AcDbEntity
  8
INTFCLR_18
100
AcDbCircle
 62
7
420
3368703
  6
CONTINUOUS
 10
45.0207495364
 20
72.6539329394
 40
2.0
100
AcDbArc
 50
293.9694823178
 51
360.0
  0
ARC
  5
377
100
AcDbEntity
  8
INTFCLR_18
100
AcDbCircle
 62
7
420
3368703
  6
CONTINUOUS
 10
56.0207495364
 20
72.6539329394
 40
2.0
100
AcDbArc
 50
180.0
 51
246.0305176822
  0
ARC
  5
378
100
AcDbEntity
  8
00_COMPONENTS_1
100
AcDbCircle
 62
7
  6
CONTINUOUS
 10
45.0207495364
 20
72.6539329394
 40
1.5
100
AcDbArc
 50
293.9694823178
 51
360.0
  0
ARC
  5
379
100
AcDbEntity
  8
00_COMPONENTS_1
100
AcDbCircle
 62
7
  6
CONTINUOUS
 10
38.5207495364
 20
72.6539329394
 40
1.5
100
AcDbArc
 50
180.0
 51
246.0305176822
  0
ARC
  5
37A
100
AcDbEntity
  8
00_COMPONENTS_1
100
AcDbCircle
 62
7
  6
CONTINUOUS
 10
56.0207495364
 20
72.6539329394
 40
1.5
100
AcDbArc
 50
180.0
 51
246.0305176822
  0
ARC
  5
37B
100
AcDbEntity
  8
00_COMPONENTS_1
100
AcDbCircle
 62
7
  6
CONTINUOUS
 10
56.5707495364
 20
136.5674315721
 40
1.0
100
AcDbArc
 50
90.0000092421
 51
180.0
  0
ARC
  5
37C
100
AcDbEntity
  8
00_COMPONENTS_1
100
AcDbCircle
 62
7
  6
CONTINUOUS
 10
51.3707495364
 20
136.5674315721
 40
1.0
100
AcDbArc
 50
0.0
 51
90.0000021334
  0
ARC
  5
37D
100
AcDbEntity
  8
INTFCLR_18
100
AcDbCircle
 62
7
420
3368703
  6
CONTINUOUS
 10
56.5707495364
 20
136.5674315721
 40
1.0
100
AcDbArc
 50
90.0000092421
 51
180.0
  0
ARC
  5
37E
100
AcDbEntity
  8
INTFCLR_18
100
AcDbCircle
 62
7
420
3368703
  6
CONTINUOUS
 10
51.3707495364
 20
136.5674315721
 40
1.0
100
AcDbArc
 50
0.0
 51
90.0000021334
  0
ARC
  5
37F
100
AcDbEntity
  8
00_COMPONENTS_1
100
AcDbCircle
 62
7
  6
CONTINUOUS
 10
55.0707495364
 20
135.914028698
 40
0.5
100
AcDbArc
 50
270.0
 51
360.0
  0
ARC
  5
380
100
AcDbEntity
  8
00_COMPONENTS_1
100
AcDbCircle
 62
7
  6
CONTINUOUS
 10
52.8707495364
 20
135.914028698
 40
0.5
100
AcDbArc
 50
180.0
 51
270.0
  0
ARC
  5
381
100
AcDbEntity
  8
INTFCLR_18
100
AcDbCircle
 62
7
420
3368703
  6
CONTINUOUS
 10
55.0707495364
 20
135.914028698
 40
0.5
100
AcDbArc
 50
270.0
 51
360.0
  0
ARC
  5
382
100
AcDbEntity
  8
INTFCLR_18
100
AcDbCircle
 62
7
420
3368703
  6
CONTINUOUS
 10
52.8707495364
 20
135.914028698
 40
0.5
100
AcDbArc
 50
180.0
 51
270.0
  0
ARC
  5
383
100
AcDbEntity
  8
00_COMPONENTS_1
100
AcDbCircle
 62
7
  6
CONTINUOUS
 10
59.2707495364
 20
-43.625971302
 40
188.69
100
AcDbArc
 50
81.6504602162
 51
98.3495397838
  0
ARC
  5
384
100
AcDbEntity
  8
00_COMPONENTS_1
100
AcDbCircle
 62
7
  6
CONTINUOUS
 10
59.2707495364
 20
-59.125971302
 40
188.69
100
AcDbArc
 50
81.6504602162
 51
98.3495397838
  0
ARC
  5
385
100
AcDbEntity
  8
INTFCLR_18
100
AcDbCircle
 62
7
420
3368703
  6
CONTINUOUS
 10
59.2707495364
 20
-59.125971302
 40
188.69
100
AcDbArc
 50
81.6504602162
 51
98.3495397838
  0
ARC
  5
386
100
AcDbEntity
  8
INTFCLR_18
100
AcDbCircle
 62
7
420
3368703
  6
CONTINUOUS
 10
59.2707495364
 20
-43.625971302
 40
188.69
100
AcDbArc
 50
81.6504602162
 51
98.3495397838
  0
ARC
  5
387
100
AcDbEntity
  8
00_COMPONENTS_1
100
AcDbCircle
 62
7
  6
CONTINUOUS
 10
66.1707495363
 20
37.964028698
 40
1.8
100
AcDbArc
 50
90.0
 51
180.0
  0
ARC
  5
388
100
AcDbEntity
  8
INTFCLR_18
100
AcDbCircle
 62
7
420
3368703
  6
CONTINUOUS
 10
66.1707495363
 20
37.964028698
 40
1.8
100
AcDbArc
 50
90.0
 51
180.0
  0
ARC
  5
389
100
AcDbEntity
  8
00_COMPONENTS_1
100
AcDbCircle
 62
7
  6
CONTINUOUS
 10
63.7707495363
 20
34.964028698
 40
1.7
100
AcDbArc
 50
270.0
 51
359.9999999137
  0
ARC
  5
38A
100
AcDbEntity
  8
INTFCLR_18
100
AcDbCircle
 62
7
420
3368703
  6
CONTINUOUS
 10
63.7707495363
 20
34.964028698
 40
1.7
100
AcDbArc
 50
270.0
 51
359.9999999138
  0
CIRCLE
  5
38B
100
AcDbEntity
  8
00_COMPONENTS_1
100
AcDbCircle
 62
7
  6
CONTINUOUS
 10
59.2707495364
 20
37.864028698
 40
1.5
  0
ARC
  5
38C
100
AcDbEntity
  8
00_COMPONENTS_1
100
AcDbCircle
 62
7
  6
CONTINUOUS
 10
61.6207495364
 20
36.364028698
 40
1.0
100
AcDbArc
 50
270.0
 51
360.0
  0
ARC
  5
38D
100
AcDbEntity
  8
00_COMPONENTS_1
100
AcDbCircle
 62
7
  6
CONTINUOUS
 10
66.1707495363
 20
37.964028698
 40
0.7
100
AcDbArc
 50
90.0
 51
180.0
  0
ARC
  5
38E
100
AcDbEntity
  8
INTFCLR_18
100
AcDbCircle
 62
7
420
3368703
  6
CONTINUOUS
 10
66.1707495363
 20
37.964028698
 40
0.7
100
AcDbArc
 50
90.0
 51
180.0
  0
ARC
  5
38F
100
AcDbEntity
  8
00_COMPONENTS_1
100
AcDbCircle
 62
7
  6
CONTINUOUS
 10
63.7707495363
 20
34.964028698
 40
0.6
100
AcDbArc
 50
270.0
 51
360.0
  0
ARC
  5
390
100
AcDbEntity
  8
INTFCLR_18
100
AcDbCircle
 62
7
420
3368703
  6
CONTINUOUS
 10
63.7707495363
 20
34.964028698
 40
0.6
100
AcDbArc
 50
270.0
 51
360.0
  0
ARC
  5
391
100
AcDbEntity
  8
00_COMPONENTS_1
100
AcDbCircle
 62
7
  6
CONTINUOUS
 10
59.2707495364
 20
85.464028698
 40
10.0
100
AcDbArc
 50
60.9875275911
 51
119.0124724089
  0
ARC
  5
392
100
AcDbEntity
  8
00_COMPONENTS_1
100
AcDbCircle
 62
7
  6
CONTINUOUS
 10
59.2707495364
 20
79.964028698
 40
10.0
100
AcDbArc
 50
246.0305176822
 51
293.9694823178
  0
ARC
  5
393
100
AcDbEntity
  8
INTFCLR_18
100
AcDbCircle
 62
7
420
3368703
  6
CONTINUOUS
 10
59.2707495364
 20
85.464028698
 40
10.0
100
AcDbArc
 50
60.9875275911
 51
119.0124724089
  0
ARC
  5
394
100
AcDbEntity
  8
INTFCLR_18
100
AcDbCircle
 62
7
420
3368703
  6
CONTINUOUS
 10
59.2707495364
 20
79.964028698
 40
10.0
100
AcDbArc
 50
246.0305176822
 51
293.9694823178
  0
ARC
  5
395
100
AcDbEntity
  8
00_COMPONENTS_1
100
AcDbCircle
 62
7
  6
CONTINUOUS
 10
59.2707495364
 20
79.964028698
 40
9.5
100
AcDbArc
 50
246.0305176822
 51
293.9694823178
  0
ARC
  5
396
100
AcDbEntity
  8
00_COMPONENTS_1
100
AcDbCircle
 62
7
  6
CONTINUOUS
 10
59.2707495364
 20
85.464028698
 40
9.5
100
AcDbArc
 50
62.7486580639
 51
117.2513419361
  0
ARC
  5
397
100
AcDbEntity
  8
00_COMPONENTS_1
100
AcDbCircle
 62
7
  6
CONTINUOUS
 10
62.5207495364
 20
72.6539329394
 40
2.0
100
AcDbArc
 50
293.9694823178
 51
360.0
  0
ARC
  5
398
100
AcDbEntity
  8
INTFCLR_18
100
AcDbCircle
 62
7
420
3368703
  6
CONTINUOUS
 10
62.5207495364
 20
72.6539329394
 40
2.0
100
AcDbArc
 50
293.9694823178
 51
360.0
  0
ARC
  5
399
100
AcDbEntity
  8
00_COMPONENTS_1
100
AcDbCircle
 62
7
  6
CONTINUOUS
 10
62.5207495364
 20
72.6539329394
 40
1.5
100
AcDbArc
 50
293.9694823178
 51
360.0
  0
ARC
  5
39A
100
AcDbEntity
  8
00_COMPONENTS_1
100
AcDbCircle
 62
7
  6
CONTINUOUS
 10
67.1707495364
 20
136.5674315721
 40
1.0
100
AcDbArc
 50
90.0000087618
 51
180.0
  0
ARC
  5
39B
100
AcDbEntity
  8
00_COMPONENTS_1
100
AcDbCircle
 62
7
  6
CONTINUOUS
 10
61.9707495364
 20
136.5674315721
 40
1.0
100
AcDbArc
 50
0.0
 51
90.000001298
  0
ARC
  5
39C
100
AcDbEntity
  8
INTFCLR_18
100
AcDbCircle
 62
7
420
3368703
  6
CONTINUOUS
 10
67.1707495364
 20
136.5674315721
 40
1.0
100
AcDbArc
 50
90.0000087619
 51
180.0
  0
ARC
  5
39D
100
AcDbEntity
  8
INTFCLR_18
100
AcDbCircle
 62
7
420
3368703
  6
CONTINUOUS
 10
61.9707495364
 20
136.5674315721
 40
1.0
100
AcDbArc
 50
0.0
 51
90.000001298
  0
ARC
  5
39E
100
AcDbEntity
  8
00_COMPONENTS_1
100
AcDbCircle
 62
7
  6
CONTINUOUS
 10
65.6707495364
 20
135.914028698
 40
0.5
100
AcDbArc
 50
270.0
 51
360.0
  0
ARC
  5
39F
100
AcDbEntity
  8
00_COMPONENTS_1
100
AcDbCircle
 62
7
  6
CONTINUOUS
 10
63.4707495364
 20
135.914028698
 40
0.5
100
AcDbArc
 50
180.0
 51
270.0
  0
ARC
  5
3A0
100
AcDbEntity
  8
INTFCLR_18
100
AcDbCircle
 62
7
420
3368703
  6
CONTINUOUS
 10
65.6707495364
 20
135.914028698
 40
0.5
100
AcDbArc
 50
270.0
 51
360.0
  0
ARC
  5
3A1
100
AcDbEntity
  8
INTFCLR_18
100
AcDbCircle
 62
7
420
3368703
  6
CONTINUOUS
 10
63.4707495364
 20
135.914028698
 40
0.5
100
AcDbArc
 50
180.0
 51
270.0
  0
ARC
  5
3A2
100
AcDbEntity
  8
00_COMPONENTS_1
100
AcDbCircle
 62
7
  6
CONTINUOUS
 10
76.7707495364
 20
79.964028698
 40
10.0
100
AcDbArc
 50
246.0305176822
 51
293.9694823178
  0
ARC
  5
3A3
100
AcDbEntity
  8
00_COMPONENTS_1
100
AcDbCircle
 62
7
  6
CONTINUOUS
 10
76.7707495364
 20
85.464028698
 40
10.0
100
AcDbArc
 50
60.9875275911
 51
119.0124724089
  0
ARC
  5
3A4
100
AcDbEntity
  8
INTFCLR_18
100
AcDbCircle
 62
7
420
3368703
  6
CONTINUOUS
 10
76.7707495364
 20
79.964028698
 40
10.0
100
AcDbArc
 50
246.0305176822
 51
293.9694823178
  0
ARC
  5
3A5
100
AcDbEntity
  8
INTFCLR_18
100
AcDbCircle
 62
7
420
3368703
  6
CONTINUOUS
 10
76.7707495364
 20
85.464028698
 40
10.0
100
AcDbArc
 50
60.9875275911
 51
119.0124724089
  0
ARC
  5
3A6
100
AcDbEntity
  8
00_COMPONENTS_1
100
AcDbCircle
 62
7
  6
CONTINUOUS
 10
76.7707495364
 20
85.464028698
 40
9.5
100
AcDbArc
 50
62.7486580639
 51
117.2513419361
  0
ARC
  5
3A7
100
AcDbEntity
  8
00_COMPONENTS_1
100
AcDbCircle
 62
7
  6
CONTINUOUS
 10
76.7707495364
 20
79.964028698
 40
9.5
100
AcDbArc
 50
246.0305176822
 51
293.9694823178
  0
ARC
  5
3A8
100
AcDbEntity
  8
00_COMPONENTS_1
100
AcDbCircle
 62
7
  6
CONTINUOUS
 10
73.5207495364
 20
72.6539329394
 40
2.0
100
AcDbArc
 50
180.0
 51
246.0305176822
  0
ARC
  5
3A9
100
AcDbEntity
  8
00_COMPONENTS_1
100
AcDbCircle
 62
7
  6
CONTINUOUS
 10
80.0207495364
 20
72.6539329394
 40
2.0
100
AcDbArc
 50
293.9694823178
 51
360.0
  0
ARC
  5
3AA
100
AcDbEntity
  8
INTFCLR_18
100
AcDbCircle
 62
7
420
3368703
  6
CONTINUOUS
 10
73.5207495364
 20
72.6539329394
 40
2.0
100
AcDbArc
 50
180.0
 51
246.0305176822
  0
ARC
  5
3AB
100
AcDbEntity
  8
INTFCLR_18
100
AcDbCircle
 62
7
420
3368703
  6
CONTINUOUS
 10
80.0207495364
 20
72.6539329394
 40
2.0
100
AcDbArc
 50
293.9694823178
 51
360.0
  0
ARC
  5
3AC
100
AcDbEntity
  8
00_COMPONENTS_1
100
AcDbCircle
 62
7
  6
CONTINUOUS
 10
80.0207495364
 20
72.6539329394
 40
1.5
100
AcDbArc
 50
293.9694823178
 51
360.0
  0
ARC
  5
3AD
100
AcDbEntity
  8
00_COMPONENTS_1
100
AcDbCircle
 62
7
  6
CONTINUOUS
 10
73.5207495364
 20
72.6539329394
 40
1.5
100
AcDbArc
 50
180.0
 51
246.0305176822
  0
ARC
  5
3AE
100
AcDbEntity
  8
00_COMPONENTS_1
100
AcDbCircle
 62
7
  6
CONTINUOUS
 10
77.7707495364
 20
136.5674315721
 40
1.0
100
AcDbArc
 50
90.0000082099
 51
180.0
  0
ARC
  5
3AF
100
AcDbEntity
  8
00_COMPONENTS_1
100
AcDbCircle
 62
7
  6
CONTINUOUS
 10
72.5707495364
 20
136.5674315721
 40
1.0
100
AcDbArc
 50
0.0
 51
90.0000009445
  0
ARC
  5
3B0
100
AcDbEntity
  8
INTFCLR_18
100
AcDbCircle
 62
7
420
3368703
  6
CONTINUOUS
 10
77.7707495364
 20
136.5674315721
 40
1.0
100
AcDbArc
 50
90.0000082101
 51
180.0
  0
ARC
  5
3B1
100
AcDbEntity
  8
INTFCLR_18
100
AcDbCircle
 62
7
420
3368703
  6
CONTINUOUS
 10
72.5707495364
 20
136.5674315721
 40
1.0
100
AcDbArc
 50
0.0
 51
90.0000009445
  0
ARC
  5
3B2
100
AcDbEntity
  8
00_COMPONENTS_1
100
AcDbCircle
 62
7
  6
CONTINUOUS
 10
76.2707495364
 20
135.914028698
 40
0.5
100
AcDbArc
 50
270.0
 51
360.0
  0
ARC
  5
3B3
100
AcDbEntity
  8
00_COMPONENTS_1
100
AcDbCircle
 62
7
  6
CONTINUOUS
 10
74.0707495364
 20
135.914028698
 40
0.5
100
AcDbArc
 50
180.0
 51
270.0
  0
ARC
  5
3B4
100
AcDbEntity
  8
INTFCLR_18
100
AcDbCircle
 62
7
420
3368703
  6
CONTINUOUS
 10
76.2707495364
 20
135.914028698
 40
0.5
100
AcDbArc
 50
270.0
 51
360.0
  0
ARC
  5
3B5
100
AcDbEntity
  8
INTFCLR_18
100
AcDbCircle
 62
7
420
3368703
  6
CONTINUOUS
 10
74.0707495364
 20
135.914028698
 40
0.5
100
AcDbArc
 50
180.0
 51
270.0
  0
SPLINE
  5
3B6
100
AcDbEntity
  8
00_COMPONENTS_1
100
AcDbSpline
 62
7
  6
CONTINUOUS
 70
0
 71
3
 72
13
 73
9
 74
0
 42
0.0000001
 43
0.0000001
 44
0.0000000001
 40
0.0
 40
0.0
 40
0.0
 40
0.0
 40
0.0002350644
 40
0.0480536635
 40
0.3291540098
 40
0.6661199703
 40
0.9293416301
 40
1.0
 40
1.0
 40
1.0
 40
1.0
 10
48.2473239028
 20
34.3185173322
 30
0.0
 10
48.2461322444
 20
34.3185167299
 30
0.0
 10
48.0025243608
 20
34.3183935878
 30
0.0
 10
46.3338792421
 20
34.3175220909
 30
0.0
 10
42.9581782054
 20
34.3153708089
 30
0.0
 10
38.4904928737
 20
34.3115523716
 30
0.0
 10
35.0896428882
 20
34.3079220952
 30
0.0
 10
33.3970401887
 20
34.3059135631
 30
0.0
 10
33.0388380406
 20
34.3054794493
 30
0.0
  0
SPLINE
  5
3B7
100
AcDbEntity
  8
00_COMPONENTS_1
100
AcDbSpline
 62
7
  6
CONTINUOUS
 70
0
 71
3
 72
13
 73
9
 74
0
 42
0.0000001
 43
0.0000001
 44
0.0000000001
 40
0.0
 40
0.0
 40
0.0
 40
0.0
 40
0.0811834689
 40
0.2658620701
 40
0.4730336379
 40
0.6720664346
 40
0.8629262355
 40
1.0
 40
1.0
 40
1.0
 40
1.0
 10
33.2971137369
 20
50.7111185686
 30
0.0
 10
33.5642107112
 20
50.7107951486
 30
0.0
 10
34.438907951
 20
50.7097526526
 30
0.0
 10
35.9952083584
 20
50.7079946503
 30
0.0
 10
37.9392381646
 20
50.7059763116
 30
0.0
 10
39.9036045613
 20
50.7041222136
 30
0.0
 10
41.6373463561
 20
50.7026422868
 30
0.0
 10
42.7162618314
 20
50.701802992
 30
0.0
 10
43.1672403978
 20
50.7014664151
 30
0.0
  0
SPLINE
  5
3B8
100
AcDbEntity
  8
00_COMPONENTS_1
100
AcDbSpline
 62
7
  6
CONTINUOUS
 70
0
 71
3
 72
13
 73
9
 74
0
 42
0.0000001
 43
0.0000001
 44
0.0000000001
 40
0.0
 40
0.0
 40
0.0
 40
0.0
 40
0.0811834692
 40
0.2741526897
 40
0.4813421775
 40
0.6800682823
 40
0.8702958771
 40
1.0
 40
1.0
 40
1.0
 40
1.0
 10
85.2443853141
 20
50.7111185686
 30
0.0
 10
84.9772883472
 20
50.7107951486
 30
0.0
 10
84.0753146532
 20
50.7097201435
 30
0.0
 10
82.4916788498
 20
50.7079343362
 30
0.0
 10
80.5213226832
 20
50.705896276
 30
0.0
 10
78.5599863977
 20
50.7040524553
 30
0.0
 10
76.8535801008
 20
50.7026019247
 30
0.0
 10
75.8009910789
 20
50.7017848965
 30
0.0
 10
75.3742589629
 20
50.7014664153
 30
0.0
  0
SPLINE
  5
3B9
100
AcDbEntity
  8
00_COMPONENTS_1
100
AcDbSpline
 62
7
  6
CONTINUOUS
 70
0
 71
3
 72
47
 73
43
 74
0
 42
0.0000001
 43
0.0000001
 44
0.0000000001
 40
0.0
 40
0.0
 40
0.0
 40
0.0
 40
0.0625085661
 40
0.1250163211
 40
0.1875230858
 40
0.2187767594
 40
0.2500302063
 40
0.2812833843
 40
0.3125362208
 40
0.3437885803
 40
0.375040056
 40
0.3906664251
 40
0.4062926625
 40
0.4219186396
 40
0.4375439827
 40
0.4531677498
 40
0.4609812587
 40
0.4687945875
 40
0.476607239
 40
0.4844170371
 40
0.4922176507
 40
0.4999997372
 40
0.5077823002
 40
0.5155830161
 40
0.523392747
 40
0.5312053886
 40
0.539018718
 40
0.5468322271
 40
0.5624559985
 40
0.5780813454
 40
0.5937073268
 40
0.6093335664
 40
0.624959937
 40
0.6562114146
 40
0.6874637762
 40
0.7187166134
 40
0.7499697922
 40
0.7812232394
 40
0.812476913
 40
0.874983678
 40
0.9374914336
 40
1.0
 40
1.0
 40
1.0
 40
1.0
 10
63.4706245186
 20
43.964028698
 30
0.0
 10
63.4203855309
 20
44.7327340458
 30
0.0
 10
63.3064569432
 20
46.2692994736
 30
0.0
 10
63.0910298715
 20
48.5703873342
 30
0.0
 10
62.8689920999
 20
50.4835866386
 30
0.0
 10
62.6604389296
 20
52.0101039835
 30
0.0
 10
62.4864966104
 20
53.1524766949
 30
0.0
 10
62.2923877108
 20
54.2916015947
 30
0.0
 10
62.0744319196
 20
55.4264297094
 30
0.0
 10
61.8273065596
 20
56.5552802258
 30
0.0
 10
61.5903643538
 20
57.4888228334
 30
0.0
 10
61.375318234
 20
58.2285671072
 30
0.0
 10
61.1984714138
 20
58.7786535468
 30
0.0
 10
61.0022766776
 20
59.3222062754
 30
0.0
 10
60.780927876
 20
59.8560465637
 30
0.0
 10
60.5678381276
 20
60.2884089991
 30
0.0
 10
60.3717705817
 20
60.620131015
 30
0.0
 10
60.2082602614
 20
60.8586066424
 30
0.0
 10
60.023401787
 20
61.0812594237
 30
0.0
 10
59.8101122978
 20
61.2775497167
 30
0.0
 10
59.5598111829
 20
61.426979246
 30
0.0
 10
59.2707538354
 20
61.488188113
 30
0.0
 10
58.981693233
 20
61.4269831377
 30
0.0
 10
58.7313865637
 20
61.2775502204
 30
0.0
 10
58.518097716
 20
61.0812588311
 30
0.0
 10
58.3332395204
 20
60.8586070911
 30
0.0
 10
58.1697292311
 20
60.6201315643
 30
0.0
 10
57.9736611154
 20
60.2884098222
 30
0.0
 10
57.7605712844
 20
59.8560472841
 30
0.0
 10
57.5392224805
 20
59.3222068358
 30
0.0
 10
57.3430279326
 20
58.7786539033
 30
0.0
 10
57.1661810249
 20
58.2285673911
 30
0.0
 10
56.9511348476
 20
57.4888230609
 30
0.0
 10
56.7141924768
 20
56.5552804237
 30
0.0
 10
56.4670672254
 20
55.4264298227
 30
0.0
 10
56.2491113298
 20
54.2916016842
 30
0.0
 10
56.0550024738
 20
53.1524767541
 30
0.0
 10
55.8810601487
 20
52.0101040315
 30
0.0
 10
55.6725069788
 20
50.4835866792
 30
0.0
 10
55.4504691905
 20
48.570387366
 30
0.0
 10
55.2350421343
 20
46.2692994888
 30
0.0
 10
55.1211135421
 20
44.7327340502
 30
0.0
 10
55.0708745542
 20
43.964028698
 30
0.0
  0
SPLINE
  5
3BA
100
AcDbEntity
  8
INTFCLR_18
100
AcDbSpline
 62
7
420
3368703
  6
CONTINUOUS
 70
0
 71
3
 72
10
 73
6
 74
0
 42
0.0000001
 43
0.0000001
 44
0.0000000001
 40
0.0
 40
0.0
 40
0.0
 40
0.0
 40
0.2756309857
 40
0.6594149565
 40
1.0
 40
1.0
 40
1.0
 40
1.0
 10
43.1672445496
 20
50.701466412
 30
0.0
 10
42.7162645993
 20
50.7018029899
 30
0.0
 10
41.63734774
 20
50.7026422856
 30
0.0
 10
40.0011749741
 20
50.7040389272
 30
0.0
 10
38.8159822091
 20
50.7051494529
 30
0.0
 10
38.2587262995
 20
50.7056935159
 30
0.0
  0
SPLINE
  5
3BB
100
AcDbEntity
  8
INTFCLR_18
100
AcDbSpline
 62
7
420
3368703
  6
CONTINUOUS
 70
0
 71
3
 72
11
 73
7
 74
0
 42
0.0000001
 43
0.0000001
 44
0.0000000001
 40
0.0
 40
0.0
 40
0.0
 40
0.0
 40
0.0589951684
 40
0.4711211373
 40
0.8385018943
 40
1.0
 40
1.0
 40
1.0
 40
1.0
 10
38.2587262995
 20
50.7056935159
 30
0.0
 10
38.1611558978
 20
50.7057887763
 30
0.0
 10
37.3819822891
 20
50.7065548681
 30
0.0
 10
35.9952083584
 20
50.7079946503
 30
0.0
 10
34.438907951
 20
50.7097526526
 30
0.0
 10
33.5642107112
 20
50.7107951486
 30
0.0
 10
33.2971137369
 20
50.7111185686
 30
0.0
  0
LINE
  5
3BC
100
AcDbEntity
  8
INTFCLR_18
100
AcDbLine
 62
7
420
3368703
  6
CONTINUOUS
 10
85.2443853141
 20
50.7111185686
 11
83.0068132984
 21
50.7085279102
  0
LINE
  5
3BD
100
AcDbEntity
  8
INTFCLR_18
100
AcDbLine
 62
7
420
3368703
  6
CONTINUOUS
 10
83.0068132984
 20
50.7085279102
 11
81.0622308458
 21
50.7064688186
  0
SPLINE
  5
3BE
100
AcDbEntity
  8
INTFCLR_18
100
AcDbSpline
 62
7
420
3368703
  6
CONTINUOUS
 70
0
 71
3
 72
11
 73
7
 74
0
 42
0.0000001
 43
0.0000001
 44
0.0000000001
 40
0.0
 40
0.0
 40
0.0
 40
0.0
 40
0.0999921834
 40
0.444833994
 40
0.7749286652
 40
1.0
 40
1.0
 40
1.0
 40
1.0
 10
81.0622308458
 20
50.7064688186
 30
0.0
 10
80.8726464882
 20
50.7062767656
 30
0.0
 10
80.0292448816
 20
50.7054336816
 30
0.0
 10
78.5599863977
 20
50.7040524553
 30
0.0
 10
76.8535787167
 20
50.7026019235
 30
0.0
 10
75.8009883106
 20
50.7017848943
 30
0.0
 10
75.3742548104
 20
50.7014664122
 30
0.0
  0
ENDSEC
  0
SECTION
  2
OBJECTS
  0
DICTIONARY
  5
C
100
AcDbDictionary
280
0
281
1
  3
ACAD_GROUP
350
D
  3
ACAD_MLINESTYLE
350
17
  3
ACAD_LAYOUT
350
1A
  3
ACAD_PLOTSETTINGS
350
19
  3
ACAD_PLOTSTYLENAME
350
E
  0
DICTIONARY
  5
D
102
{ACAD_REACTORS
330
C
102
}
100
AcDbDictionary
280
0
281
1
  0
ACDBDICTIONARYWDFLT
  5
E
102
{ACAD_REACTORS
330
C
102
}
100
AcDbDictionary
281
1
  3
Normal
350
F
100
AcDbDictionaryWithDefault
340
F
  0
DICTIONARY
  5
17
102
{ACAD_REACTORS
330
C
102
}
100
AcDbDictionary
280
0
281
1
  3
Standard
350
18
  0
DICTIONARY
  5
19
102
{ACAD_REACTORS
330
C
102
}
100
AcDbDictionary
281
1
  0
DICTIONARY
  5
1A
102
{ACAD_REACTORS
330
C
102
}
100
AcDbDictionary
281
1
  3
Model
350
3BF
  3
Layout1
350
3C0
  0
ACDBPLACEHOLDER
  5
F
102
{ACAD_REACTORS
330
E
102
}
  0
MLINESTYLE
  5
18
102
{ACAD_REACTORS
330
17
102
}
100
AcDbMlineStyle
  2
STANDARD
 70
0
  3

 62
256
 51
90.0
 52
90.0
 71
2
 49
0.5
 62
256
  6
BYLAYER
 49
-0.5
 62
256
  6
BYLAYER
  0
LAYOUT
  5
3BF
102
{ACAD_REACTORS
330
1A
102
}
100
AcDbPlotSettings
  1

  2
none_device
  4

  6

 40
0.0
 41
0.0
 42
0.0
 43
0.0
 44
210.0
 45
297.0
 46
0.0
 47
0.0
 48
0.0
 49
0.0
140
0.0
141
0.0
142
1.0
143
1.0
 70
1024
 72
1
 73
0
 74
0
  7

 75
0
147
1.0
148
0.0
149
0.0
100
AcDbLayout
  1
Model
 70
0
 71
0
 10
0.0
 20
0.0
 11
210.0
 21
297.0
 12
0.0
 22
0.0
 32
0.0
 14
0.0
 24
0.0
 34
0.0
 15
0.0
 25
0.0
 35
0.0
146
0.0
 13
0.0
 23
0.0
 33
0.0
 16
1.0
 26
0.0
 36
0.0
 17
0.0
 27
1.0
 37
0.0
 76
0
330
218
345
0
346
0
  0
LAYOUT
  5
3C0
102
{ACAD_REACTORS
330
1A
102
}
100
AcDbPlotSettings
  1

  2
none_device
  4

  6

 40
0.0
 41
0.0
 42
0.0
 43
0.0
 44
210.0
 45
297.0
 46
0.0
 47
0.0
 48
0.0
 49
0.0
140
0.0
141
0.0
142
1.0
143
1.0
 70
0
 72
1
 73
0
 74
0
  7

 75
0
147
1.0
148
0.0
149
0.0
100
AcDbLayout
  1
Layout1
 70
0
 71
1
 10
0.0
 20
0.0
 11
210.0
 21
297.0
 12
0.0
 22
0.0
 32
0.0
 14
0.0
 24
0.0
 34
0.0
 15
0.0
 25
0.0
 35
0.0
146
0.0
 13
0.0
 23
0.0
 33
0.0
 16
1.0
 26
0.0
 36
0.0
 17
0.0
 27
1.0
 37
0.0
 76
0
330
219
345
0
346
0
  0
ENDSEC
  0
EOF
