999
DXF file: C:\Users\sesa63760\Dev\_Creo\CAD\MCADID0003842_3D-CAD\drw0001_5.dxf
999
Pro/ENGINEER 2019471 by Parametric Technology Corporation
  0
SECTION
  2
HEADER
  9
$ACADVER
  1
AC1024
  9
$DWGCODEPAGE
  3
ANSI_1252
  9
$EXTMAX
 10
22.6539908893
 20
32.0392156863
 30
0.0
  9
$EXTMIN
 10
0.0
 20
0.0
 30
0.0
  9
$LIMMIN
 10
0.0
 20
0.0
  9
$LIMMAX
 10
22.6539908893
 20
32.0392156863
  9
$VIEWCTR
 10
11.3269954446
 20
16.0196078431
  9
$VIEWSIZE
 40
32.0392156863
  9
$CLAYER
  8
0
  9
$LTSCALE
 40
2.0884822077
  9
$CELTYPE
  6
BYLAYER
  9
$DIMSCALE
 40
1.0
  9
$DIMASZ
 40
0.2696903677
  9
$DIMEXO
 40
1.0
  9
$DIMDLI
 40
1.4429513435
  9
$DIMEXE
 40
1.0
  9
$DIMCEN
 40
0.341751634
  9
$DIMLFAC
 40
1.0
  9
$DIMBLK
  1
_FILLED
  9
$DIMALT
 70
0
  9
$DIMALTF
 40
0.0393700787
  9
$DIMTXT
 40
0.3775665148
  9
$DIMTOL
 70
1
  9
$DIMLIM
 70
0
  9
$DIMTFAC
 40
1.0
  9
$DIMTP
 40
0.01
  9
$DIMTM
 40
0.01
  9
$DIMGAP
 40
0.625
  9
$DIMDSEP
 70
46
  9
$AUNITS
 70
0
  9
$PDMODE
 70
3
  9
$PDSIZE
 40
0.3125
  9
$HANDSEED
  5
24F
  9
$TILEMODE
 70
1
  9
$MEASUREMENT
 70
1
  9
$INSUNITS
 70
4
  0
ENDSEC
  0
SECTION
  2
CLASSES
  0
CLASS
  1
ACDBDICTIONARYWDFLT
  2
AcDbDictionaryWithDefault
  3
AutoCAD 2000
 90
0
 91
1
280
0
281
0
  0
CLASS
  1
ACDBPLACEHOLDER
  2
AcDbPlaceHolder
  3
AutoCAD 2000
 90
0
 91
1
280
0
281
0
  0
CLASS
  1
LAYOUT
  2
AcDbLayout
  3
AutoCAD 2000
 90
0
 91
0
280
0
281
0
  0
ENDSEC
  0
SECTION
  2
TABLES
  0
TABLE
  2
VPORT
  5
8
100
AcDbSymbolTable
 70
2
  0
VPORT
  5
1F4
100
AcDbSymbolTableRecord
100
AcDbViewportTableRecord
  2
*ACTIVE
 70
0
 10
0.0
 20
0.0
 11
1.0
 21
1.0
 12
11.3269954446
 22
16.0196078431
 13
0.0
 23
0.0
 14
1.0
 24
1.0
 15
0.0
 25
0.0
 16
0.0
 26
0.0
 36
1.0
 17
0.0
 27
0.0
 37
0.0
 40
32.0392156863
 41
0.7070707071
 42
50.0
 43
0.0
 44
0.0
 50
0.0
 51
0.0
 71
0
 72
100
 73
1
 74
1
 75
0
 76
0
 77
0
 78
0
  0
ENDTAB
  0
TABLE
  2
LTYPE
  5
5
100
AcDbSymbolTable
 70
6
  0
LTYPE
  5
14
100
AcDbSymbolTableRecord
100
AcDbLinetypeTableRecord
  2
BYBLOCK
 70
0
  3

 72
65
 73
0
 40
0.0
  0
LTYPE
  5
15
100
AcDbSymbolTableRecord
100
AcDbLinetypeTableRecord
  2
BYLAYER
 70
0
  3

 72
65
 73
0
 40
0.0
  0
LTYPE
  5
16
100
AcDbSymbolTableRecord
100
AcDbLinetypeTableRecord
  2
CONTINUOUS
 70
64
  3
Solid line
 72
65
 73
0
 40
0.0
  0
LTYPE
  5
1F5
100
AcDbSymbolTableRecord
100
AcDbLinetypeTableRecord
  2
CENTER
 70
64
  3
____ _ ____ _ ____ _ ____ _ ____ _ ____ _ ____
 72
65
 73
4
 40
0.6
 49
0.375
 74
0
 49
-0.075
 74
0
 49
0.075
 74
0
 49
-0.075
 74
0
  0
LTYPE
  5
1F6
100
AcDbSymbolTableRecord
100
AcDbLinetypeTableRecord
  2
HIDDEN
 70
64
  3
- - - - - - - - - - - - - - - - - - - -
 72
65
 73
2
 40
0.2
 49
0.1
 74
0
 49
-0.1
 74
0
  0
LTYPE
  5
1F7
100
AcDbSymbolTableRecord
100
AcDbLinetypeTableRecord
  2
PHANTOM
 70
64
  3
_____ _ _ _____ _ _ _____ _ _ _____
 72
65
 73
6
 40
0.8
 49
0.45
 74
0
 49
-0.05
 74
0
 49
0.1
 74
0
 49
-0.05
 74
0
 49
0.1
 74
0
 49
-0.05
 74
0
  0
LTYPE
  5
1F8
100
AcDbSymbolTableRecord
100
AcDbLinetypeTableRecord
  2
DOT
 70
64
  3
. . . . . . . . . . . . . . . . . . . .
 72
65
 73
2
 40
0.2
 49
0.1
 74
0
 49
-0.1
 74
0
  0
LTYPE
  5
1F9
100
AcDbSymbolTableRecord
100
AcDbLinetypeTableRecord
  2
DASHED
 70
64
  3
- - - - - - - - - - - - - - - - - - - -
 72
65
 73
2
 40
0.2
 49
0.1
 74
0
 49
-0.1
 74
0
  0
ENDTAB
  0
TABLE
  2
LAYER
  5
2
100
AcDbSymbolTable
 70
36
  0
LAYER
  5
10
100
AcDbSymbolTableRecord
100
AcDbLayerTableRecord
  2
0
 70
0
 62
7
  6
CONTINUOUS
370
-3
390
F
  0
LAYER
  5
1FA
100
AcDbSymbolTableRecord
100
AcDbLayerTableRecord
  2
DEFAULT_1
 70
0
 62
7
  6
CENTER
370
-3
390
F
  0
LAYER
  5
1FB
100
AcDbSymbolTableRecord
100
AcDbLayerTableRecord
  2
DEFAULT_2
 70
0
 62
7
  6
HIDDEN
370
-3
390
F
  0
LAYER
  5
1FC
100
AcDbSymbolTableRecord
100
AcDbLayerTableRecord
  2
DEFAULT_3
 70
0
 62
7
  6
PHANTOM
370
-3
390
F
  0
LAYER
  5
1FD
100
AcDbSymbolTableRecord
100
AcDbLayerTableRecord
  2
00_COMPONENTS
 70
0
 62
7
  6
CONTINUOUS
370
-3
390
F
  0
LAYER
  5
1FE
100
AcDbSymbolTableRecord
100
AcDbLayerTableRecord
  2
01_1_DEFAULT_DATUMS
 70
0
 62
7
  6
CONTINUOUS
370
-3
390
F
  0
LAYER
  5
1FF
100
AcDbSymbolTableRecord
100
AcDbLayerTableRecord
  2
01_PLANES
 70
0
 62
7
  6
CONTINUOUS
370
-3
390
F
  0
LAYER
  5
200
100
AcDbSymbolTableRecord
100
AcDbLayerTableRecord
  2
02_COORD_SYS
 70
0
 62
7
  6
CONTINUOUS
370
-3
390
F
  0
LAYER
  5
201
100
AcDbSymbolTableRecord
100
AcDbLayerTableRecord
  2
03_AXES
 70
0
 62
7
  6
CONTINUOUS
370
-3
390
F
  0
LAYER
  5
202
100
AcDbSymbolTableRecord
100
AcDbLayerTableRecord
  2
04_POINTS
 70
0
 62
7
  6
CONTINUOUS
370
-3
390
F
  0
LAYER
  5
203
100
AcDbSymbolTableRecord
100
AcDbLayerTableRecord
  2
05_CURVES
 70
0
 62
7
  6
CONTINUOUS
370
-3
390
F
  0
LAYER
  5
204
100
AcDbSymbolTableRecord
100
AcDbLayerTableRecord
  2
06_SURFS
 70
0
 62
7
  6
CONTINUOUS
370
-3
390
F
  0
LAYER
  5
205
100
AcDbSymbolTableRecord
100
AcDbLayerTableRecord
  2
07_COSMETICS
 70
0
 62
7
  6
CONTINUOUS
370
-3
390
F
  0
LAYER
  5
206
100
AcDbSymbolTableRecord
100
AcDbLayerTableRecord
  2
10_NOTES
 70
0
 62
7
  6
CONTINUOUS
370
-3
390
F
  0
LAYER
  5
207
100
AcDbSymbolTableRecord
100
AcDbLayerTableRecord
  2
11_NOTES_PUB
 70
0
 62
7
  6
CONTINUOUS
370
-3
390
F
  0
LAYER
  5
208
100
AcDbSymbolTableRecord
100
AcDbLayerTableRecord
  2
13_REF_GTOL
 70
0
 62
7
  6
CONTINUOUS
370
-3
390
F
  0
LAYER
  5
209
100
AcDbSymbolTableRecord
100
AcDbLayerTableRecord
  2
16_MISC
 70
0
 62
7
  6
CONTINUOUS
370
-3
390
F
  0
LAYER
  5
20A
100
AcDbSymbolTableRecord
100
AcDbLayerTableRecord
  2
17_NO_PRINT
 70
0
 62
7
  6
CONTINUOUS
370
-3
390
F
  0
LAYER
  5
20B
100
AcDbSymbolTableRecord
100
AcDbLayerTableRecord
  2
18_DATUM_CAMS_JOINTS
 70
0
 62
7
  6
CONTINUOUS
370
-3
390
F
  0
LAYER
  5
20C
100
AcDbSymbolTableRecord
100
AcDbLayerTableRecord
  2
19_DATUM_FUNCTIONAL
 70
0
 62
7
  6
CONTINUOUS
370
-3
390
F
  0
LAYER
  5
20D
100
AcDbSymbolTableRecord
100
AcDbLayerTableRecord
  2
20_DATUM_KINEMATIC_SCHEME
 70
0
 62
7
  6
CONTINUOUS
370
-3
390
F
  0
ENDTAB
  0
TABLE
  2
STYLE
  5
3
100
AcDbSymbolTable
 70
1
  0
STYLE
  5
11
100
AcDbSymbolTableRecord
100
AcDbTextStyleTableRecord
  2
STANDARD
 70
0
 40
0.0
 41
1.0
 50
0.0
 71
0
 42
0.2
  3
ARIAL.TTF
  4

  0
STYLE
  5
20E
100
AcDbSymbolTableRecord
100
AcDbTextStyleTableRecord
  2
TEXTSTYLE_1
 70
0
 40
0.0
 41
0.8
 50
0.0
 71
0
 42
0.2
  3
gdt
  4

  0
ENDTAB
  0
TABLE
  2
VIEW
  5
6
100
AcDbSymbolTable
 70
0
  0
ENDTAB
  0
TABLE
  2
UCS
  5
7
100
AcDbSymbolTable
 70
0
  0
ENDTAB
  0
TABLE
  2
APPID
  5
9
100
AcDbSymbolTable
 70
1
  0
APPID
  5
20F
100
AcDbSymbolTableRecord
100
AcDbRegAppTableRecord
  2
ACAD
 70
0
  0
ENDTAB
  0
TABLE
  2
BLOCK_RECORD
  5
1
100
AcDbSymbolTable
 70
0
  0
BLOCK_RECORD
  5
210
100
AcDbSymbolTableRecord
100
AcDbBlockTableRecord
  2
*Model_Space
  0
BLOCK_RECORD
  5
211
100
AcDbSymbolTableRecord
100
AcDbBlockTableRecord
  2
*Paper_Space
  0
BLOCK_RECORD
  5
212
100
AcDbSymbolTableRecord
100
AcDbBlockTableRecord
  2
_FILLED
  0
ENDTAB
  0
TABLE
  2
DIMSTYLE
  5
A
100
AcDbSymbolTable
 70
1
100
AcDbDimStyleTable
 71
0
  0
DIMSTYLE
105
213
100
AcDbSymbolTableRecord
100
AcDbDimStyleTableRecord
  2
STANDARD
 70
0
  3

  4

 40
1.0
 41
0.2696903677
 42
1.0
 43
0.38
 44
1.0
 45
0.0
 46
0.0
 47
0.01
 48
0.01
140
0.3775665148
141
0.09
142
0.0
143
25.4
144
1.0
145
0.0
146
1.0
147
0.625
 71
1
 72
0
 73
0
 74
0
 75
0
 76
0
 77
1
 78
8
 79
2
170
0
171
1
172
0
173
0
174
0
175
0
176
0
177
0
178
0
270
2
179
2
271
2
272
2
273
2
274
2
275
0
280
0
281
0
282
0
283
1
284
8
285
0
286
0
287
3
288
0
340
11
278
46
341
212
342
212
343
212
344
212
  0
ENDTAB
  0
ENDSEC
  0
SECTION
  2
BLOCKS
  0
BLOCK
  5
20
100
AcDbEntity
  8
0
100
AcDbBlockBegin
  2
*Model_Space
 70
0
 10
0.0
 20
0.0
 30
0.0
  3
*Model_Space
  1

  0
ENDBLK
  5
21
100
AcDbEntity
  8
0
100
AcDbBlockEnd
  0
BLOCK
  5
1C
100
AcDbEntity
  8
0
100
AcDbBlockBegin
  2
*Paper_Space
 70
0
 10
0.0
 20
0.0
 30
0.0
  3
*Paper_Space
  1

  0
ENDBLK
  5
1D
100
AcDbEntity
  8
0
100
AcDbBlockEnd
  0
BLOCK
  5
214
100
AcDbEntity
  8
0
100
AcDbBlockBegin
  2
_FILLED
 70
64
 10
0.0
 20
0.0
  3
_FILLED
  1

  0
SOLID
  5
215
100
AcDbEntity
  8
0
  6
BYBLOCK
 62
0
100
AcDbTrace
 10
0.0
 20
0.0
 11
-1.0
 21
0.25
 12
-1.0
 22
-0.25
 13
-1.0
 23
-0.25
  0
ENDBLK
  5
216
100
AcDbEntity
  8
0
  6
BYBLOCK
 62
0
100
AcDbBlockEnd
  0
ENDSEC
  0
SECTION
  2
ENTITIES
  0
LINE
  5
217
100
AcDbEntity
  8
0
100
AcDbLine
 62
7
  6
BYLAYER
 10
9.4740455098
 20
18.1362629398
 11
10.1268105216
 21
18.9771304023
  0
LINE
  5
218
100
AcDbEntity
  8
0
100
AcDbLine
 62
7
  6
BYLAYER
 10
10.271862454
 20
17.5169180249
 11
10.9246274657
 21
18.3577854874
  0
LINE
  5
219
100
AcDbEntity
  8
0
100
AcDbLine
 62
7
  6
BYLAYER
 10
10.3582135975
 20
17.4393686418
 11
13.2634726763
 21
18.3103213874
  0
LINE
  5
21A
100
AcDbEntity
  8
0
100
AcDbLine
 62
7
  6
BYLAYER
 10
6.3586758763
 20
15.2088235294
 11
6.3080386829
 21
15.2088235294
  0
LINE
  5
21B
100
AcDbEntity
  8
0
100
AcDbLine
 62
7
  6
BYLAYER
 10
11.0657209348
 20
12.4963235294
 11
11.0657209348
 21
11.910989004
  0
LINE
  5
21C
100
AcDbEntity
  8
0
100
AcDbLine
 62
7
  6
BYLAYER
 10
9.5447603223
 20
14.6748715342
 11
10.217888155
 21
15.2504517254
  0
LINE
  5
21D
100
AcDbEntity
  8
0
100
AcDbLine
 62
7
  6
BYLAYER
 10
10.6482440205
 20
16.4719068319
 11
13.5535030993
 21
17.3428595774
  0
LINE
  5
21E
100
AcDbEntity
  8
0
100
AcDbLine
 62
7
  6
BYLAYER
 10
12.2157209348
 20
11.910989004
 11
12.2157209348
 21
12.4963235294
  0
LINE
  5
21F
100
AcDbEntity
  8
0
100
AcDbLine
 62
7
  6
BYLAYER
 10
10.2011476414
 20
13.9072416187
 11
10.8742754741
 21
14.4828218098
  0
LINE
  5
220
100
AcDbEntity
  8
0
100
AcDbLine
 62
7
  6
BYLAYER
 10
6.3080386829
 20
16.9088235294
 11
6.3586758763
 21
16.9088235294
  0
LINE
  5
221
100
AcDbEntity
  8
0
100
AcDbLine
 62
7
  6
BYLAYER
 10
10.3097732654
 20
13.4457301964
 11
13.2006342983
 21
14.751297693
  0
LINE
  5
222
100
AcDbEntity
  8
0
100
AcDbLine
 62
7
  6
BYLAYER
 10
10.7254804443
 20
12.5252479633
 11
11.1219666571
 21
12.7043086329
  0
LINE
  5
223
100
AcDbEntity
  8
0
100
AcDbLine
 62
7
  6
BYLAYER
 10
11.8252863384
 20
13.0219410978
 11
13.6163414773
 21
13.8308154599
  0
ARC
  5
224
100
AcDbEntity
  8
0
100
AcDbCircle
 62
7
  6
BYLAYER
 10
9.7406534102
 20
14.1779273063
 40
0.7068986133
100
AcDbArc
 50
40.533270675
 51
40.9468761292
  0
ARC
  5
225
100
AcDbEntity
  8
0
100
AcDbCircle
 62
7
  6
BYLAYER
 10
11.6407209348
 20
12.4963235294
 40
0.575
100
AcDbArc
 50
0.0
 51
180.0
  0
ARC
  5
226
100
AcDbEntity
  8
0
100
AcDbCircle
 62
7
  6
BYLAYER
 10
10.5460818146
 20
14.8666367676
 40
0.505
100
AcDbArc
 50
310.533190863
 51
130.533190863
  0
CIRCLE
  5
227
100
AcDbEntity
  8
0
100
AcDbCircle
 62
7
  6
BYLAYER
 10
9.8729539819
 20
14.2910565764
 40
0.505
  0
ARC
  5
228
100
AcDbEntity
  8
0
100
AcDbCircle
 62
7
  6
BYLAYER
 10
10.5176268549
 20
12.9854890798
 40
0.505
100
AcDbArc
 50
114.3048349275
 51
294.3048349275
  0
CIRCLE
  5
229
100
AcDbEntity
  8
0
100
AcDbCircle
 62
7
  6
BYLAYER
 10
9.8729539819
 20
14.2910565764
 40
0.05
  0
ARC
  5
22A
100
AcDbEntity
  8
0
100
AcDbCircle
 62
7
  6
BYLAYER
 10
10.503228809
 20
16.9556377368
 40
0.505
100
AcDbArc
 50
106.6879358179
 51
286.6879358179
  0
ARC
  5
22B
100
AcDbEntity
  8
0
100
AcDbCircle
 62
7
  6
BYLAYER
 10
9.7662089499
 20
17.6890871323
 40
0.7068986136
100
AcDbArc
 50
51.7641420455
 51
52.1777474995
  0
ARC
  5
22C
100
AcDbEntity
  8
0
100
AcDbCircle
 62
7
  6
BYLAYER
 10
10.5257189936
 20
18.6674579448
 40
0.505
100
AcDbArc
 50
322.1778273116
 51
142.1778273116
  0
CIRCLE
  5
22D
100
AcDbEntity
  8
0
100
AcDbCircle
 62
7
  6
BYLAYER
 10
9.8729539819
 20
17.8265904824
 40
0.505
  0
CIRCLE
  5
22E
100
AcDbEntity
  8
0
100
AcDbCircle
 62
7
  6
BYLAYER
 10
9.8729539819
 20
17.8265904824
 40
0.05
  0
CIRCLE
  5
22F
100
AcDbEntity
  8
0
100
AcDbCircle
 62
7
  6
BYLAYER
 10
11.6407209348
 20
16.0588235294
 40
9.0
  0
CIRCLE
  5
230
100
AcDbEntity
  8
0
100
AcDbCircle
 62
7
  6
BYLAYER
 10
11.6407209348
 20
16.0588235294
 40
8.3499879565
  0
CIRCLE
  5
231
100
AcDbEntity
  8
0
100
AcDbCircle
 62
7
  6
BYLAYER
 10
11.6407209348
 20
16.0588235294
 40
8.0499831205
  0
CIRCLE
  5
232
100
AcDbEntity
  8
0
100
AcDbCircle
 62
7
  6
BYLAYER
 10
11.6407209348
 20
16.0588235294
 40
5.9999824571
  0
CIRCLE
  5
233
100
AcDbEntity
  8
0
100
AcDbCircle
 62
7
  6
BYLAYER
 10
11.6407209348
 20
16.0588235294
 40
5.3999787373
  0
CIRCLE
  5
234
100
AcDbEntity
  8
0
100
AcDbCircle
 62
7
  6
BYLAYER
 10
11.6407209348
 20
16.0588235294
 40
5.35
  0
CIRCLE
  5
235
100
AcDbEntity
  8
0
100
AcDbCircle
 62
7
  6
BYLAYER
 10
11.6407209348
 20
16.0588235294
 40
5.1499997679
  0
CIRCLE
  5
236
100
AcDbEntity
  8
0
100
AcDbCircle
 62
7
  6
BYLAYER
 10
11.6407209348
 20
16.0588235294
 40
4.1875
  0
ARC
  5
237
100
AcDbEntity
  8
0
100
AcDbCircle
 62
7
  6
BYLAYER
 10
13.5671328299
 20
14.3627047121
 40
0.7068986131
100
AcDbArc
 50
203.8911496613
 51
204.7185201938
  0
CIRCLE
  5
238
100
AcDbEntity
  8
0
100
AcDbCircle
 62
7
  6
BYLAYER
 10
13.4084878878
 20
14.2910565764
 40
0.505
  0
CIRCLE
  5
239
100
AcDbEntity
  8
0
100
AcDbCircle
 62
7
  6
BYLAYER
 10
13.4084878878
 20
14.2910565764
 40
0.05
  0
ARC
  5
23A
100
AcDbEntity
  8
0
100
AcDbCircle
 62
7
  6
BYLAYER
 10
13.5752304599
 20
17.8765763564
 40
0.706898613
100
AcDbArc
 50
196.2742505515
 51
197.1016210839
  0
CIRCLE
  5
23B
100
AcDbEntity
  8
0
100
AcDbCircle
 62
7
  6
BYLAYER
 10
13.4084878878
 20
17.8265904824
 40
0.505
  0
CIRCLE
  5
23C
100
AcDbEntity
  8
0
100
AcDbCircle
 62
7
  6
BYLAYER
 10
13.4084878878
 20
17.8265904824
 40
0.05
  0
SPLINE
  5
23D
100
AcDbEntity
  8
0
100
AcDbSpline
 62
7
  6
BYLAYER
 70
0
 71
3
 72
19
 73
15
 74
0
 42
0.0000001
 43
0.0000001
 44
0.0000000001
 40
0.0
 40
0.0
 40
0.0
 40
0.0
 40
0.0514806101
 40
0.1034504288
 40
0.1563639745
 40
0.210624329
 40
0.2665441516
 40
0.3243592871
 40
0.3842109792
 40
0.4461472408
 40
0.5759789202
 40
0.7129031197
 40
0.8551355554
 40
1.0
 40
1.0
 40
1.0
 40
1.0
 10
10.3347121544
 20
14.021450368
 30
0.0
 10
10.3436006898
 20
14.0290508038
 30
0.0
 10
10.3604136039
 20
14.0455987621
 30
0.0
 10
10.3821358356
 20
14.0738357876
 30
0.0
 10
10.4002028048
 20
14.1052735264
 30
0.0
 10
10.4144227946
 20
14.139590002
 30
0.0
 10
10.4247077531
 20
14.176432886
 30
0.0
 10
10.4309337891
 20
14.2154527312
 30
0.0
 10
10.4330696143
 20
14.2562702143
 30
0.0
 10
10.4304167897
 20
14.3134480312
 30
0.0
 10
10.4164570497
 20
14.3872271011
 30
0.0
 10
10.3845147038
 20
14.4748565317
 30
0.0
 10
10.3383186289
 20
14.5597496514
 30
0.0
 10
10.2993039865
 20
14.6123212934
 30
0.0
 10
10.2779166542
 20
14.637333288
 30
0.0
  0
SPLINE
  5
23E
100
AcDbEntity
  8
0
100
AcDbSpline
 62
7
  6
BYLAYER
 70
0
 71
3
 72
19
 73
15
 74
0
 42
0.0000001
 43
0.0000001
 44
0.0000000001
 40
0.0
 40
0.0
 40
0.0
 40
0.0
 40
0.1449729492
 40
0.2871759882
 40
0.4240199704
 40
0.5537609453
 40
0.6156603238
 40
0.6754871846
 40
0.7332918769
 40
0.7892178196
 40
0.8435002477
 40
0.8964500349
 40
0.9484667895
 40
1.0
 40
1.0
 40
1.0
 40
1.0
 10
10.2745863352
 20
14.6411996679
 30
0.0
 10
10.2531641803
 20
14.6658893028
 30
0.0
 10
10.2073158104
 20
14.7119541733
 30
0.0
 10
10.1308474417
 20
14.7698674132
 30
0.0
 10
10.0496461866
 20
14.8142201213
 30
0.0
 10
9.9793793208
 20
14.8389073558
 30
0.0
 10
9.9237078333
 20
14.8500545766
 30
0.0
 10
9.8833567647
 20
14.8540765744
 30
0.0
 10
9.8441466348
 20
14.8538314081
 30
0.0
 10
9.8064496965
 20
14.8492961896
 30
0.0
 10
9.7706226607
 20
14.8405379713
 30
0.0
 10
9.7370204931
 20
14.8275886134
 30
0.0
 10
9.7059831858
 20
14.8105871976
 30
0.0
 10
9.6871559458
 20
14.7966316164
 30
0.0
 10
9.6783248353
 20
14.7890802836
 30
0.0
  0
SPLINE
  5
23F
100
AcDbEntity
  8
0
100
AcDbSpline
 62
7
  6
BYLAYER
 70
0
 71
3
 72
19
 73
15
 74
0
 42
0.0000001
 43
0.0000001
 44
0.0000000001
 40
0.0
 40
0.0
 40
0.0
 40
0.0
 40
0.0514806101
 40
0.1034504288
 40
0.1563639745
 40
0.210624329
 40
0.2665441516
 40
0.3243592871
 40
0.3842109792
 40
0.4461472408
 40
0.5759789202
 40
0.7129031197
 40
0.8551355554
 40
1.0
 40
1.0
 40
1.0
 40
1.0
 10
10.084323642
 20
15.1362429761
 30
0.0
 10
10.0932121774
 20
15.1438434119
 30
0.0
 10
10.1121702693
 20
15.157882634
 30
0.0
 10
10.1434379954
 20
15.1749564226
 30
0.0
 10
10.177299981
 20
15.1879222521
 30
0.0
 10
10.2134083835
 20
15.196640731
 30
0.0
 10
10.2514014752
 20
15.2010795888
 30
0.0
 10
10.2909148089
 20
15.2011707027
 30
0.0
 10
10.3315688043
 20
15.1969420693
 30
0.0
 10
10.3876410352
 20
15.1854422806
 30
0.0
 10
10.4583572766
 20
15.1601947322
 30
0.0
 10
10.5399633392
 20
15.1150319033
 30
0.0
 10
10.6166528231
 20
15.0562131803
 30
0.0
 10
10.6625281287
 20
15.0095079751
 30
0.0
 10
10.683915461
 20
14.9844959805
 30
0.0
  0
SPLINE
  5
240
100
AcDbEntity
  8
0
100
AcDbSpline
 62
7
  6
BYLAYER
 70
0
 71
3
 72
19
 73
15
 74
0
 42
0.0000001
 43
0.0000001
 44
0.0000000001
 40
0.0
 40
0.0
 40
0.0
 40
0.0
 40
0.1448644446
 40
0.2870968803
 40
0.4240210798
 40
0.5538527592
 40
0.6157890208
 40
0.6756407129
 40
0.7334558484
 40
0.789375671
 40
0.8436360255
 40
0.8965495712
 40
0.9485193899
 40
1.0
 40
1.0
 40
1.0
 40
1.0
 10
10.683915461
 20
14.9844959805
 30
0.0
 10
10.7053027933
 20
14.9594839859
 30
0.0
 10
10.7443174356
 20
14.9069123439
 30
0.0
 10
10.7905135106
 20
14.8220192243
 30
0.0
 10
10.8224558565
 20
14.7343897936
 30
0.0
 10
10.8364155965
 20
14.6606107237
 30
0.0
 10
10.8390684211
 20
14.6034329068
 30
0.0
 10
10.8369325959
 20
14.5626154237
 30
0.0
 10
10.8307065599
 20
14.5235955786
 30
0.0
 10
10.8204216013
 20
14.4867526945
 30
0.0
 10
10.8062016116
 20
14.4524362189
 30
0.0
 10
10.7881346423
 20
14.4209984801
 30
0.0
 10
10.7664124107
 20
14.3927614546
 30
0.0
 10
10.7495994966
 20
14.3762134963
 30
0.0
 10
10.7407109612
 20
14.3686130605
 30
0.0
  0
SPLINE
  5
241
100
AcDbEntity
  8
0
100
AcDbSpline
 62
7
  6
BYLAYER
 70
0
 71
3
 72
19
 73
15
 74
0
 42
0.0000001
 43
0.0000001
 44
0.0000000001
 40
0.0
 40
0.0
 40
0.0
 40
0.0
 40
0.0515332105
 40
0.1035499651
 40
0.1564997523
 40
0.2107821804
 40
0.2667081231
 40
0.3245128154
 40
0.3843396762
 40
0.4462390547
 40
0.5759800296
 40
0.7128240118
 40
0.8550270508
 40
1.0
 40
1.0
 40
1.0
 40
1.0
 10
10.3796259742
 20
17.6557349593
 30
0.0
 10
10.3867511569
 20
17.6649133531
 30
0.0
 10
10.399800618
 20
17.6843796001
 30
0.0
 10
10.4153149865
 20
17.7161863126
 30
0.0
 10
10.426660518
 20
17.7503633582
 30
0.0
 10
10.4337143676
 20
17.7865645473
 30
0.0
 10
10.4364615001
 20
17.8244338043
 30
0.0
 10
10.4348518101
 20
17.8636116462
 30
0.0
 10
10.4289257671
 20
17.9037273192
 30
0.0
 10
10.4151578423
 20
17.9588092518
 30
0.0
 10
10.3871747176
 20
18.0278298045
 30
0.0
 10
10.3390309484
 20
18.1068423606
 30
0.0
 10
10.2775656829
 20
18.1804859341
 30
0.0
 10
10.2293838074
 20
18.2241041893
 30
0.0
 10
10.2037085686
 20
18.2443345848
 30
0.0
  0
SPLINE
  5
242
100
AcDbEntity
  8
0
100
AcDbSpline
 62
7
  6
BYLAYER
 70
0
 71
3
 72
19
 73
15
 74
0
 42
0.0000001
 43
0.0000001
 44
0.0000000001
 40
0.0
 40
0.0
 40
0.0
 40
0.0
 40
0.1448644446
 40
0.2870968803
 40
0.4240210798
 40
0.5538527592
 40
0.6157890208
 40
0.6756407129
 40
0.7334558484
 40
0.789375671
 40
0.8436360255
 40
0.8965495712
 40
0.9485193899
 40
1.0
 40
1.0
 40
1.0
 40
1.0
 10
10.1996889967
 20
18.2474783024
 30
0.0
 10
10.173693406
 20
18.2676586671
 30
0.0
 10
10.1193352667
 20
18.3041430823
 30
0.0
 10
10.0323521527
 20
18.3462721339
 30
0.0
 10
9.9433099708
 20
18.3740339858
 30
0.0
 10
9.8689531993
 20
18.3844884597
 30
0.0
 10
9.8117139012
 20
18.384433888
 30
0.0
 10
9.7710431225
 20
18.3803698459
 30
0.0
 10
9.7323614309
 20
18.3723051964
 30
0.0
 10
9.696046245
 20
18.3602891342
 30
0.0
 10
9.6624407612
 20
18.3444619403
 30
0.0
 10
9.6318927488
 20
18.3249282325
 30
0.0
 10
9.6047147561
 20
18.3018947423
 30
0.0
 10
9.5889805446
 20
18.284317951
 30
0.0
 10
9.58180903
 20
18.2750798742
 30
0.0
  0
SPLINE
  5
243
100
AcDbEntity
  8
0
100
AcDbSpline
 62
7
  6
BYLAYER
 70
0
 71
3
 72
19
 73
15
 74
0
 42
0.0000001
 43
0.0000001
 44
0.0000000001
 40
0.0
 40
0.0
 40
0.0
 40
0.0
 40
0.0514806101
 40
0.1034504288
 40
0.1563639745
 40
0.210624329
 40
0.2665441516
 40
0.3243592871
 40
0.3842109792
 40
0.4461472408
 40
0.5759789202
 40
0.7129031197
 40
0.8551355554
 40
1.0
 40
1.0
 40
1.0
 40
1.0
 10
10.0190470014
 20
18.8383134679
 30
0.0
 10
10.026218516
 20
18.8475515448
 30
0.0
 10
10.0419527275
 20
18.8651283361
 30
0.0
 10
10.0691307202
 20
18.8881618263
 30
0.0
 10
10.0996787326
 20
18.9076955341
 30
0.0
 10
10.1332842164
 20
18.9235227279
 30
0.0
 10
10.1695994022
 20
18.9355387902
 30
0.0
 10
10.2082810939
 20
18.9436034397
 30
0.0
 10
10.2489518726
 20
18.9476674818
 30
0.0
 10
10.3061911706
 20
18.9477220535
 30
0.0
 10
10.3805479422
 20
18.9372675795
 30
0.0
 10
10.4695901241
 20
18.9095057277
 30
0.0
 10
10.556573238
 20
18.8673766761
 30
0.0
 10
10.6109313774
 20
18.8308922609
 30
0.0
 10
10.636926968
 20
18.8107118962
 30
0.0
  0
SPLINE
  5
244
100
AcDbEntity
  8
0
100
AcDbSpline
 62
7
  6
BYLAYER
 70
0
 71
3
 72
19
 73
15
 74
0
 42
0.0000001
 43
0.0000001
 44
0.0000000001
 40
0.0
 40
0.0
 40
0.0
 40
0.0
 40
0.1448644446
 40
0.2870968803
 40
0.4240210798
 40
0.5538527592
 40
0.6157890208
 40
0.6756407129
 40
0.7334558484
 40
0.789375671
 40
0.8436360255
 40
0.8965495712
 40
0.9485193899
 40
1.0
 40
1.0
 40
1.0
 40
1.0
 10
10.636926968
 20
18.8107118962
 30
0.0
 10
10.6629225587
 20
18.7905315315
 30
0.0
 10
10.7117453264
 20
18.7469166576
 30
0.0
 10
10.7741255199
 20
18.6730950445
 30
0.0
 10
10.8230976501
 20
18.5937164514
 30
0.0
 10
10.8516617163
 20
18.5242735279
 30
0.0
 10
10.8658007691
 20
18.4688079764
 30
0.0
 10
10.8719475444
 20
18.4283994893
 30
0.0
 10
10.8737254554
 20
18.3889260695
 30
0.0
 10
10.8710885834
 20
18.3507655482
 30
0.0
 10
10.864087737
 20
18.314285187
 30
0.0
 10
10.8527380413
 20
18.279847835
 30
0.0
 10
10.8371622795
 20
18.2478075385
 30
0.0
 10
10.8240354602
 20
18.2282066299
 30
0.0
 10
10.8168639455
 20
18.2189685531
 30
0.0
  0
SPLINE
  5
245
100
AcDbEntity
  8
0
100
AcDbSpline
 62
7
  6
BYLAYER
 70
0
 71
3
 72
19
 73
15
 74
0
 42
0.0000001
 43
0.0000001
 44
0.0000000001
 40
0.0
 40
0.0
 40
0.0
 40
0.0
 40
0.0515332105
 40
0.1035499651
 40
0.1564997523
 40
0.2107821804
 40
0.2667081231
 40
0.3245128154
 40
0.3843396762
 40
0.4462390547
 40
0.5759800296
 40
0.7128240118
 40
0.8550270508
 40
1.0
 40
1.0
 40
1.0
 40
1.0
 10
13.0951382187
 20
18.2598572621
 30
0.0
 10
13.084008165
 20
18.2565206403
 30
0.0
 10
13.0620817484
 20
18.2482468586
 30
0.0
 10
13.0309839878
 20
18.2313562733
 30
0.0
 10
13.00190445
 20
18.210115463
 30
0.0
 10
12.9751441416
 20
18.1847349829
 30
0.0
 10
12.950922027
 20
18.1554960271
 30
0.0
 10
12.9294876044
 20
18.1226622043
 30
0.0
 10
12.9110231674
 20
18.0865588835
 30
0.0
 10
12.89025493
 20
18.0337170878
 30
0.0
 10
12.8729687678
 20
17.9612734507
 30
0.0
 10
12.8662968138
 20
17.8689896949
 30
0.0
 10
12.8735884741
 20
17.7733435426
 30
0.0
 10
12.887496038
 20
17.7098563393
 30
0.0
 10
12.896656334
 20
17.678478389
 30
0.0
  0
SPLINE
  5
246
100
AcDbEntity
  8
0
100
AcDbSpline
 62
7
  6
BYLAYER
 70
0
 71
3
 72
19
 73
15
 74
0
 42
0.0000001
 43
0.0000001
 44
0.0000000001
 40
0.0
 40
0.0
 40
0.0
 40
0.0
 40
0.1449729492
 40
0.2871759882
 40
0.4240199704
 40
0.5537609453
 40
0.6156603238
 40
0.6754871846
 40
0.7332918769
 40
0.7892178196
 40
0.8435002477
 40
0.8964500349
 40
0.9484667895
 40
1.0
 40
1.0
 40
1.0
 40
1.0
 10
12.8995870191
 20
17.6687024286
 30
0.0
 10
12.909199367
 20
17.6374599965
 30
0.0
 10
12.9325116032
 20
17.5767921719
 30
0.0
 10
12.9790402201
 20
17.4929086658
 30
0.0
 10
13.0353798142
 20
17.4195148195
 30
0.0
 10
13.0896684902
 20
17.3685282366
 30
0.0
 10
13.1360814323
 20
17.3358263429
 30
0.0
 10
13.1713621953
 20
17.3158350204
 30
0.0
 10
13.2073244865
 20
17.3002078646
 30
0.0
 10
13.2436370815
 20
17.2891162995
 30
0.0
 10
13.2799466106
 20
17.2826432031
 30
0.0
 10
13.3159155278
 20
17.2809029361
 30
0.0
 10
13.3511766363
 20
17.2839057364
 30
0.0
 10
13.374038588
 20
17.2890588303
 30
0.0
 10
13.3851686417
 20
17.2923954522
 30
0.0
  0
SPLINE
  5
247
100
AcDbEntity
  8
0
100
AcDbSpline
 62
7
  6
BYLAYER
 70
0
 71
3
 72
19
 73
15
 74
0
 42
0.0000001
 43
0.0000001
 44
0.0000000001
 40
0.0
 40
0.0
 40
0.0
 40
0.0
 40
0.0514806101
 40
0.1034504288
 40
0.1563639745
 40
0.210624329
 40
0.2665441516
 40
0.3243592871
 40
0.3842109792
 40
0.4461472408
 40
0.5759789202
 40
0.7129031197
 40
0.8551355554
 40
1.0
 40
1.0
 40
1.0
 40
1.0
 10
10.8165784781
 20
16.5223709571
 30
0.0
 10
10.8053760505
 20
16.5190126387
 30
0.0
 10
10.782360603
 20
16.5138359426
 30
0.0
 10
10.7468594861
 20
16.5108600981
 30
0.0
 10
10.7106462698
 20
16.5126903356
 30
0.0
 10
10.6740954566
 20
16.5193135268
 30
0.0
 10
10.6375509433
 20
16.5306129526
 30
0.0
 10
10.601373608
 20
16.5465035865
 30
0.0
 10
10.5658993121
 20
16.5668063698
 30
0.0
 10
10.5192623657
 20
16.5999927443
 30
0.0
 10
10.4647891893
 20
16.651673481
 30
0.0
 10
10.4084068475
 20
16.7259719475
 30
0.0
 10
10.3620420475
 20
16.8107730348
 30
0.0
 10
10.3389640414
 20
16.872037425
 30
0.0
 10
10.3295138634
 20
16.9035606226
 30
0.0
  0
SPLINE
  5
248
100
AcDbEntity
  8
0
100
AcDbSpline
 62
7
  6
BYLAYER
 70
0
 71
3
 72
19
 73
15
 74
0
 42
0.0000001
 43
0.0000001
 44
0.0000000001
 40
0.0
 40
0.0
 40
0.0
 40
0.0
 40
0.1448644446
 40
0.2870968803
 40
0.4240210798
 40
0.5538527592
 40
0.6157890208
 40
0.6756407129
 40
0.7334558484
 40
0.789375671
 40
0.8436360255
 40
0.8965495712
 40
0.9485193899
 40
1.0
 40
1.0
 40
1.0
 40
1.0
 10
10.3295138634
 20
16.9035606226
 30
0.0
 10
10.3200636854
 20
16.9350838203
 30
0.0
 10
10.3056323325
 20
16.9989403464
 30
0.0
 10
10.2976990839
 20
17.0952626318
 30
0.0
 10
10.3039090777
 20
17.188325334
 30
0.0
 10
10.3209674382
 20
17.261450144
 30
0.0
 10
10.3416562101
 20
17.3148197509
 30
0.0
 10
10.3601109188
 20
17.3512896344
 30
0.0
 10
10.3815799734
 20
17.3844617845
 30
0.0
 10
10.405881408
 20
17.4140019055
 30
0.0
 10
10.4327606364
 20
17.4396404641
 30
0.0
 10
10.4619946879
 20
17.4610908029
 30
0.0
 10
10.4932780454
 20
17.4781359341
 30
0.0
 10
10.5153456275
 20
17.4864744486
 30
0.0
 10
10.5265480551
 20
17.4898327671
 30
0.0
  0
SPLINE
  5
249
100
AcDbEntity
  8
0
100
AcDbSpline
 62
7
  6
BYLAYER
 70
0
 71
3
 72
19
 73
15
 74
0
 42
0.0000001
 43
0.0000001
 44
0.0000000001
 40
0.0
 40
0.0
 40
0.0
 40
0.0
 40
0.0515332105
 40
0.1035499651
 40
0.1564997523
 40
0.2107821804
 40
0.2667081231
 40
0.3245128154
 40
0.3843396762
 40
0.4462390547
 40
0.5759800296
 40
0.7128240118
 40
0.8550270508
 40
1.0
 40
1.0
 40
1.0
 40
1.0
 10
13.0404740979
 20
14.6789663185
 30
0.0
 10
13.0298845153
 20
14.6741838628
 30
0.0
 10
13.009248246
 20
14.663076766
 30
0.0
 10
12.9806637026
 20
14.642213246
 30
0.0
 10
12.9546561911
 20
14.6173053982
 30
0.0
 10
12.9314961532
 20
14.5886018179
 30
0.0
 10
12.9113633494
 20
14.5564102417
 30
0.0
 10
12.8944701355
 20
14.5210250228
 30
0.0
 10
12.8809540693
 20
14.4827928222
 30
0.0
 10
12.867373194
 20
14.4276644731
 30
0.0
 10
12.8598418692
 20
14.3535687842
 30
0.0
 10
12.8654608807
 20
14.2612149361
 30
0.0
 10
12.8853659798
 20
14.167379219
 30
0.0
 10
12.9075659789
 20
14.1062956259
 30
0.0
 10
12.9208045566
 20
14.0764087249
 30
0.0
  0
SPLINE
  5
24A
100
AcDbEntity
  8
0
100
AcDbSpline
 62
7
  6
BYLAYER
 70
0
 71
3
 72
19
 73
15
 74
0
 42
0.0000001
 43
0.0000001
 44
0.0000000001
 40
0.0
 40
0.0
 40
0.0
 40
0.0
 40
0.1449729492
 40
0.2871759882
 40
0.4240199704
 40
0.5537609453
 40
0.6156603238
 40
0.6754871846
 40
0.7332918769
 40
0.7892178196
 40
0.8435002477
 40
0.8964500349
 40
0.9484667895
 40
1.0
 40
1.0
 40
1.0
 40
1.0
 10
12.925005174
 20
14.0671074814
 30
0.0
 10
12.9386738522
 20
14.0374148219
 30
0.0
 10
12.9698218363
 20
13.980372308
 30
0.0
 10
13.0270585604
 20
13.9033962585
 30
0.0
 10
13.0926293032
 20
13.8381177457
 30
0.0
 10
13.1531971697
 20
13.7947769391
 30
0.0
 10
13.2035351814
 20
13.7685155678
 30
0.0
 10
13.2411544687
 20
13.7533770596
 30
0.0
 10
13.2788708061
 20
13.7426545465
 30
0.0
 10
13.3163331694
 20
13.7364740366
 30
0.0
 10
13.3531803217
 20
13.7348708379
 30
0.0
 10
13.389062537
 20
13.7379135608
 30
0.0
 10
13.4236145014
 20
13.7455636814
 30
0.0
 10
13.4455916942
 20
13.7537016297
 30
0.0
 10
13.4561812768
 20
13.7584840854
 30
0.0
  0
SPLINE
  5
24B
100
AcDbEntity
  8
0
100
AcDbSpline
 62
7
  6
BYLAYER
 70
0
 71
3
 72
19
 73
15
 74
0
 42
0.0000001
 43
0.0000001
 44
0.0000000001
 40
0.0
 40
0.0
 40
0.0
 40
0.0
 40
0.0514806101
 40
0.1034504288
 40
0.1563639745
 40
0.210624329
 40
0.2665441516
 40
0.3243592871
 40
0.3842109792
 40
0.4461472408
 40
0.5759789202
 40
0.7129031197
 40
0.8551355554
 40
1.0
 40
1.0
 40
1.0
 40
1.0
 10
10.8856406448
 20
12.5975793378
 30
0.0
 10
10.8749822028
 20
12.5927657839
 30
0.0
 10
10.852855997
 20
12.5845840959
 30
0.0
 10
10.8180625689
 20
12.5769288805
 30
0.0
 10
10.7819262847
 20
12.5739429527
 30
0.0
 10
10.7448200824
 20
12.5756629399
 30
0.0
 10
10.7071002954
 20
12.582018736
 30
0.0
 10
10.6691358877
 20
12.5929738986
 30
0.0
 10
10.6312834913
 20
12.6083954669
 30
0.0
 10
10.5806592345
 20
12.6351073526
 30
0.0
 10
10.5198164863
 20
12.6791117329
 30
0.0
 10
10.4540834667
 20
12.7452812177
 30
0.0
 10
10.3968874899
 20
12.823188466
 30
0.0
 10
10.3658925952
 20
12.8808533285
 30
0.0
 10
10.3523474408
 20
12.9108457717
 30
0.0
  0
SPLINE
  5
24C
100
AcDbEntity
  8
0
100
AcDbSpline
 62
7
  6
BYLAYER
 70
0
 71
3
 72
19
 73
15
 74
0
 42
0.0000001
 43
0.0000001
 44
0.0000000001
 40
0.0
 40
0.0
 40
0.0
 40
0.0
 40
0.1448644446
 40
0.2870968803
 40
0.4240210798
 40
0.5538527592
 40
0.6157890208
 40
0.6756407129
 40
0.7334558484
 40
0.789375671
 40
0.8436360255
 40
0.8965495712
 40
0.9485193899
 40
1.0
 40
1.0
 40
1.0
 40
1.0
 10
10.3523474408
 20
12.9108457717
 30
0.0
 10
10.3388022865
 20
12.9408382149
 30
0.0
 10
10.3160341668
 20
13.0022184446
 30
0.0
 10
10.2954035199
 20
13.0966392871
 30
0.0
 10
10.2892233759
 20
13.1897039764
 30
0.0
 10
10.2964386205
 20
13.264444633
 30
0.0
 10
10.3098707707
 20
13.3200856031
 30
0.0
 10
10.3233286071
 20
13.3586798426
 30
0.0
 10
10.3402113025
 20
13.3944049939
 30
0.0
 10
10.3603828073
 20
13.4269055919
 30
0.0
 10
10.383626508
 20
13.4558807362
 30
0.0
 10
10.4097593971
 20
13.4810167443
 30
0.0
 10
10.4385074149
 20
13.5020580472
 30
0.0
 10
10.4592750239
 20
13.5132480169
 30
0.0
 10
10.4699334659
 20
13.5180615708
 30
0.0
  0
ENDSEC
  0
SECTION
  2
OBJECTS
  0
DICTIONARY
  5
C
100
AcDbDictionary
280
0
281
1
  3
ACAD_GROUP
350
D
  3
ACAD_MLINESTYLE
350
17
  3
ACAD_LAYOUT
350
1A
  3
ACAD_PLOTSETTINGS
350
19
  3
ACAD_PLOTSTYLENAME
350
E
  0
DICTIONARY
  5
D
102
{ACAD_REACTORS
330
C
102
}
100
AcDbDictionary
280
0
281
1
  0
ACDBDICTIONARYWDFLT
  5
E
102
{ACAD_REACTORS
330
C
102
}
100
AcDbDictionary
281
1
  3
Normal
350
F
100
AcDbDictionaryWithDefault
340
F
  0
DICTIONARY
  5
17
102
{ACAD_REACTORS
330
C
102
}
100
AcDbDictionary
280
0
281
1
  3
Standard
350
18
  0
DICTIONARY
  5
19
102
{ACAD_REACTORS
330
C
102
}
100
AcDbDictionary
281
1
  0
DICTIONARY
  5
1A
102
{ACAD_REACTORS
330
C
102
}
100
AcDbDictionary
281
1
  3
Model
350
24D
  3
Layout1
350
24E
  0
ACDBPLACEHOLDER
  5
F
102
{ACAD_REACTORS
330
E
102
}
  0
MLINESTYLE
  5
18
102
{ACAD_REACTORS
330
17
102
}
100
AcDbMlineStyle
  2
STANDARD
 70
0
  3

 62
256
 51
90.0
 52
90.0
 71
2
 49
0.5
 62
256
  6
BYLAYER
 49
-0.5
 62
256
  6
BYLAYER
  0
LAYOUT
  5
24D
102
{ACAD_REACTORS
330
1A
102
}
100
AcDbPlotSettings
  1

  2
none_device
  4

  6

 40
0.0
 41
0.0
 42
0.0
 43
0.0
 44
210.0
 45
297.0
 46
0.0
 47
0.0
 48
0.0
 49
0.0
140
0.0
141
0.0
142
1.0
143
1.0
 70
1024
 72
1
 73
0
 74
0
  7

 75
0
147
1.0
148
0.0
149
0.0
100
AcDbLayout
  1
Model
 70
0
 71
0
 10
0.0
 20
0.0
 11
210.0
 21
297.0
 12
0.0
 22
0.0
 32
0.0
 14
0.0
 24
0.0
 34
0.0
 15
0.0
 25
0.0
 35
0.0
146
0.0
 13
0.0
 23
0.0
 33
0.0
 16
1.0
 26
0.0
 36
0.0
 17
0.0
 27
1.0
 37
0.0
 76
0
330
210
345
0
346
0
  0
LAYOUT
  5
24E
102
{ACAD_REACTORS
330
1A
102
}
100
AcDbPlotSettings
  1

  2
none_device
  4

  6

 40
0.0
 41
0.0
 42
0.0
 43
0.0
 44
210.0
 45
297.0
 46
0.0
 47
0.0
 48
0.0
 49
0.0
140
0.0
141
0.0
142
1.0
143
1.0
 70
0
 72
1
 73
0
 74
0
  7

 75
0
147
1.0
148
0.0
149
0.0
100
AcDbLayout
  1
Layout1
 70
0
 71
1
 10
0.0
 20
0.0
 11
210.0
 21
297.0
 12
0.0
 22
0.0
 32
0.0
 14
0.0
 24
0.0
 34
0.0
 15
0.0
 25
0.0
 35
0.0
146
0.0
 13
0.0
 23
0.0
 33
0.0
 16
1.0
 26
0.0
 36
0.0
 17
0.0
 27
1.0
 37
0.0
 76
0
330
211
345
0
346
0
  0
ENDSEC
  0
EOF
