999
DXF file: C:\Users\sesa63760\Dev\_Creo\CAD\MCADID0003992_3D-CAD\drw0001_2.dxf
999
Pro/ENGINEER 2019471 by Parametric Technology Corporation
  0
SECTION
  2
HEADER
  9
$ACADVER
  1
AC1024
  9
$DWGCODEPAGE
  3
ANSI_1252
  9
$EXTMAX
 10
78.0304130631
 20
110.3572984749
 30
0.0
  9
$EXTMIN
 10
0.0
 20
0.0
 30
0.0
  9
$LIMMIN
 10
0.0
 20
0.0
  9
$LIMMAX
 10
78.0304130631
 20
110.3572984749
  9
$VIEWCTR
 10
39.0152065315
 20
55.1786492375
  9
$VIEWSIZE
 40
110.3572984749
  9
$CLAYER
  8
0
  9
$LTSCALE
 40
7.1936609376
  9
$CELTYPE
  6
BYLAYER
  9
$DIMSCALE
 40
1.0
  9
$DIMASZ
 40
0.9289334888
  9
$DIMEXO
 40
1.0
  9
$DIMDLI
 40
4.9701657387
  9
$DIMEXE
 40
1.0
  9
$DIMCEN
 40
1.1771445171
  9
$DIMLFAC
 40
1.0
  9
$DIMBLK
  1
_FILLED
  9
$DIMALT
 70
0
  9
$DIMALTF
 40
0.0393700787
  9
$DIMTXT
 40
1.3005068844
  9
$DIMTOL
 70
1
  9
$DIMLIM
 70
0
  9
$DIMTFAC
 40
1.0
  9
$DIMTP
 40
0.01
  9
$DIMTM
 40
0.01
  9
$DIMGAP
 40
0.625
  9
$DIMDSEP
 70
46
  9
$AUNITS
 70
0
  9
$PDMODE
 70
3
  9
$PDSIZE
 40
0.3125
  9
$HANDSEED
  5
26E
  9
$TILEMODE
 70
1
  9
$MEASUREMENT
 70
1
  9
$INSUNITS
 70
4
  0
ENDSEC
  0
SECTION
  2
CLASSES
  0
CLASS
  1
ACDBDICTIONARYWDFLT
  2
AcDbDictionaryWithDefault
  3
AutoCAD 2000
 90
0
 91
1
280
0
281
0
  0
CLASS
  1
ACDBPLACEHOLDER
  2
AcDbPlaceHolder
  3
AutoCAD 2000
 90
0
 91
1
280
0
281
0
  0
CLASS
  1
LAYOUT
  2
AcDbLayout
  3
AutoCAD 2000
 90
0
 91
0
280
0
281
0
  0
ENDSEC
  0
SECTION
  2
TABLES
  0
TABLE
  2
VPORT
  5
8
100
AcDbSymbolTable
 70
2
  0
VPORT
  5
1F4
100
AcDbSymbolTableRecord
100
AcDbViewportTableRecord
  2
*ACTIVE
 70
0
 10
0.0
 20
0.0
 11
1.0
 21
1.0
 12
39.0152065315
 22
55.1786492375
 13
0.0
 23
0.0
 14
1.0
 24
1.0
 15
0.0
 25
0.0
 16
0.0
 26
0.0
 36
1.0
 17
0.0
 27
0.0
 37
0.0
 40
110.3572984749
 41
0.7070707071
 42
50.0
 43
0.0
 44
0.0
 50
0.0
 51
0.0
 71
0
 72
100
 73
1
 74
1
 75
0
 76
0
 77
0
 78
0
  0
ENDTAB
  0
TABLE
  2
LTYPE
  5
5
100
AcDbSymbolTable
 70
6
  0
LTYPE
  5
14
100
AcDbSymbolTableRecord
100
AcDbLinetypeTableRecord
  2
BYBLOCK
 70
0
  3

 72
65
 73
0
 40
0.0
  0
LTYPE
  5
15
100
AcDbSymbolTableRecord
100
AcDbLinetypeTableRecord
  2
BYLAYER
 70
0
  3

 72
65
 73
0
 40
0.0
  0
LTYPE
  5
16
100
AcDbSymbolTableRecord
100
AcDbLinetypeTableRecord
  2
CONTINUOUS
 70
64
  3
Solid line
 72
65
 73
0
 40
0.0
  0
LTYPE
  5
1F5
100
AcDbSymbolTableRecord
100
AcDbLinetypeTableRecord
  2
CENTER
 70
64
  3
____ _ ____ _ ____ _ ____ _ ____ _ ____ _ ____
 72
65
 73
4
 40
0.6
 49
0.375
 74
0
 49
-0.075
 74
0
 49
0.075
 74
0
 49
-0.075
 74
0
  0
LTYPE
  5
1F6
100
AcDbSymbolTableRecord
100
AcDbLinetypeTableRecord
  2
HIDDEN
 70
64
  3
- - - - - - - - - - - - - - - - - - - -
 72
65
 73
2
 40
0.2
 49
0.1
 74
0
 49
-0.1
 74
0
  0
LTYPE
  5
1F7
100
AcDbSymbolTableRecord
100
AcDbLinetypeTableRecord
  2
PHANTOM
 70
64
  3
_____ _ _ _____ _ _ _____ _ _ _____
 72
65
 73
6
 40
0.8
 49
0.45
 74
0
 49
-0.05
 74
0
 49
0.1
 74
0
 49
-0.05
 74
0
 49
0.1
 74
0
 49
-0.05
 74
0
  0
LTYPE
  5
1F8
100
AcDbSymbolTableRecord
100
AcDbLinetypeTableRecord
  2
DOT
 70
64
  3
. . . . . . . . . . . . . . . . . . . .
 72
65
 73
2
 40
0.2
 49
0.1
 74
0
 49
-0.1
 74
0
  0
LTYPE
  5
1F9
100
AcDbSymbolTableRecord
100
AcDbLinetypeTableRecord
  2
DASHED
 70
64
  3
- - - - - - - - - - - - - - - - - - - -
 72
65
 73
2
 40
0.2
 49
0.1
 74
0
 49
-0.1
 74
0
  0
ENDTAB
  0
TABLE
  2
LAYER
  5
2
100
AcDbSymbolTable
 70
36
  0
LAYER
  5
10
100
AcDbSymbolTableRecord
100
AcDbLayerTableRecord
  2
0
 70
0
 62
7
  6
CONTINUOUS
370
-3
390
F
  0
LAYER
  5
1FA
100
AcDbSymbolTableRecord
100
AcDbLayerTableRecord
  2
DEFAULT_1
 70
0
 62
7
  6
CENTER
370
-3
390
F
  0
LAYER
  5
1FB
100
AcDbSymbolTableRecord
100
AcDbLayerTableRecord
  2
DEFAULT_2
 70
0
 62
7
  6
HIDDEN
370
-3
390
F
  0
LAYER
  5
1FC
100
AcDbSymbolTableRecord
100
AcDbLayerTableRecord
  2
DEFAULT_3
 70
0
 62
7
  6
PHANTOM
370
-3
390
F
  0
LAYER
  5
1FD
100
AcDbSymbolTableRecord
100
AcDbLayerTableRecord
  2
00_COMPONENTS
 70
0
 62
7
  6
CONTINUOUS
370
-3
390
F
  0
LAYER
  5
1FE
100
AcDbSymbolTableRecord
100
AcDbLayerTableRecord
  2
01_1_DEFAULT_DATUMS
 70
0
 62
7
  6
CONTINUOUS
370
-3
390
F
  0
LAYER
  5
1FF
100
AcDbSymbolTableRecord
100
AcDbLayerTableRecord
  2
01_PLANES
 70
0
 62
7
  6
CONTINUOUS
370
-3
390
F
  0
LAYER
  5
200
100
AcDbSymbolTableRecord
100
AcDbLayerTableRecord
  2
02_COORD_SYS
 70
0
 62
7
  6
CONTINUOUS
370
-3
390
F
  0
LAYER
  5
201
100
AcDbSymbolTableRecord
100
AcDbLayerTableRecord
  2
03_AXES
 70
0
 62
7
  6
CONTINUOUS
370
-3
390
F
  0
LAYER
  5
202
100
AcDbSymbolTableRecord
100
AcDbLayerTableRecord
  2
04_POINTS
 70
0
 62
7
  6
CONTINUOUS
370
-3
390
F
  0
LAYER
  5
203
100
AcDbSymbolTableRecord
100
AcDbLayerTableRecord
  2
05_CURVES
 70
0
 62
7
  6
CONTINUOUS
370
-3
390
F
  0
LAYER
  5
204
100
AcDbSymbolTableRecord
100
AcDbLayerTableRecord
  2
06_SURFS
 70
0
 62
7
  6
CONTINUOUS
370
-3
390
F
  0
LAYER
  5
205
100
AcDbSymbolTableRecord
100
AcDbLayerTableRecord
  2
07_COSMETICS
 70
0
 62
7
  6
CONTINUOUS
370
-3
390
F
  0
LAYER
  5
206
100
AcDbSymbolTableRecord
100
AcDbLayerTableRecord
  2
10_NOTES
 70
0
 62
7
  6
CONTINUOUS
370
-3
390
F
  0
LAYER
  5
207
100
AcDbSymbolTableRecord
100
AcDbLayerTableRecord
  2
11_NOTES_PUB
 70
0
 62
7
  6
CONTINUOUS
370
-3
390
F
  0
LAYER
  5
208
100
AcDbSymbolTableRecord
100
AcDbLayerTableRecord
  2
13_REF_GTOL
 70
0
 62
7
  6
CONTINUOUS
370
-3
390
F
  0
LAYER
  5
209
100
AcDbSymbolTableRecord
100
AcDbLayerTableRecord
  2
16_MISC
 70
0
 62
7
  6
CONTINUOUS
370
-3
390
F
  0
LAYER
  5
20A
100
AcDbSymbolTableRecord
100
AcDbLayerTableRecord
  2
17_NO_PRINT
 70
0
 62
7
  6
CONTINUOUS
370
-3
390
F
  0
LAYER
  5
20B
100
AcDbSymbolTableRecord
100
AcDbLayerTableRecord
  2
18_DATUM_CAMS_JOINTS
 70
0
 62
7
  6
CONTINUOUS
370
-3
390
F
  0
LAYER
  5
20C
100
AcDbSymbolTableRecord
100
AcDbLayerTableRecord
  2
19_DATUM_FUNCTIONAL
 70
0
 62
7
  6
CONTINUOUS
370
-3
390
F
  0
LAYER
  5
20D
100
AcDbSymbolTableRecord
100
AcDbLayerTableRecord
  2
20_DATUM_KINEMATIC_SCHEME
 70
0
 62
7
  6
CONTINUOUS
370
-3
390
F
  0
ENDTAB
  0
TABLE
  2
STYLE
  5
3
100
AcDbSymbolTable
 70
1
  0
STYLE
  5
11
100
AcDbSymbolTableRecord
100
AcDbTextStyleTableRecord
  2
STANDARD
 70
0
 40
0.0
 41
1.0
 50
0.0
 71
0
 42
0.2
  3
ARIAL.TTF
  4

  0
STYLE
  5
20E
100
AcDbSymbolTableRecord
100
AcDbTextStyleTableRecord
  2
TEXTSTYLE_1
 70
0
 40
0.0
 41
0.8
 50
0.0
 71
0
 42
0.2
  3
gdt
  4

  0
ENDTAB
  0
TABLE
  2
VIEW
  5
6
100
AcDbSymbolTable
 70
0
  0
ENDTAB
  0
TABLE
  2
UCS
  5
7
100
AcDbSymbolTable
 70
0
  0
ENDTAB
  0
TABLE
  2
APPID
  5
9
100
AcDbSymbolTable
 70
1
  0
APPID
  5
20F
100
AcDbSymbolTableRecord
100
AcDbRegAppTableRecord
  2
ACAD
 70
0
  0
ENDTAB
  0
TABLE
  2
BLOCK_RECORD
  5
1
100
AcDbSymbolTable
 70
0
  0
BLOCK_RECORD
  5
210
100
AcDbSymbolTableRecord
100
AcDbBlockTableRecord
  2
*Model_Space
  0
BLOCK_RECORD
  5
211
100
AcDbSymbolTableRecord
100
AcDbBlockTableRecord
  2
*Paper_Space
  0
BLOCK_RECORD
  5
212
100
AcDbSymbolTableRecord
100
AcDbBlockTableRecord
  2
_FILLED
  0
ENDTAB
  0
TABLE
  2
DIMSTYLE
  5
A
100
AcDbSymbolTable
 70
1
100
AcDbDimStyleTable
 71
0
  0
DIMSTYLE
105
213
100
AcDbSymbolTableRecord
100
AcDbDimStyleTableRecord
  2
STANDARD
 70
0
  3

  4

 40
1.0
 41
0.9289334888
 42
1.0
 43
0.38
 44
1.0
 45
0.0
 46
0.0
 47
0.01
 48
0.01
140
1.3005068844
141
0.09
142
0.0
143
25.4
144
1.0
145
0.0
146
1.0
147
0.625
 71
1
 72
0
 73
0
 74
0
 75
0
 76
0
 77
1
 78
8
 79
2
170
0
171
1
172
0
173
0
174
0
175
0
176
0
177
0
178
0
270
2
179
2
271
2
272
2
273
2
274
2
275
0
280
0
281
0
282
0
283
1
284
8
285
0
286
0
287
3
288
0
340
11
278
46
341
212
342
212
343
212
344
212
  0
ENDTAB
  0
ENDSEC
  0
SECTION
  2
BLOCKS
  0
BLOCK
  5
20
100
AcDbEntity
  8
0
100
AcDbBlockBegin
  2
*Model_Space
 70
0
 10
0.0
 20
0.0
 30
0.0
  3
*Model_Space
  1

  0
ENDBLK
  5
21
100
AcDbEntity
  8
0
100
AcDbBlockEnd
  0
BLOCK
  5
1C
100
AcDbEntity
  8
0
100
AcDbBlockBegin
  2
*Paper_Space
 70
0
 10
0.0
 20
0.0
 30
0.0
  3
*Paper_Space
  1

  0
ENDBLK
  5
1D
100
AcDbEntity
  8
0
100
AcDbBlockEnd
  0
BLOCK
  5
214
100
AcDbEntity
  8
0
100
AcDbBlockBegin
  2
_FILLED
 70
64
 10
0.0
 20
0.0
  3
_FILLED
  1

  0
SOLID
  5
215
100
AcDbEntity
  8
0
  6
BYBLOCK
 62
0
100
AcDbTrace
 10
0.0
 20
0.0
 11
-1.0
 21
0.25
 12
-1.0
 22
-0.25
 13
-1.0
 23
-0.25
  0
ENDBLK
  5
216
100
AcDbEntity
  8
0
  6
BYBLOCK
 62
0
100
AcDbBlockEnd
  0
ENDSEC
  0
SECTION
  2
ENTITIES
  0
LINE
  5
217
100
AcDbEntity
  8
0
100
AcDbLine
 62
7
  6
BYLAYER
 10
8.5555115424
 20
49.8760348584
 11
8.5555115424
 21
60.0760348584
  0
LINE
  5
218
100
AcDbEntity
  8
0
100
AcDbLine
 62
7
  6
BYLAYER
 10
9.4555115424
 20
48.9760348584
 11
9.4555115424
 21
60.9760348584
  0
LINE
  5
219
100
AcDbEntity
  8
0
100
AcDbLine
 62
7
  6
BYLAYER
 10
8.5555115424
 20
60.0760348584
 11
9.4555115424
 21
60.9760348584
  0
LINE
  5
21A
100
AcDbEntity
  8
0
100
AcDbLine
 62
7
  6
BYLAYER
 10
9.4555115424
 20
48.9760348584
 11
8.5555115424
 21
49.8760348584
  0
LINE
  5
21B
100
AcDbEntity
  8
0
100
AcDbLine
 62
7
  6
BYLAYER
 10
17.4215115424
 20
46.7610348584
 11
17.4215115424
 21
63.1910348584
  0
LINE
  5
21C
100
AcDbEntity
  8
0
100
AcDbLine
 62
7
  6
BYLAYER
 10
18.0118521927
 20
45.7385348584
 11
18.0118521927
 21
45.7494583062
  0
LINE
  5
21D
100
AcDbEntity
  8
0
100
AcDbLine
 62
7
  6
BYLAYER
 10
18.0118521927
 20
49.9738140264
 11
18.0118521927
 21
50.7516791383
  0
LINE
  5
21E
100
AcDbEntity
  8
0
100
AcDbLine
 62
7
  6
BYLAYER
 10
18.0118521927
 20
59.2003905785
 11
18.0118521927
 21
59.9782556904
  0
LINE
  5
21F
100
AcDbEntity
  8
0
100
AcDbLine
 62
7
  6
BYLAYER
 10
18.0118521927
 20
64.2026114105
 11
18.0118521927
 21
64.2135348584
  0
LINE
  5
220
100
AcDbEntity
  8
0
100
AcDbLine
 62
7
  6
BYLAYER
 10
18.0118521927
 20
64.2135348584
 11
17.4215115424
 21
63.1910348584
  0
LINE
  5
221
100
AcDbEntity
  8
0
100
AcDbLine
 62
7
  6
BYLAYER
 10
17.4215115424
 20
46.7610348584
 11
18.0118521927
 21
45.7385348584
  0
LINE
  5
222
100
AcDbEntity
  8
0
100
AcDbLine
 62
7
  6
BYLAYER
 10
18.8981708922
 20
64.2135348584
 11
18.8981708922
 21
64.2026114105
  0
LINE
  5
223
100
AcDbEntity
  8
0
100
AcDbLine
 62
7
  6
BYLAYER
 10
18.8981708922
 20
59.9782556904
 11
18.8981708922
 21
59.2003905785
  0
LINE
  5
224
100
AcDbEntity
  8
0
100
AcDbLine
 62
7
  6
BYLAYER
 10
18.8981708922
 20
50.7516791383
 11
18.8981708922
 21
49.9738140264
  0
LINE
  5
225
100
AcDbEntity
  8
0
100
AcDbLine
 62
7
  6
BYLAYER
 10
18.8981708922
 20
45.7494583062
 11
18.8981708922
 21
45.7385348584
  0
LINE
  5
226
100
AcDbEntity
  8
0
100
AcDbLine
 62
7
  6
BYLAYER
 10
19.4885115424
 20
63.1910348584
 11
19.4885115424
 21
46.7610348584
  0
LINE
  5
227
100
AcDbEntity
  8
0
100
AcDbLine
 62
7
  6
BYLAYER
 10
22.4885115424
 20
46.7610348584
 11
22.4885115424
 21
63.1910348584
  0
LINE
  5
228
100
AcDbEntity
  8
0
100
AcDbLine
 62
7
  6
BYLAYER
 10
23.0788521927
 20
64.2135348584
 11
22.4885115424
 21
63.1910348584
  0
LINE
  5
229
100
AcDbEntity
  8
0
100
AcDbLine
 62
7
  6
BYLAYER
 10
22.4885115424
 20
46.7610348584
 11
23.0788521927
 21
45.7385348584
  0
LINE
  5
22A
100
AcDbEntity
  8
0
100
AcDbLine
 62
7
  6
BYLAYER
 10
23.0788521927
 20
45.7385348584
 11
23.0788521927
 21
45.7494583062
  0
LINE
  5
22B
100
AcDbEntity
  8
0
100
AcDbLine
 62
7
  6
BYLAYER
 10
23.0788521927
 20
49.9738140264
 11
23.0788521927
 21
50.7516791383
  0
LINE
  5
22C
100
AcDbEntity
  8
0
100
AcDbLine
 62
7
  6
BYLAYER
 10
23.0788521927
 20
59.2003905785
 11
23.0788521927
 21
59.9782556904
  0
LINE
  5
22D
100
AcDbEntity
  8
0
100
AcDbLine
 62
7
  6
BYLAYER
 10
23.0788521927
 20
64.2026114105
 11
23.0788521927
 21
64.2135348584
  0
LINE
  5
22E
100
AcDbEntity
  8
0
100
AcDbLine
 62
7
  6
BYLAYER
 10
23.9651708922
 20
64.2135348584
 11
23.9651708922
 21
64.2026114105
  0
LINE
  5
22F
100
AcDbEntity
  8
0
100
AcDbLine
 62
7
  6
BYLAYER
 10
23.9651708922
 20
59.9782556904
 11
23.9651708922
 21
59.2003905785
  0
LINE
  5
230
100
AcDbEntity
  8
0
100
AcDbLine
 62
7
  6
BYLAYER
 10
23.9651708922
 20
50.7516791383
 11
23.9651708922
 21
49.9738140264
  0
LINE
  5
231
100
AcDbEntity
  8
0
100
AcDbLine
 62
7
  6
BYLAYER
 10
23.9651708922
 20
45.7494583062
 11
23.9651708922
 21
45.7385348584
  0
LINE
  5
232
100
AcDbEntity
  8
0
100
AcDbLine
 62
7
  6
BYLAYER
 10
24.5555115424
 20
63.1910348584
 11
24.5555115424
 21
46.7610348584
  0
LINE
  5
233
100
AcDbEntity
  8
0
100
AcDbLine
 62
7
  6
BYLAYER
 10
18.8981708922
 20
45.7385348584
 11
19.4885115424
 21
46.7610348584
  0
LINE
  5
234
100
AcDbEntity
  8
0
100
AcDbLine
 62
7
  6
BYLAYER
 10
19.4885115424
 20
63.1910348584
 11
18.8981708922
 21
64.2135348584
  0
LINE
  5
235
100
AcDbEntity
  8
0
100
AcDbLine
 62
7
  6
BYLAYER
 10
23.9651708922
 20
45.7385348584
 11
24.5555115424
 21
46.7610348584
  0
LINE
  5
236
100
AcDbEntity
  8
0
100
AcDbLine
 62
7
  6
BYLAYER
 10
18.0118521927
 20
45.7385348584
 11
18.8981708922
 21
45.7385348584
  0
LINE
  5
237
100
AcDbEntity
  8
0
100
AcDbLine
 62
7
  6
BYLAYER
 10
23.0788521927
 20
45.7385348584
 11
23.9651708922
 21
45.7385348584
  0
LINE
  5
238
100
AcDbEntity
  8
0
100
AcDbLine
 62
7
  6
BYLAYER
 10
23.9651708922
 20
45.7494583062
 11
23.0788521927
 21
45.7494583062
  0
LINE
  5
239
100
AcDbEntity
  8
0
100
AcDbLine
 62
7
  6
BYLAYER
 10
18.8981708922
 20
45.7494583062
 11
18.0118521927
 21
45.7494583062
  0
LINE
  5
23A
100
AcDbEntity
  8
0
100
AcDbLine
 62
7
  6
BYLAYER
 10
24.5555115424
 20
63.1910348584
 11
23.9651708922
 21
64.2135348584
  0
LINE
  5
23B
100
AcDbEntity
  8
0
100
AcDbLine
 62
7
  6
BYLAYER
 10
49.6555115424
 20
48.9760348584
 11
24.5555115424
 21
48.9760348584
  0
LINE
  5
23C
100
AcDbEntity
  8
0
100
AcDbLine
 62
7
  6
BYLAYER
 10
22.4885115424
 20
48.9760348584
 11
19.4885115424
 21
48.9760348584
  0
LINE
  5
23D
100
AcDbEntity
  8
0
100
AcDbLine
 62
7
  6
BYLAYER
 10
17.4215115424
 20
48.9760348584
 11
9.4555115424
 21
48.9760348584
  0
LINE
  5
23E
100
AcDbEntity
  8
0
100
AcDbLine
 62
7
  6
BYLAYER
 10
18.0118521927
 20
49.9738140264
 11
18.8981708922
 21
49.9738140264
  0
LINE
  5
23F
100
AcDbEntity
  8
0
100
AcDbLine
 62
7
  6
BYLAYER
 10
23.0788521927
 20
49.9738140264
 11
23.9651708922
 21
49.9738140264
  0
LINE
  5
240
100
AcDbEntity
  8
0
100
AcDbLine
 62
7
  6
BYLAYER
 10
70.5555115424
 20
49.9760348584
 11
50.5555115424
 21
49.9760348584
  0
LINE
  5
241
100
AcDbEntity
  8
0
100
AcDbLine
 62
7
  6
BYLAYER
 10
23.9651708922
 20
50.7516791383
 11
23.0788521927
 21
50.7516791383
  0
LINE
  5
242
100
AcDbEntity
  8
0
100
AcDbLine
 62
7
  6
BYLAYER
 10
18.8981708922
 20
50.7516791383
 11
18.0118521927
 21
50.7516791383
  0
LINE
  5
243
100
AcDbEntity
  8
0
100
AcDbLine
 62
7
  6
BYLAYER
 10
18.0118521927
 20
59.2003905785
 11
18.8981708922
 21
59.2003905785
  0
LINE
  5
244
100
AcDbEntity
  8
0
100
AcDbLine
 62
7
  6
BYLAYER
 10
23.0788521927
 20
59.2003905785
 11
23.9651708922
 21
59.2003905785
  0
LINE
  5
245
100
AcDbEntity
  8
0
100
AcDbLine
 62
7
  6
BYLAYER
 10
50.5555115424
 20
59.9760348584
 11
70.5555115424
 21
59.9760348584
  0
LINE
  5
246
100
AcDbEntity
  8
0
100
AcDbLine
 62
7
  6
BYLAYER
 10
23.9651708922
 20
59.9782556904
 11
23.0788521927
 21
59.9782556904
  0
LINE
  5
247
100
AcDbEntity
  8
0
100
AcDbLine
 62
7
  6
BYLAYER
 10
18.8981708922
 20
59.9782556904
 11
18.0118521927
 21
59.9782556904
  0
LINE
  5
248
100
AcDbEntity
  8
0
100
AcDbLine
 62
7
  6
BYLAYER
 10
9.4555115424
 20
60.9760348584
 11
17.4215115424
 21
60.9760348584
  0
LINE
  5
249
100
AcDbEntity
  8
0
100
AcDbLine
 62
7
  6
BYLAYER
 10
19.4885115424
 20
60.9760348584
 11
22.4885115424
 21
60.9760348584
  0
LINE
  5
24A
100
AcDbEntity
  8
0
100
AcDbLine
 62
7
  6
BYLAYER
 10
24.5555115424
 20
60.9760348584
 11
49.6555115424
 21
60.9760348584
  0
LINE
  5
24B
100
AcDbEntity
  8
0
100
AcDbLine
 62
7
  6
BYLAYER
 10
49.6555115424
 20
60.9760348584
 11
49.6555115424
 21
48.9760348584
  0
LINE
  5
24C
100
AcDbEntity
  8
0
100
AcDbLine
 62
7
  6
BYLAYER
 10
50.5555115424
 20
60.0760348584
 11
50.5555115424
 21
49.8760348584
  0
LINE
  5
24D
100
AcDbEntity
  8
0
100
AcDbLine
 62
7
  6
BYLAYER
 10
18.0118521927
 20
64.2026114105
 11
18.8981708922
 21
64.2026114105
  0
LINE
  5
24E
100
AcDbEntity
  8
0
100
AcDbLine
 62
7
  6
BYLAYER
 10
23.0788521927
 20
64.2026114105
 11
23.9651708922
 21
64.2026114105
  0
LINE
  5
24F
100
AcDbEntity
  8
0
100
AcDbLine
 62
7
  6
BYLAYER
 10
23.9651708922
 20
64.2135348584
 11
23.0788521927
 21
64.2135348584
  0
LINE
  5
250
100
AcDbEntity
  8
0
100
AcDbLine
 62
7
  6
BYLAYER
 10
18.8981708922
 20
64.2135348584
 11
18.0118521927
 21
64.2135348584
  0
LINE
  5
251
100
AcDbEntity
  8
0
100
AcDbLine
 62
7
  6
BYLAYER
 10
50.5555115424
 20
49.8760348584
 11
49.6555115424
 21
48.9760348584
  0
LINE
  5
252
100
AcDbEntity
  8
0
100
AcDbLine
 62
7
  6
BYLAYER
 10
49.6555115424
 20
60.9760348584
 11
50.5555115424
 21
60.0760348584
  0
LINE
  5
253
100
AcDbEntity
  8
0
100
AcDbLine
 62
7
  6
BYLAYER
 10
70.5555115424
 20
59.9760348584
 11
70.5555115424
 21
49.9760348584
  0
SPLINE
  5
254
100
AcDbEntity
  8
0
100
AcDbSpline
 62
7
  6
BYLAYER
 70
0
 71
3
 72
11
 73
7
 74
0
 42
0.0000001
 43
0.0000001
 44
0.0000000001
 40
0.0
 40
0.0
 40
0.0
 40
0.0
 40
0.2600111873
 40
0.5122785999
 40
0.7580406733
 40
1.0
 40
1.0
 40
1.0
 40
1.0
 10
18.0118521927
 20
45.7494583062
 30
0.0
 10
17.9222486191
 20
45.9191458379
 30
0.0
 10
17.7586466604
 20
46.2606252591
 30
0.0
 10
17.5688462855
 20
46.7881431475
 30
0.0
 10
17.4489299132
 20
47.3225733036
 30
0.0
 10
17.4215115424
 20
47.6830664105
 30
0.0
 10
17.4215115424
 20
47.8616361663
 30
0.0
  0
SPLINE
  5
255
100
AcDbEntity
  8
0
100
AcDbSpline
 62
7
  6
BYLAYER
 70
0
 71
3
 72
13
 73
9
 74
0
 42
0.0000001
 43
0.0000001
 44
0.0000000001
 40
0.0
 40
0.0
 40
0.0
 40
0.0
 40
0.1207700919
 40
0.2420484044
 40
0.3642858592
 40
0.4878721299
 40
0.7400595005
 40
1.0
 40
1.0
 40
1.0
 40
1.0
 10
19.4885115424
 20
47.8616361663
 30
0.0
 10
19.4885115424
 20
47.7724787311
 30
0.0
 10
19.4817882825
 20
47.593716779
 30
0.0
 10
19.4516952869
 20
47.3262450081
 30
0.0
 10
19.4020962268
 20
47.0595807516
 30
0.0
 10
19.3105791786
 20
46.7032570834
 30
0.0
 10
19.1514276208
 20
46.260580612
 30
0.0
 10
18.9877774672
 20
45.9191515218
 30
0.0
 10
18.8981708922
 20
45.7494583062
 30
0.0
  0
SPLINE
  5
256
100
AcDbEntity
  8
0
100
AcDbSpline
 62
7
  6
BYLAYER
 70
0
 71
3
 72
11
 73
7
 74
0
 42
0.0000001
 43
0.0000001
 44
0.0000000001
 40
0.0
 40
0.0
 40
0.0
 40
0.0
 40
0.250003683
 40
0.5000032542
 40
0.7500026326
 40
1.0
 40
1.0
 40
1.0
 40
1.0
 10
18.0118521927
 20
50.7516791383
 30
0.0
 10
17.9208701539
 20
51.0962751617
 30
0.0
 10
17.7552945789
 20
51.7899643572
 30
0.0
 10
17.5668319398
 20
52.8431081347
 30
0.0
 10
17.4484065229
 20
53.9065642915
 30
0.0
 10
17.4215115424
 20
54.6196393856
 30
0.0
 10
17.4215115424
 20
54.9760348584
 30
0.0
  0
SPLINE
  5
257
100
AcDbEntity
  8
0
100
AcDbSpline
 62
7
  6
BYLAYER
 70
0
 71
3
 72
13
 73
9
 74
0
 42
0.0000001
 43
0.0000001
 44
0.0000000001
 40
0.0
 40
0.0
 40
0.0
 40
0.0
 40
0.1207700919
 40
0.2420484044
 40
0.3642858592
 40
0.4878721299
 40
0.7400595005
 40
1.0
 40
1.0
 40
1.0
 40
1.0
 10
17.4215115424
 20
47.8616361663
 30
0.0
 10
17.4215115424
 20
47.9507936015
 30
0.0
 10
17.4282348024
 20
48.1295555536
 30
0.0
 10
17.458327798
 20
48.3970273245
 30
0.0
 10
17.5079268581
 20
48.663691581
 30
0.0
 10
17.5994439062
 20
49.0200152492
 30
0.0
 10
17.758595464
 20
49.4626917206
 30
0.0
 10
17.9222456177
 20
49.8041208108
 30
0.0
 10
18.0118521927
 20
49.9738140264
 30
0.0
  0
SPLINE
  5
258
100
AcDbEntity
  8
0
100
AcDbSpline
 62
7
  6
BYLAYER
 70
0
 71
3
 72
13
 73
9
 74
0
 42
0.0000001
 43
0.0000001
 44
0.0000000001
 40
0.0
 40
0.0
 40
0.0
 40
0.0
 40
0.1207700919
 40
0.2420484044
 40
0.3642858592
 40
0.4878721299
 40
0.7400595005
 40
1.0
 40
1.0
 40
1.0
 40
1.0
 10
17.4215115424
 20
62.0904335505
 30
0.0
 10
17.4215115424
 20
62.1795909857
 30
0.0
 10
17.4282348024
 20
62.3583529378
 30
0.0
 10
17.458327798
 20
62.6258247087
 30
0.0
 10
17.5079268581
 20
62.8924889652
 30
0.0
 10
17.5994439062
 20
63.2488126334
 30
0.0
 10
17.758595464
 20
63.6914891048
 30
0.0
 10
17.9222456177
 20
64.032918195
 30
0.0
 10
18.0118521927
 20
64.2026114105
 30
0.0
  0
SPLINE
  5
259
100
AcDbEntity
  8
0
100
AcDbSpline
 62
7
  6
BYLAYER
 70
0
 71
3
 72
11
 73
7
 74
0
 42
0.0000001
 43
0.0000001
 44
0.0000000001
 40
0.0
 40
0.0
 40
0.0
 40
0.0
 40
0.2600111873
 40
0.5122785999
 40
0.7580406733
 40
1.0
 40
1.0
 40
1.0
 40
1.0
 10
18.8981708922
 20
64.2026114105
 30
0.0
 10
18.9877744658
 20
64.0329238789
 30
0.0
 10
19.1513764245
 20
63.6914444577
 30
0.0
 10
19.3411767993
 20
63.1639265693
 30
0.0
 10
19.4610931717
 20
62.6294964131
 30
0.0
 10
19.4885115424
 20
62.2690033063
 30
0.0
 10
19.4885115424
 20
62.0904335505
 30
0.0
  0
SPLINE
  5
25A
100
AcDbEntity
  8
0
100
AcDbSpline
 62
7
  6
BYLAYER
 70
0
 71
3
 72
11
 73
7
 74
0
 42
0.0000001
 43
0.0000001
 44
0.0000000001
 40
0.0
 40
0.0
 40
0.0
 40
0.0
 40
0.2600111873
 40
0.5122785999
 40
0.7580406733
 40
1.0
 40
1.0
 40
1.0
 40
1.0
 10
18.8981708922
 20
49.9738140264
 30
0.0
 10
18.9877744658
 20
49.8041264947
 30
0.0
 10
19.1513764245
 20
49.4626470735
 30
0.0
 10
19.3411767993
 20
48.9351291851
 30
0.0
 10
19.4610931717
 20
48.400699029
 30
0.0
 10
19.4885115424
 20
48.0402059221
 30
0.0
 10
19.4885115424
 20
47.8616361663
 30
0.0
  0
SPLINE
  5
25B
100
AcDbEntity
  8
0
100
AcDbSpline
 62
7
  6
BYLAYER
 70
0
 71
3
 72
11
 73
7
 74
0
 42
0.0000001
 43
0.0000001
 44
0.0000000001
 40
0.0
 40
0.0
 40
0.0
 40
0.0
 40
0.2499941613
 40
0.4999898134
 40
0.7499912908
 40
1.0
 40
1.0
 40
1.0
 40
1.0
 10
19.4885115424
 20
54.9760348584
 30
0.0
 10
19.4885115424
 20
54.6196439368
 30
0.0
 10
19.4616285114
 20
53.9065769829
 30
0.0
 10
19.3431513706
 20
52.8431355924
 30
0.0
 10
19.1547865045
 20
51.7899694267
 30
0.0
 10
18.989154765
 20
51.0962821084
 30
0.0
 10
18.8981708922
 20
50.7516791383
 30
0.0
  0
SPLINE
  5
25C
100
AcDbEntity
  8
0
100
AcDbSpline
 62
7
  6
BYLAYER
 70
0
 71
3
 72
11
 73
7
 74
0
 42
0.0000001
 43
0.0000001
 44
0.0000000001
 40
0.0
 40
0.0
 40
0.0
 40
0.0
 40
0.2499941613
 40
0.4999898134
 40
0.7499912908
 40
1.0
 40
1.0
 40
1.0
 40
1.0
 10
17.4215115424
 20
54.9760348584
 30
0.0
 10
17.4215115424
 20
55.3324257799
 30
0.0
 10
17.4483945735
 20
56.0454927339
 30
0.0
 10
17.5668717142
 20
57.1089341243
 30
0.0
 10
17.7552365804
 20
58.16210029
 30
0.0
 10
17.9208683198
 20
58.8557876084
 30
0.0
 10
18.0118521927
 20
59.2003905785
 30
0.0
  0
SPLINE
  5
25D
100
AcDbEntity
  8
0
100
AcDbSpline
 62
7
  6
BYLAYER
 70
0
 71
3
 72
11
 73
7
 74
0
 42
0.0000001
 43
0.0000001
 44
0.0000000001
 40
0.0
 40
0.0
 40
0.0
 40
0.0
 40
0.2600111873
 40
0.5122785999
 40
0.7580406733
 40
1.0
 40
1.0
 40
1.0
 40
1.0
 10
18.0118521927
 20
59.9782556904
 30
0.0
 10
17.9222486191
 20
60.147943222
 30
0.0
 10
17.7586466604
 20
60.4894226433
 30
0.0
 10
17.5688462855
 20
61.0169405317
 30
0.0
 10
17.4489299132
 20
61.5513706878
 30
0.0
 10
17.4215115424
 20
61.9118637947
 30
0.0
 10
17.4215115424
 20
62.0904335505
 30
0.0
  0
SPLINE
  5
25E
100
AcDbEntity
  8
0
100
AcDbSpline
 62
7
  6
BYLAYER
 70
0
 71
3
 72
13
 73
9
 74
0
 42
0.0000001
 43
0.0000001
 44
0.0000000001
 40
0.0
 40
0.0
 40
0.0
 40
0.0
 40
0.1207700919
 40
0.2420484044
 40
0.3642858592
 40
0.4878721299
 40
0.7400595005
 40
1.0
 40
1.0
 40
1.0
 40
1.0
 10
19.4885115424
 20
62.0904335505
 30
0.0
 10
19.4885115424
 20
62.0012761153
 30
0.0
 10
19.4817882825
 20
61.8225141631
 30
0.0
 10
19.4516952869
 20
61.5550423922
 30
0.0
 10
19.4020962268
 20
61.2883781357
 30
0.0
 10
19.3105791786
 20
60.9320544676
 30
0.0
 10
19.1514276208
 20
60.4893779962
 30
0.0
 10
18.9877774672
 20
60.147948906
 30
0.0
 10
18.8981708922
 20
59.9782556904
 30
0.0
  0
SPLINE
  5
25F
100
AcDbEntity
  8
0
100
AcDbSpline
 62
7
  6
BYLAYER
 70
0
 71
3
 72
11
 73
7
 74
0
 42
0.0000001
 43
0.0000001
 44
0.0000000001
 40
0.0
 40
0.0
 40
0.0
 40
0.0
 40
0.250003683
 40
0.5000032542
 40
0.7500026326
 40
1.0
 40
1.0
 40
1.0
 40
1.0
 10
18.8981708922
 20
59.2003905785
 30
0.0
 10
18.9891529309
 20
58.8557945551
 30
0.0
 10
19.154728506
 20
58.1621053596
 30
0.0
 10
19.343191145
 20
57.1089615821
 30
0.0
 10
19.461616562
 20
56.0455054253
 30
0.0
 10
19.4885115424
 20
55.3324303311
 30
0.0
 10
19.4885115424
 20
54.9760348584
 30
0.0
  0
SPLINE
  5
260
100
AcDbEntity
  8
0
100
AcDbSpline
 62
7
  6
BYLAYER
 70
0
 71
3
 72
11
 73
7
 74
0
 42
0.0000001
 43
0.0000001
 44
0.0000000001
 40
0.0
 40
0.0
 40
0.0
 40
0.0
 40
0.2600111873
 40
0.5122785999
 40
0.7580406733
 40
1.0
 40
1.0
 40
1.0
 40
1.0
 10
23.0788521927
 20
45.7494583062
 30
0.0
 10
22.9892486191
 20
45.9191458379
 30
0.0
 10
22.8256466604
 20
46.2606252591
 30
0.0
 10
22.6358462855
 20
46.7881431475
 30
0.0
 10
22.5159299132
 20
47.3225733036
 30
0.0
 10
22.4885115424
 20
47.6830664105
 30
0.0
 10
22.4885115424
 20
47.8616361663
 30
0.0
  0
SPLINE
  5
261
100
AcDbEntity
  8
0
100
AcDbSpline
 62
7
  6
BYLAYER
 70
0
 71
3
 72
13
 73
9
 74
0
 42
0.0000001
 43
0.0000001
 44
0.0000000001
 40
0.0
 40
0.0
 40
0.0
 40
0.0
 40
0.1207700919
 40
0.2420484044
 40
0.3642858592
 40
0.4878721299
 40
0.7400595005
 40
1.0
 40
1.0
 40
1.0
 40
1.0
 10
24.5555115424
 20
47.8616361663
 30
0.0
 10
24.5555115424
 20
47.7724787311
 30
0.0
 10
24.5487882825
 20
47.593716779
 30
0.0
 10
24.5186952869
 20
47.3262450081
 30
0.0
 10
24.4690962268
 20
47.0595807516
 30
0.0
 10
24.3775791786
 20
46.7032570834
 30
0.0
 10
24.2184276208
 20
46.260580612
 30
0.0
 10
24.0547774672
 20
45.9191515218
 30
0.0
 10
23.9651708922
 20
45.7494583062
 30
0.0
  0
SPLINE
  5
262
100
AcDbEntity
  8
0
100
AcDbSpline
 62
7
  6
BYLAYER
 70
0
 71
3
 72
11
 73
7
 74
0
 42
0.0000001
 43
0.0000001
 44
0.0000000001
 40
0.0
 40
0.0
 40
0.0
 40
0.0
 40
0.250003683
 40
0.5000032542
 40
0.7500026326
 40
1.0
 40
1.0
 40
1.0
 40
1.0
 10
23.0788521927
 20
50.7516791383
 30
0.0
 10
22.9878701539
 20
51.0962751617
 30
0.0
 10
22.8222945789
 20
51.7899643572
 30
0.0
 10
22.6338319398
 20
52.8431081347
 30
0.0
 10
22.5154065229
 20
53.9065642915
 30
0.0
 10
22.4885115424
 20
54.6196393856
 30
0.0
 10
22.4885115424
 20
54.9760348584
 30
0.0
  0
SPLINE
  5
263
100
AcDbEntity
  8
0
100
AcDbSpline
 62
7
  6
BYLAYER
 70
0
 71
3
 72
13
 73
9
 74
0
 42
0.0000001
 43
0.0000001
 44
0.0000000001
 40
0.0
 40
0.0
 40
0.0
 40
0.0
 40
0.1207700919
 40
0.2420484044
 40
0.3642858592
 40
0.4878721299
 40
0.7400595005
 40
1.0
 40
1.0
 40
1.0
 40
1.0
 10
22.4885115424
 20
47.8616361663
 30
0.0
 10
22.4885115424
 20
47.9507936015
 30
0.0
 10
22.4952348024
 20
48.1295555536
 30
0.0
 10
22.525327798
 20
48.3970273245
 30
0.0
 10
22.5749268581
 20
48.663691581
 30
0.0
 10
22.6664439062
 20
49.0200152492
 30
0.0
 10
22.825595464
 20
49.4626917206
 30
0.0
 10
22.9892456177
 20
49.8041208108
 30
0.0
 10
23.0788521927
 20
49.9738140264
 30
0.0
  0
SPLINE
  5
264
100
AcDbEntity
  8
0
100
AcDbSpline
 62
7
  6
BYLAYER
 70
0
 71
3
 72
13
 73
9
 74
0
 42
0.0000001
 43
0.0000001
 44
0.0000000001
 40
0.0
 40
0.0
 40
0.0
 40
0.0
 40
0.1207700919
 40
0.2420484044
 40
0.3642858592
 40
0.4878721299
 40
0.7400595005
 40
1.0
 40
1.0
 40
1.0
 40
1.0
 10
22.4885115424
 20
62.0904335505
 30
0.0
 10
22.4885115424
 20
62.1795909857
 30
0.0
 10
22.4952348024
 20
62.3583529378
 30
0.0
 10
22.525327798
 20
62.6258247087
 30
0.0
 10
22.5749268581
 20
62.8924889652
 30
0.0
 10
22.6664439062
 20
63.2488126334
 30
0.0
 10
22.825595464
 20
63.6914891048
 30
0.0
 10
22.9892456177
 20
64.032918195
 30
0.0
 10
23.0788521927
 20
64.2026114105
 30
0.0
  0
SPLINE
  5
265
100
AcDbEntity
  8
0
100
AcDbSpline
 62
7
  6
BYLAYER
 70
0
 71
3
 72
11
 73
7
 74
0
 42
0.0000001
 43
0.0000001
 44
0.0000000001
 40
0.0
 40
0.0
 40
0.0
 40
0.0
 40
0.2600111873
 40
0.5122785999
 40
0.7580406733
 40
1.0
 40
1.0
 40
1.0
 40
1.0
 10
23.9651708922
 20
64.2026114105
 30
0.0
 10
24.0547744658
 20
64.0329238789
 30
0.0
 10
24.2183764245
 20
63.6914444577
 30
0.0
 10
24.4081767993
 20
63.1639265693
 30
0.0
 10
24.5280931717
 20
62.6294964131
 30
0.0
 10
24.5555115424
 20
62.2690033063
 30
0.0
 10
24.5555115424
 20
62.0904335505
 30
0.0
  0
SPLINE
  5
266
100
AcDbEntity
  8
0
100
AcDbSpline
 62
7
  6
BYLAYER
 70
0
 71
3
 72
11
 73
7
 74
0
 42
0.0000001
 43
0.0000001
 44
0.0000000001
 40
0.0
 40
0.0
 40
0.0
 40
0.0
 40
0.2600111873
 40
0.5122785999
 40
0.7580406733
 40
1.0
 40
1.0
 40
1.0
 40
1.0
 10
23.9651708922
 20
49.9738140264
 30
0.0
 10
24.0547744658
 20
49.8041264947
 30
0.0
 10
24.2183764245
 20
49.4626470735
 30
0.0
 10
24.4081767993
 20
48.9351291851
 30
0.0
 10
24.5280931717
 20
48.400699029
 30
0.0
 10
24.5555115424
 20
48.0402059221
 30
0.0
 10
24.5555115424
 20
47.8616361663
 30
0.0
  0
SPLINE
  5
267
100
AcDbEntity
  8
0
100
AcDbSpline
 62
7
  6
BYLAYER
 70
0
 71
3
 72
11
 73
7
 74
0
 42
0.0000001
 43
0.0000001
 44
0.0000000001
 40
0.0
 40
0.0
 40
0.0
 40
0.0
 40
0.2499941613
 40
0.4999898134
 40
0.7499912908
 40
1.0
 40
1.0
 40
1.0
 40
1.0
 10
24.5555115424
 20
54.9760348584
 30
0.0
 10
24.5555115424
 20
54.6196439368
 30
0.0
 10
24.5286285114
 20
53.9065769829
 30
0.0
 10
24.4101513706
 20
52.8431355924
 30
0.0
 10
24.2217865045
 20
51.7899694267
 30
0.0
 10
24.056154765
 20
51.0962821084
 30
0.0
 10
23.9651708922
 20
50.7516791383
 30
0.0
  0
SPLINE
  5
268
100
AcDbEntity
  8
0
100
AcDbSpline
 62
7
  6
BYLAYER
 70
0
 71
3
 72
11
 73
7
 74
0
 42
0.0000001
 43
0.0000001
 44
0.0000000001
 40
0.0
 40
0.0
 40
0.0
 40
0.0
 40
0.2499941613
 40
0.4999898134
 40
0.7499912908
 40
1.0
 40
1.0
 40
1.0
 40
1.0
 10
22.4885115424
 20
54.9760348584
 30
0.0
 10
22.4885115424
 20
55.3324257799
 30
0.0
 10
22.5153945735
 20
56.0454927339
 30
0.0
 10
22.6338717142
 20
57.1089341243
 30
0.0
 10
22.8222365804
 20
58.16210029
 30
0.0
 10
22.9878683198
 20
58.8557876084
 30
0.0
 10
23.0788521927
 20
59.2003905785
 30
0.0
  0
SPLINE
  5
269
100
AcDbEntity
  8
0
100
AcDbSpline
 62
7
  6
BYLAYER
 70
0
 71
3
 72
11
 73
7
 74
0
 42
0.0000001
 43
0.0000001
 44
0.0000000001
 40
0.0
 40
0.0
 40
0.0
 40
0.0
 40
0.2600111873
 40
0.5122785999
 40
0.7580406733
 40
1.0
 40
1.0
 40
1.0
 40
1.0
 10
23.0788521927
 20
59.9782556904
 30
0.0
 10
22.9892486191
 20
60.147943222
 30
0.0
 10
22.8256466604
 20
60.4894226433
 30
0.0
 10
22.6358462855
 20
61.0169405317
 30
0.0
 10
22.5159299132
 20
61.5513706878
 30
0.0
 10
22.4885115424
 20
61.9118637947
 30
0.0
 10
22.4885115424
 20
62.0904335505
 30
0.0
  0
SPLINE
  5
26A
100
AcDbEntity
  8
0
100
AcDbSpline
 62
7
  6
BYLAYER
 70
0
 71
3
 72
13
 73
9
 74
0
 42
0.0000001
 43
0.0000001
 44
0.0000000001
 40
0.0
 40
0.0
 40
0.0
 40
0.0
 40
0.1207700919
 40
0.2420484044
 40
0.3642858592
 40
0.4878721299
 40
0.7400595005
 40
1.0
 40
1.0
 40
1.0
 40
1.0
 10
24.5555115424
 20
62.0904335505
 30
0.0
 10
24.5555115424
 20
62.0012761153
 30
0.0
 10
24.5487882825
 20
61.8225141631
 30
0.0
 10
24.5186952869
 20
61.5550423922
 30
0.0
 10
24.4690962268
 20
61.2883781357
 30
0.0
 10
24.3775791786
 20
60.9320544676
 30
0.0
 10
24.2184276208
 20
60.4893779962
 30
0.0
 10
24.0547774672
 20
60.147948906
 30
0.0
 10
23.9651708922
 20
59.9782556904
 30
0.0
  0
SPLINE
  5
26B
100
AcDbEntity
  8
0
100
AcDbSpline
 62
7
  6
BYLAYER
 70
0
 71
3
 72
11
 73
7
 74
0
 42
0.0000001
 43
0.0000001
 44
0.0000000001
 40
0.0
 40
0.0
 40
0.0
 40
0.0
 40
0.250003683
 40
0.5000032542
 40
0.7500026326
 40
1.0
 40
1.0
 40
1.0
 40
1.0
 10
23.9651708922
 20
59.2003905785
 30
0.0
 10
24.0561529309
 20
58.8557945551
 30
0.0
 10
24.221728506
 20
58.1621053596
 30
0.0
 10
24.410191145
 20
57.1089615821
 30
0.0
 10
24.528616562
 20
56.0455054253
 30
0.0
 10
24.5555115424
 20
55.3324303311
 30
0.0
 10
24.5555115424
 20
54.9760348584
 30
0.0
  0
ENDSEC
  0
SECTION
  2
OBJECTS
  0
DICTIONARY
  5
C
100
AcDbDictionary
280
0
281
1
  3
ACAD_GROUP
350
D
  3
ACAD_MLINESTYLE
350
17
  3
ACAD_LAYOUT
350
1A
  3
ACAD_PLOTSETTINGS
350
19
  3
ACAD_PLOTSTYLENAME
350
E
  0
DICTIONARY
  5
D
102
{ACAD_REACTORS
330
C
102
}
100
AcDbDictionary
280
0
281
1
  0
ACDBDICTIONARYWDFLT
  5
E
102
{ACAD_REACTORS
330
C
102
}
100
AcDbDictionary
281
1
  3
Normal
350
F
100
AcDbDictionaryWithDefault
340
F
  0
DICTIONARY
  5
17
102
{ACAD_REACTORS
330
C
102
}
100
AcDbDictionary
280
0
281
1
  3
Standard
350
18
  0
DICTIONARY
  5
19
102
{ACAD_REACTORS
330
C
102
}
100
AcDbDictionary
281
1
  0
DICTIONARY
  5
1A
102
{ACAD_REACTORS
330
C
102
}
100
AcDbDictionary
281
1
  3
Model
350
26C
  3
Layout1
350
26D
  0
ACDBPLACEHOLDER
  5
F
102
{ACAD_REACTORS
330
E
102
}
  0
MLINESTYLE
  5
18
102
{ACAD_REACTORS
330
17
102
}
100
AcDbMlineStyle
  2
STANDARD
 70
0
  3

 62
256
 51
90.0
 52
90.0
 71
2
 49
0.5
 62
256
  6
BYLAYER
 49
-0.5
 62
256
  6
BYLAYER
  0
LAYOUT
  5
26C
102
{ACAD_REACTORS
330
1A
102
}
100
AcDbPlotSettings
  1

  2
none_device
  4

  6

 40
0.0
 41
0.0
 42
0.0
 43
0.0
 44
210.0
 45
297.0
 46
0.0
 47
0.0
 48
0.0
 49
0.0
140
0.0
141
0.0
142
1.0
143
1.0
 70
1024
 72
1
 73
0
 74
0
  7

 75
0
147
1.0
148
0.0
149
0.0
100
AcDbLayout
  1
Model
 70
0
 71
0
 10
0.0
 20
0.0
 11
210.0
 21
297.0
 12
0.0
 22
0.0
 32
0.0
 14
0.0
 24
0.0
 34
0.0
 15
0.0
 25
0.0
 35
0.0
146
0.0
 13
0.0
 23
0.0
 33
0.0
 16
1.0
 26
0.0
 36
0.0
 17
0.0
 27
1.0
 37
0.0
 76
0
330
210
345
0
346
0
  0
LAYOUT
  5
26D
102
{ACAD_REACTORS
330
1A
102
}
100
AcDbPlotSettings
  1

  2
none_device
  4

  6

 40
0.0
 41
0.0
 42
0.0
 43
0.0
 44
210.0
 45
297.0
 46
0.0
 47
0.0
 48
0.0
 49
0.0
140
0.0
141
0.0
142
1.0
143
1.0
 70
0
 72
1
 73
0
 74
0
  7

 75
0
147
1.0
148
0.0
149
0.0
100
AcDbLayout
  1
Layout1
 70
0
 71
1
 10
0.0
 20
0.0
 11
210.0
 21
297.0
 12
0.0
 22
0.0
 32
0.0
 14
0.0
 24
0.0
 34
0.0
 15
0.0
 25
0.0
 35
0.0
146
0.0
 13
0.0
 23
0.0
 33
0.0
 16
1.0
 26
0.0
 36
0.0
 17
0.0
 27
1.0
 37
0.0
 76
0
330
211
345
0
346
0
  0
ENDSEC
  0
EOF
