999
DXF file: C:\Users\sesa63760\Dev\_Creo\CAD\MCADPD0004093_3D-CAD\drw0001_4.dxf
999
Pro/ENGINEER 2019471 by Parametric Technology Corporation
  0
SECTION
  2
HEADER
  9
$ACADVER
  1
AC1024
  9
$DWGCODEPAGE
  3
ANSI_1252
  9
$EXTMAX
 10
74.6995820272
 20
105.6465517241
 30
0.0
  9
$EXTMIN
 10
0.0
 20
0.0
 30
0.0
  9
$LIMMIN
 10
0.0
 20
0.0
  9
$LIMMAX
 10
74.6995820272
 20
105.6465517241
  9
$VIEWCTR
 10
37.3497910136
 20
52.8232758621
  9
$VIEWSIZE
 40
105.6465517241
  9
$CLAYER
  8
0
  9
$LTSCALE
 40
6.8865900383
  9
$CELTYPE
  6
BYLAYER
  9
$DIMSCALE
 40
1.0
  9
$DIMASZ
 40
0.8892807384
  9
$DIMEXO
 40
1.0
  9
$DIMDLI
 40
4.7580076628
  9
$DIMEXE
 40
1.0
  9
$DIMCEN
 40
1.1268965517
  9
$DIMLFAC
 40
1.0
  9
$DIMBLK
  1
_FILLED
  9
$DIMALT
 70
0
  9
$DIMALTF
 40
0.0393700787
  9
$DIMTXT
 40
1.2449930338
  9
$DIMTOL
 70
1
  9
$DIMLIM
 70
0
  9
$DIMTFAC
 40
1.0
  9
$DIMTP
 40
0.01
  9
$DIMTM
 40
0.01
  9
$DIMGAP
 40
0.625
  9
$DIMDSEP
 70
46
  9
$AUNITS
 70
0
  9
$PDMODE
 70
3
  9
$PDSIZE
 40
0.3125
  9
$HANDSEED
  5
2D9
  9
$TILEMODE
 70
1
  9
$MEASUREMENT
 70
1
  9
$INSUNITS
 70
4
  0
ENDSEC
  0
SECTION
  2
CLASSES
  0
CLASS
  1
ACDBDICTIONARYWDFLT
  2
AcDbDictionaryWithDefault
  3
AutoCAD 2000
 90
0
 91
1
280
0
281
0
  0
CLASS
  1
ACDBPLACEHOLDER
  2
AcDbPlaceHolder
  3
AutoCAD 2000
 90
0
 91
1
280
0
281
0
  0
CLASS
  1
LAYOUT
  2
AcDbLayout
  3
AutoCAD 2000
 90
0
 91
0
280
0
281
0
  0
ENDSEC
  0
SECTION
  2
TABLES
  0
TABLE
  2
VPORT
  5
8
100
AcDbSymbolTable
 70
2
  0
VPORT
  5
1F4
100
AcDbSymbolTableRecord
100
AcDbViewportTableRecord
  2
*ACTIVE
 70
0
 10
0.0
 20
0.0
 11
1.0
 21
1.0
 12
37.3497910136
 22
52.8232758621
 13
0.0
 23
0.0
 14
1.0
 24
1.0
 15
0.0
 25
0.0
 16
0.0
 26
0.0
 36
1.0
 17
0.0
 27
0.0
 37
0.0
 40
105.6465517241
 41
0.7070707071
 42
50.0
 43
0.0
 44
0.0
 50
0.0
 51
0.0
 71
0
 72
100
 73
1
 74
1
 75
0
 76
0
 77
0
 78
0
  0
ENDTAB
  0
TABLE
  2
LTYPE
  5
5
100
AcDbSymbolTable
 70
6
  0
LTYPE
  5
14
100
AcDbSymbolTableRecord
100
AcDbLinetypeTableRecord
  2
BYBLOCK
 70
0
  3

 72
65
 73
0
 40
0.0
  0
LTYPE
  5
15
100
AcDbSymbolTableRecord
100
AcDbLinetypeTableRecord
  2
BYLAYER
 70
0
  3

 72
65
 73
0
 40
0.0
  0
LTYPE
  5
16
100
AcDbSymbolTableRecord
100
AcDbLinetypeTableRecord
  2
CONTINUOUS
 70
64
  3
Solid line
 72
65
 73
0
 40
0.0
  0
LTYPE
  5
1F5
100
AcDbSymbolTableRecord
100
AcDbLinetypeTableRecord
  2
CENTER
 70
64
  3
____ _ ____ _ ____ _ ____ _ ____ _ ____ _ ____
 72
65
 73
4
 40
0.6
 49
0.375
 74
0
 49
-0.075
 74
0
 49
0.075
 74
0
 49
-0.075
 74
0
  0
LTYPE
  5
1F6
100
AcDbSymbolTableRecord
100
AcDbLinetypeTableRecord
  2
HIDDEN
 70
64
  3
- - - - - - - - - - - - - - - - - - - -
 72
65
 73
2
 40
0.2
 49
0.1
 74
0
 49
-0.1
 74
0
  0
LTYPE
  5
1F7
100
AcDbSymbolTableRecord
100
AcDbLinetypeTableRecord
  2
PHANTOM
 70
64
  3
_____ _ _ _____ _ _ _____ _ _ _____
 72
65
 73
6
 40
0.8
 49
0.45
 74
0
 49
-0.05
 74
0
 49
0.1
 74
0
 49
-0.05
 74
0
 49
0.1
 74
0
 49
-0.05
 74
0
  0
LTYPE
  5
1F8
100
AcDbSymbolTableRecord
100
AcDbLinetypeTableRecord
  2
DOT
 70
64
  3
. . . . . . . . . . . . . . . . . . . .
 72
65
 73
2
 40
0.2
 49
0.1
 74
0
 49
-0.1
 74
0
  0
LTYPE
  5
1F9
100
AcDbSymbolTableRecord
100
AcDbLinetypeTableRecord
  2
DASHED
 70
64
  3
- - - - - - - - - - - - - - - - - - - -
 72
65
 73
2
 40
0.2
 49
0.1
 74
0
 49
-0.1
 74
0
  0
ENDTAB
  0
TABLE
  2
LAYER
  5
2
100
AcDbSymbolTable
 70
36
  0
LAYER
  5
10
100
AcDbSymbolTableRecord
100
AcDbLayerTableRecord
  2
0
 70
0
 62
7
  6
CONTINUOUS
370
-3
390
F
  0
LAYER
  5
1FA
100
AcDbSymbolTableRecord
100
AcDbLayerTableRecord
  2
DEFAULT_1
 70
0
 62
7
  6
CENTER
370
-3
390
F
  0
LAYER
  5
1FB
100
AcDbSymbolTableRecord
100
AcDbLayerTableRecord
  2
DEFAULT_2
 70
0
 62
7
  6
HIDDEN
370
-3
390
F
  0
LAYER
  5
1FC
100
AcDbSymbolTableRecord
100
AcDbLayerTableRecord
  2
DEFAULT_3
 70
0
 62
7
  6
PHANTOM
370
-3
390
F
  0
LAYER
  5
1FD
100
AcDbSymbolTableRecord
100
AcDbLayerTableRecord
  2
00_COMPONENTS
 70
0
 62
7
  6
CONTINUOUS
370
-3
390
F
  0
LAYER
  5
1FE
100
AcDbSymbolTableRecord
100
AcDbLayerTableRecord
  2
01_1_DEFAULT_DATUMS
 70
0
 62
7
  6
CONTINUOUS
370
-3
390
F
  0
LAYER
  5
1FF
100
AcDbSymbolTableRecord
100
AcDbLayerTableRecord
  2
01_PLANES
 70
0
 62
7
  6
CONTINUOUS
370
-3
390
F
  0
LAYER
  5
200
100
AcDbSymbolTableRecord
100
AcDbLayerTableRecord
  2
02_COORD_SYS
 70
0
 62
7
  6
CONTINUOUS
370
-3
390
F
  0
LAYER
  5
201
100
AcDbSymbolTableRecord
100
AcDbLayerTableRecord
  2
03_AXES
 70
0
 62
7
  6
CONTINUOUS
370
-3
390
F
  0
LAYER
  5
202
100
AcDbSymbolTableRecord
100
AcDbLayerTableRecord
  2
04_POINTS
 70
0
 62
7
  6
CONTINUOUS
370
-3
390
F
  0
LAYER
  5
203
100
AcDbSymbolTableRecord
100
AcDbLayerTableRecord
  2
05_CURVES
 70
0
 62
7
  6
CONTINUOUS
370
-3
390
F
  0
LAYER
  5
204
100
AcDbSymbolTableRecord
100
AcDbLayerTableRecord
  2
06_SURFS
 70
0
 62
7
  6
CONTINUOUS
370
-3
390
F
  0
LAYER
  5
205
100
AcDbSymbolTableRecord
100
AcDbLayerTableRecord
  2
07_COSMETICS
 70
0
 62
7
  6
CONTINUOUS
370
-3
390
F
  0
LAYER
  5
206
100
AcDbSymbolTableRecord
100
AcDbLayerTableRecord
  2
10_NOTES
 70
0
 62
7
  6
CONTINUOUS
370
-3
390
F
  0
LAYER
  5
207
100
AcDbSymbolTableRecord
100
AcDbLayerTableRecord
  2
11_NOTES_PUB
 70
0
 62
7
  6
CONTINUOUS
370
-3
390
F
  0
LAYER
  5
208
100
AcDbSymbolTableRecord
100
AcDbLayerTableRecord
  2
13_REF_GTOL
 70
0
 62
7
  6
CONTINUOUS
370
-3
390
F
  0
LAYER
  5
209
100
AcDbSymbolTableRecord
100
AcDbLayerTableRecord
  2
16_MISC
 70
0
 62
7
  6
CONTINUOUS
370
-3
390
F
  0
LAYER
  5
20A
100
AcDbSymbolTableRecord
100
AcDbLayerTableRecord
  2
17_NO_PRINT
 70
0
 62
7
  6
CONTINUOUS
370
-3
390
F
  0
LAYER
  5
20B
100
AcDbSymbolTableRecord
100
AcDbLayerTableRecord
  2
18_DATUM_CAMS_JOINTS
 70
0
 62
7
  6
CONTINUOUS
370
-3
390
F
  0
LAYER
  5
20C
100
AcDbSymbolTableRecord
100
AcDbLayerTableRecord
  2
19_DATUM_FUNCTIONAL
 70
0
 62
7
  6
CONTINUOUS
370
-3
390
F
  0
LAYER
  5
20D
100
AcDbSymbolTableRecord
100
AcDbLayerTableRecord
  2
20_DATUM_KINEMATIC_SCHEME
 70
0
 62
7
  6
CONTINUOUS
370
-3
390
F
  0
ENDTAB
  0
TABLE
  2
STYLE
  5
3
100
AcDbSymbolTable
 70
1
  0
STYLE
  5
11
100
AcDbSymbolTableRecord
100
AcDbTextStyleTableRecord
  2
STANDARD
 70
0
 40
0.0
 41
1.0
 50
0.0
 71
0
 42
0.2
  3
ARIAL.TTF
  4

  0
STYLE
  5
20E
100
AcDbSymbolTableRecord
100
AcDbTextStyleTableRecord
  2
TEXTSTYLE_1
 70
0
 40
0.0
 41
0.8
 50
0.0
 71
0
 42
0.2
  3
gdt
  4

  0
ENDTAB
  0
TABLE
  2
VIEW
  5
6
100
AcDbSymbolTable
 70
0
  0
ENDTAB
  0
TABLE
  2
UCS
  5
7
100
AcDbSymbolTable
 70
0
  0
ENDTAB
  0
TABLE
  2
APPID
  5
9
100
AcDbSymbolTable
 70
1
  0
APPID
  5
20F
100
AcDbSymbolTableRecord
100
AcDbRegAppTableRecord
  2
ACAD
 70
0
  0
ENDTAB
  0
TABLE
  2
BLOCK_RECORD
  5
1
100
AcDbSymbolTable
 70
0
  0
BLOCK_RECORD
  5
210
100
AcDbSymbolTableRecord
100
AcDbBlockTableRecord
  2
*Model_Space
  0
BLOCK_RECORD
  5
211
100
AcDbSymbolTableRecord
100
AcDbBlockTableRecord
  2
*Paper_Space
  0
BLOCK_RECORD
  5
212
100
AcDbSymbolTableRecord
100
AcDbBlockTableRecord
  2
_FILLED
  0
ENDTAB
  0
TABLE
  2
DIMSTYLE
  5
A
100
AcDbSymbolTable
 70
1
100
AcDbDimStyleTable
 71
0
  0
DIMSTYLE
105
213
100
AcDbSymbolTableRecord
100
AcDbDimStyleTableRecord
  2
STANDARD
 70
0
  3

  4

 40
1.0
 41
0.8892807384
 42
1.0
 43
0.38
 44
1.0
 45
0.0
 46
0.0
 47
0.01
 48
0.01
140
1.2449930338
141
0.09
142
0.0
143
25.4
144
1.0
145
0.0
146
1.0
147
0.625
 71
1
 72
0
 73
0
 74
0
 75
0
 76
0
 77
1
 78
8
 79
2
170
0
171
1
172
0
173
0
174
0
175
0
176
0
177
0
178
0
270
2
179
2
271
2
272
2
273
2
274
2
275
0
280
0
281
0
282
0
283
1
284
8
285
0
286
0
287
3
288
0
340
11
278
46
341
212
342
212
343
212
344
212
  0
ENDTAB
  0
ENDSEC
  0
SECTION
  2
BLOCKS
  0
BLOCK
  5
20
100
AcDbEntity
  8
0
100
AcDbBlockBegin
  2
*Model_Space
 70
0
 10
0.0
 20
0.0
 30
0.0
  3
*Model_Space
  1

  0
ENDBLK
  5
21
100
AcDbEntity
  8
0
100
AcDbBlockEnd
  0
BLOCK
  5
1C
100
AcDbEntity
  8
0
100
AcDbBlockBegin
  2
*Paper_Space
 70
0
 10
0.0
 20
0.0
 30
0.0
  3
*Paper_Space
  1

  0
ENDBLK
  5
1D
100
AcDbEntity
  8
0
100
AcDbBlockEnd
  0
BLOCK
  5
214
100
AcDbEntity
  8
0
100
AcDbBlockBegin
  2
_FILLED
 70
64
 10
0.0
 20
0.0
  3
_FILLED
  1

  0
SOLID
  5
215
100
AcDbEntity
  8
0
  6
BYBLOCK
 62
0
100
AcDbTrace
 10
0.0
 20
0.0
 11
-1.0
 21
0.25
 12
-1.0
 22
-0.25
 13
-1.0
 23
-0.25
  0
ENDBLK
  5
216
100
AcDbEntity
  8
0
  6
BYBLOCK
 62
0
100
AcDbBlockEnd
  0
ENDSEC
  0
SECTION
  2
ENTITIES
  0
LINE
  5
217
100
AcDbEntity
  8
0
100
AcDbLine
 62
7
  6
BYLAYER
 10
8.5174382927
 20
81.3022365892
 11
8.5423583988
 21
61.0298339523
  0
LINE
  5
218
100
AcDbEntity
  8
0
100
AcDbLine
 62
7
  6
BYLAYER
 10
9.4268658517
 20
62.1529253182
 11
9.403186127
 21
81.4164324728
  0
LINE
  5
219
100
AcDbEntity
  8
0
100
AcDbLine
 62
7
  6
BYLAYER
 10
8.3196185998
 20
81.5000562821
 11
8.3196185998
 21
23.4999437179
  0
LINE
  5
21A
100
AcDbEntity
  8
0
100
AcDbLine
 62
7
  6
BYLAYER
 10
8.5596185998
 20
44.2445533131
 11
8.5596185998
 21
61.0298444314
  0
LINE
  5
21B
100
AcDbEntity
  8
0
100
AcDbLine
 62
7
  6
BYLAYER
 10
9.5596185998
 20
61.0298444311
 11
9.5596185998
 21
44.2445533131
  0
LINE
  5
21C
100
AcDbEntity
  8
0
100
AcDbLine
 62
7
  6
BYLAYER
 10
8.5426954966
 20
44.2445533131
 11
8.5174382927
 21
23.6977634108
  0
LINE
  5
21D
100
AcDbEntity
  8
0
100
AcDbLine
 62
7
  6
BYLAYER
 10
9.403186127
 20
23.5835675272
 11
9.4245933247
 21
40.9983690569
  0
LINE
  5
21E
100
AcDbEntity
  8
0
100
AcDbLine
 62
7
  6
BYLAYER
 10
9.8757644238
 20
61.9785550392
 11
9.5596185998
 21
61.0298444311
  0
LINE
  5
21F
100
AcDbEntity
  8
0
100
AcDbLine
 62
7
  6
BYLAYER
 10
9.5173820106
 20
22.6978196929
 11
30.0641634789
 21
22.7230768865
  0
LINE
  5
220
100
AcDbEntity
  8
0
100
AcDbLine
 62
7
  6
BYLAYER
 10
26.8179876567
 20
23.6049747249
 11
9.403186127
 21
23.5835675272
  0
LINE
  5
221
100
AcDbEntity
  8
0
100
AcDbLine
 62
7
  6
BYLAYER
 10
67.3196748819
 20
22.5
 11
9.3195623177
 21
22.5
  0
LINE
  5
222
100
AcDbEntity
  8
0
100
AcDbLine
 62
7
  6
BYLAYER
 10
48.4744028983
 20
22.74
 11
30.0641719129
 21
22.74
  0
LINE
  5
223
100
AcDbEntity
  8
0
100
AcDbLine
 62
7
  6
BYLAYER
 10
30.0641719129
 20
23.74
 11
48.4744028988
 21
23.74
  0
LINE
  5
224
100
AcDbEntity
  8
0
100
AcDbLine
 62
7
  6
BYLAYER
 10
48.4743792256
 20
22.7207423376
 11
67.121855189
 21
22.6978196929
  0
LINE
  5
225
100
AcDbEntity
  8
0
100
AcDbLine
 62
7
  6
BYLAYER
 10
67.2360510726
 20
23.5835675272
 11
51.8037958632
 21
23.6025376717
  0
LINE
  5
226
100
AcDbEntity
  8
0
100
AcDbLine
 62
7
  6
BYLAYER
 10
13.1653666057
 20
59.8282744638
 11
13.4815124297
 21
60.776985072
  0
LINE
  5
227
100
AcDbEntity
  8
0
100
AcDbLine
 62
7
  6
BYLAYER
 10
21.1297136902
 20
69.6899049095
 11
32.8205237376
 21
81.3876466394
  0
LINE
  5
228
100
AcDbEntity
  8
0
100
AcDbLine
 62
7
  6
BYLAYER
 10
14.2177637152
 20
60.3118641529
 11
15.989091534
 21
62.0831915855
  0
LINE
  5
229
100
AcDbEntity
  8
0
100
AcDbLine
 62
7
  6
BYLAYER
 10
30.2936255864
 20
28.6122743622
 11
28.7364270143
 21
30.1694729342
  0
LINE
  5
22A
100
AcDbEntity
  8
0
100
AcDbLine
 62
7
  6
BYLAYER
 10
15.989091534
 20
42.9168084145
 11
14.431892962
 21
44.4740069866
  0
LINE
  5
22B
100
AcDbEntity
  8
0
100
AcDbLine
 62
7
  6
BYLAYER
 10
32.5061798766
 20
76.0943622548
 11
37.682371416
 21
81.2705537943
  0
LINE
  5
22C
100
AcDbEntity
  8
0
100
AcDbLine
 62
7
  6
BYLAYER
 10
29.1220553731
 20
31.2914574869
 11
31.1194050255
 21
31.3943864225
  0
LINE
  5
22D
100
AcDbEntity
  8
0
100
AcDbLine
 62
7
  6
BYLAYER
 10
45.5198321741
 20
31.3943864225
 11
47.5171818265
 21
31.2914574869
  0
LINE
  5
22E
100
AcDbEntity
  8
0
100
AcDbLine
 62
7
  6
BYLAYER
 10
22.2269497484
 20
67.9374871414
 11
23.8990540233
 21
35.4900817963
  0
LINE
  5
22F
100
AcDbEntity
  8
0
100
AcDbLine
 62
7
  6
BYLAYER
 10
29.1220553732
 20
31.2914574842
 11
26.9906966608
 21
72.6507561339
  0
LINE
  5
230
100
AcDbEntity
  8
0
100
AcDbLine
 62
7
  6
BYLAYER
 10
31.1194050263
 20
31.3943864222
 11
28.9880463139
 21
72.753685064
  0
LINE
  5
231
100
AcDbEntity
  8
0
100
AcDbLine
 62
7
  6
BYLAYER
 10
30.0641634789
 20
22.7230768865
 11
30.0641634789
 21
22.7325101976
  0
LINE
  5
232
100
AcDbEntity
  8
0
100
AcDbLine
 62
7
  6
BYLAYER
 10
30.0641719129
 20
23.74
 11
30.0641719129
 21
22.74
  0
LINE
  5
233
100
AcDbEntity
  8
0
100
AcDbLine
 62
7
  6
BYLAYER
 10
8.5596185998
 20
44.2445533131
 11
9.5596185998
 21
44.2445533131
  0
LINE
  5
234
100
AcDbEntity
  8
0
100
AcDbLine
 62
7
  6
BYLAYER
 10
37.6823714163
 20
82.2704975121
 11
37.6823714163
 21
81.2705537943
  0
LINE
  5
235
100
AcDbEntity
  8
0
100
AcDbLine
 62
7
  6
BYLAYER
 10
28.4826687162
 20
22.9967049808
 11
28.7989693555
 21
23.9453639847
  0
LINE
  5
236
100
AcDbEntity
  8
0
100
AcDbLine
 62
7
  6
BYLAYER
 10
31.1194050255
 20
31.3943864224
 11
30.4736459606
 21
29.501506281
  0
LINE
  5
237
100
AcDbEntity
  8
0
100
AcDbLine
 62
7
  6
BYLAYER
 10
47.651190886
 20
72.7536850639
 11
48.4881031987
 21
74.5701590606
  0
LINE
  5
238
100
AcDbEntity
  8
0
100
AcDbLine
 62
7
  6
BYLAYER
 10
22.6057298463
 20
33.964528594
 11
23.8990540235
 21
35.4900817961
  0
LINE
  5
239
100
AcDbEntity
  8
0
100
AcDbLine
 62
7
  6
BYLAYER
 10
67.3196748819
 20
82.5
 11
67.121855189
 21
82.3021803071
  0
LINE
  5
23A
100
AcDbEntity
  8
0
100
AcDbLine
 62
7
  6
BYLAYER
 10
8.5174382927
 20
23.6977634108
 11
8.3196185998
 21
23.4999437179
  0
LINE
  5
23B
100
AcDbEntity
  8
0
100
AcDbLine
 62
7
  6
BYLAYER
 10
55.855576137
 20
69.3220151365
 11
54.4122874508
 21
67.9374871417
  0
LINE
  5
23C
100
AcDbEntity
  8
0
100
AcDbLine
 62
7
  6
BYLAYER
 10
8.8163235806
 20
42.6630501164
 11
9.7649825845
 21
42.9793507557
  0
LINE
  5
23D
100
AcDbEntity
  8
0
100
AcDbLine
 62
7
  6
BYLAYER
 10
67.0901723941
 20
51.8627528162
 11
68.0901161119
 21
51.8627528162
  0
LINE
  5
23E
100
AcDbEntity
  8
0
100
AcDbLine
 62
7
  6
BYLAYER
 10
14.1254525597
 20
59.5485693316
 11
13.1653666057
 21
59.8282744638
  0
LINE
  5
23F
100
AcDbEntity
  8
0
100
AcDbLine
 62
7
  6
BYLAYER
 10
9.5596185998
 20
61.0298444311
 11
13.1653667251
 21
59.828274424
  0
LINE
  5
240
100
AcDbEntity
  8
0
100
AcDbLine
 62
7
  6
BYLAYER
 10
9.8757644238
 20
61.9785550392
 11
13.4815124297
 21
60.7769850719
  0
LINE
  5
241
100
AcDbEntity
  8
0
100
AcDbLine
 62
7
  6
BYLAYER
 10
13.5462234432
 20
60.9021090435
 11
9.9402585696
 21
62.1037512792
  0
LINE
  5
242
100
AcDbEntity
  8
0
100
AcDbLine
 62
7
  6
BYLAYER
 10
22.2269534191
 20
67.9374909679
 11
20.7836650621
 21
69.3220193058
  0
LINE
  5
243
100
AcDbEntity
  8
0
100
AcDbLine
 62
7
  6
BYLAYER
 10
8.3196185998
 20
81.5000562821
 11
8.5174382927
 21
81.3022365892
  0
LINE
  5
244
100
AcDbEntity
  8
0
100
AcDbLine
 62
7
  6
BYLAYER
 10
67.121855189
 20
22.6978196929
 11
67.3196748819
 21
22.5
  0
LINE
  5
245
100
AcDbEntity
  8
0
100
AcDbLine
 62
7
  6
BYLAYER
 10
55.0984338851
 20
32.3775901401
 11
58.1531520197
 21
28.9861724866
  0
LINE
  5
246
100
AcDbEntity
  8
0
100
AcDbLine
 62
7
  6
BYLAYER
 10
55.8414616462
 20
33.0468507367
 11
58.8961802285
 21
29.6554325862
  0
LINE
  5
247
100
AcDbEntity
  8
0
100
AcDbLine
 62
7
  6
BYLAYER
 10
58.9905050508
 20
29.772951013
 11
55.935786468
 21
33.1643691642
  0
LINE
  5
248
100
AcDbEntity
  8
0
100
AcDbLine
 62
7
  6
BYLAYER
 10
52.7401794773
 20
35.4900786604
 11
54.0335033228
 21
33.9645251771
  0
LINE
  5
249
100
AcDbEntity
  8
0
100
AcDbLine
 62
7
  6
BYLAYER
 10
58.7979042854
 20
28.2217805365
 11
58.1531521996
 21
28.9861722868
  0
LINE
  5
24A
100
AcDbEntity
  8
0
100
AcDbLine
 62
7
  6
BYLAYER
 10
55.0984336173
 20
32.3775904373
 11
54.4580208304
 21
33.1456213367
  0
LINE
  5
24B
100
AcDbEntity
  8
0
100
AcDbLine
 62
7
  6
BYLAYER
 10
28.1511339983
 20
74.5701590595
 11
28.9880463412
 21
72.7536850682
  0
LINE
  5
24C
100
AcDbEntity
  8
0
100
AcDbLine
 62
7
  6
BYLAYER
 10
50.3716786163
 20
23.1139493246
 11
49.9922234728
 21
24.0391594596
  0
LINE
  5
24D
100
AcDbEntity
  8
0
100
AcDbLine
 62
7
  6
BYLAYER
 10
46.1655912417
 20
29.5015062819
 11
45.5198321461
 21
31.394386421
  0
LINE
  5
24E
100
AcDbEntity
  8
0
100
AcDbLine
 62
7
  6
BYLAYER
 10
38.9568657836
 20
81.2705537943
 11
38.9568657836
 21
82.2704975121
  0
LINE
  5
24F
100
AcDbEntity
  8
0
100
AcDbLine
 62
7
  6
BYLAYER
 10
9.3195623177
 20
22.5
 11
9.5173820106
 21
22.6978196929
  0
LINE
  5
250
100
AcDbEntity
  8
0
100
AcDbLine
 62
7
  6
BYLAYER
 10
68.1217989068
 20
81.3022365892
 11
68.3196185998
 21
81.5000562821
  0
LINE
  5
251
100
AcDbEntity
  8
0
100
AcDbLine
 62
7
  6
BYLAYER
 10
68.0901161119
 20
53.1372471835
 11
67.0901723941
 21
53.1372471835
  0
LINE
  5
252
100
AcDbEntity
  8
0
100
AcDbLine
 62
7
  6
BYLAYER
 10
68.3196185998
 20
23.4999437179
 11
68.1217989068
 21
23.6977634108
  0
LINE
  5
253
100
AcDbEntity
  8
0
100
AcDbLine
 62
7
  6
BYLAYER
 10
9.5173820106
 20
82.3021803071
 11
9.3195623176
 21
82.5
  0
LINE
  5
254
100
AcDbEntity
  8
0
100
AcDbLine
 62
7
  6
BYLAYER
 10
47.6511908853
 20
72.7536850642
 11
45.5198321737
 21
31.3943864223
  0
LINE
  5
255
100
AcDbEntity
  8
0
100
AcDbLine
 62
7
  6
BYLAYER
 10
9.5596185998
 20
61.0298444311
 11
8.5596185998
 21
61.0298444311
  0
LINE
  5
256
100
AcDbEntity
  8
0
100
AcDbLine
 62
7
  6
BYLAYER
 10
48.4744028988
 20
22.74
 11
48.4744028988
 21
23.74
  0
LINE
  5
257
100
AcDbEntity
  8
0
100
AcDbLine
 62
7
  6
BYLAYER
 10
49.6485405387
 20
72.6507561311
 11
47.5171818262
 21
31.2914574814
  0
LINE
  5
258
100
AcDbEntity
  8
0
100
AcDbLine
 62
7
  6
BYLAYER
 10
52.7401831763
 20
35.4900817964
 11
54.4122874511
 21
67.9374871414
  0
LINE
  5
259
100
AcDbEntity
  8
0
100
AcDbLine
 62
7
  6
BYLAYER
 10
67.0901723941
 20
51.8627528162
 11
61.9139808546
 21
46.6865612768
  0
LINE
  5
25A
100
AcDbEntity
  8
0
100
AcDbLine
 62
7
  6
BYLAYER
 10
47.9028101853
 20
30.1694729342
 11
46.6225551723
 21
28.8892204814
  0
LINE
  5
25B
100
AcDbEntity
  8
0
100
AcDbLine
 62
7
  6
BYLAYER
 10
28.9880463135
 20
72.7536850639
 11
26.9906966611
 21
72.6507561284
  0
LINE
  5
25C
100
AcDbEntity
  8
0
100
AcDbLine
 62
7
  6
BYLAYER
 10
49.6485405385
 20
72.6507561284
 11
47.651190886
 21
72.7536850639
  0
LINE
  5
25D
100
AcDbEntity
  8
0
100
AcDbLine
 62
7
  6
BYLAYER
 10
38.9568657836
 20
81.2705537943
 11
44.133057323
 21
76.0943622548
  0
LINE
  5
25E
100
AcDbEntity
  8
0
100
AcDbLine
 62
7
  6
BYLAYER
 10
61.9139808546
 20
58.3134387232
 11
67.0901723941
 21
53.1372471838
  0
LINE
  5
25F
100
AcDbEntity
  8
0
100
AcDbLine
 62
7
  6
BYLAYER
 10
67.2072652392
 20
47.0009051378
 11
55.5095235093
 21
35.3100950905
  0
LINE
  5
260
100
AcDbEntity
  8
0
100
AcDbLine
 62
7
  6
BYLAYER
 10
55.507651676
 20
69.6880330701
 11
67.2072652392
 21
57.9990948622
  0
LINE
  5
261
100
AcDbEntity
  8
0
100
AcDbLine
 62
7
  6
BYLAYER
 10
43.818713462
 20
81.3876466394
 11
55.507651676
 21
69.6880330701
  0
LINE
  5
262
100
AcDbEntity
  8
0
100
AcDbLine
 62
7
  6
BYLAYER
 10
55.8414616462
 20
33.0468507368
 11
55.0984336173
 21
32.3775904374
  0
LINE
  5
263
100
AcDbEntity
  8
0
100
AcDbLine
 62
7
  6
BYLAYER
 10
67.2072652392
 20
47.0009051378
 11
67.2360510726
 21
23.5835675272
  0
LINE
  5
264
100
AcDbEntity
  8
0
100
AcDbLine
 62
7
  6
BYLAYER
 10
68.1217989068
 20
23.6977634108
 11
68.0930128105
 21
47.1150981578
  0
LINE
  5
265
100
AcDbEntity
  8
0
100
AcDbLine
 62
7
  6
BYLAYER
 10
67.0901723941
 20
51.8627528162
 11
67.0901723941
 21
53.1372471838
  0
LINE
  5
266
100
AcDbEntity
  8
0
100
AcDbLine
 62
7
  6
BYLAYER
 10
68.0901163433
 20
53.1372471884
 11
68.0901162572
 21
51.8627528139
  0
LINE
  5
267
100
AcDbEntity
  8
0
100
AcDbLine
 62
7
  6
BYLAYER
 10
68.3196185998
 20
81.5000562821
 11
68.3196185998
 21
23.4999437179
  0
LINE
  5
268
100
AcDbEntity
  8
0
100
AcDbLine
 62
7
  6
BYLAYER
 10
67.2360510726
 20
81.4164324728
 11
67.2072652392
 21
57.9990948622
  0
LINE
  5
269
100
AcDbEntity
  8
0
100
AcDbLine
 62
7
  6
BYLAYER
 10
68.0930128763
 20
57.8849011266
 11
68.1217989068
 21
81.3022365892
  0
LINE
  5
26A
100
AcDbEntity
  8
0
100
AcDbLine
 62
7
  6
BYLAYER
 10
58.1531521997
 20
28.9861722868
 11
58.8961802285
 21
29.6554325862
  0
LINE
  5
26B
100
AcDbEntity
  8
0
100
AcDbLine
 62
7
  6
BYLAYER
 10
43.818713462
 20
81.3876466394
 11
67.2360510726
 21
81.4164324728
  0
LINE
  5
26C
100
AcDbEntity
  8
0
100
AcDbLine
 62
7
  6
BYLAYER
 10
67.121855189
 20
82.3021803071
 11
43.7045204396
 21
82.273394211
  0
LINE
  5
26D
100
AcDbEntity
  8
0
100
AcDbLine
 62
7
  6
BYLAYER
 10
38.9568657836
 20
81.2705537943
 11
37.682371416
 21
81.2705537943
  0
LINE
  5
26E
100
AcDbEntity
  8
0
100
AcDbLine
 62
7
  6
BYLAYER
 10
37.6823714114
 20
82.2704977435
 11
38.9568657859
 21
82.2704976572
  0
LINE
  5
26F
100
AcDbEntity
  8
0
100
AcDbLine
 62
7
  6
BYLAYER
 10
67.3196748819
 20
82.5
 11
9.3195623177
 21
82.5
  0
LINE
  5
270
100
AcDbEntity
  8
0
100
AcDbLine
 62
7
  6
BYLAYER
 10
9.403186127
 20
81.4164324728
 11
32.8205237376
 21
81.3876466394
  0
LINE
  5
271
100
AcDbEntity
  8
0
100
AcDbLine
 62
7
  6
BYLAYER
 10
32.9347174732
 20
82.2733942765
 11
9.5173820106
 21
82.3021803071
  0
ARC
  5
272
100
AcDbEntity
  8
0
100
AcDbCircle
 62
7
  6
BYLAYER
 10
38.3133915202
 20
52.4929339989
 40
25.0235973324
100
AcDbArc
 50
294.7418526412
 51
299.2619033622
  0
ARC
  5
273
100
AcDbEntity
  8
0
100
AcDbCircle
 62
7
  6
BYLAYER
 10
30.0641719129
 20
27.74
 40
5.0
100
AcDbArc
 50
251.5606499333
 51
270.0
  0
ARC
  5
274
100
AcDbEntity
  8
0
100
AcDbCircle
 62
7
  6
BYLAYER
 10
13.5596185998
 20
44.2445533131
 40
5.0
100
AcDbArc
 50
179.9989471006
 51
198.4393500679
  0
ARC
  5
275
100
AcDbEntity
  8
0
100
AcDbCircle
 62
7
  6
BYLAYER
 10
30.0641719129
 20
27.74
 40
4.0
100
AcDbArc
 50
251.5606499322
 51
270.0
  0
ARC
  5
276
100
AcDbEntity
  8
0
100
AcDbCircle
 62
7
  6
BYLAYER
 10
13.5596185998
 20
44.2445533131
 40
4.0
100
AcDbArc
 50
180.0
 51
198.4393500679
  0
ARC
  5
277
100
AcDbEntity
  8
0
100
AcDbCircle
 62
7
  6
BYLAYER
 10
31.1194050255
 20
31.3943864225
 40
2.0
100
AcDbArc
 50
182.9500000405
 51
251.1628435047
  0
ARC
  5
278
100
AcDbEntity
  8
0
100
AcDbCircle
 62
7
  6
BYLAYER
 10
9.5175707855
 20
23.6979521857
 40
1.0001377295
100
AcDbArc
 50
180.0108145743
 51
269.9891854265
  0
ARC
  5
279
100
AcDbEntity
  8
0
100
AcDbCircle
 62
7
  6
BYLAYER
 10
38.3196060475
 20
52.5000125612
 40
31.8880543675
100
AcDbArc
 50
295.0148027931
 51
310.1429167076
  0
ARC
  5
27A
100
AcDbEntity
  8
0
100
AcDbCircle
 62
7
  6
BYLAYER
 10
38.2593114176
 20
52.5768083464
 40
25.1234602776
100
AcDbArc
 50
304.8635296055
 51
309.8106668784
  0
ARC
  5
27B
100
AcDbEntity
  8
0
100
AcDbCircle
 62
7
  6
BYLAYER
 10
38.2949537804
 20
52.5248600186
 40
25.0604618333
100
AcDbArc
 50
299.2629995622
 51
304.8645579165
  0
ARC
  5
27C
100
AcDbEntity
  8
0
100
AcDbCircle
 62
7
  6
BYLAYER
 10
13.8897813408
 20
68.2299751015
 40
3.1250490545
100
AcDbArc
 50
90.0018308994
 51
269.9981691211
  0
CIRCLE
  5
27D
100
AcDbEntity
  8
0
100
AcDbCircle
 62
7
  6
BYLAYER
 10
13.9696185998
 20
68.15
 40
2.425
  0
ARC
  5
27E
100
AcDbEntity
  8
0
100
AcDbCircle
 62
7
  6
BYLAYER
 10
28.9880463135
 20
72.7536850639
 40
2.0
100
AcDbArc
 50
114.7371564953
 51
182.9499999211
  0
ARC
  5
27F
100
AcDbEntity
  8
0
100
AcDbCircle
 62
7
  6
BYLAYER
 10
9.8464321861
 20
61.0282721119
 40
1.2890547277
100
AcDbArc
 50
168.0855792142
 51
179.1861692528
  0
ARC
  5
280
100
AcDbEntity
  8
0
100
AcDbCircle
 62
7
  6
BYLAYER
 10
9.576468338
 20
61.0114810642
 40
1.1512062756
100
AcDbArc
 50
88.8198915502
 51
97.4668651927
  0
ARC
  5
281
100
AcDbEntity
  8
0
100
AcDbCircle
 62
7
  6
BYLAYER
 10
13.1824953709
 20
59.8111459976
 40
1.1499993383
100
AcDbArc
 50
25.8112028087
 51
71.5615665768
  0
ARC
  5
282
100
AcDbEntity
  8
0
100
AcDbCircle
 62
7
  6
BYLAYER
 10
9.5769947344
 20
61.0133365326
 40
1.1493404631
100
AcDbArc
 50
73.1674781996
 51
88.8442223685
  0
ARC
  5
283
100
AcDbEntity
  8
0
100
AcDbCircle
 62
7
  6
BYLAYER
 10
9.5778531215
 20
61.0169941932
 40
1.145590971
100
AcDbArc
 50
71.5577876097
 51
73.1555969433
  0
ARC
  5
284
100
AcDbEntity
  8
0
100
AcDbCircle
 62
7
  6
BYLAYER
 10
9.5175707855
 20
81.3020478143
 40
1.0001377295
100
AcDbArc
 50
90.0108145721
 51
179.9891854283
  0
ARC
  5
285
100
AcDbEntity
  8
0
100
AcDbCircle
 62
7
  6
BYLAYER
 10
13.1653666057
 20
59.8282744638
 40
1.0
100
AcDbArc
 50
343.7573931288
 51
71.57
  0
ARC
  5
286
100
AcDbEntity
  8
0
100
AcDbCircle
 62
7
  6
BYLAYER
 10
9.5596185998
 20
61.0298444311
 40
1.0
100
AcDbArc
 50
71.5699999988
 51
180.0
  0
ARC
  5
287
100
AcDbEntity
  8
0
100
AcDbCircle
 62
7
  6
BYLAYER
 10
9.557108476
 20
61.2778642993
 40
0.8846813399
100
AcDbArc
 50
98.4658434838
 51
100.8197888584
  0
ARC
  5
288
100
AcDbEntity
  8
0
100
AcDbCircle
 62
7
  6
BYLAYER
 10
38.3256763799
 20
52.4671774197
 40
24.9950635508
100
AcDbArc
 50
289.3870117182
 51
294.7409879316
  0
ARC
  5
289
100
AcDbEntity
  8
0
100
AcDbCircle
 62
7
  6
BYLAYER
 10
48.2008099473
 20
29.3394980969
 40
6.6471921182
100
AcDbArc
 50
289.1834992538
 51
289.4620834904
  0
ARC
  5
28A
100
AcDbEntity
  8
0
100
AcDbCircle
 62
7
  6
BYLAYER
 10
48.4744028988
 20
27.74
 40
5.0
100
AcDbArc
 50
269.9999999943
 51
292.2999370801
  0
ARC
  5
28B
100
AcDbEntity
  8
0
100
AcDbCircle
 62
7
  6
BYLAYER
 10
48.4744028988
 20
27.74
 40
4.0
100
AcDbArc
 50
270.0
 51
292.2999370806
  0
ARC
  5
28C
100
AcDbEntity
  8
0
100
AcDbCircle
 62
7
  6
BYLAYER
 10
45.5198321741
 20
31.3943864225
 40
2.0
100
AcDbArc
 50
288.8371564953
 51
357.0499999212
  0
ARC
  5
28D
100
AcDbEntity
  8
0
100
AcDbCircle
 62
7
  6
BYLAYER
 10
58.1359722301
 20
29.0032359821
 40
1.150072402
100
AcDbArc
 50
312.1573175899
 51
38.7151744967
  0
ARC
  5
28E
100
AcDbEntity
  8
0
100
AcDbCircle
 62
7
  6
BYLAYER
 10
55.0813214682
 20
32.3946660323
 40
1.1500547669
100
AcDbArc
 50
43.0835572013
 51
127.277763981
  0
ARC
  5
28F
100
AcDbEntity
  8
0
100
AcDbCircle
 62
7
  6
BYLAYER
 10
58.1409820245
 20
28.9967370169
 40
1.1418316258
100
AcDbArc
 50
310.155441286
 51
312.1898393169
  0
ARC
  5
290
100
AcDbEntity
  8
0
100
AcDbCircle
 62
7
  6
BYLAYER
 10
58.1433034911
 20
29.0096961991
 40
1.1403106567
100
AcDbArc
 50
38.6922952119
 51
42.0160973454
  0
ARC
  5
291
100
AcDbEntity
  8
0
100
AcDbCircle
 62
7
  6
BYLAYER
 10
55.0744261501
 20
32.4023990204
 40
1.1397245098
100
AcDbArc
 50
127.2373983684
 51
129.8132323331
  0
ARC
  5
292
100
AcDbEntity
  8
0
100
AcDbCircle
 62
7
  6
BYLAYER
 10
55.0930048797
 20
32.4054253128
 40
1.1341413383
100
AcDbArc
 50
42.0037505787
 51
43.0897402333
  0
ARC
  5
293
100
AcDbEntity
  8
0
100
AcDbCircle
 62
7
  6
BYLAYER
 10
67.121666414
 20
23.6979521858
 40
1.0001377296
100
AcDbArc
 50
270.0108145755
 51
359.9891854249
  0
ARC
  5
294
100
AcDbEntity
  8
0
100
AcDbCircle
 62
7
  6
BYLAYER
 10
55.0984336173
 20
32.3775904373
 40
1.0
100
AcDbArc
 50
42.0099999997
 51
129.8226068712
  0
ARC
  5
295
100
AcDbEntity
  8
0
100
AcDbCircle
 62
7
  6
BYLAYER
 10
58.1531521996
 20
28.9861722868
 40
1.0
100
AcDbArc
 50
310.1470906226
 51
42.01
  0
ARC
  5
296
100
AcDbEntity
  8
0
100
AcDbCircle
 62
7
  6
BYLAYER
 10
38.3979717497
 20
56.6108033251
 40
35.6267578881
100
AcDbArc
 50
289.7135951481
 51
292.1040405512
  0
ARC
  5
297
100
AcDbEntity
  8
0
100
AcDbCircle
 62
7
  6
BYLAYER
 10
38.3196185998
 20
52.5
 40
31.7614880782
100
AcDbArc
 50
292.2999370768
 51
310.1470902689
  0
ARC
  5
298
100
AcDbEntity
  8
0
100
AcDbCircle
 62
7
  6
BYLAYER
 10
38.3196185998
 20
52.5
 40
31.1
100
AcDbArc
 50
198.4393500677
 51
251.5606499323
  0
ARC
  5
299
100
AcDbEntity
  8
0
100
AcDbCircle
 62
7
  6
BYLAYER
 10
38.3196185998
 20
52.5
 40
30.7614880782
100
AcDbArc
 50
292.2999370802
 51
310.1470902411
  0
ARC
  5
29A
100
AcDbEntity
  8
0
100
AcDbCircle
 62
7
  6
BYLAYER
 10
38.3196185998
 20
52.5
 40
30.1
100
AcDbArc
 50
198.4393500679
 51
251.5606499321
  0
ARC
  5
29B
100
AcDbEntity
  8
0
100
AcDbCircle
 62
7
  6
BYLAYER
 10
38.3196185998
 20
52.5
 40
26.2
100
AcDbArc
 50
163.7573931393
 51
309.8226069046
  0
ARC
  5
29C
100
AcDbEntity
  8
0
100
AcDbCircle
 62
7
  6
BYLAYER
 10
38.3196185998
 20
52.5
 40
25.2
100
AcDbArc
 50
163.7573931288
 51
309.8226068823
  0
CIRCLE
  5
29D
100
AcDbEntity
  8
0
100
AcDbCircle
 62
7
  6
BYLAYER
 10
38.3196185998
 20
52.5
 40
24.3
  0
ARC
  5
29E
100
AcDbEntity
  8
0
100
AcDbCircle
 62
7
  6
BYLAYER
 10
38.3196185998
 20
52.5
 40
22.3
100
AcDbArc
 50
251.1628435069
 51
288.8371564942
  0
ARC
  5
29F
100
AcDbEntity
  8
0
100
AcDbCircle
 62
7
  6
BYLAYER
 10
38.3196185998
 20
52.5
 40
22.3
100
AcDbArc
 50
65.2628435069
 51
114.7371564942
  0
ARC
  5
2A0
100
AcDbEntity
  8
0
100
AcDbCircle
 62
7
  6
BYLAYER
 10
38.3196185998
 20
52.5
 40
22.3
100
AcDbArc
 50
310.2904078499
 51
43.8095921502
  0
ARC
  5
2A1
100
AcDbEntity
  8
0
100
AcDbCircle
 62
7
  6
BYLAYER
 10
38.3196185998
 20
52.5
 40
22.3
100
AcDbArc
 50
136.1904078499
 51
229.7095921502
  0
ARC
  5
2A2
100
AcDbEntity
  8
0
100
AcDbCircle
 62
7
  6
BYLAYER
 10
47.651190886
 20
72.7536850639
 40
2.0
100
AcDbArc
 50
357.05000004
 51
65.2628435047
  0
ARC
  5
2A3
100
AcDbEntity
  8
0
100
AcDbCircle
 62
7
  6
BYLAYER
 10
67.1216664141
 20
81.3020478143
 40
1.0001377295
100
AcDbArc
 50
0.0108145713
 51
89.9891854295
  0
SPLINE
  5
2A4
100
AcDbEntity
  8
0
100
AcDbSpline
 62
7
  6
BYLAYER
 70
0
 71
3
 72
9
 73
5
 74
0
 42
0.0000001
 43
0.0000001
 44
0.0000000001
 40
0.0
 40
0.0
 40
0.0
 40
0.0
 40
0.2492733686
 40
1.0
 40
1.0
 40
1.0
 40
1.0
 10
43.7045204396
 20
82.273394211
 30
0.0
 10
43.3100326924
 20
82.2729107179
 30
0.0
 10
41.7274816888
 20
82.2712154265
 30
0.0
 10
40.1449296441
 20
82.2704958181
 30
0.0
 10
38.9568657859
 20
82.2704976572
 30
0.0
  0
SPLINE
  5
2A5
100
AcDbEntity
  8
0
100
AcDbSpline
 62
7
  6
BYLAYER
 70
0
 71
3
 72
9
 73
5
 74
0
 42
0.0000001
 43
0.0000001
 44
0.0000000001
 40
0.0
 40
0.0
 40
0.0
 40
0.0
 40
0.2505161645
 40
1.0
 40
1.0
 40
1.0
 40
1.0
 10
37.6823714114
 20
82.2704977435
 30
0.0
 10
37.2859166386
 20
82.2704969879
 30
0.0
 10
35.703364985
 20
82.2707355865
 30
0.0
 10
34.1208134719
 20
82.2719399315
 30
0.0
 10
32.9347174732
 20
82.2733942765
 30
0.0
  0
SPLINE
  5
2A6
100
AcDbEntity
  8
0
100
AcDbSpline
 62
7
  6
BYLAYER
 70
0
 71
3
 72
16
 73
12
 74
0
 42
0.0000001
 43
0.0000001
 44
0.0000000001
 40
0.0
 40
0.0
 40
0.0
 40
0.0
 40
0.01274436
 40
0.031216464
 40
0.0571443172
 40
0.0910213855
 40
0.1823773159
 40
0.3034712193
 40
0.4506765518
 40
0.6194903313
 40
1.0
 40
1.0
 40
1.0
 40
1.0
 10
68.1217989069
 20
81.3022365892
 30
0.0
 10
68.1214484966
 20
81.3060633362
 30
0.0
 10
68.116232143
 20
81.3147592157
 30
0.0
 10
68.1019251123
 20
81.3245243503
 30
0.0
 10
68.080407079
 20
81.3344272882
 30
0.0
 10
68.0370378785
 20
81.3486137331
 30
0.0
 10
67.9642851644
 20
81.3642673406
 30
0.0
 10
67.8570064275
 20
81.380246442
 30
0.0
 10
67.7258825653
 20
81.3939869253
 30
0.0
 10
67.5163958837
 20
81.4092164564
 30
0.0
 10
67.3507726949
 20
81.4147756602
 30
0.0
 10
67.2360510726
 20
81.4164324728
 30
0.0
  0
SPLINE
  5
2A7
100
AcDbEntity
  8
0
100
AcDbSpline
 62
7
  6
BYLAYER
 70
0
 71
3
 72
16
 73
12
 74
0
 42
0.0000001
 43
0.0000001
 44
0.0000000001
 40
0.0
 40
0.0
 40
0.0
 40
0.0
 40
0.3805094726
 40
0.5493232625
 40
0.6965286546
 40
0.8176226076
 40
0.9089785848
 40
0.9428556679
 40
0.9687835295
 40
0.9872556387
 40
1.0
 40
1.0
 40
1.0
 40
1.0
 10
67.2360510726
 20
81.4164324728
 30
0.0
 10
67.2343942609
 20
81.5311540359
 30
0.0
 10
67.2288350587
 20
81.6967771682
 30
0.0
 10
67.2136055385
 20
81.9062638122
 30
0.0
 10
67.1998650564
 20
82.0373877107
 30
0.0
 10
67.1838859532
 20
82.1446664946
 30
0.0
 10
67.1682323432
 20
82.2174192426
 30
0.0
 10
67.1540458933
 20
82.2607884636
 30
0.0
 10
67.1441429518
 20
82.2823065047
 30
0.0
 10
67.1343778169
 20
82.2966135401
 30
0.0
 10
67.1256819364
 20
82.3018298967
 30
0.0
 10
67.121855189
 20
82.3021803071
 30
0.0
  0
SPLINE
  5
2A8
100
AcDbEntity
  8
0
100
AcDbSpline
 62
7
  6
BYLAYER
 70
0
 71
3
 72
9
 73
5
 74
0
 42
0.0000001
 43
0.0000001
 44
0.0000000001
 40
0.0
 40
0.0
 40
0.0
 40
0.0
 40
0.2492733685
 40
1.0
 40
1.0
 40
1.0
 40
1.0
 10
68.0930128105
 20
47.1150981578
 30
0.0
 10
68.0925293165
 20
47.5095859051
 30
0.0
 10
68.0908340262
 20
49.0921369095
 30
0.0
 10
68.090114421
 20
50.674688955
 30
0.0
 10
68.0901162572
 20
51.8627528139
 30
0.0
  0
SPLINE
  5
2A9
100
AcDbEntity
  8
0
100
AcDbSpline
 62
7
  6
BYLAYER
 70
0
 71
3
 72
9
 73
5
 74
0
 42
0.0000001
 43
0.0000001
 44
0.0000000001
 40
0.0
 40
0.0
 40
0.0
 40
0.0
 40
0.2505161645
 40
1.0
 40
1.0
 40
1.0
 40
1.0
 10
68.0901163433
 20
53.1372471884
 30
0.0
 10
68.0901155877
 20
53.5337019612
 30
0.0
 10
68.0903541863
 20
55.1162536148
 30
0.0
 10
68.0915585313
 20
56.6988051279
 30
0.0
 10
68.0930128763
 20
57.8849011266
 30
0.0
  0
SPLINE
  5
2AA
100
AcDbEntity
  8
0
100
AcDbSpline
 62
7
  6
BYLAYER
 70
0
 71
3
 72
10
 73
6
 74
0
 42
0.0000001
 43
0.0000001
 44
0.0000000001
 40
0.0
 40
0.0
 40
0.0
 40
0.0
 40
0.4999896905
 40
0.7500027048
 40
1.0
 40
1.0
 40
1.0
 40
1.0
 10
48.5064589623
 20
29.4523339937
 30
0.0
 10
48.2683986921
 20
29.3495917359
 30
0.0
 10
47.9074349695
 20
29.2040211356
 30
0.0
 10
47.4179184427
 20
29.0326948429
 30
0.0
 10
47.1698780571
 20
28.9566123639
 30
0.0
 10
47.0447138499
 20
28.9228275064
 30
0.0
  0
SPLINE
  5
2AB
100
AcDbEntity
  8
0
100
AcDbSpline
 62
7
  6
BYLAYER
 70
0
 71
3
 72
27
 73
23
 74
0
 42
0.0000001
 43
0.0000001
 44
0.0000000001
 40
0.0
 40
0.0
 40
0.0
 40
0.0
 40
0.1249501824
 40
0.1874255585
 40
0.2499009371
 40
0.3436135811
 40
0.4373259903
 40
0.5310378873
 40
0.6247485956
 40
0.6716049579
 40
0.7184617269
 40
0.7653159924
 40
0.8121709549
 40
0.8355890225
 40
0.8590714227
 40
0.8823860667
 40
0.9060772571
 40
0.918025732
 40
0.9295271871
 40
0.9530704267
 40
0.9765972399
 40
1.0
 40
1.0
 40
1.0
 40
1.0
 10
47.0447138499
 20
28.9228275064
 30
0.0
 10
47.0253884527
 20
28.9176111127
 30
0.0
 10
46.9963556215
 20
28.9099500666
 30
0.0
 10
46.9575461883
 20
28.9001223816
 30
0.0
 10
46.9235257929
 20
28.8917719823
 30
0.0
 10
46.8845498723
 20
28.8826232594
 30
0.0
 10
46.8405562723
 20
28.8729700658
 30
0.0
 10
46.7963939392
 20
28.8641189567
 30
0.0
 10
46.7594226725
 20
28.85762306
 30
0.0
 10
46.729723068
 20
28.853200814
 30
0.0
 10
46.7073786448
 20
28.8503813599
 30
0.0
 10
46.6849595429
 20
28.848229196
 30
0.0
 10
46.6662112579
 20
28.8472288182
 30
0.0
 10
46.651187171
 20
28.8472294651
 30
0.0
 10
46.6399471606
 20
28.8477882429
 30
0.0
 10
46.6287241837
 20
28.8492226889
 30
0.0
 10
46.6195738988
 20
28.8517035667
 30
0.0
 10
46.6127217522
 20
28.855121852
 30
0.0
 10
46.6078302174
 20
28.861226305
 30
0.0
 10
46.6080761043
 20
28.8717464411
 30
0.0
 10
46.6150267053
 20
28.8808799858
 30
0.0
 10
46.619897725
 20
28.8865758804
 30
0.0
 10
46.6225551723
 20
28.8892204814
 30
0.0
  0
SPLINE
  5
2AC
100
AcDbEntity
  8
0
100
AcDbSpline
 62
7
  6
BYLAYER
 70
0
 71
3
 72
18
 73
14
 74
0
 42
0.0000001
 43
0.0000001
 44
0.0000000001
 40
0.0
 40
0.0
 40
0.0
 40
0.0
 40
0.2181710012
 40
0.4100776992
 40
0.5710879722
 40
0.7027162111
 40
0.8179375338
 40
0.8687101346
 40
0.912944983
 40
0.9493506211
 40
0.976672439
 40
0.9938531392
 40
1.0
 40
1.0
 40
1.0
 40
1.0
 10
58.8774911187
 20
28.1242473092
 30
0.0
 10
58.8716025364
 20
28.1312606296
 30
0.0
 10
58.8605511098
 20
28.1444572979
 30
0.0
 10
58.8452138265
 20
28.1628791014
 30
0.0
 10
58.8322476881
 20
28.1785504479
 30
0.0
 10
58.8213871575
 20
28.1917794891
 30
0.0
 10
58.8134945954
 20
28.2014754992
 30
0.0
 10
58.8079860761
 20
28.2083480831
 30
0.0
 10
58.804514327
 20
28.2126850301
 30
0.0
 10
58.8018426605
 20
28.2162100337
 30
0.0
 10
58.7995088808
 20
28.2190313261
 30
0.0
 10
58.7987959104
 20
28.2205468746
 30
0.0
 10
58.7977068379
 20
28.2216144551
 30
0.0
 10
58.7979042472
 20
28.2217805861
 30
0.0
  0
SPLINE
  5
2AD
100
AcDbEntity
  8
0
100
AcDbSpline
 62
7
  6
BYLAYER
 70
0
 71
3
 72
12
 73
8
 74
0
 42
0.0000001
 43
0.0000001
 44
0.0000000001
 40
0.0
 40
0.0
 40
0.0
 40
0.0
 40
0.0404942081
 40
0.1093327241
 40
0.3133144988
 40
0.6036263809
 40
1.0
 40
1.0
 40
1.0
 40
1.0
 10
58.8961801933
 20
29.6554325316
 30
0.0
 10
58.8947912774
 20
29.6569742641
 30
0.0
 10
58.8950735016
 20
29.6635226011
 30
0.0
 10
58.9021298032
 20
29.6774883954
 30
0.0
 10
58.9194450936
 20
29.7011896705
 30
0.0
 10
58.9500275162
 20
29.7348498648
 30
0.0
 10
58.97543121
 20
29.7593366111
 30
0.0
 10
58.9905050562
 20
29.7729510063
 30
0.0
  0
SPLINE
  5
2AE
100
AcDbEntity
  8
0
100
AcDbSpline
 62
7
  6
BYLAYER
 70
0
 71
3
 72
16
 73
12
 74
0
 42
0.0000001
 43
0.0000001
 44
0.0000000001
 40
0.0
 40
0.0
 40
0.0
 40
0.0
 40
0.01274436
 40
0.031216464
 40
0.0571443172
 40
0.0910213855
 40
0.1823773159
 40
0.3034712193
 40
0.4506765518
 40
0.6194903313
 40
1.0
 40
1.0
 40
1.0
 40
1.0
 10
8.5174382927
 20
23.6977634108
 30
0.0
 10
8.517788703
 20
23.6939366638
 30
0.0
 10
8.5230050566
 20
23.6852407843
 30
0.0
 10
8.5373120873
 20
23.6754756498
 30
0.0
 10
8.5588301206
 20
23.6655727118
 30
0.0
 10
8.6021993211
 20
23.6513862669
 30
0.0
 10
8.6749520352
 20
23.6357326594
 30
0.0
 10
8.782230772
 20
23.619753558
 30
0.0
 10
8.9133546343
 20
23.6060130748
 30
0.0
 10
9.1228413159
 20
23.5907835436
 30
0.0
 10
9.2884645046
 20
23.5852243398
 30
0.0
 10
9.403186127
 20
23.5835675272
 30
0.0
  0
SPLINE
  5
2AF
100
AcDbEntity
  8
0
100
AcDbSpline
 62
7
  6
BYLAYER
 70
0
 71
3
 72
16
 73
12
 74
0
 42
0.0000001
 43
0.0000001
 44
0.0000000001
 40
0.0
 40
0.0
 40
0.0
 40
0.0
 40
0.3805094726
 40
0.5493232625
 40
0.6965286546
 40
0.8176226076
 40
0.9089785848
 40
0.9428556679
 40
0.9687835295
 40
0.9872556387
 40
1.0
 40
1.0
 40
1.0
 40
1.0
 10
9.403186127
 20
23.5835675272
 30
0.0
 10
9.4048429387
 20
23.4688459641
 30
0.0
 10
9.4104021409
 20
23.3032228318
 30
0.0
 10
9.425631661
 20
23.0937361878
 30
0.0
 10
9.4393721432
 20
22.9626122893
 30
0.0
 10
9.4553512464
 20
22.8553335054
 30
0.0
 10
9.4710048564
 20
22.7825807574
 30
0.0
 10
9.4851913063
 20
22.7392115365
 30
0.0
 10
9.4950942478
 20
22.7176934953
 30
0.0
 10
9.5048593827
 20
22.7033864599
 30
0.0
 10
9.5135552632
 20
22.6981701033
 30
0.0
 10
9.5173820106
 20
22.6978196929
 30
0.0
  0
SPLINE
  5
2B0
100
AcDbEntity
  8
0
100
AcDbSpline
 62
7
  6
BYLAYER
 70
0
 71
3
 72
14
 73
10
 74
0
 42
0.0000001
 43
0.0000001
 44
0.0000000001
 40
0.0
 40
0.0
 40
0.0
 40
0.0
 40
0.4165998321
 40
0.5800504374
 40
0.7130676073
 40
0.8236751999
 40
0.9136274828
 40
0.9755123987
 40
1.0
 40
1.0
 40
1.0
 40
1.0
 10
51.804002598
 20
23.6024405984
 30
0.0
 10
51.796620983
 20
23.6186043646
 30
0.0
 10
51.7865456832
 20
23.6412251607
 30
0.0
 10
51.774765941
 20
23.6692232423
 30
0.0
 10
51.7682456756
 20
23.6854076397
 30
0.0
 10
51.7632955568
 20
23.6984943209
 30
0.0
 10
51.7593660633
 20
23.7096501438
 30
0.0
 10
51.7578964405
 20
23.7157127958
 30
0.0
 10
51.7567176478
 20
23.7207991585
 30
0.0
 10
51.7576817575
 20
23.7212009592
 30
0.0
  0
SPLINE
  5
2B1
100
AcDbEntity
  8
0
100
AcDbSpline
 62
7
  6
BYLAYER
 70
0
 71
3
 72
11
 73
7
 74
0
 42
0.0000001
 43
0.0000001
 44
0.0000000001
 40
0.0
 40
0.0
 40
0.0
 40
0.0
 40
0.2420371481
 40
0.4843080357
 40
0.7352482029
 40
1.0
 40
1.0
 40
1.0
 40
1.0
 10
8.5851474941
 20
61.2943980534
 30
0.0
 10
8.6020307205
 20
61.3740600024
 30
0.0
 10
8.6514004307
 20
61.5306474757
 30
0.0
 10
8.7728047572
 20
61.7482112712
 30
0.0
 10
8.9445103019
 20
61.9397586622
 30
0.0
 10
9.0913700927
 20
62.0369707707
 30
0.0
 10
9.1718857558
 20
62.0750669945
 30
0.0
  0
SPLINE
  5
2B2
100
AcDbEntity
  8
0
100
AcDbSpline
 62
7
  6
BYLAYER
 70
0
 71
3
 72
9
 73
5
 74
0
 42
0.0000001
 43
0.0000001
 44
0.0000000001
 40
0.0
 40
0.0
 40
0.0
 40
0.0
 40
0.2464219773
 40
1.0
 40
1.0
 40
1.0
 40
1.0
 10
9.1718857558
 20
62.0750669945
 30
0.0
 10
9.1890326049
 20
62.0831800769
 30
0.0
 10
9.259591347
 20
62.113992634
 30
0.0
 10
9.3340564836
 20
62.1359315661
 30
0.0
 10
9.3910355937
 20
62.1468181939
 30
0.0
  0
SPLINE
  5
2B3
100
AcDbEntity
  8
0
100
AcDbSpline
 62
7
  6
BYLAYER
 70
0
 71
3
 72
12
 73
8
 74
0
 42
0.0000001
 43
0.0000001
 44
0.0000000001
 40
0.0
 40
0.0
 40
0.0
 40
0.0
 40
0.4014768929
 40
0.6927296219
 40
0.8949625016
 40
0.961966566
 40
1.0
 40
1.0
 40
1.0
 40
1.0
 10
9.9403156614
 20
62.1037322664
 30
0.0
 10
9.9340603848
 20
62.0855995083
 30
0.0
 10
9.9223635194
 20
62.0545394076
 30
0.0
 10
9.9050481502
 20
62.0156542043
 30
0.0
 10
9.8915125224
 20
61.991956118
 30
0.0
 10
9.8827012686
 20
61.9808048188
 30
0.0
 10
9.877489359
 20
61.9779835992
 30
0.0
 10
9.875764475
 20
61.9785551929
 30
0.0
  0
SPLINE
  5
2B4
100
AcDbEntity
  8
0
100
AcDbSpline
 62
7
  6
BYLAYER
 70
0
 71
3
 72
10
 73
6
 74
0
 42
0.0000001
 43
0.0000001
 44
0.0000000001
 40
0.0
 40
0.0
 40
0.0
 40
0.0
 40
0.4187608093
 40
0.7131315596
 40
1.0
 40
1.0
 40
1.0
 40
1.0
 10
50.415541325
 20
23.0721107579
 30
0.0
 10
50.4109100084
 20
23.0794915496
 30
0.0
 10
50.4022511676
 20
23.0921068248
 30
0.0
 10
50.3896689073
 20
23.1068512224
 30
0.0
 10
50.3772069715
 20
23.1162078218
 30
0.0
 10
50.3716818385
 20
23.1139487973
 30
0.0
  0
SPLINE
  5
2B5
100
AcDbEntity
  8
0
100
AcDbSpline
 62
7
  6
BYLAYER
 70
0
 71
3
 72
9
 73
5
 74
0
 42
0.0000001
 43
0.0000001
 44
0.0000000001
 40
0.0
 40
0.0
 40
0.0
 40
0.0
 40
0.5041781689
 40
1.0
 40
1.0
 40
1.0
 40
1.0
 10
48.4704537556
 20
22.7411049071
 30
0.0
 10
48.590464347
 20
22.7400519619
 30
0.0
 10
48.8286640731
 20
22.7434470546
 30
0.0
 10
49.0659845086
 20
22.7651140778
 30
0.0
 10
49.1830786493
 20
22.7799165243
 30
0.0
  0
SPLINE
  5
2B6
100
AcDbEntity
  8
0
100
AcDbSpline
 62
7
  6
BYLAYER
 70
0
 71
3
 72
10
 73
6
 74
0
 42
0.0000001
 43
0.0000001
 44
0.0000000001
 40
0.0
 40
0.0
 40
0.0
 40
0.0
 40
0.2489224892
 40
0.4985144896
 40
1.0
 40
1.0
 40
1.0
 40
1.0
 10
49.1830786493
 20
22.7799165243
 30
0.0
 10
49.2848620637
 20
22.7927834666
 30
0.0
 10
49.4880324777
 20
22.824057839
 30
0.0
 10
49.8921762761
 20
22.905586892
 30
0.0
 10
50.1898311133
 20
22.9935024089
 30
0.0
 10
50.3850417809
 20
23.0614176296
 30
0.0
  0
SPLINE
  5
2B7
100
AcDbEntity
  8
0
100
AcDbSpline
 62
7
  6
BYLAYER
 70
0
 71
3
 72
16
 73
12
 74
0
 42
0.0000001
 43
0.0000001
 44
0.0000000001
 40
0.0
 40
0.0
 40
0.0
 40
0.0
 40
0.0127446903
 40
0.0312177191
 40
0.0571466476
 40
0.0910245812
 40
0.182381433
 40
0.3034755939
 40
0.4506806258
 40
0.6194934804
 40
1.0
 40
1.0
 40
1.0
 40
1.0
 10
67.1218568697
 20
22.697819847
 30
0.0
 10
67.1256836876
 20
22.6981705065
 30
0.0
 10
67.1343794585
 20
22.7033878038
 30
0.0
 10
67.1441443074
 20
22.717695725
 30
0.0
 10
67.1540471086
 20
22.7392147506
 30
0.0
 10
67.1682333112
 20
22.7825848326
 30
0.0
 10
67.1838867683
 20
22.8553380829
 30
0.0
 10
67.1998656191
 20
22.9626169446
 30
0.0
 10
67.2136058861
 20
23.0937403178
 30
0.0
 10
67.2288351479
 20
23.3032253525
 30
0.0
 10
67.2343942764
 20
23.4688470414
 30
0.0
 10
67.2360510726
 20
23.5835675272
 30
0.0
  0
SPLINE
  5
2B8
100
AcDbEntity
  8
0
100
AcDbSpline
 62
7
  6
BYLAYER
 70
0
 71
3
 72
16
 73
12
 74
0
 42
0.0000001
 43
0.0000001
 44
0.0000000001
 40
0.0
 40
0.0
 40
0.0
 40
0.0
 40
0.3805096687
 40
0.5493234482
 40
0.6965287807
 40
0.8176226841
 40
0.9089786145
 40
0.9428556828
 40
0.968783536
 40
0.98725564
 40
1.0
 40
1.0
 40
1.0
 40
1.0
 10
67.2360510726
 20
23.5835675272
 30
0.0
 10
67.3507726949
 20
23.5852243398
 30
0.0
 10
67.5163958837
 20
23.5907835436
 30
0.0
 10
67.7258825653
 20
23.6060130748
 30
0.0
 10
67.8570064275
 20
23.619753558
 30
0.0
 10
67.9642851644
 20
23.6357326594
 30
0.0
 10
68.0370378785
 20
23.6513862669
 30
0.0
 10
68.080407079
 20
23.6655727118
 30
0.0
 10
68.1019251123
 20
23.6754756498
 30
0.0
 10
68.116232143
 20
23.6852407843
 30
0.0
 10
68.1214484966
 20
23.6939366638
 30
0.0
 10
68.1217989068
 20
23.6977634108
 30
0.0
  0
SPLINE
  5
2B9
100
AcDbEntity
  8
0
100
AcDbSpline
 62
7
  6
BYLAYER
 70
0
 71
3
 72
16
 73
12
 74
0
 42
0.0000001
 43
0.0000001
 44
0.0000000001
 40
0.0
 40
0.0
 40
0.0
 40
0.0
 40
0.0127451255
 40
0.0312185161
 40
0.0571440981
 40
0.0910118692
 40
0.1823417698
 40
0.3034121124
 40
0.4505982181
 40
0.6194185478
 40
1.0
 40
1.0
 40
1.0
 40
1.0
 10
68.0930130735
 20
47.1151010227
 30
0.0
 10
68.0926626423
 20
47.1112740481
 30
0.0
 10
68.0874445163
 20
47.1025782147
 30
0.0
 10
68.0731376739
 20
47.092813685
 30
0.0
 10
68.0516227582
 20
47.0829112077
 30
0.0
 10
68.0082651583
 20
47.0687260333
 30
0.0
 10
67.9355296565
 20
47.0530765096
 30
0.0
 10
67.8282720634
 20
47.0370975607
 30
0.0
 10
67.6971593077
 20
47.0233561248
 30
0.0
 10
67.4876552016
 20
47.0081223268
 30
0.0
 10
67.3220084375
 20
47.0025622633
 30
0.0
 10
67.2072652392
 20
47.0009051391
 30
0.0
  0
SPLINE
  5
2BA
100
AcDbEntity
  8
0
100
AcDbSpline
 62
7
  6
BYLAYER
 70
0
 71
3
 72
9
 73
5
 74
0
 42
0.0000001
 43
0.0000001
 44
0.0000000001
 40
0.0
 40
0.0
 40
0.0
 40
0.0
 40
0.2505400222
 40
1.0
 40
1.0
 40
1.0
 40
1.0
 10
67.0901726669
 20
51.862753089
 30
0.0
 10
67.0997051169
 20
51.4567175721
 30
0.0
 10
67.1379858248
 20
49.8360817094
 30
0.0
 10
67.1772924567
 20
48.2154701183
 30
0.0
 10
67.2072593444
 20
47.0008992465
 30
0.0
  0
SPLINE
  5
2BB
100
AcDbEntity
  8
0
100
AcDbSpline
 62
7
  6
BYLAYER
 70
0
 71
3
 72
16
 73
12
 74
0
 42
0.0000001
 43
0.0000001
 44
0.0000000001
 40
0.0
 40
0.0
 40
0.0
 40
0.0
 40
0.3804882635
 40
0.5492658785
 40
0.6964669498
 40
0.8175710122
 40
0.9089523016
 40
0.9428375592
 40
0.9687735266
 40
0.9872533149
 40
1.0
 40
1.0
 40
1.0
 40
1.0
 10
67.2072652392
 20
57.9990948622
 30
0.0
 10
67.3219801568
 20
57.9974381464
 30
0.0
 10
67.4875856733
 20
57.991880337
 30
0.0
 10
67.6970532872
 20
57.9766527789
 30
0.0
 10
67.8281680933
 20
57.9629155251
 30
0.0
 10
67.9354559177
 20
57.9469366059
 30
0.0
 10
68.0082228746
 20
57.9312861027
 30
0.0
 10
68.0516036516
 20
57.9170950177
 30
0.0
 10
68.0731281522
 20
57.9071884926
 30
0.0
 10
68.087440716
 20
57.8974234858
 30
0.0
 10
68.0926626
 20
57.8887264153
 30
0.0
 10
68.0930130735
 20
57.8848989786
 30
0.0
  0
SPLINE
  5
2BC
100
AcDbEntity
  8
0
100
AcDbSpline
 62
7
  6
BYLAYER
 70
0
 71
3
 72
9
 73
5
 74
0
 42
0.0000001
 43
0.0000001
 44
0.0000000001
 40
0.0
 40
0.0
 40
0.0
 40
0.0
 40
0.2492373201
 40
1.0
 40
1.0
 40
1.0
 40
1.0
 10
67.2072608231
 20
57.9990992742
 30
0.0
 10
67.1972938117
 20
57.5951867326
 30
0.0
 10
67.1575113491
 20
55.9745874717
 30
0.0
 10
67.118737687
 20
54.353963454
 30
0.0
 10
67.0901728348
 20
53.1372467431
 30
0.0
  0
SPLINE
  5
2BD
100
AcDbEntity
  8
0
100
AcDbSpline
 62
7
  6
BYLAYER
 70
0
 71
3
 72
16
 73
12
 74
0
 42
0.0000001
 43
0.0000001
 44
0.0000000001
 40
0.0
 40
0.0
 40
0.0
 40
0.0
 40
0.0127451255
 40
0.0312185161
 40
0.0571440981
 40
0.0910118692
 40
0.1823417698
 40
0.3034121124
 40
0.4505982181
 40
0.6194185478
 40
1.0
 40
1.0
 40
1.0
 40
1.0
 10
43.7045175771
 20
82.2733944737
 30
0.0
 10
43.7083445517
 20
82.2730440425
 30
0.0
 10
43.7170403851
 20
82.2678259165
 30
0.0
 10
43.7268049148
 20
82.2535190741
 30
0.0
 10
43.7367073921
 20
82.2320041584
 30
0.0
 10
43.7508925665
 20
82.1886465585
 30
0.0
 10
43.7665420902
 20
82.1159110567
 30
0.0
 10
43.7825210391
 20
82.0086534636
 30
0.0
 10
43.796262475
 20
81.8775407079
 30
0.0
 10
43.811496273
 20
81.6680366018
 30
0.0
 10
43.8170563365
 20
81.5023898377
 30
0.0
 10
43.8187134607
 20
81.3876466394
 30
0.0
  0
SPLINE
  5
2BE
100
AcDbEntity
  8
0
100
AcDbSpline
 62
7
  6
BYLAYER
 70
0
 71
3
 72
9
 73
5
 74
0
 42
0.0000001
 43
0.0000001
 44
0.0000000001
 40
0.0
 40
0.0
 40
0.0
 40
0.0
 40
0.2505400222
 40
1.0
 40
1.0
 40
1.0
 40
1.0
 10
38.9568655112
 20
81.2705540667
 30
0.0
 10
39.3629010275
 20
81.2800865147
 30
0.0
 10
40.9835368877
 20
81.3183672235
 30
0.0
 10
42.6041484761
 20
81.3576738679
 30
0.0
 10
43.8187193461
 20
81.3876407499
 30
0.0
  0
SPLINE
  5
2BF
100
AcDbEntity
  8
0
100
AcDbSpline
 62
7
  6
BYLAYER
 70
0
 71
3
 72
23
 73
19
 74
0
 42
0.0000001
 43
0.0000001
 44
0.0000000001
 40
0.0
 40
0.0
 40
0.0
 40
0.0
 40
0.0625935036
 40
0.125360438
 40
0.1881839177
 40
0.2510927588
 40
0.3140001577
 40
0.3768303658
 40
0.4395461109
 40
0.5021153051
 40
0.564528171
 40
0.6267898148
 40
0.6889441428
 40
0.7510420978
 40
0.8131385309
 40
0.8752991399
 40
0.937588086
 40
1.0
 40
1.0
 40
1.0
 40
1.0
 10
13.8896814806
 20
65.1049371185
 30
0.0
 10
14.0941885731
 20
65.1049557336
 30
0.0
 10
14.5048782694
 20
65.1454387585
 30
0.0
 10
15.0968968926
 20
65.3250656407
 30
0.0
 10
15.6430070647
 20
65.6185412773
 30
0.0
 10
16.1212055147
 20
66.0136259453
 30
0.0
 10
16.5131140461
 20
66.4945364238
 30
0.0
 10
16.8022945943
 20
67.0426841253
 30
0.0
 10
16.9782758523
 20
67.6357199673
 30
0.0
 10
17.0346807267
 20
68.2503560439
 30
0.0
 10
16.9703593185
 20
68.8626733069
 30
0.0
 10
16.7885512122
 20
69.4494957823
 30
0.0
 10
16.496507263
 20
69.9887237849
 30
0.0
 10
16.1063426769
 20
70.4611821355
 30
0.0
 10
15.6312897994
 20
70.8482183623
 30
0.0
 10
15.0899893945
 20
71.1366543399
 30
0.0
 10
14.5021819916
 20
71.3150662174
 30
0.0
 10
14.0935952795
 20
71.354911387
 30
0.0
 10
13.889681482
 20
71.3549371185
 30
0.0
  0
SPLINE
  5
2C0
100
AcDbEntity
  8
0
100
AcDbSpline
 62
7
  6
BYLAYER
 70
0
 71
3
 72
16
 73
12
 74
0
 42
0.0000001
 43
0.0000001
 44
0.0000000001
 40
0.0
 40
0.0
 40
0.0
 40
0.0
 40
0.3804882635
 40
0.5492658785
 40
0.6964669498
 40
0.8175710122
 40
0.9089523016
 40
0.9428375592
 40
0.9687735266
 40
0.9872533149
 40
1.0
 40
1.0
 40
1.0
 40
1.0
 10
32.8205237376
 20
81.3876466394
 30
0.0
 10
32.8221804534
 20
81.5023615571
 30
0.0
 10
32.8277382628
 20
81.6679670735
 30
0.0
 10
32.8429658209
 20
81.8774346874
 30
0.0
 10
32.8567030747
 20
82.0085494935
 30
0.0
 10
32.8726819939
 20
82.1158373179
 30
0.0
 10
32.8883324971
 20
82.1886042748
 30
0.0
 10
32.9025235821
 20
82.2319850518
 30
0.0
 10
32.9124301072
 20
82.2535095524
 30
0.0
 10
32.922195114
 20
82.2678221162
 30
0.0
 10
32.9308921845
 20
82.2730440002
 30
0.0
 10
32.9347196212
 20
82.2733944737
 30
0.0
  0
SPLINE
  5
2C1
100
AcDbEntity
  8
0
100
AcDbSpline
 62
7
  6
BYLAYER
 70
0
 71
3
 72
9
 73
5
 74
0
 42
0.0000001
 43
0.0000001
 44
0.0000000001
 40
0.0
 40
0.0
 40
0.0
 40
0.0
 40
0.2492373201
 40
1.0
 40
1.0
 40
1.0
 40
1.0
 10
32.8205193242
 20
81.3876422233
 30
0.0
 10
33.2244318659
 20
81.3776752119
 30
0.0
 10
34.8450311272
 20
81.3378927493
 30
0.0
 10
36.4656551455
 20
81.2991190873
 30
0.0
 10
37.6823718567
 20
81.270554235
 30
0.0
  0
SPLINE
  5
2C2
100
AcDbEntity
  8
0
100
AcDbSpline
 62
7
  6
BYLAYER
 70
0
 71
3
 72
12
 73
8
 74
0
 42
0.0000001
 43
0.0000001
 44
0.0000000001
 40
0.0
 40
0.0
 40
0.0
 40
0.0
 40
0.0395213438
 40
0.1094260355
 40
0.3200289624
 40
0.6058677902
 40
1.0
 40
1.0
 40
1.0
 40
1.0
 10
13.4816315488
 20
60.7769489151
 30
0.0
 10
13.4834418631
 20
60.7764176689
 30
0.0
 10
13.488741657
 20
60.779549565
 30
0.0
 10
13.4978238802
 20
60.791165282
 30
0.0
 10
13.5113212902
 20
60.815233633
 30
0.0
 10
13.5284796466
 20
60.8538986318
 30
0.0
 10
13.5399263735
 20
60.8843770842
 30
0.0
 10
13.5460627781
 20
60.9021631929
 30
0.0
  0
SPLINE
  5
2C3
100
AcDbEntity
  8
0
100
AcDbSpline
 62
7
  6
BYLAYER
 70
0
 71
3
 72
12
 73
8
 74
0
 42
0.0000001
 43
0.0000001
 44
0.0000000001
 40
0.0
 40
0.0
 40
0.0
 40
0.0
 40
0.2542441949
 40
0.513345744
 40
0.6406871119
 40
0.7646936682
 40
1.0
 40
1.0
 40
1.0
 40
1.0
 10
50.4461466751
 20
72.1094652979
 30
0.0
 10
50.4804810969
 20
72.2863004143
 30
0.0
 10
50.5084376181
 20
72.652965501
 30
0.0
 10
50.4201168353
 20
73.1057896832
 30
0.0
 10
50.2655056878
 20
73.4346555778
 30
0.0
 10
50.067055566
 20
73.7181541395
 30
0.0
 10
49.8633522286
 20
73.8836388245
 30
0.0
 10
49.7161050098
 20
73.9618288482
 30
0.0
  0
SPLINE
  5
2C4
100
AcDbEntity
  8
0
100
AcDbSpline
 62
7
  6
BYLAYER
 70
0
 71
3
 72
12
 73
8
 74
0
 42
0.0000001
 43
0.0000001
 44
0.0000000001
 40
0.0
 40
0.0
 40
0.0
 40
0.0
 40
0.2653594283
 40
0.398312922
 40
0.5285595712
 40
0.7746955602
 40
1.0
 40
1.0
 40
1.0
 40
1.0
 10
48.3662038834
 20
31.7478932342
 30
0.0
 10
48.3828753146
 20
31.560646011
 30
0.0
 10
48.3737595977
 20
31.27436014
 30
0.0
 10
48.2831566402
 20
30.9098710364
 30
0.0
 10
48.1444090999
 20
30.5755073479
 30
0.0
 10
47.8858101584
 20
30.2253662546
 30
0.0
 10
47.5975380279
 20
30.0403542561
 30
0.0
 10
47.4496204233
 20
29.9803848457
 30
0.0
  0
SPLINE
  5
2C5
100
AcDbEntity
  8
0
100
AcDbSpline
 62
7
  6
BYLAYER
 70
0
 71
3
 72
22
 73
18
 74
0
 42
0.0000001
 43
0.0000001
 44
0.0000000001
 40
0.0
 40
0.0
 40
0.0
 40
0.0
 40
0.1250052194
 40
0.2500061058
 40
0.375004341
 40
0.5000031765
 40
0.6250060941
 40
0.7500188542
 40
0.8125289624
 40
0.8437839933
 40
0.875038849
 40
0.906292601
 40
0.9375385716
 40
0.9531694053
 40
0.9687952411
 40
0.9844413104
 40
1.0
 40
1.0
 40
1.0
 40
1.0
 10
13.4793052789
 20
60.777708611
 30
0.0
 10
13.5144972188
 20
60.7660246773
 30
0.0
 10
13.5840032689
 20
60.7398520686
 30
0.0
 10
13.6842398177
 20
60.6912982435
 30
0.0
 10
13.7801370242
 20
60.6346964813
 30
0.0
 10
13.8713194468
 20
60.57080183
 30
0.0
 10
13.9578187607
 20
60.5007304704
 30
0.0
 10
14.0264793389
 20
60.438403075
 30
0.0
 10
14.073820614
 20
60.394015661
 30
0.0
 10
14.1010985201
 20
60.368891252
 30
0.0
 10
14.1218731291
 20
60.3503911987
 30
0.0
 10
14.143270546
 20
60.332623115
 30
0.0
 10
14.1620962391
 20
60.3190138104
 30
0.0
 10
14.1783956403
 20
60.3100829778
 30
0.0
 10
14.1914622824
 20
60.3051862233
 30
0.0
 10
14.2057345158
 20
60.303902885
 30
0.0
 10
14.2145068632
 20
60.3085940853
 30
0.0
 10
14.2177637152
 20
60.3118641529
 30
0.0
  0
SPLINE
  5
2C6
100
AcDbEntity
  8
0
100
AcDbSpline
 62
7
  6
BYLAYER
 70
0
 71
3
 72
16
 73
12
 74
0
 42
0.0000001
 43
0.0000001
 44
0.0000000001
 40
0.0
 40
0.0
 40
0.0
 40
0.0
 40
0.0257249099
 40
0.0497774892
 40
0.0830823998
 40
0.1263326648
 40
0.1791822233
 40
0.3110788304
 40
0.4719753144
 40
0.6490849782
 40
1.0
 40
1.0
 40
1.0
 40
1.0
 10
13.969618772
 20
70.575
 30
0.0
 10
13.9628178922
 20
70.5750000005
 30
0.0
 10
13.9531024901
 20
70.5882422652
 30
0.0
 10
13.945015597
 20
70.6074128505
 30
0.0
 10
13.9370561586
 20
70.6333055886
 30
0.0
 10
13.9296013934
 20
70.666533994
 30
0.0
 10
13.9190219277
 20
70.725971112
 30
0.0
 10
13.9079523231
 20
70.8166829209
 30
0.0
 10
13.8982852864
 20
70.9405753094
 30
0.0
 10
13.8896768213
 20
71.122513996
 30
0.0
 10
13.888456017
 20
71.2621740101
 30
0.0
 10
13.8896817032
 20
71.3549371179
 30
0.0
  0
SPLINE
  5
2C7
100
AcDbEntity
  8
0
100
AcDbSpline
 62
7
  6
BYLAYER
 70
0
 71
3
 72
12
 73
8
 74
0
 42
0.0000001
 43
0.0000001
 44
0.0000000001
 40
0.0
 40
0.0
 40
0.0
 40
0.0
 40
0.3887678565
 40
0.6721626583
 40
0.8862019759
 40
0.9582373201
 40
1.0
 40
1.0
 40
1.0
 40
1.0
 10
55.9357874739
 20
33.164368165
 30
0.0
 10
55.9210055224
 20
33.1510150096
 30
0.0
 10
55.896120316
 20
33.1270642819
 30
0.0
 10
55.8656314094
 20
33.0936604418
 30
0.0
 10
55.8479420687
 20
33.0697739173
 30
0.0
 10
55.8404444732
 20
33.055285647
 30
0.0
 10
55.8400248125
 20
33.04843647
 30
0.0
 10
55.8414650367
 20
33.0468537915
 30
0.0
  0
SPLINE
  5
2C8
100
AcDbEntity
  8
0
100
AcDbSpline
 62
7
  6
BYLAYER
 70
0
 71
3
 72
13
 73
9
 74
0
 42
0.0000001
 43
0.0000001
 44
0.0000000001
 40
0.0
 40
0.0
 40
0.0
 40
0.0
 40
0.409536179
 40
0.7041125634
 40
0.8137586212
 40
0.9052672505
 40
0.9689848329
 40
1.0
 40
1.0
 40
1.0
 40
1.0
 10
9.4268654521
 20
62.1529080785
 30
0.0
 10
9.4289990246
 20
62.1348875292
 30
0.0
 10
9.4321295924
 20
62.1038761844
 30
0.0
 10
9.4341738363
 20
62.0677483132
 30
0.0
 10
9.4343043249
 20
62.0459311321
 30
0.0
 10
9.4335916349
 20
62.0338883654
 30
0.0
 10
9.4326552955
 20
62.0263857527
 30
0.0
 10
9.4306475743
 20
62.021502261
 30
0.0
 10
9.4292859173
 20
62.0213164834
 30
0.0
  0
SPLINE
  5
2C9
100
AcDbEntity
  8
0
100
AcDbSpline
 62
7
  6
BYLAYER
 70
0
 71
3
 72
15
 73
11
 74
0
 42
0.0000001
 43
0.0000001
 44
0.0000000001
 40
0.0
 40
0.0
 40
0.0
 40
0.0
 40
0.0254146791
 40
0.0475047638
 40
0.0775981035
 40
0.1164379553
 40
0.1640862324
 40
0.2851826839
 40
0.6148597131
 40
1.0
 40
1.0
 40
1.0
 40
1.0
 10
13.9696186394
 20
65.725
 30
0.0
 10
13.9642520997
 20
65.7249999999
 30
0.0
 10
13.9559657291
 20
65.7162176961
 30
0.0
 10
13.9488867767
 20
65.7021013537
 30
0.0
 10
13.9420929723
 20
65.6838428992
 30
0.0
 10
13.9355851924
 20
65.6601725181
 30
0.0
 10
13.9261393324
 20
65.6173132635
 30
0.0
 10
13.9100691869
 20
65.5132546774
 30
0.0
 10
13.8958178123
 20
65.3371363043
 30
0.0
 10
13.8907559963
 20
65.1862558797
 30
0.0
 10
13.8896815323
 20
65.1049371187
 30
0.0
  0
SPLINE
  5
2CA
100
AcDbEntity
  8
0
100
AcDbSpline
 62
7
  6
BYLAYER
 70
0
 71
3
 72
24
 73
20
 74
0
 42
0.0000001
 43
0.0000001
 44
0.0000000001
 40
0.0
 40
0.0
 40
0.0
 40
0.0
 40
0.0010248696
 40
0.002304351
 40
0.0040939991
 40
0.0092002093
 40
0.0163363404
 40
0.0254952516
 40
0.0366698208
 40
0.065037531
 40
0.1013828908
 40
0.1456496262
 40
0.1977817818
 40
0.2577237255
 40
0.3253967029
 40
0.4006288331
 40
0.5729949354
 40
0.7732878766
 40
1.0
 40
1.0
 40
1.0
 40
1.0
 10
49.6485411034
 20
72.65076709
 30
0.0
 10
49.648841858
 20
72.650901363
 30
0.0
 10
49.6494403175
 20
72.6500287901
 30
0.0
 10
49.6505757912
 20
72.6495867776
 30
0.0
 10
49.6527997997
 20
72.6480606048
 30
0.0
 10
49.6566365762
 20
72.6457855256
 30
0.0
 10
49.6624681169
 20
72.6420934158
 30
0.0
 10
49.6699505889
 20
72.6374262695
 30
0.0
 10
49.6831987642
 20
72.6290842339
 30
0.0
 10
49.7038069066
 20
72.6160475048
 30
0.0
 10
49.7333347327
 20
72.5972104143
 30
0.0
 10
49.7692196101
 20
72.5741415549
 30
0.0
 10
49.8113850824
 20
72.5468183838
 30
0.0
 10
49.8597490557
 20
72.5152294734
 30
0.0
 10
49.9141965223
 20
72.4793794942
 30
0.0
 10
49.9985599051
 20
72.4232666215
 30
0.0
 10
50.1177357752
 20
72.3425378268
 30
0.0
 10
50.2758129887
 20
72.2324595533
 30
0.0
 10
50.3872865115
 20
72.152415337
 30
0.0
 10
50.4461484224
 20
72.1094760559
 30
0.0
  0
SPLINE
  5
2CB
100
AcDbEntity
  8
0
100
AcDbSpline
 62
7
  6
BYLAYER
 70
0
 71
3
 72
9
 73
5
 74
0
 42
0.0000001
 43
0.0000001
 44
0.0000000001
 40
0.0
 40
0.0
 40
0.0
 40
0.0
 40
0.4394585779
 40
1.0
 40
1.0
 40
1.0
 40
1.0
 10
50.4461483847
 20
72.1094759042
 30
0.0
 10
51.1298467384
 20
71.6106862572
 30
0.0
 10
52.5873089916
 20
70.3373361583
 30
0.0
 10
53.8044551257
 20
68.8295812797
 30
0.0
 10
54.4122962632
 20
67.9374931457
 30
0.0
  0
SPLINE
  5
2CC
100
AcDbEntity
  8
0
100
AcDbSpline
 62
7
  6
BYLAYER
 70
0
 71
3
 72
9
 73
5
 74
0
 42
0.0000001
 43
0.0000001
 44
0.0000000001
 40
0.0
 40
0.0
 40
0.0
 40
0.0
 40
0.5607868742
 40
1.0
 40
1.0
 40
1.0
 40
1.0
 10
52.7401840529
 20
35.4900810564
 30
0.0
 10
52.0435586337
 20
34.6648398712
 30
0.0
 10
50.677814326
 20
33.290231504
 30
0.0
 10
49.0971557533
 20
32.1734978255
 30
0.0
 10
48.3662028478
 20
31.7478914389
 30
0.0
  0
SPLINE
  5
2CD
100
AcDbEntity
  8
0
100
AcDbSpline
 62
7
  6
BYLAYER
 70
0
 71
3
 72
17
 73
13
 74
0
 42
0.0000001
 43
0.0000001
 44
0.0000000001
 40
0.0
 40
0.0
 40
0.0
 40
0.0
 40
0.2266828806
 40
0.4269164694
 40
0.5992236126
 40
0.7421002724
 40
0.8541976447
 40
0.9348658631
 40
0.963265068
 40
0.983627521
 40
0.9958927552
 40
1.0
 40
1.0
 40
1.0
 40
1.0
 10
48.3662031168
 20
31.7478895797
 30
0.0
 10
48.3032474407
 20
31.7112331514
 30
0.0
 10
48.1841620662
 20
31.6430848495
 30
0.0
 10
48.0156475725
 20
31.5498643941
 30
0.0
 10
47.8696852423
 20
31.4715476564
 30
0.0
 10
47.7479777602
 20
31.4079570438
 30
0.0
 10
47.6520221959
 20
31.3586842795
 30
0.0
 10
47.5885308853
 20
31.32673069
 30
0.0
 10
47.5513236979
 20
31.3081400107
 30
0.0
 10
47.533665973
 20
31.299593189
 30
0.0
 10
47.5231755509
 20
31.2941913369
 30
0.0
 10
47.5183205671
 20
31.292121593
 30
0.0
 10
47.5171816654
 20
31.2914543608
 30
0.0
  0
SPLINE
  5
2CE
100
AcDbEntity
  8
0
100
AcDbSpline
 62
7
  6
BYLAYER
 70
0
 71
3
 72
21
 73
17
 74
0
 42
0.0000001
 43
0.0000001
 44
0.0000000001
 40
0.0
 40
0.0
 40
0.0
 40
0.0
 40
0.0013576784
 40
0.0054088457
 40
0.0121303156
 40
0.0214990346
 40
0.048021353
 40
0.0844716809
 40
0.1302392602
 40
0.1845130607
 40
0.2464211708
 40
0.3149889462
 40
0.4682253021
 40
0.637019461
 40
0.8155947795
 40
1.0
 40
1.0
 40
1.0
 40
1.0
 10
29.1220559328
 20
31.2914466257
 30
0.0
 10
29.1193641042
 20
31.2928886493
 30
0.0
 10
29.1083167253
 20
31.2980026209
 30
0.0
 10
29.0839889352
 20
31.3103500589
 30
0.0
 10
29.0434003099
 20
31.3304763553
 30
0.0
 10
28.9578810072
 20
31.3737523317
 30
0.0
 10
28.8131549281
 20
31.4481259744
 30
0.0
 10
28.5975106538
 20
31.5635609237
 30
0.0
 10
28.3296285591
 20
31.7135739441
 30
0.0
 10
28.0160662638
 20
31.8990339945
 30
0.0
 10
27.6641620208
 20
32.1201447614
 30
0.0
 10
27.1338634997
 20
32.4752621021
 30
0.0
 10
26.4280426854
 20
32.9995296688
 30
0.0
 10
25.5699321946
 20
33.7298984901
 30
0.0
 10
24.7134130557
 20
34.5659858056
 30
0.0
 10
24.1665968464
 20
35.1731328626
 30
0.0
 10
23.8990458277
 20
35.4900748779
 30
0.0
  0
SPLINE
  5
2CF
100
AcDbEntity
  8
0
100
AcDbSpline
 62
7
  6
BYLAYER
 70
0
 71
3
 72
17
 73
13
 74
0
 42
0.0000001
 43
0.0000001
 44
0.0000000001
 40
0.0
 40
0.0
 40
0.0
 40
0.0
 40
0.1844541708
 40
0.3630928194
 40
0.5319169257
 40
0.6851254971
 40
0.8155340558
 40
0.9155368316
 40
0.9519823543
 40
0.9785032522
 40
0.9945919504
 40
1.0
 40
1.0
 40
1.0
 40
1.0
 10
22.2269410716
 20
67.9374930538
 30
0.0
 10
22.4605562675
 20
68.2803394252
 30
0.0
 10
22.942226074
 20
68.9406553482
 30
0.0
 10
23.7084834135
 20
69.8605497728
 30
0.0
 10
24.48710398
 20
70.6753313882
 30
0.0
 10
25.2379089458
 20
71.3633112126
 30
0.0
 10
25.9094008333
 20
71.9059490137
 30
0.0
 10
26.3958967709
 20
72.2578718863
 30
0.0
 10
26.6995517126
 20
72.4632158207
 30
0.0
 10
26.8485741273
 20
72.5602195852
 30
0.0
 10
26.9393723856
 20
72.6187052142
 30
0.0
 10
26.9804488959
 20
72.6442130338
 30
0.0
 10
26.9906961132
 20
72.6507667612
 30
0.0
  0
SPLINE
  5
2D0
100
AcDbEntity
  8
0
100
AcDbSpline
 62
7
  6
BYLAYER
 70
0
 71
3
 72
16
 73
12
 74
0
 42
0.0000001
 43
0.0000001
 44
0.0000000001
 40
0.0
 40
0.0
 40
0.0
 40
0.0
 40
0.0127443613
 40
0.0312164707
 40
0.0571443324
 40
0.0910214156
 40
0.1823773932
 40
0.3034713464
 40
0.4506767386
 40
0.6194905283
 40
1.0
 40
1.0
 40
1.0
 40
1.0
 10
9.5173820106
 20
82.3021803071
 30
0.0
 10
9.5135552632
 20
82.3018298967
 30
0.0
 10
9.5048593827
 20
82.29661354
 30
0.0
 10
9.4950942477
 20
82.2823065046
 30
0.0
 10
9.4851913062
 20
82.2607884633
 30
0.0
 10
9.4710048562
 20
82.2174192421
 30
0.0
 10
9.4553512463
 20
82.144666494
 30
0.0
 10
9.4393721431
 20
82.0373877098
 30
0.0
 10
9.425631661
 20
81.9062638113
 30
0.0
 10
9.4104021409
 20
81.6967771676
 30
0.0
 10
9.4048429387
 20
81.5311540356
 30
0.0
 10
9.403186127
 20
81.4164324728
 30
0.0
  0
SPLINE
  5
2D1
100
AcDbEntity
  8
0
100
AcDbSpline
 62
7
  6
BYLAYER
 70
0
 71
3
 72
16
 73
12
 74
0
 42
0.0000001
 43
0.0000001
 44
0.0000000001
 40
0.0
 40
0.0
 40
0.0
 40
0.0
 40
0.3805067864
 40
0.5493196605
 40
0.696524627
 40
0.8176188085
 40
0.9089756968
 40
0.9428534898
 40
0.9687821853
 40
0.9872551406
 40
1.0
 40
1.0
 40
1.0
 40
1.0
 10
9.403186127
 20
81.4164324728
 30
0.0
 10
9.2884655797
 20
81.4147756757
 30
0.0
 10
9.1228438314
 20
81.4092165454
 30
0.0
 10
8.9133587659
 20
81.3939872733
 30
0.0
 10
8.7822354212
 20
81.3802470042
 30
0.0
 10
8.6749565853
 20
81.364268137
 30
0.0
 10
8.602203358
 20
81.3486147396
 30
0.0
 10
8.5588333932
 20
81.3344285223
 30
0.0
 10
8.5373145214
 20
81.3245257165
 30
0.0
 10
8.5230067303
 20
81.3147607197
 30
0.0
 10
8.5177893511
 20
81.3060651146
 30
0.0
 10
8.5174384466
 20
81.3022382686
 30
0.0
  0
SPLINE
  5
2D2
100
AcDbEntity
  8
0
100
AcDbSpline
 62
7
  6
BYLAYER
 70
0
 71
3
 72
16
 73
12
 74
0
 42
0.0000001
 43
0.0000001
 44
0.0000000001
 40
0.0
 40
0.0
 40
0.0
 40
0.0
 40
0.25004206
 40
0.3750665115
 40
0.5000874946
 40
0.6251094925
 40
0.7500978965
 40
0.8127517365
 40
0.8746497345
 40
0.9373116915
 40
1.0
 40
1.0
 40
1.0
 40
1.0
 10
54.3446773662
 20
33.2781388559
 30
0.0
 10
54.3539588735
 20
33.2669523225
 30
0.0
 10
54.3679208376
 20
33.2502050432
 30
0.0
 10
54.3865991421
 20
33.2279282211
 30
0.0
 10
54.4006645447
 20
33.2112667161
 30
0.0
 10
54.4147230277
 20
33.1946076149
 30
0.0
 10
54.4266546698
 20
33.1808804037
 30
0.0
 10
54.4359071208
 20
33.169735453
 30
0.0
 10
54.4433828456
 20
33.1617171519
 30
0.0
 10
54.450881476
 20
33.1542184038
 30
0.0
 10
54.4545467742
 20
33.1467288122
 30
0.0
 10
54.4580207257
 20
33.1456278161
 30
0.0
  0
ELLIPSE
  5
2D3
100
AcDbEntity
  8
0
100
AcDbEllipse
 62
7
  6
BYLAYER
 10
67.3195623145
 20
23.5000562853
 30
0.0
 11
0.7071863784
 21
-0.7071863784
 31
0.0
 40
0.9998874452
 41
-0.7853418828
 42
0.7853418828
  0
ELLIPSE
  5
2D4
100
AcDbEntity
  8
0
100
AcDbEllipse
 62
7
  6
BYLAYER
 10
67.3195623145
 20
81.4999437147
 30
0.0
 11
-0.7071863784
 21
-0.7071863784
 31
0.0
 40
0.9998874452
 41
2.3562507707
 42
3.9269345364
  0
ELLIPSE
  5
2D5
100
AcDbEntity
  8
0
100
AcDbEllipse
 62
7
  6
BYLAYER
 10
9.3196748851
 20
81.4999437147
 30
0.0
 11
-0.7071863784
 21
0.7071863784
 31
0.0
 40
0.9998874452
 41
-0.7853418828
 42
0.7853418828
  0
ELLIPSE
  5
2D6
100
AcDbEntity
  8
0
100
AcDbEllipse
 62
7
  6
BYLAYER
 10
9.3196748851
 20
23.5000562853
 30
0.0
 11
0.7071863784
 21
0.7071863784
 31
0.0
 40
0.9998874452
 41
2.3562507707
 42
3.9269345364
  0
ENDSEC
  0
SECTION
  2
OBJECTS
  0
DICTIONARY
  5
C
100
AcDbDictionary
280
0
281
1
  3
ACAD_GROUP
350
D
  3
ACAD_MLINESTYLE
350
17
  3
ACAD_LAYOUT
350
1A
  3
ACAD_PLOTSETTINGS
350
19
  3
ACAD_PLOTSTYLENAME
350
E
  0
DICTIONARY
  5
D
102
{ACAD_REACTORS
330
C
102
}
100
AcDbDictionary
280
0
281
1
  0
ACDBDICTIONARYWDFLT
  5
E
102
{ACAD_REACTORS
330
C
102
}
100
AcDbDictionary
281
1
  3
Normal
350
F
100
AcDbDictionaryWithDefault
340
F
  0
DICTIONARY
  5
17
102
{ACAD_REACTORS
330
C
102
}
100
AcDbDictionary
280
0
281
1
  3
Standard
350
18
  0
DICTIONARY
  5
19
102
{ACAD_REACTORS
330
C
102
}
100
AcDbDictionary
281
1
  0
DICTIONARY
  5
1A
102
{ACAD_REACTORS
330
C
102
}
100
AcDbDictionary
281
1
  3
Model
350
2D7
  3
Layout1
350
2D8
  0
ACDBPLACEHOLDER
  5
F
102
{ACAD_REACTORS
330
E
102
}
  0
MLINESTYLE
  5
18
102
{ACAD_REACTORS
330
17
102
}
100
AcDbMlineStyle
  2
STANDARD
 70
0
  3

 62
256
 51
90.0
 52
90.0
 71
2
 49
0.5
 62
256
  6
BYLAYER
 49
-0.5
 62
256
  6
BYLAYER
  0
LAYOUT
  5
2D7
102
{ACAD_REACTORS
330
1A
102
}
100
AcDbPlotSettings
  1

  2
none_device
  4

  6

 40
0.0
 41
0.0
 42
0.0
 43
0.0
 44
210.0
 45
297.0
 46
0.0
 47
0.0
 48
0.0
 49
0.0
140
0.0
141
0.0
142
1.0
143
1.0
 70
1024
 72
1
 73
0
 74
0
  7

 75
0
147
1.0
148
0.0
149
0.0
100
AcDbLayout
  1
Model
 70
0
 71
0
 10
0.0
 20
0.0
 11
210.0
 21
297.0
 12
0.0
 22
0.0
 32
0.0
 14
0.0
 24
0.0
 34
0.0
 15
0.0
 25
0.0
 35
0.0
146
0.0
 13
0.0
 23
0.0
 33
0.0
 16
1.0
 26
0.0
 36
0.0
 17
0.0
 27
1.0
 37
0.0
 76
0
330
210
345
0
346
0
  0
LAYOUT
  5
2D8
102
{ACAD_REACTORS
330
1A
102
}
100
AcDbPlotSettings
  1

  2
none_device
  4

  6

 40
0.0
 41
0.0
 42
0.0
 43
0.0
 44
210.0
 45
297.0
 46
0.0
 47
0.0
 48
0.0
 49
0.0
140
0.0
141
0.0
142
1.0
143
1.0
 70
0
 72
1
 73
0
 74
0
  7

 75
0
147
1.0
148
0.0
149
0.0
100
AcDbLayout
  1
Layout1
 70
0
 71
1
 10
0.0
 20
0.0
 11
210.0
 21
297.0
 12
0.0
 22
0.0
 32
0.0
 14
0.0
 24
0.0
 34
0.0
 15
0.0
 25
0.0
 35
0.0
146
0.0
 13
0.0
 23
0.0
 33
0.0
 16
1.0
 26
0.0
 36
0.0
 17
0.0
 27
1.0
 37
0.0
 76
0
330
211
345
0
346
0
  0
ENDSEC
  0
EOF
