999
DXF file: C:\2D\Gen2D\CAD\GVAM11_3D-CAD\drw0001_1.dxf
999
Pro/ENGINEER 2019471 by Parametric Technology Corporation
  0
SECTION
  2
HEADER
  9
$ACADVER
  1
AC1024
  9
$DWGCODEPAGE
  3
ANSI_1252
  9
$EXTMAX
 10
72.9510690574
 20
103.1736548098
 30
0.0
  9
$EXTMIN
 10
0.0
 20
0.0
 30
0.0
  9
$LIMMIN
 10
0.0
 20
0.0
  9
$LIMMAX
 10
72.9510690574
 20
103.1736548098
  9
$VIEWCTR
 10
36.4755345287
 20
51.5868274049
  9
$VIEWSIZE
 40
103.1736548098
  9
$CLAYER
  8
0
  9
$LTSCALE
 40
6.725393795
  9
$CELTYPE
  6
BYLAYER
  9
$DIMSCALE
 40
1.0
  9
$DIMASZ
 40
0.8684651078
  9
$DIMEXO
 40
1.0
  9
$DIMDLI
 40
4.6466357129
  9
$DIMEXE
 40
1.0
  9
$DIMCEN
 40
1.1005189846
  9
$DIMLFAC
 40
1.0
  9
$DIMBLK
  1
_FILLED
  9
$DIMALT
 70
0
  9
$DIMALTF
 40
0.0393700787
  9
$DIMTXT
 40
1.215851151
  9
$DIMTOL
 70
1
  9
$DIMLIM
 70
0
  9
$DIMTFAC
 40
1.0
  9
$DIMTP
 40
0.01
  9
$DIMTM
 40
0.01
  9
$DIMGAP
 40
0.625
  9
$DIMDSEP
 70
46
  9
$AUNITS
 70
0
  9
$PDMODE
 70
3
  9
$PDSIZE
 40
0.3125
  9
$HANDSEED
  5
355
  9
$TILEMODE
 70
1
  9
$MEASUREMENT
 70
1
  9
$INSUNITS
 70
4
  0
ENDSEC
  0
SECTION
  2
CLASSES
  0
CLASS
  1
ACDBDICTIONARYWDFLT
  2
AcDbDictionaryWithDefault
  3
AutoCAD 2000
 90
0
 91
1
280
0
281
0
  0
CLASS
  1
ACDBPLACEHOLDER
  2
AcDbPlaceHolder
  3
AutoCAD 2000
 90
0
 91
1
280
0
281
0
  0
CLASS
  1
LAYOUT
  2
AcDbLayout
  3
AutoCAD 2000
 90
0
 91
0
280
0
281
0
  0
ENDSEC
  0
SECTION
  2
TABLES
  0
TABLE
  2
VPORT
  5
8
100
AcDbSymbolTable
 70
2
  0
VPORT
  5
1F4
100
AcDbSymbolTableRecord
100
AcDbViewportTableRecord
  2
*ACTIVE
 70
0
 10
0.0
 20
0.0
 11
1.0
 21
1.0
 12
36.4755345287
 22
51.5868274049
 13
0.0
 23
0.0
 14
1.0
 24
1.0
 15
0.0
 25
0.0
 16
0.0
 26
0.0
 36
1.0
 17
0.0
 27
0.0
 37
0.0
 40
103.1736548098
 41
0.7070707071
 42
50.0
 43
0.0
 44
0.0
 50
0.0
 51
0.0
 71
0
 72
100
 73
1
 74
1
 75
0
 76
0
 77
0
 78
0
  0
ENDTAB
  0
TABLE
  2
LTYPE
  5
5
100
AcDbSymbolTable
 70
6
  0
LTYPE
  5
14
100
AcDbSymbolTableRecord
100
AcDbLinetypeTableRecord
  2
BYBLOCK
 70
0
  3

 72
65
 73
0
 40
0.0
  0
LTYPE
  5
15
100
AcDbSymbolTableRecord
100
AcDbLinetypeTableRecord
  2
BYLAYER
 70
0
  3

 72
65
 73
0
 40
0.0
  0
LTYPE
  5
16
100
AcDbSymbolTableRecord
100
AcDbLinetypeTableRecord
  2
CONTINUOUS
 70
64
  3
Solid line
 72
65
 73
0
 40
0.0
  0
LTYPE
  5
1F5
100
AcDbSymbolTableRecord
100
AcDbLinetypeTableRecord
  2
CENTER
 70
64
  3
____ _ ____ _ ____ _ ____ _ ____ _ ____ _ ____
 72
65
 73
4
 40
0.6
 49
0.375
 74
0
 49
-0.075
 74
0
 49
0.075
 74
0
 49
-0.075
 74
0
  0
LTYPE
  5
1F6
100
AcDbSymbolTableRecord
100
AcDbLinetypeTableRecord
  2
HIDDEN
 70
64
  3
- - - - - - - - - - - - - - - - - - - -
 72
65
 73
2
 40
0.2
 49
0.1
 74
0
 49
-0.1
 74
0
  0
LTYPE
  5
1F7
100
AcDbSymbolTableRecord
100
AcDbLinetypeTableRecord
  2
PHANTOM
 70
64
  3
_____ _ _ _____ _ _ _____ _ _ _____
 72
65
 73
6
 40
0.8
 49
0.45
 74
0
 49
-0.05
 74
0
 49
0.1
 74
0
 49
-0.05
 74
0
 49
0.1
 74
0
 49
-0.05
 74
0
  0
LTYPE
  5
1F8
100
AcDbSymbolTableRecord
100
AcDbLinetypeTableRecord
  2
DOT
 70
64
  3
. . . . . . . . . . . . . . . . . . . .
 72
65
 73
2
 40
0.2
 49
0.1
 74
0
 49
-0.1
 74
0
  0
LTYPE
  5
1F9
100
AcDbSymbolTableRecord
100
AcDbLinetypeTableRecord
  2
DASHED
 70
64
  3
- - - - - - - - - - - - - - - - - - - -
 72
65
 73
2
 40
0.2
 49
0.1
 74
0
 49
-0.1
 74
0
  0
ENDTAB
  0
TABLE
  2
LAYER
  5
2
100
AcDbSymbolTable
 70
36
  0
LAYER
  5
10
100
AcDbSymbolTableRecord
100
AcDbLayerTableRecord
  2
0
 70
0
 62
7
  6
CONTINUOUS
370
-3
390
F
  0
LAYER
  5
1FA
100
AcDbSymbolTableRecord
100
AcDbLayerTableRecord
  2
DEFAULT_1
 70
0
 62
7
  6
CENTER
370
-3
390
F
  0
LAYER
  5
1FB
100
AcDbSymbolTableRecord
100
AcDbLayerTableRecord
  2
DEFAULT_2
 70
0
 62
8
  6
HIDDEN
370
-3
390
F
  0
LAYER
  5
1FC
100
AcDbSymbolTableRecord
100
AcDbLayerTableRecord
  2
DEFAULT_3
 70
0
 62
7
  6
PHANTOM
370
-3
390
F
  0
LAYER
  5
1FD
100
AcDbSymbolTableRecord
100
AcDbLayerTableRecord
  2
00_COMPONENTS
 70
0
 62
7
  6
CONTINUOUS
370
-3
390
F
  0
LAYER
  5
1FE
100
AcDbSymbolTableRecord
100
AcDbLayerTableRecord
  2
00_COMPONENTS_1
 70
0
 62
7
  6
CONTINUOUS
370
-3
390
F
  0
LAYER
  5
1FF
100
AcDbSymbolTableRecord
100
AcDbLayerTableRecord
  2
01_1_DEFAULT_DATUMS
 70
0
 62
7
  6
CONTINUOUS
370
-3
390
F
  0
LAYER
  5
200
100
AcDbSymbolTableRecord
100
AcDbLayerTableRecord
  2
01_PLANES
 70
0
 62
7
  6
CONTINUOUS
370
-3
390
F
  0
LAYER
  5
201
100
AcDbSymbolTableRecord
100
AcDbLayerTableRecord
  2
02_COORD_SYS
 70
0
 62
7
  6
CONTINUOUS
370
-3
390
F
  0
LAYER
  5
202
100
AcDbSymbolTableRecord
100
AcDbLayerTableRecord
  2
03_AXES
 70
0
 62
7
  6
CONTINUOUS
370
-3
390
F
  0
LAYER
  5
203
100
AcDbSymbolTableRecord
100
AcDbLayerTableRecord
  2
04_POINTS
 70
0
 62
7
  6
CONTINUOUS
370
-3
390
F
  0
LAYER
  5
204
100
AcDbSymbolTableRecord
100
AcDbLayerTableRecord
  2
05_CURVES
 70
0
 62
7
  6
CONTINUOUS
370
-3
390
F
  0
LAYER
  5
205
100
AcDbSymbolTableRecord
100
AcDbLayerTableRecord
  2
06_SURFS
 70
0
 62
7
  6
CONTINUOUS
370
-3
390
F
  0
LAYER
  5
206
100
AcDbSymbolTableRecord
100
AcDbLayerTableRecord
  2
07_COSMETICS
 70
0
 62
7
  6
CONTINUOUS
370
-3
390
F
  0
LAYER
  5
207
100
AcDbSymbolTableRecord
100
AcDbLayerTableRecord
  2
10_NOTES
 70
0
 62
7
  6
CONTINUOUS
370
-3
390
F
  0
LAYER
  5
208
100
AcDbSymbolTableRecord
100
AcDbLayerTableRecord
  2
11_NOTES_PUB
 70
0
 62
7
  6
CONTINUOUS
370
-3
390
F
  0
LAYER
  5
209
100
AcDbSymbolTableRecord
100
AcDbLayerTableRecord
  2
13_REF_GTOL
 70
0
 62
7
  6
CONTINUOUS
370
-3
390
F
  0
LAYER
  5
20A
100
AcDbSymbolTableRecord
100
AcDbLayerTableRecord
  2
16_MISC
 70
0
 62
7
  6
CONTINUOUS
370
-3
390
F
  0
LAYER
  5
20B
100
AcDbSymbolTableRecord
100
AcDbLayerTableRecord
  2
17_NO_PRINT
 70
0
 62
7
  6
CONTINUOUS
370
-3
390
F
  0
LAYER
  5
20C
100
AcDbSymbolTableRecord
100
AcDbLayerTableRecord
  2
18_DATUM_CAMS_JOINTS
 70
0
 62
7
  6
CONTINUOUS
370
-3
390
F
  0
LAYER
  5
20D
100
AcDbSymbolTableRecord
100
AcDbLayerTableRecord
  2
19_DATUM_FUNCTIONAL
 70
0
 62
7
  6
CONTINUOUS
370
-3
390
F
  0
LAYER
  5
20E
100
AcDbSymbolTableRecord
100
AcDbLayerTableRecord
  2
20_DATUM_KINEMATIC_SCHEME
 70
0
 62
7
  6
CONTINUOUS
370
-3
390
F
  0
ENDTAB
  0
TABLE
  2
STYLE
  5
3
100
AcDbSymbolTable
 70
1
  0
STYLE
  5
11
100
AcDbSymbolTableRecord
100
AcDbTextStyleTableRecord
  2
STANDARD
 70
0
 40
0.0
 41
0.8
 50
0.0
 71
0
 42
0.2
  3
txt
  4

  0
STYLE
  5
20F
100
AcDbSymbolTableRecord
100
AcDbTextStyleTableRecord
  2
TEXTSTYLE_1
 70
0
 40
0.0
 41
0.8
 50
0.0
 71
0
 42
0.2
  3
gdt
  4

  0
ENDTAB
  0
TABLE
  2
VIEW
  5
6
100
AcDbSymbolTable
 70
0
  0
ENDTAB
  0
TABLE
  2
UCS
  5
7
100
AcDbSymbolTable
 70
0
  0
ENDTAB
  0
TABLE
  2
APPID
  5
9
100
AcDbSymbolTable
 70
1
  0
APPID
  5
210
100
AcDbSymbolTableRecord
100
AcDbRegAppTableRecord
  2
ACAD
 70
0
  0
ENDTAB
  0
TABLE
  2
BLOCK_RECORD
  5
1
100
AcDbSymbolTable
 70
0
  0
BLOCK_RECORD
  5
211
100
AcDbSymbolTableRecord
100
AcDbBlockTableRecord
  2
*Model_Space
  0
BLOCK_RECORD
  5
212
100
AcDbSymbolTableRecord
100
AcDbBlockTableRecord
  2
*Paper_Space
  0
BLOCK_RECORD
  5
213
100
AcDbSymbolTableRecord
100
AcDbBlockTableRecord
  2
_FILLED
  0
ENDTAB
  0
TABLE
  2
DIMSTYLE
  5
A
100
AcDbSymbolTable
 70
1
100
AcDbDimStyleTable
 71
0
  0
DIMSTYLE
105
214
100
AcDbSymbolTableRecord
100
AcDbDimStyleTableRecord
  2
STANDARD
 70
0
  3

  4

 40
1.0
 41
0.8684651078
 42
1.0
 43
0.38
 44
1.0
 45
0.0
 46
0.0
 47
0.01
 48
0.01
140
1.215851151
141
0.09
142
0.0
143
25.4
144
1.0
145
0.0
146
1.0
147
0.625
 71
1
 72
0
 73
0
 74
0
 75
0
 76
0
 77
1
 78
8
 79
2
170
0
171
1
172
0
173
0
174
0
175
0
176
0
177
0
178
0
270
2
179
2
271
2
272
2
273
2
274
2
275
0
280
0
281
0
282
0
283
1
284
8
285
0
286
0
287
3
288
0
340
11
278
46
341
213
342
213
343
213
344
213
  0
ENDTAB
  0
ENDSEC
  0
SECTION
  2
BLOCKS
  0
BLOCK
  5
20
100
AcDbEntity
  8
0
100
AcDbBlockBegin
  2
*Model_Space
 70
0
 10
0.0
 20
0.0
 30
0.0
  3
*Model_Space
  1

  0
ENDBLK
  5
21
100
AcDbEntity
  8
0
100
AcDbBlockEnd
  0
BLOCK
  5
1C
100
AcDbEntity
  8
0
100
AcDbBlockBegin
  2
*Paper_Space
 70
0
 10
0.0
 20
0.0
 30
0.0
  3
*Paper_Space
  1

  0
ENDBLK
  5
1D
100
AcDbEntity
  8
0
100
AcDbBlockEnd
  0
BLOCK
  5
215
100
AcDbEntity
  8
0
100
AcDbBlockBegin
  2
_FILLED
 70
64
 10
0.0
 20
0.0
  3
_FILLED
  1

  0
SOLID
  5
216
100
AcDbEntity
  8
0
  6
BYBLOCK
 62
0
100
AcDbTrace
 10
0.0
 20
0.0
 11
-1.0
 21
0.25
 12
-1.0
 22
-0.25
 13
-1.0
 23
-0.25
  0
ENDBLK
  5
217
100
AcDbEntity
  8
0
  6
BYBLOCK
 62
0
100
AcDbBlockEnd
  0
ENDSEC
  0
SECTION
  2
ENTITIES
  0
LINE
  5
218
100
AcDbEntity
  8
00_COMPONENTS_1
100
AcDbLine
 62
7
  6
CONTINUOUS
 10
18.0290820564
 20
11.7560723201
 11
11.3830898898
 21
15.5930508825
  0
LINE
  5
219
100
AcDbEntity
  8
00_COMPONENTS_1
100
AcDbLine
 62
7
  6
CONTINUOUS
 10
18.0290820564
 20
14.7395797736
 11
11.3830898898
 21
18.576558336
  0
LINE
  5
21A
100
AcDbEntity
  8
00_COMPONENTS_1
100
AcDbLine
 62
7
  6
CONTINUOUS
 10
17.9230164808
 20
15.1695649995
 11
11.2770243142
 21
19.0065435619
  0
LINE
  5
21B
100
AcDbEntity
  8
00_COMPONENTS_1
100
AcDbLine
 62
7
  6
CONTINUOUS
 10
17.287456978
 20
15.6181473902
 11
11.9134230668
 21
18.7207771246
  0
LINE
  5
21C
100
AcDbEntity
  8
00_COMPONENTS_1
100
AcDbLine
 62
7
  6
CONTINUOUS
 10
60.3052049017
 20
18.440134228
 11
59.183381707
 21
18.1545071168
  0
LINE
  5
21D
100
AcDbEntity
  8
00_COMPONENTS_1
100
AcDbLine
 62
7
  6
CONTINUOUS
 10
17.287456978
 20
17.0616626001
 11
11.9134230668
 21
20.1642923345
  0
LINE
  5
21E
100
AcDbEntity
  8
00_COMPONENTS_1
100
AcDbLine
 62
7
  6
CONTINUOUS
 10
17.287456978
 20
17.7672428157
 11
11.9134230668
 21
20.86987255
  0
LINE
  5
21F
100
AcDbEntity
  8
00_COMPONENTS_1
100
AcDbLine
 62
7
  6
CONTINUOUS
 10
29.4841642193
 20
11.0244652794
 11
23.1527787042
 21
14.6798097159
  0
LINE
  5
220
100
AcDbEntity
  8
00_COMPONENTS_1
100
AcDbLine
 62
7
  6
CONTINUOUS
 10
11.9134230668
 20
22.3133877599
 11
17.287456978
 21
19.2107580256
  0
LINE
  5
221
100
AcDbEntity
  8
00_COMPONENTS_1
100
AcDbLine
 62
7
  6
CONTINUOUS
 10
17.9230164808
 20
18.9254761183
 11
11.2770243142
 21
22.7624546807
  0
LINE
  5
222
100
AcDbEntity
  8
00_COMPONENTS_1
100
AcDbLine
 62
7
  6
CONTINUOUS
 10
18.0290820564
 20
19.4779345904
 11
11.3830898898
 21
23.3149131528
  0
LINE
  5
223
100
AcDbEntity
  8
00_COMPONENTS_1
100
AcDbLine
 62
7
  6
CONTINUOUS
 10
34.4151320523
 20
11.260934539
 11
32.1543611754
 21
12.5660950085
  0
LINE
  5
224
100
AcDbEntity
  8
00_COMPONENTS_1
100
AcDbLine
 62
7
  6
CONTINUOUS
 10
41.2917059015
 20
7.9630673175
 11
34.9973127249
 21
11.5970547007
  0
LINE
  5
225
100
AcDbEntity
  8
00_COMPONENTS_1
100
AcDbLine
 62
7
  6
CONTINUOUS
 10
11.2770243142
 20
19.0065435619
 11
11.3830898898
 21
18.576558336
  0
LINE
  5
226
100
AcDbEntity
  8
00_COMPONENTS_1
100
AcDbLine
 62
7
  6
CONTINUOUS
 10
9.7397703411
 20
35.562832871
 11
9.7397703411
 21
39.979747878
  0
LINE
  5
227
100
AcDbEntity
  8
00_COMPONENTS_1
100
AcDbLine
 62
7
  6
CONTINUOUS
 10
34.6457137349
 20
82.8357561702
 11
46.7029265586
 21
89.7969496869
  0
LINE
  5
228
100
AcDbEntity
  8
00_COMPONENTS_1
100
AcDbLine
 62
7
  6
CONTINUOUS
 10
53.7386097389
 20
93.8589790179
 11
56.5158053616
 21
95.4623840873
  0
LINE
  5
229
100
AcDbEntity
  8
00_COMPONENTS_1
100
AcDbLine
 62
7
  6
CONTINUOUS
 10
38.4556010838
 20
84.4638407112
 11
46.0089850956
 21
88.8247629725
  0
LINE
  5
22A
100
AcDbEntity
  8
00_COMPONENTS_1
100
AcDbLine
 62
7
  6
CONTINUOUS
 10
9.7397703411
 20
35.562832871
 11
13.0136883685
 21
33.6726781776
  0
LINE
  5
22B
100
AcDbEntity
  8
00_COMPONENTS_1
100
AcDbLine
 62
7
  6
CONTINUOUS
 10
18.0290820564
 20
14.7395797736
 11
17.9230164808
 21
15.1695649995
  0
LINE
  5
22C
100
AcDbEntity
  8
00_COMPONENTS_1
100
AcDbLine
 62
7
  6
CONTINUOUS
 10
11.2770243142
 20
19.0065435619
 11
11.2770243142
 21
22.7624546807
  0
LINE
  5
22D
100
AcDbEntity
  8
00_COMPONENTS_1
100
AcDbLine
 62
7
  6
CONTINUOUS
 10
11.3830898898
 20
15.5930508825
 11
11.3830898898
 21
18.576558336
  0
LINE
  5
22E
100
AcDbEntity
  8
00_COMPONENTS_1
100
AcDbLine
 62
7
  6
CONTINUOUS
 10
11.3830898898
 20
23.3149131528
 11
11.3830898898
 21
34.6140833508
  0
LINE
  5
22F
100
AcDbEntity
  8
00_COMPONENTS_1
100
AcDbLine
 62
7
  6
CONTINUOUS
 10
11.3830898898
 20
41.637870475
 11
11.3830898898
 21
52.1816490332
  0
LINE
  5
230
100
AcDbEntity
  8
00_COMPONENTS_1
100
AcDbLine
 62
7
  6
CONTINUOUS
 10
11.9134230668
 20
22.3133877599
 11
11.9134230668
 21
20.86987255
  0
LINE
  5
231
100
AcDbEntity
  8
00_COMPONENTS_1
100
AcDbLine
 62
7
  6
CONTINUOUS
 10
11.9134230668
 20
20.1642923345
 11
11.9134230668
 21
18.7207771246
  0
LINE
  5
232
100
AcDbEntity
  8
00_COMPONENTS_1
100
AcDbLine
 62
7
  6
CONTINUOUS
 10
12.6176810155
 20
43.9311524337
 11
12.6176810155
 21
42.764004377
  0
LINE
  5
233
100
AcDbEntity
  8
00_COMPONENTS_1
100
AcDbLine
 62
7
  6
CONTINUOUS
 10
13.0136883685
 20
33.6726781776
 11
13.0136883685
 21
38.0895931845
  0
LINE
  5
234
100
AcDbEntity
  8
00_COMPONENTS_1
100
AcDbLine
 62
7
  6
CONTINUOUS
 10
13.1126537016
 20
43.21013349
 11
13.1126537016
 21
43.645386285
  0
LINE
  5
235
100
AcDbEntity
  8
00_COMPONENTS_1
100
AcDbLine
 62
7
  6
CONTINUOUS
 10
48.1100992279
 20
88.9845365467
 11
53.3782990899
 21
92.0261149994
  0
LINE
  5
236
100
AcDbEntity
  8
00_COMPONENTS_1
100
AcDbLine
 62
7
  6
CONTINUOUS
 10
49.2414747882
 20
88.3313513395
 11
54.362480798
 21
91.2879478893
  0
LINE
  5
237
100
AcDbEntity
  8
00_COMPONENTS_1
100
AcDbLine
 62
7
  6
CONTINUOUS
 10
49.5313654592
 20
88.1639866688
 11
56.5670486395
 21
92.2260159999
  0
LINE
  5
238
100
AcDbEntity
  8
00_COMPONENTS_1
100
AcDbLine
 62
7
  6
CONTINUOUS
 10
43.3249115112
 20
83.6825109808
 11
43.2137954899
 21
83.6183584989
  0
LINE
  5
239
100
AcDbEntity
  8
00_COMPONENTS_1
100
AcDbLine
 62
7
  6
CONTINUOUS
 10
41.6992108352
 20
82.6214446144
 11
41.8702990824
 21
82.7202218703
  0
LINE
  5
23A
100
AcDbEntity
  8
00_COMPONENTS_1
100
AcDbLine
 62
7
  6
CONTINUOUS
 10
55.3650209861
 20
13.6051555699
 11
53.100339983
 21
14.9126401774
  0
LINE
  5
23B
100
AcDbEntity
  8
00_COMPONENTS_1
100
AcDbLine
 62
7
  6
CONTINUOUS
 10
13.0136883685
 20
38.0895931845
 11
9.7397703411
 21
39.979747878
  0
LINE
  5
23C
100
AcDbEntity
  8
00_COMPONENTS_1
100
AcDbLine
 62
7
  6
CONTINUOUS
 10
16.6539082354
 20
36.2053884507
 11
15.8591014819
 21
36.6642599627
  0
LINE
  5
23D
100
AcDbEntity
  8
00_COMPONENTS_1
100
AcDbLine
 62
7
  6
CONTINUOUS
 10
16.5979744729
 20
41.5105204592
 11
16.5979744729
 21
37.3789791874
  0
LINE
  5
23E
100
AcDbEntity
  8
00_COMPONENTS_1
100
AcDbLine
 62
7
  6
CONTINUOUS
 10
16.6539082354
 20
41.6008882794
 11
16.6539082354
 21
36.2053884507
  0
LINE
  5
23F
100
AcDbEntity
  8
00_COMPONENTS_1
100
AcDbLine
 62
7
  6
CONTINUOUS
 10
60.3846019055
 20
90.0198870006
 11
63.1617975282
 21
91.6254055249
  0
LINE
  5
240
100
AcDbEntity
  8
00_COMPONENTS_1
100
AcDbLine
 62
7
  6
CONTINUOUS
 10
51.5112826991
 20
85.6328882119
 11
44.0159820246
 21
81.3055001809
  0
LINE
  5
241
100
AcDbEntity
  8
00_COMPONENTS_1
100
AcDbLine
 62
7
  6
CONTINUOUS
 10
27.7691398857
 20
71.5987165935
 11
34.6457137349
 21
75.5688846577
  0
LINE
  5
242
100
AcDbEntity
  8
00_COMPONENTS_1
100
AcDbLine
 62
7
  6
CONTINUOUS
 10
53.525684143
 20
86.0578114092
 11
60.384591364
 21
90.0177797018
  0
LINE
  5
243
100
AcDbEntity
  8
00_COMPONENTS_1
100
AcDbLine
 62
7
  6
CONTINUOUS
 10
35.1406905425
 20
75.2831161296
 11
28.2641166933
 21
71.3129480653
  0
LINE
  5
244
100
AcDbEntity
  8
00_COMPONENTS_1
100
AcDbLine
 62
7
  6
CONTINUOUS
 10
41.2917059015
 20
78.9987776078
 11
53.5256946846
 21
86.059918708
  0
LINE
  5
245
100
AcDbEntity
  8
00_COMPONENTS_1
100
AcDbLine
 62
7
  6
CONTINUOUS
 10
16.6539082354
 20
36.776925507
 11
16.2291128719
 21
37.0221756762
  0
LINE
  5
246
100
AcDbEntity
  8
00_COMPONENTS_1
100
AcDbLine
 62
7
  6
CONTINUOUS
 10
53.2253043455
 20
16.0826929144
 11
54.2336454258
 21
15.5005400903
  0
LINE
  5
247
100
AcDbEntity
  8
00_COMPONENTS_1
100
AcDbLine
 62
7
  6
CONTINUOUS
 10
53.2398010902
 20
16.0932657753
 11
54.2350441393
 21
15.518674932
  0
LINE
  5
248
100
AcDbEntity
  8
00_COMPONENTS_1
100
AcDbLine
 62
7
  6
CONTINUOUS
 10
54.3285304608
 20
16.7307599504
 11
55.3650209861
 21
16.1323554044
  0
LINE
  5
249
100
AcDbEntity
  8
00_COMPONENTS_1
100
AcDbLine
 62
7
  6
CONTINUOUS
 10
17.287456978
 20
15.6181473902
 11
17.287456978
 21
17.0616626001
  0
LINE
  5
24A
100
AcDbEntity
  8
00_COMPONENTS_1
100
AcDbLine
 62
7
  6
CONTINUOUS
 10
17.287456978
 20
17.7672428157
 11
17.287456978
 21
19.2107580256
  0
LINE
  5
24B
100
AcDbEntity
  8
00_COMPONENTS_1
100
AcDbLine
 62
7
  6
CONTINUOUS
 10
17.9230164808
 20
15.1695649995
 11
17.9230164808
 21
18.9254761183
  0
LINE
  5
24C
100
AcDbEntity
  8
00_COMPONENTS_1
100
AcDbLine
 62
7
  6
CONTINUOUS
 10
18.0290820564
 20
11.7560723201
 11
18.0290820564
 21
14.7395797736
  0
LINE
  5
24D
100
AcDbEntity
  8
00_COMPONENTS_1
100
AcDbLine
 62
7
  6
CONTINUOUS
 10
18.0290820564
 20
19.4779345904
 11
18.0290820564
 21
48.3446704709
  0
LINE
  5
24E
100
AcDbEntity
  8
00_COMPONENTS_1
100
AcDbLine
 62
7
  6
CONTINUOUS
 10
11.3830898898
 20
23.3149131528
 11
11.2770243142
 21
22.7624546807
  0
LINE
  5
24F
100
AcDbEntity
  8
00_COMPONENTS_1
100
AcDbLine
 62
7
  6
CONTINUOUS
 10
27.7691398857
 20
71.5987165935
 11
25.5066300036
 21
67.6797791373
  0
LINE
  5
250
100
AcDbEntity
  8
00_COMPONENTS_1
100
AcDbLine
 62
7
  6
CONTINUOUS
 10
26.0016068112
 20
67.3940106091
 11
28.2641166933
 21
71.3129480653
  0
LINE
  5
251
100
AcDbEntity
  8
00_COMPONENTS_1
100
AcDbLine
 62
7
  6
CONTINUOUS
 10
40.0203901073
 20
73.3384829585
 11
40.0424089805
 21
73.3514042823
  0
LINE
  5
252
100
AcDbEntity
  8
00_COMPONENTS_1
100
AcDbLine
 62
7
  6
CONTINUOUS
 10
55.1205692128
 20
85.126417828
 11
61.9794764338
 21
89.0863861205
  0
LINE
  5
253
100
AcDbEntity
  8
00_COMPONENTS_1
100
AcDbLine
 62
7
  6
CONTINUOUS
 10
22.8381720527
 20
66.1391534173
 11
25.5066300036
 21
67.6797791373
  0
LINE
  5
254
100
AcDbEntity
  8
00_COMPONENTS_1
100
AcDbLine
 62
7
  6
CONTINUOUS
 10
54.1808563788
 20
83.786167627
 11
54.4530566628
 21
83.9433215962
  0
LINE
  5
255
100
AcDbEntity
  8
00_COMPONENTS_1
100
AcDbLine
 62
7
  6
CONTINUOUS
 10
26.0016068112
 20
67.3940106091
 11
29.3471198364
 21
69.3255319252
  0
LINE
  5
256
100
AcDbEntity
  8
00_COMPONENTS_1
100
AcDbLine
 62
7
  6
CONTINUOUS
 10
31.5319650121
 20
70.5869453459
 11
35.1406905425
 21
72.6704315656
  0
LINE
  5
257
100
AcDbEntity
  8
00_COMPONENTS_1
100
AcDbLine
 62
7
  6
CONTINUOUS
 10
55.6026995005
 20
84.2913483094
 11
62.4616067215
 21
88.251316602
  0
LINE
  5
258
100
AcDbEntity
  8
00_COMPONENTS_1
100
AcDbLine
 62
7
  6
CONTINUOUS
 10
62.0967242892
 20
86.7356024137
 11
55.2378170682
 21
82.7756341212
  0
LINE
  5
259
100
AcDbEntity
  8
00_COMPONENTS_1
100
AcDbLine
 62
7
  6
CONTINUOUS
 10
13.3240564455
 20
43.4006751527
 11
16.5979744729
 21
41.5105204592
  0
LINE
  5
25A
100
AcDbEntity
  8
00_COMPONENTS_1
100
AcDbLine
 62
7
  6
CONTINUOUS
 10
12.6176810155
 20
43.9311524337
 11
16.6539082354
 21
41.6008882794
  0
LINE
  5
25B
100
AcDbEntity
  8
00_COMPONENTS_1
100
AcDbLine
 62
7
  6
CONTINUOUS
 10
57.041876856
 20
18.8662206169
 11
57.1319242543
 21
18.8142329034
  0
LINE
  5
25C
100
AcDbEntity
  8
00_COMPONENTS_1
100
AcDbLine
 62
7
  6
CONTINUOUS
 10
57.5531465846
 20
18.5924818246
 11
57.1483290634
 21
18.8261980421
  0
LINE
  5
25D
100
AcDbEntity
  8
00_COMPONENTS_1
100
AcDbLine
 62
7
  6
CONTINUOUS
 10
58.1468911817
 20
18.9352783813
 11
59.183381707
 21
18.3368738353
  0
LINE
  5
25E
100
AcDbEntity
  8
00_COMPONENTS_1
100
AcDbLine
 62
7
  6
CONTINUOUS
 10
22.8381720527
 20
58.8711181316
 11
22.8381720527
 21
66.1391534173
  0
LINE
  5
25F
100
AcDbEntity
  8
00_COMPONENTS_1
100
AcDbLine
 62
7
  6
CONTINUOUS
 10
22.6832727143
 20
58.7816874907
 11
11.3830898898
 21
52.1816490332
  0
LINE
  5
260
100
AcDbEntity
  8
00_COMPONENTS_1
100
AcDbLine
 62
7
  6
CONTINUOUS
 10
33.7795725495
 20
68.1286701801
 11
40.6561463987
 21
72.0988382443
  0
LINE
  5
261
100
AcDbEntity
  8
00_COMPONENTS_1
100
AcDbLine
 62
7
  6
CONTINUOUS
 10
34.4151320523
 20
67.7617380311
 11
41.2917059015
 21
71.7319060954
  0
LINE
  5
262
100
AcDbEntity
  8
00_COMPONENTS_1
100
AcDbLine
 62
7
  6
CONTINUOUS
 10
22.6832727143
 20
58.7816874907
 11
22.8381720527
 21
58.8711181316
  0
LINE
  5
263
100
AcDbEntity
  8
00_COMPONENTS_1
100
AcDbLine
 62
7
  6
CONTINUOUS
 10
61.0028148171
 20
19.247933741
 11
60.9809665091
 21
19.2605475822
  0
LINE
  5
264
100
AcDbEntity
  8
00_COMPONENTS_1
100
AcDbLine
 62
7
  6
CONTINUOUS
 10
39.5087714702
 20
33.268000052
 11
33.8187107414
 21
36.5530838269
  0
LINE
  5
265
100
AcDbEntity
  8
00_COMPONENTS_1
100
AcDbLine
 62
7
  6
CONTINUOUS
 10
17.9230164808
 20
18.9254761183
 11
18.0290820564
 21
19.4779345904
  0
LINE
  5
266
100
AcDbEntity
  8
00_COMPONENTS_1
100
AcDbLine
 62
7
  6
CONTINUOUS
 10
46.0089850956
 20
88.8247629725
 11
43.3249115112
 21
84.0091119476
  0
LINE
  5
267
100
AcDbEntity
  8
00_COMPONENTS_1
100
AcDbLine
 62
7
  6
CONTINUOUS
 10
33.7795725495
 20
68.1286701801
 11
31.5170626674
 21
64.2097327239
  0
LINE
  5
268
100
AcDbEntity
  8
00_COMPONENTS_1
100
AcDbLine
 62
7
  6
CONTINUOUS
 10
32.1526221703
 20
63.8428005749
 11
34.4151320523
 21
67.7617380311
  0
LINE
  5
269
100
AcDbEntity
  8
00_COMPONENTS_1
100
AcDbLine
 62
7
  6
CONTINUOUS
 10
29.4841642193
 20
62.3021748549
 11
32.1526221703
 21
63.8428005749
  0
LINE
  5
26A
100
AcDbEntity
  8
00_COMPONENTS_1
100
AcDbLine
 62
7
  6
CONTINUOUS
 10
26.9033313612
 20
60.3211459339
 11
27.3113022785
 21
60.5566866468
  0
LINE
  5
26B
100
AcDbEntity
  8
00_COMPONENTS_1
100
AcDbLine
 62
7
  6
CONTINUOUS
 10
39.5087714702
 20
35.1749844184
 11
34.3454562572
 21
38.1559584079
  0
LINE
  5
26C
100
AcDbEntity
  8
00_COMPONENTS_1
100
AcDbLine
 62
7
  6
CONTINUOUS
 10
18.0290820564
 20
48.3446704709
 11
11.3830898898
 21
52.1816490332
  0
LINE
  5
26D
100
AcDbEntity
  8
00_COMPONENTS_1
100
AcDbLine
 62
7
  6
CONTINUOUS
 10
41.1351102958
 20
36.1139459723
 11
35.9717950828
 21
39.0949199618
  0
LINE
  5
26E
100
AcDbEntity
  8
00_COMPONENTS_1
100
AcDbLine
 62
7
  6
CONTINUOUS
 10
29.4841642193
 20
11.0244652794
 11
29.4841642193
 21
18.2926911706
  0
LINE
  5
26F
100
AcDbEntity
  8
00_COMPONENTS_1
100
AcDbLine
 62
7
  6
CONTINUOUS
 10
29.4841642193
 20
55.0341395692
 11
29.4841642193
 21
62.3021748549
  0
LINE
  5
270
100
AcDbEntity
  8
00_COMPONENTS_1
100
AcDbLine
 62
7
  6
CONTINUOUS
 10
18.0290820564
 20
48.3446704709
 11
29.329264881
 21
54.9447089283
  0
LINE
  5
271
100
AcDbEntity
  8
00_COMPONENTS_1
100
AcDbLine
 62
7
  6
CONTINUOUS
 10
29.329264881
 20
54.9447089283
 11
29.4841642193
 21
55.0341395692
  0
LINE
  5
272
100
AcDbEntity
  8
00_COMPONENTS_1
100
AcDbLine
 62
7
  6
CONTINUOUS
 10
45.5725592406
 20
44.6481090319
 11
45.7475524752
 21
44.6654372162
  0
LINE
  5
273
100
AcDbEntity
  8
00_COMPONENTS_1
100
AcDbLine
 62
7
  6
CONTINUOUS
 10
38.4447829164
 20
42.3670319987
 11
37.0643325763
 21
43.1631681887
  0
LINE
  5
274
100
AcDbEntity
  8
00_COMPONENTS_1
100
AcDbLine
 62
7
  6
CONTINUOUS
 10
38.909853659
 20
39.4847835914
 11
39.4755414391
 21
39.1581909877
  0
LINE
  5
275
100
AcDbEntity
  8
00_COMPONENTS_1
100
AcDbLine
 62
7
  6
CONTINUOUS
 10
36.604698388
 20
40.9790156428
 11
36.3430714403
 21
41.1300626144
  0
LINE
  5
276
100
AcDbEntity
  8
00_COMPONENTS_1
100
AcDbLine
 62
7
  6
CONTINUOUS
 10
41.413889518
 20
38.6923795682
 11
37.0289606904
 21
41.2239621351
  0
LINE
  5
277
100
AcDbEntity
  8
00_COMPONENTS_1
100
AcDbLine
 62
7
  6
CONTINUOUS
 10
41.413889518
 20
40.6519853693
 11
39.0097164525
 21
42.0400039347
  0
LINE
  5
278
100
AcDbEntity
  8
00_COMPONENTS_1
100
AcDbLine
 62
7
  6
CONTINUOUS
 10
38.4440286723
 20
43.2647491971
 11
39.0097164525
 21
42.9381565935
  0
LINE
  5
279
100
AcDbEntity
  8
00_COMPONENTS_1
100
AcDbLine
 62
7
  6
CONTINUOUS
 10
31.5319650121
 20
68.0785866597
 11
31.5319650121
 21
70.5869453459
  0
LINE
  5
27A
100
AcDbEntity
  8
00_COMPONENTS_1
100
AcDbLine
 62
7
  6
CONTINUOUS
 10
31.5675232494
 20
68.0582926929
 11
31.5675232494
 21
69.5864203661
  0
LINE
  5
27B
100
AcDbEntity
  8
00_COMPONENTS_1
100
AcDbLine
 62
7
  6
CONTINUOUS
 10
33.8187107414
 20
35.8922377568
 11
33.8187107414
 21
37.8518435579
  0
LINE
  5
27C
100
AcDbEntity
  8
00_COMPONENTS_1
100
AcDbLine
 62
7
  6
CONTINUOUS
 10
60.2714652916
 20
70.523201369
 11
64.3443833939
 21
72.8746876953
  0
LINE
  5
27D
100
AcDbEntity
  8
00_COMPONENTS_1
100
AcDbLine
 62
7
  6
CONTINUOUS
 10
45.5725592406
 20
46.6893650747
 11
45.7475524752
 21
46.706693259
  0
LINE
  5
27E
100
AcDbEntity
  8
00_COMPONENTS_1
100
AcDbLine
 62
7
  6
CONTINUOUS
 10
43.3937802622
 20
41.7950690002
 11
40.9896071967
 21
43.1830875655
  0
LINE
  5
27F
100
AcDbEntity
  8
00_COMPONENTS_1
100
AcDbLine
 62
7
  6
CONTINUOUS
 10
39.6460852777
 20
43.9587527592
 11
39.044204477
 21
44.3062409403
  0
LINE
  5
280
100
AcDbEntity
  8
00_COMPONENTS_1
100
AcDbLine
 62
7
  6
CONTINUOUS
 10
40.4254279047
 20
44.4087037489
 11
40.9911156848
 21
44.0821111452
  0
LINE
  5
281
100
AcDbEntity
  8
00_COMPONENTS_1
100
AcDbLine
 62
7
  6
CONTINUOUS
 10
34.6457137349
 20
75.5688846577
 11
34.6457137349
 21
82.8357561702
  0
LINE
  5
282
100
AcDbEntity
  8
00_COMPONENTS_1
100
AcDbLine
 62
7
  6
CONTINUOUS
 10
35.1406905425
 20
72.6704315656
 11
35.1406905425
 21
75.2831161296
  0
LINE
  5
283
100
AcDbEntity
  8
00_COMPONENTS_1
100
AcDbLine
 62
7
  6
CONTINUOUS
 10
36.3430714403
 20
40.4605435954
 11
36.3430714403
 21
42.7467503633
  0
LINE
  5
284
100
AcDbEntity
  8
00_COMPONENTS_1
100
AcDbLine
 62
7
  6
CONTINUOUS
 10
36.604698388
 20
40.9790156428
 11
36.604698388
 21
42.8977998504
  0
LINE
  5
285
100
AcDbEntity
  8
00_COMPONENTS_1
100
AcDbLine
 62
7
  6
CONTINUOUS
 10
37.0289606904
 20
43.1427463427
 11
37.0289606904
 21
41.2239621351
  0
LINE
  5
286
100
AcDbEntity
  8
00_COMPONENTS_1
100
AcDbLine
 62
7
  6
CONTINUOUS
 10
41.2220832067
 20
46.2168229517
 11
41.7877709868
 21
45.8902303481
  0
LINE
  5
287
100
AcDbEntity
  8
00_COMPONENTS_1
100
AcDbLine
 62
7
  6
CONTINUOUS
 10
43.6969466369
 20
45.3594707223
 11
44.2626344171
 21
45.0328781187
  0
LINE
  5
288
100
AcDbEntity
  8
00_COMPONENTS_1
100
AcDbLine
 62
7
  6
CONTINUOUS
 10
45.5000629635
 20
44.8083221199
 11
45.7475524752
 21
44.6654372162
  0
LINE
  5
289
100
AcDbEntity
  8
00_COMPONENTS_1
100
AcDbLine
 62
7
  6
CONTINUOUS
 10
29.329264881
 20
54.9447089283
 11
22.6832727143
 21
58.7816874907
  0
LINE
  5
28A
100
AcDbEntity
  8
00_COMPONENTS_1
100
AcDbLine
 62
7
  6
CONTINUOUS
 10
29.4841642193
 20
55.0341395692
 11
22.8381720527
 21
58.8711181316
  0
LINE
  5
28B
100
AcDbEntity
  8
00_COMPONENTS_1
100
AcDbLine
 62
7
  6
CONTINUOUS
 10
45.5000629635
 20
46.8495781627
 11
45.7475524752
 21
46.706693259
  0
LINE
  5
28C
100
AcDbEntity
  8
00_COMPONENTS_1
100
AcDbLine
 62
7
  6
CONTINUOUS
 10
38.4440286723
 20
42.3665965383
 11
38.4440286723
 21
43.2647491971
  0
LINE
  5
28D
100
AcDbEntity
  8
00_COMPONENTS_1
100
AcDbLine
 62
7
  6
CONTINUOUS
 10
38.909853659
 20
40.1380526399
 11
38.909853659
 21
39.4847835914
  0
LINE
  5
28E
100
AcDbEntity
  8
00_COMPONENTS_1
100
AcDbLine
 62
7
  6
CONTINUOUS
 10
39.4331137369
 20
44.5307764659
 11
39.4331137369
 21
44.081709154
  0
LINE
  5
28F
100
AcDbEntity
  8
00_COMPONENTS_1
100
AcDbLine
 62
7
  6
CONTINUOUS
 10
39.4755414391
 20
39.8114600363
 11
39.4755414391
 21
39.1581909877
  0
LINE
  5
290
100
AcDbEntity
  8
00_COMPONENTS_1
100
AcDbLine
 62
7
  6
CONTINUOUS
 10
39.5087714702
 20
33.268000052
 11
39.5087714702
 21
35.1749844184
  0
LINE
  5
291
100
AcDbEntity
  8
00_COMPONENTS_1
100
AcDbLine
 62
7
  6
CONTINUOUS
 10
39.5250387077
 20
44.5838490557
 11
39.5250387077
 21
45.3187012312
  0
LINE
  5
292
100
AcDbEntity
  8
00_COMPONENTS_1
100
AcDbLine
 62
7
  6
CONTINUOUS
 10
40.0203901073
 20
73.3384829585
 11
40.0203901073
 21
73.4749551625
  0
LINE
  5
293
100
AcDbEntity
  8
00_COMPONENTS_1
100
AcDbLine
 62
7
  6
CONTINUOUS
 10
39.0097164525
 20
42.0400039347
 11
39.0112249406
 21
42.9390275144
  0
LINE
  5
294
100
AcDbEntity
  8
00_COMPONENTS_1
100
AcDbLine
 62
7
  6
CONTINUOUS
 10
12.7659921214
 20
21.8211679223
 11
11.9134230668
 21
20.86987255
  0
LINE
  5
295
100
AcDbEntity
  8
00_COMPONENTS_1
100
AcDbLine
 62
7
  6
CONTINUOUS
 10
56.9692953003
 20
49.9878515165
 11
56.9258727218
 21
49.9969791518
  0
LINE
  5
296
100
AcDbEntity
  8
00_COMPONENTS_1
100
AcDbLine
 62
7
  6
CONTINUOUS
 10
41.1351102958
 20
36.1139459723
 11
41.1351102958
 21
34.2069616059
  0
LINE
  5
297
100
AcDbEntity
  8
00_COMPONENTS_1
100
AcDbLine
 62
7
  6
CONTINUOUS
 10
41.2220832067
 20
46.2984844809
 11
41.2220832067
 21
46.2168229517
  0
LINE
  5
298
100
AcDbEntity
  8
00_COMPONENTS_1
100
AcDbLine
 62
7
  6
CONTINUOUS
 10
41.2917059015
 20
7.9630673175
 11
41.2917059015
 21
15.2311026033
  0
LINE
  5
299
100
AcDbEntity
  8
00_COMPONENTS_1
100
AcDbLine
 62
7
  6
CONTINUOUS
 10
41.2917059015
 20
71.7319060954
 11
41.2917059015
 21
78.9987776078
  0
LINE
  5
29A
100
AcDbEntity
  8
00_COMPONENTS_1
100
AcDbLine
 62
7
  6
CONTINUOUS
 10
41.413889518
 20
38.6923795682
 11
41.413889518
 21
40.6519853693
  0
LINE
  5
29B
100
AcDbEntity
  8
00_COMPONENTS_1
100
AcDbLine
 62
7
  6
CONTINUOUS
 10
41.7877709868
 20
46.6250825236
 11
41.7877709868
 21
45.8902303481
  0
LINE
  5
29C
100
AcDbEntity
  8
00_COMPONENTS_1
100
AcDbLine
 62
7
  6
CONTINUOUS
 10
43.2137954899
 20
83.6183584989
 11
43.2137954899
 21
81.7611485029
  0
LINE
  5
29D
100
AcDbEntity
  8
00_COMPONENTS_1
100
AcDbLine
 62
7
  6
CONTINUOUS
 10
43.3249115112
 20
83.6825109808
 11
43.3249115112
 21
84.0091119476
  0
LINE
  5
29E
100
AcDbEntity
  8
00_COMPONENTS_1
100
AcDbLine
 62
7
  6
CONTINUOUS
 10
43.3937802622
 20
41.7950690002
 11
43.3937802622
 21
39.835463199
  0
LINE
  5
29F
100
AcDbEntity
  8
00_COMPONENTS_1
100
AcDbLine
 62
7
  6
CONTINUOUS
 10
43.6969466369
 20
46.9924868441
 11
43.6969466369
 21
45.3594707223
  0
LINE
  5
2A0
100
AcDbEntity
  8
00_COMPONENTS_1
100
AcDbLine
 62
7
  6
CONTINUOUS
 10
44.2626344171
 20
47.3190848867
 11
44.2626344171
 21
45.0328781187
  0
LINE
  5
2A1
100
AcDbEntity
  8
00_COMPONENTS_1
100
AcDbLine
 62
7
  6
CONTINUOUS
 10
40.9911156848
 20
44.0821111452
 11
40.9896071967
 21
43.1830875655
  0
LINE
  5
2A2
100
AcDbEntity
  8
00_COMPONENTS_1
100
AcDbLine
 62
7
  6
CONTINUOUS
 10
53.7386097389
 20
93.3772425918
 11
53.3782990899
 21
92.0261149994
  0
LINE
  5
2A3
100
AcDbEntity
  8
00_COMPONENTS_1
100
AcDbLine
 62
7
  6
CONTINUOUS
 10
54.362480798
 20
91.2879478893
 11
54.2569719243
 21
90.8923005477
  0
LINE
  5
2A4
100
AcDbEntity
  8
00_COMPONENTS_1
100
AcDbLine
 62
7
  6
CONTINUOUS
 10
39.5250387077
 20
45.3187012312
 11
41.7877709868
 21
46.6250825236
  0
LINE
  5
2A5
100
AcDbEntity
  8
00_COMPONENTS_1
100
AcDbLine
 62
7
  6
CONTINUOUS
 10
64.3443833939
 20
42.1749193055
 11
60.2714652916
 21
44.5263664714
  0
LINE
  5
2A6
100
AcDbEntity
  8
00_COMPONENTS_1
100
AcDbLine
 62
7
  6
CONTINUOUS
 10
29.4841642193
 20
62.3021748549
 11
22.8381720527
 21
66.1391534173
  0
LINE
  5
2A7
100
AcDbEntity
  8
00_COMPONENTS_1
100
AcDbLine
 62
7
  6
CONTINUOUS
 10
45.5000661322
 20
44.8083276083
 11
45.5725592406
 21
44.6481090319
  0
LINE
  5
2A8
100
AcDbEntity
  8
00_COMPONENTS_1
100
AcDbLine
 62
7
  6
CONTINUOUS
 10
45.5000661322
 20
46.8495836511
 11
45.5725592406
 21
46.6893650747
  0
LINE
  5
2A9
100
AcDbEntity
  8
00_COMPONENTS_1
100
AcDbLine
 62
7
  6
CONTINUOUS
 10
47.4460523143
 20
46.2176123939
 11
47.4460523143
 21
47.6873167448
  0
LINE
  5
2AA
100
AcDbEntity
  8
00_COMPONENTS_1
100
AcDbLine
 62
7
  6
CONTINUOUS
 10
36.3430714403
 20
42.7467503633
 11
39.5250387077
 21
44.5838490557
  0
LINE
  5
2AB
100
AcDbEntity
  8
00_COMPONENTS_1
100
AcDbLine
 62
7
  6
CONTINUOUS
 10
41.7877709868
 20
45.8902303481
 11
44.2626344171
 21
47.3190848867
  0
LINE
  5
2AC
100
AcDbEntity
  8
00_COMPONENTS_1
100
AcDbLine
 62
7
  6
CONTINUOUS
 10
55.8916416697
 20
53.3798533437
 11
56.1066236904
 21
53.5039725303
  0
LINE
  5
2AD
100
AcDbEntity
  8
00_COMPONENTS_1
100
AcDbLine
 62
7
  6
CONTINUOUS
 10
38.4455371605
 20
43.265620118
 11
40.4254279047
 21
44.4087037489
  0
LINE
  5
2AE
100
AcDbEntity
  8
00_COMPONENTS_1
100
AcDbLine
 62
7
  6
CONTINUOUS
 10
45.7475524752
 20
47.278244951
 11
55.8916416697
 21
53.1349026186
  0
LINE
  5
2AF
100
AcDbEntity
  8
00_COMPONENTS_1
100
AcDbLine
 62
7
  6
CONTINUOUS
 10
39.0112249406
 20
42.9390275144
 11
40.9911156848
 21
44.0821111452
  0
LINE
  5
2B0
100
AcDbEntity
  8
00_COMPONENTS_1
100
AcDbLine
 62
7
  6
CONTINUOUS
 10
45.7475524752
 20
46.706693259
 11
47.4460523143
 21
47.6873167448
  0
LINE
  5
2B1
100
AcDbEntity
  8
00_COMPONENTS_1
100
AcDbLine
 62
7
  6
CONTINUOUS
 10
57.5915482253
 20
53.4631518542
 11
56.884444388
 21
53.0549077004
  0
LINE
  5
2B2
100
AcDbEntity
  8
00_COMPONENTS_1
100
AcDbLine
 62
7
  6
CONTINUOUS
 10
43.6969466369
 20
45.3594707223
 11
40.9907442105
 21
43.7970533493
  0
LINE
  5
2B3
100
AcDbEntity
  8
00_COMPONENTS_1
100
AcDbLine
 62
7
  6
CONTINUOUS
 10
56.8690800387
 20
52.7198741144
 11
52.4160913455
 21
50.1489552395
  0
LINE
  5
2B4
100
AcDbEntity
  8
00_COMPONENTS_1
100
AcDbLine
 62
7
  6
CONTINUOUS
 10
37.0289606904
 20
41.2239621351
 11
36.604698388
 21
40.9790156428
  0
LINE
  5
2B5
100
AcDbEntity
  8
00_COMPONENTS_1
100
AcDbLine
 62
7
  6
CONTINUOUS
 10
40.9896071967
 20
43.1830875655
 11
39.0097164525
 21
42.0400039347
  0
LINE
  5
2B6
100
AcDbEntity
  8
00_COMPONENTS_1
100
AcDbLine
 62
7
  6
CONTINUOUS
 10
44.2626344171
 20
45.0328781187
 11
41.0241459213
 21
43.1631470747
  0
LINE
  5
2B7
100
AcDbEntity
  8
00_COMPONENTS_1
100
AcDbLine
 62
7
  6
CONTINUOUS
 10
37.3471625105
 20
41.0402523847
 11
36.3430714403
 21
40.4605435954
  0
LINE
  5
2B8
100
AcDbEntity
  8
00_COMPONENTS_1
100
AcDbLine
 62
7
  6
CONTINUOUS
 10
47.4460523143
 20
46.2176123939
 11
45.7475524752
 21
45.2369889081
  0
LINE
  5
2B9
100
AcDbEntity
  8
00_COMPONENTS_1
100
AcDbLine
 62
7
  6
CONTINUOUS
 10
52.4160913455
 20
48.6792508887
 11
56.4503513203
 21
51.0084180679
  0
LINE
  5
2BA
100
AcDbEntity
  8
00_COMPONENTS_1
100
AcDbLine
 62
7
  6
CONTINUOUS
 10
33.8187107414
 20
37.8518435579
 11
38.3442044521
 21
40.4646229738
  0
LINE
  5
2BB
100
AcDbEntity
  8
00_COMPONENTS_1
100
AcDbLine
 62
7
  6
CONTINUOUS
 10
55.8916416697
 20
50.5220948837
 11
45.7475524752
 21
44.6654372162
  0
LINE
  5
2BC
100
AcDbEntity
  8
00_COMPONENTS_1
100
AcDbLine
 62
7
  6
CONTINUOUS
 10
56.1066236904
 20
50.5598610603
 11
55.8916416697
 21
50.4357418737
  0
LINE
  5
2BD
100
AcDbEntity
  8
00_COMPONENTS_1
100
AcDbLine
 62
7
  6
CONTINUOUS
 10
56.8981031414
 20
51.354574545
 11
56.4503513203
 21
51.1060580957
  0
LINE
  5
2BE
100
AcDbEntity
  8
00_COMPONENTS_1
100
AcDbLine
 62
7
  6
CONTINUOUS
 10
52.4160913455
 20
50.1489552395
 11
47.4460523143
 21
47.6873167448
  0
LINE
  5
2BF
100
AcDbEntity
  8
00_COMPONENTS_1
100
AcDbLine
 62
7
  6
CONTINUOUS
 10
47.4460523143
 20
46.2176123939
 11
52.4160913455
 21
48.6792508887
  0
LINE
  5
2C0
100
AcDbEntity
  8
00_COMPONENTS_1
100
AcDbLine
 62
7
  6
CONTINUOUS
 10
32.1526221703
 20
63.8428005749
 11
31.5170626674
 21
64.2097327239
  0
LINE
  5
2C1
100
AcDbEntity
  8
00_COMPONENTS_1
100
AcDbLine
 62
7
  6
CONTINUOUS
 10
26.0016068112
 20
67.3940106091
 11
25.5066300036
 21
67.6797791373
  0
LINE
  5
2C2
100
AcDbEntity
  8
00_COMPONENTS_1
100
AcDbLine
 62
7
  6
CONTINUOUS
 10
55.7498245682
 20
50.6039711732
 11
55.8916416697
 21
50.5220948837
  0
LINE
  5
2C3
100
AcDbEntity
  8
00_COMPONENTS_1
100
AcDbLine
 62
7
  6
CONTINUOUS
 10
56.925869419
 20
49.9969734182
 11
56.1480487213
 21
50.4460382482
  0
LINE
  5
2C4
100
AcDbEntity
  8
00_COMPONENTS_1
100
AcDbLine
 62
7
  6
CONTINUOUS
 10
56.1066236904
 20
50.5375927537
 11
56.884444388
 21
50.0885279237
  0
LINE
  5
2C5
100
AcDbEntity
  8
00_COMPONENTS_1
100
AcDbLine
 62
7
  6
CONTINUOUS
 10
55.8900216194
 20
50.6849134953
 11
56.884444388
 21
50.1107962304
  0
LINE
  5
2C6
100
AcDbEntity
  8
00_COMPONENTS_1
100
AcDbLine
 62
7
  6
CONTINUOUS
 10
57.5915482253
 20
50.5237431526
 11
56.5257728446
 21
51.1390549353
  0
LINE
  5
2C7
100
AcDbEntity
  8
00_COMPONENTS_1
100
AcDbLine
 62
7
  6
CONTINUOUS
 10
56.7169034223
 20
51.4591878849
 11
57.1415558604
 21
51.2140202319
  0
LINE
  5
2C8
100
AcDbEntity
  8
00_COMPONENTS_1
100
AcDbLine
 62
7
  6
CONTINUOUS
 10
56.884444388
 20
50.1107962304
 11
57.5915482253
 21
50.5237431526
  0
LINE
  5
2C9
100
AcDbEntity
  8
00_COMPONENTS_1
100
AcDbLine
 62
7
  6
CONTINUOUS
 10
38.909853659
 20
39.4847835914
 11
37.1031999692
 21
38.4417178235
  0
LINE
  5
2CA
100
AcDbEntity
  8
00_COMPONENTS_1
100
AcDbLine
 62
7
  6
CONTINUOUS
 10
41.413889518
 20
40.6519853693
 11
43.3937802622
 21
41.7950690002
  0
LINE
  5
2CB
100
AcDbEntity
  8
00_COMPONENTS_1
100
AcDbLine
 62
7
  6
CONTINUOUS
 10
39.4755414391
 20
39.1581909877
 11
37.6688877493
 21
38.1151252199
  0
LINE
  5
2CC
100
AcDbEntity
  8
00_COMPONENTS_1
100
AcDbLine
 62
7
  6
CONTINUOUS
 10
34.3910284079
 20
36.2226635432
 11
33.8187107414
 21
35.8922377568
  0
LINE
  5
2CD
100
AcDbEntity
  8
00_COMPONENTS_1
100
AcDbLine
 62
7
  6
CONTINUOUS
 10
43.3937802622
 20
39.835463199
 11
41.413889518
 21
38.6923795682
  0
LINE
  5
2CE
100
AcDbEntity
  8
00_COMPONENTS_1
100
AcDbLine
 62
7
  6
CONTINUOUS
 10
29.3471198364
 20
69.3255319252
 11
33.2007888063
 21
67.1261475798
  0
LINE
  5
2CF
100
AcDbEntity
  8
00_COMPONENTS_1
100
AcDbLine
 62
7
  6
CONTINUOUS
 10
56.884444388
 20
53.0549077004
 11
56.1066236904
 21
53.5039725303
  0
LINE
  5
2D0
100
AcDbEntity
  8
00_COMPONENTS_1
100
AcDbLine
 62
7
  6
CONTINUOUS
 10
56.884444388
 20
53.0818787753
 11
56.1066236904
 21
53.5309436053
  0
LINE
  5
2D1
100
AcDbEntity
  8
00_COMPONENTS_1
100
AcDbLine
 62
7
  6
CONTINUOUS
 10
56.1548212415
 20
53.6893081568
 11
56.9326419392
 21
53.2402433268
  0
LINE
  5
2D2
100
AcDbEntity
  8
00_COMPONENTS_1
100
AcDbLine
 62
7
  6
CONTINUOUS
 10
57.2187365017
 20
53.2479101901
 11
58.0415405901
 21
52.7728747749
  0
LINE
  5
2D3
100
AcDbEntity
  8
00_COMPONENTS_1
100
AcDbLine
 62
7
  6
CONTINUOUS
 10
34.4151320523
 20
67.7617380311
 11
33.7795725495
 21
68.1286701801
  0
LINE
  5
2D4
100
AcDbEntity
  8
00_COMPONENTS_1
100
AcDbLine
 62
7
  6
CONTINUOUS
 10
28.2641166933
 20
71.3129480653
 11
27.7691398857
 21
71.5987165935
  0
LINE
  5
2D5
100
AcDbEntity
  8
00_COMPONENTS_1
100
AcDbLine
 62
7
  6
CONTINUOUS
 10
57.9137088639
 20
54.3477789971
 11
58.6915295615
 21
53.8987141671
  0
LINE
  5
2D6
100
AcDbEntity
  8
00_COMPONENTS_1
100
AcDbLine
 62
7
  6
CONTINUOUS
 10
31.5319650121
 20
69.6071895183
 11
33.9222563256
 21
68.2110482049
  0
LINE
  5
2D7
100
AcDbEntity
  8
00_COMPONENTS_1
100
AcDbLine
 62
7
  6
CONTINUOUS
 10
34.7660026421
 20
68.6981824601
 11
31.5319650121
 21
70.5869453459
  0
LINE
  5
2D8
100
AcDbEntity
  8
00_COMPONENTS_1
100
AcDbLine
 62
7
  6
CONTINUOUS
 10
52.4160913455
 20
50.1489552395
 11
52.4160913455
 21
48.6792508887
  0
LINE
  5
2D9
100
AcDbEntity
  8
00_COMPONENTS_1
100
AcDbLine
 62
7
  6
CONTINUOUS
 10
53.100339983
 20
15.9915530857
 11
53.100339983
 21
14.7807446872
  0
LINE
  5
2DA
100
AcDbEntity
  8
00_COMPONENTS_1
100
AcDbLine
 62
7
  6
CONTINUOUS
 10
53.5256946854
 20
84.4848898554
 11
53.5256946846
 21
86.059918708
  0
LINE
  5
2DB
100
AcDbEntity
  8
00_COMPONENTS_1
100
AcDbLine
 62
7
  6
CONTINUOUS
 10
53.7386097389
 20
93.3772425918
 11
53.7386097389
 21
93.8589790179
  0
LINE
  5
2DC
100
AcDbEntity
  8
00_COMPONENTS_1
100
AcDbLine
 62
7
  6
CONTINUOUS
 10
39.5087714702
 20
35.1749844184
 11
41.1351102958
 21
36.1139459723
  0
LINE
  5
2DD
100
AcDbEntity
  8
00_COMPONENTS_1
100
AcDbLine
 62
7
  6
CONTINUOUS
 10
13.1635617812
 20
19.4425407394
 11
11.9134230668
 21
18.7207771246
  0
LINE
  5
2DE
100
AcDbEntity
  8
00_COMPONENTS_1
100
AcDbLine
 62
7
  6
CONTINUOUS
 10
41.1351102958
 20
34.2069616059
 11
39.5087714702
 21
33.268000052
  0
LINE
  5
2DF
100
AcDbEntity
  8
00_COMPONENTS_1
100
AcDbLine
 62
7
  6
CONTINUOUS
 10
60.2714652916
 20
61.7705549535
 11
63.9908314753
 21
60.9106659673
  0
LINE
  5
2E0
100
AcDbEntity
  8
00_COMPONENTS_1
100
AcDbLine
 62
7
  6
CONTINUOUS
 10
35.1406905425
 20
72.6704315656
 11
38.3934628472
 21
70.7924850847
  0
LINE
  5
2E1
100
AcDbEntity
  8
00_COMPONENTS_1
100
AcDbLine
 62
7
  6
CONTINUOUS
 10
55.3650209861
 20
16.1323554044
 11
55.3650209861
 21
13.6051555699
  0
LINE
  5
2E2
100
AcDbEntity
  8
00_COMPONENTS_1
100
AcDbLine
 62
7
  6
CONTINUOUS
 10
55.8916416697
 20
50.4357418737
 11
55.8916416697
 21
50.5220948837
  0
LINE
  5
2E3
100
AcDbEntity
  8
00_COMPONENTS_1
100
AcDbLine
 62
7
  6
CONTINUOUS
 10
55.8916416697
 20
53.1349026186
 11
55.8916416697
 21
53.3798533437
  0
LINE
  5
2E4
100
AcDbEntity
  8
00_COMPONENTS_1
100
AcDbLine
 62
7
  6
CONTINUOUS
 10
56.1066236904
 20
50.5375927537
 11
56.1066236904
 21
50.5598610603
  0
LINE
  5
2E5
100
AcDbEntity
  8
00_COMPONENTS_1
100
AcDbLine
 62
7
  6
CONTINUOUS
 10
56.1066236904
 20
53.5039725303
 11
56.1066236904
 21
53.5309436053
  0
LINE
  5
2E6
100
AcDbEntity
  8
00_COMPONENTS_1
100
AcDbLine
 62
7
  6
CONTINUOUS
 10
56.4503513203
 20
51.1060580957
 11
56.4503513203
 21
51.0084180679
  0
LINE
  5
2E7
100
AcDbEntity
  8
00_COMPONENTS_1
100
AcDbLine
 62
7
  6
CONTINUOUS
 10
56.884444388
 20
50.0885279237
 11
56.884444388
 21
50.1107962304
  0
LINE
  5
2E8
100
AcDbEntity
  8
00_COMPONENTS_1
100
AcDbLine
 62
7
  6
CONTINUOUS
 10
56.884444388
 20
53.0549077004
 11
56.884444388
 21
53.0818787753
  0
LINE
  5
2E9
100
AcDbEntity
  8
00_COMPONENTS_1
100
AcDbLine
 62
7
  6
CONTINUOUS
 10
57.1319242543
 20
18.8142329034
 11
57.1319242543
 21
18.9318945762
  0
LINE
  5
2EA
100
AcDbEntity
  8
00_COMPONENTS_1
100
AcDbLine
 62
7
  6
CONTINUOUS
 10
54.2336454258
 20
15.5005400903
 11
54.3285304608
 21
16.7307599504
  0
LINE
  5
2EB
100
AcDbEntity
  8
00_COMPONENTS_1
100
AcDbLine
 62
7
  6
CONTINUOUS
 10
41.2917059015
 20
71.7319060954
 11
40.6561463987
 21
72.0988382443
  0
LINE
  5
2EC
100
AcDbEntity
  8
00_COMPONENTS_1
100
AcDbLine
 62
7
  6
CONTINUOUS
 10
35.1406905425
 20
75.2831161296
 11
34.6457137349
 21
75.5688846577
  0
LINE
  5
2ED
100
AcDbEntity
  8
00_COMPONENTS_1
100
AcDbLine
 62
7
  6
CONTINUOUS
 10
41.8702990824
 20
82.7202218703
 11
42.0382032485
 21
82.4288942316
  0
LINE
  5
2EE
100
AcDbEntity
  8
00_COMPONENTS_1
100
AcDbLine
 62
7
  6
CONTINUOUS
 10
59.183381707
 20
18.3368738353
 11
59.183381707
 21
15.8096740009
  0
LINE
  5
2EF
100
AcDbEntity
  8
00_COMPONENTS_1
100
AcDbLine
 62
7
  6
CONTINUOUS
 10
60.2714652916
 20
70.523201369
 11
60.2714652916
 21
61.7705549535
  0
LINE
  5
2F0
100
AcDbEntity
  8
00_COMPONENTS_1
100
AcDbLine
 62
7
  6
CONTINUOUS
 10
60.2714652916
 20
47.1070975381
 11
60.2714652916
 21
39.8234329792
  0
LINE
  5
2F1
100
AcDbEntity
  8
00_COMPONENTS_1
100
AcDbLine
 62
7
  6
CONTINUOUS
 10
61.0028148171
 20
19.2983908178
 11
61.0028148171
 21
19.247933741
  0
LINE
  5
2F2
100
AcDbEntity
  8
00_COMPONENTS_1
100
AcDbLine
 62
7
  6
CONTINUOUS
 10
63.9908314753
 20
52.261715023
 11
60.2714652916
 21
47.1070975381
  0
LINE
  5
2F3
100
AcDbEntity
  8
00_COMPONENTS_1
100
AcDbLine
 62
7
  6
CONTINUOUS
 10
60.2714652916
 20
39.8234329792
 11
64.3443833939
 21
42.1749193055
  0
LINE
  5
2F4
100
AcDbEntity
  8
00_COMPONENTS_1
100
AcDbLine
 62
7
  6
CONTINUOUS
 10
63.9908314753
 20
60.9106659673
 11
60.2714652916
 21
63.0579944556
  0
LINE
  5
2F5
100
AcDbEntity
  8
00_COMPONENTS_1
100
AcDbLine
 62
7
  6
CONTINUOUS
 10
63.9908314753
 20
60.9106659673
 11
63.9908314753
 21
52.261715023
  0
LINE
  5
2F6
100
AcDbEntity
  8
00_COMPONENTS_1
100
AcDbLine
 62
7
  6
CONTINUOUS
 10
64.3443833939
 20
82.5917889534
 11
64.3443833939
 21
72.8746876953
  0
LINE
  5
2F7
100
AcDbEntity
  8
00_COMPONENTS_1
100
AcDbLine
 62
7
  6
CONTINUOUS
 10
64.3443833939
 20
42.1749193055
 11
64.3443833939
 21
21.272457427
  0
LINE
  5
2F8
100
AcDbEntity
  8
00_COMPONENTS_1
100
AcDbLine
 62
7
  6
CONTINUOUS
 10
29.4841642193
 20
18.2926911706
 11
18.0290820564
 21
11.7560723201
  0
LINE
  5
2F9
100
AcDbEntity
  8
00_COMPONENTS_1
100
AcDbLine
 62
7
  6
CONTINUOUS
 10
34.6457137349
 20
82.8357561702
 11
41.2917059015
 21
78.9987776078
  0
LINE
  5
2FA
100
AcDbEntity
  8
00_COMPONENTS_1
100
AcDbLine
 62
7
  6
CONTINUOUS
 10
54.0236799308
 20
84.1940724518
 11
54.1808563788
 21
83.786167627
  0
LINE
  5
2FB
100
AcDbEntity
  8
00_COMPONENTS_1
100
AcDbLine
 62
7
  6
CONTINUOUS
 10
54.837036768
 20
82.8385804059
 11
54.5589141677
 21
83.8815020845
  0
LINE
  5
2FC
100
AcDbEntity
  8
00_COMPONENTS_1
100
AcDbLine
 62
7
  6
CONTINUOUS
 10
61.0263362922
 20
19.3567934746
 11
61.0028148171
 21
19.247933741
  0
LINE
  5
2FD
100
AcDbEntity
  8
00_COMPONENTS_1
100
AcDbLine
 62
7
  6
CONTINUOUS
 10
38.4556010838
 20
84.4638407112
 11
44.0159820246
 21
81.3055001809
  0
LINE
  5
2FE
100
AcDbEntity
  8
00_COMPONENTS_1
100
AcDbLine
 62
7
  6
CONTINUOUS
 10
45.6179147907
 20
82.2303709739
 11
43.2137954899
 21
83.6183584989
  0
LINE
  5
2FF
100
AcDbEntity
  8
00_COMPONENTS_1
100
AcDbLine
 62
7
  6
CONTINUOUS
 10
43.3249115112
 20
83.6825109808
 11
45.7232952917
 21
82.2912120713
  0
LINE
  5
300
100
AcDbEntity
  8
00_COMPONENTS_1
100
AcDbLine
 62
7
  6
CONTINUOUS
 10
43.3249115112
 20
84.0091119476
 11
46.0054692756
 21
82.4541243244
  0
LINE
  5
301
100
AcDbEntity
  8
00_COMPONENTS_1
100
AcDbLine
 62
7
  6
CONTINUOUS
 10
63.1617975282
 20
91.6254055249
 11
64.3443833939
 21
82.5917889534
  0
LINE
  5
302
100
AcDbEntity
  8
00_COMPONENTS_1
100
AcDbLine
 62
7
  6
CONTINUOUS
 10
32.1543611754
 20
12.5660950085
 11
29.4841642193
 21
11.0244652794
  0
LINE
  5
303
100
AcDbEntity
  8
00_COMPONENTS_1
100
AcDbLine
 62
7
  6
CONTINUOUS
 10
41.2917059015
 20
15.2311026033
 11
34.4151320523
 21
11.260934539
  0
LINE
  5
304
100
AcDbEntity
  8
00_COMPONENTS_1
100
AcDbLine
 62
7
  6
CONTINUOUS
 10
55.2378170682
 20
82.7756341212
 11
54.837036768
 21
82.8385804059
  0
LINE
  5
305
100
AcDbEntity
  8
00_COMPONENTS_1
100
AcDbLine
 62
7
  6
CONTINUOUS
 10
55.1205692128
 20
85.126417828
 11
55.6026995005
 21
84.2913483094
  0
LINE
  5
306
100
AcDbEntity
  8
00_COMPONENTS_1
100
AcDbLine
 62
7
  6
CONTINUOUS
 10
49.5313654592
 20
88.1639866688
 11
46.7029265586
 21
89.7969496869
  0
LINE
  5
307
100
AcDbEntity
  8
00_COMPONENTS_1
100
AcDbLine
 62
7
  6
CONTINUOUS
 10
46.0089850956
 20
88.8247629725
 11
51.5112826991
 21
85.6328882119
  0
LINE
  5
308
100
AcDbEntity
  8
00_COMPONENTS_1
100
AcDbLine
 62
7
  6
CONTINUOUS
 10
54.5589141677
 20
83.8815020845
 11
53.5256946854
 21
84.4848898554
  0
LINE
  5
309
100
AcDbEntity
  8
00_COMPONENTS_1
100
AcDbLine
 62
7
  6
CONTINUOUS
 10
53.5256946846
 20
86.059918708
 11
55.1205692128
 21
85.126417828
  0
LINE
  5
30A
100
AcDbEntity
  8
00_COMPONENTS_1
100
AcDbLine
 62
7
  6
CONTINUOUS
 10
57.1319242543
 20
18.9318945762
 11
53.100339983
 21
15.9915530857
  0
LINE
  5
30B
100
AcDbEntity
  8
00_COMPONENTS_1
100
AcDbLine
 62
7
  6
CONTINUOUS
 10
57.1483290634
 20
18.8261980421
 11
57.1319242543
 21
18.8142329034
  0
LINE
  5
30C
100
AcDbEntity
  8
00_COMPONENTS_1
100
AcDbLine
 62
7
  6
CONTINUOUS
 10
54.3285304608
 20
16.7307599504
 11
58.1468911817
 21
18.9352783813
  0
LINE
  5
30D
100
AcDbEntity
  8
00_COMPONENTS_1
100
AcDbLine
 62
7
  6
CONTINUOUS
 10
55.3650209861
 20
16.1323554044
 11
59.183381707
 21
18.3368738353
  0
LINE
  5
30E
100
AcDbEntity
  8
00_COMPONENTS_1
100
AcDbLine
 62
7
  6
CONTINUOUS
 10
53.100339983
 20
14.7807446872
 11
41.2917059015
 21
7.9630673175
  0
LINE
  5
30F
100
AcDbEntity
  8
00_COMPONENTS_1
100
AcDbLine
 62
7
  6
CONTINUOUS
 10
59.183381707
 20
18.2927695001
 11
64.3443833939
 21
21.272457427
  0
LINE
  5
310
100
AcDbEntity
  8
00_COMPONENTS_1
100
AcDbLine
 62
7
  6
CONTINUOUS
 10
62.4616067215
 20
88.2513166019
 11
61.9794764338
 21
89.0863861205
  0
LINE
  5
311
100
AcDbEntity
  8
00_COMPONENTS_1
100
AcDbLine
 62
7
  6
CONTINUOUS
 10
55.3650209861
 20
13.6051555699
 11
59.183381707
 21
15.8096740009
  0
LINE
  5
312
100
AcDbEntity
  8
00_COMPONENTS_1
100
AcDbLine
 62
7
  6
CONTINUOUS
 10
54.362480798
 20
91.2879478893
 11
54.652371469
 21
91.1205832186
  0
LINE
  5
313
100
AcDbEntity
  8
00_COMPONENTS_1
100
AcDbLine
 62
7
  6
CONTINUOUS
 10
54.7995653212
 20
91.2055651215
 11
53.3782990899
 21
92.0261149994
  0
LINE
  5
314
100
AcDbEntity
  8
00_COMPONENTS_1
100
AcDbLine
 62
7
  6
CONTINUOUS
 10
56.1498466923
 20
91.9851457811
 11
53.7386097389
 21
93.3772425918
  0
LINE
  5
315
100
AcDbEntity
  8
00_COMPONENTS_1
100
AcDbLine
 62
7
  6
CONTINUOUS
 10
56.5670486395
 20
92.2260159999
 11
53.7386097389
 21
93.8589790179
  0
LINE
  5
316
100
AcDbEntity
  8
00_COMPONENTS_1
100
AcDbLine
 62
7
  6
CONTINUOUS
 10
60.384591364
 20
90.0177797018
 11
61.9794764338
 21
89.0863861205
  0
LINE
  5
317
100
AcDbEntity
  8
00_COMPONENTS_1
100
AcDbLine
 62
7
  6
CONTINUOUS
 10
56.5158053616
 20
95.4623840873
 11
63.1617975282
 21
91.6254055249
  0
ARC
  5
318
100
AcDbEntity
  8
00_COMPONENTS_1
100
AcDbCircle
 62
7
  6
CONTINUOUS
 10
49.906673586
 20
42.9454213213
 40
11.9523862827
100
AcDbArc
 50
59.5698687192
 51
59.9838597379
  0
ARC
  5
319
100
AcDbEntity
  8
00_COMPONENTS_1
100
AcDbCircle
 62
7
  6
CONTINUOUS
 10
56.928715631
 20
52.4054747493
 40
1.3706285426
100
AcDbArc
 50
137.0936230067
 51
139.5450202515
  0
ARC
  5
31A
100
AcDbEntity
  8
00_COMPONENTS_1
100
AcDbCircle
 62
7
  6
CONTINUOUS
 10
59.9436393501
 20
19.5208801255
 40
1.0822911632
100
AcDbArc
 50
345.914060361
 51
348.1369848937
  0
ARC
  5
31B
100
AcDbEntity
  8
00_COMPONENTS_1
100
AcDbCircle
 62
7
  6
CONTINUOUS
 10
57.2331864574
 20
53.0536643429
 40
0.3537495225
100
AcDbArc
 50
148.1678593534
 51
157.6260316697
  0
SPLINE
  5
31C
100
AcDbEntity
  8
00_COMPONENTS_1
100
AcDbSpline
 62
7
  6
CONTINUOUS
 70
0
 71
3
 72
9
 73
5
 74
0
 42
0.0000001
 43
0.0000001
 44
0.0000000001
 40
0.0
 40
0.0
 40
0.0
 40
0.0
 40
0.4930793879
 40
1.0
 40
1.0
 40
1.0
 40
1.0
 10
16.5979744729
 20
37.3789791874
 30
0.0
 10
15.9686323506
 20
36.8107857321
 30
0.0
 10
14.7328406365
 20
35.612899324
 30
0.0
 10
13.5782836496
 20
34.3368131721
 30
0.0
 10
13.0136883685
 20
33.6726781776
 30
0.0
  0
SPLINE
  5
31D
100
AcDbEntity
  8
00_COMPONENTS_1
100
AcDbSpline
 62
7
  6
CONTINUOUS
 70
0
 71
3
 72
9
 73
5
 74
0
 42
0.0000001
 43
0.0000001
 44
0.0000000001
 40
0.0
 40
0.0
 40
0.0
 40
0.0
 40
0.493440037
 40
1.0
 40
1.0
 40
1.0
 40
1.0
 10
13.3240564455
 20
43.4006751527
 30
0.0
 10
12.702692116
 20
42.8728520585
 30
0.0
 10
11.4755160527
 20
41.7649502684
 30
0.0
 10
10.3125831201
 20
40.5899878313
 30
0.0
 10
9.7397703411
 20
39.979747878
 30
0.0
  0
SPLINE
  5
31E
100
AcDbEntity
  8
00_COMPONENTS_1
100
AcDbSpline
 62
7
  6
CONTINUOUS
 70
0
 71
3
 72
9
 73
5
 74
0
 42
0.0000001
 43
0.0000001
 44
0.0000000001
 40
0.0
 40
0.0
 40
0.0
 40
0.0
 40
0.506559963
 40
1.0
 40
1.0
 40
1.0
 40
1.0
 10
13.0136883685
 20
38.0895931845
 30
0.0
 10
13.5865011476
 20
38.6998331379
 30
0.0
 10
14.7494340801
 20
39.8747955749
 30
0.0
 10
15.9766101434
 20
40.9826973651
 30
0.0
 10
16.5979744729
 20
41.5105204592
 30
0.0
  0
SPLINE
  5
31F
100
AcDbEntity
  8
00_COMPONENTS_1
100
AcDbSpline
 62
7
  6
CONTINUOUS
 70
0
 71
3
 72
9
 73
5
 74
0
 42
0.0000001
 43
0.0000001
 44
0.0000000001
 40
0.0
 40
0.0
 40
0.0
 40
0.0
 40
0.4806351488
 40
1.0
 40
1.0
 40
1.0
 40
1.0
 10
28.2544123421
 20
16.0948323578
 30
0.0
 10
28.0721441932
 20
16.2110968716
 30
0.0
 10
27.7170374326
 20
16.4915894783
 30
0.0
 10
27.4114673308
 20
16.8240607722
 30
0.0
 10
27.2655900607
 20
17.0065297347
 30
0.0
  0
SPLINE
  5
320
100
AcDbEntity
  8
00_COMPONENTS_1
100
AcDbSpline
 62
7
  6
CONTINUOUS
 70
0
 71
3
 72
11
 73
7
 74
0
 42
0.0000001
 43
0.0000001
 44
0.0000000001
 40
0.0
 40
0.0
 40
0.0
 40
0.0
 40
0.2177815333
 40
0.4509150357
 40
0.710271516
 40
1.0
 40
1.0
 40
1.0
 40
1.0
 10
58.6915236053
 20
53.898703809
 30
0.0
 10
58.7641009264
 20
53.8568182221
 30
0.0
 10
58.8998670067
 20
53.7426497578
 30
0.0
 10
59.0444206608
 20
53.5063231522
 30
0.0
 10
59.1302898351
 20
53.2150568167
 30
0.0
 10
59.1471766671
 20
53.0030645322
 30
0.0
 10
59.1471766671
 20
52.8915846419
 30
0.0
  0
SPLINE
  5
321
100
AcDbEntity
  8
00_COMPONENTS_1
100
AcDbSpline
 62
7
  6
CONTINUOUS
 70
0
 71
3
 72
11
 73
7
 74
0
 42
0.0000001
 43
0.0000001
 44
0.0000000001
 40
0.0
 40
0.0
 40
0.0
 40
0.0
 40
0.2176994324
 40
0.450872691
 40
0.7105756293
 40
1.0
 40
1.0
 40
1.0
 40
1.0
 10
58.0415190624
 20
52.7728370445
 30
0.0
 10
58.0712048644
 20
52.7557215122
 30
0.0
 10
58.1267635504
 20
52.7090536348
 30
0.0
 10
58.1859467637
 20
52.612335583
 30
0.0
 10
58.2209485078
 20
52.4931373553
 30
0.0
 10
58.2279416788
 20
52.4064233562
 30
0.0
 10
58.2279416788
 20
52.3608672419
 30
0.0
  0
SPLINE
  5
322
100
AcDbEntity
  8
00_COMPONENTS_1
100
AcDbSpline
 62
7
  6
CONTINUOUS
 70
0
 71
3
 72
11
 73
7
 74
0
 42
0.0000001
 43
0.0000001
 44
0.0000000001
 40
0.0
 40
0.0
 40
0.0
 40
0.0
 40
0.2177839237
 40
0.4509111717
 40
0.7102971901
 40
1.0
 40
1.0
 40
1.0
 40
1.0
 10
58.4915284641
 20
53.5522942679
 30
0.0
 10
58.4321544605
 20
53.5865730595
 30
0.0
 10
58.2957335616
 20
53.6360801198
 30
0.0
 10
58.0691412403
 20
53.641815457
 30
0.0
 10
57.827647203
 20
53.5834968117
 30
0.0
 10
57.6705289877
 20
53.5087511465
 30
0.0
 10
57.5915482253
 20
53.4631518542
 30
0.0
  0
SPLINE
  5
323
100
AcDbEntity
  8
00_COMPONENTS_1
100
AcDbSpline
 62
7
  6
CONTINUOUS
 70
0
 71
3
 72
11
 73
7
 74
0
 42
0.0000001
 43
0.0000001
 44
0.0000000001
 40
0.0
 40
0.0
 40
0.0
 40
0.0
 40
0.2372423294
 40
0.4999983821
 40
0.7627553152
 40
1.0
 40
1.0
 40
1.0
 40
1.0
 10
45.7475524752
 20
47.278244951
 30
0.0
 10
45.7124160193
 20
47.2579590298
 30
0.0
 10
45.6459281147
 20
47.2019956252
 30
0.0
 10
45.5683259473
 20
47.0959482888
 30
0.0
 10
45.5152878082
 20
46.9757185248
 30
0.0
 10
45.5000661322
 20
46.890156078
 30
0.0
 10
45.5000661322
 20
46.8495836511
 30
0.0
  0
SPLINE
  5
324
100
AcDbEntity
  8
00_COMPONENTS_1
100
AcDbSpline
 62
7
  6
CONTINUOUS
 70
0
 71
3
 72
11
 73
7
 74
0
 42
0.0000001
 43
0.0000001
 44
0.0000000001
 40
0.0
 40
0.0
 40
0.0
 40
0.0
 40
0.2372423294
 40
0.4999983821
 40
0.7627553152
 40
1.0
 40
1.0
 40
1.0
 40
1.0
 10
45.7475524752
 20
45.2369889081
 30
0.0
 10
45.7124160193
 20
45.2167029869
 30
0.0
 10
45.6459281147
 20
45.1607395824
 30
0.0
 10
45.5683259473
 20
45.054692246
 30
0.0
 10
45.5152878082
 20
44.934462482
 30
0.0
 10
45.5000661322
 20
44.8489000352
 30
0.0
 10
45.5000661322
 20
44.8083276083
 30
0.0
  0
SPLINE
  5
325
100
AcDbEntity
  8
00_COMPONENTS_1
100
AcDbSpline
 62
7
  6
CONTINUOUS
 70
0
 71
3
 72
12
 73
8
 74
0
 42
0.0000001
 43
0.0000001
 44
0.0000000001
 40
0.0
 40
0.0
 40
0.0
 40
0.0
 40
0.1081685507
 40
0.2183769441
 40
0.4513357867
 40
0.7104853662
 40
1.0
 40
1.0
 40
1.0
 40
1.0
 10
39.4483996475
 20
71.4145663138
 30
0.0
 10
39.4992350706
 20
71.4438994143
 30
0.0
 10
39.5969482227
 20
71.5121278954
 30
0.0
 10
39.7722116985
 20
71.6845545506
 30
0.0
 10
39.9458902857
 20
71.9675816992
 30
0.0
 10
40.0665929942
 20
72.3778398146
 30
0.0
 10
40.0904586185
 20
72.6765939207
 30
0.0
 10
40.0904586185
 20
72.8336820565
 30
0.0
  0
SPLINE
  5
326
100
AcDbEntity
  8
00_COMPONENTS_1
100
AcDbSpline
 62
7
  6
CONTINUOUS
 70
0
 71
3
 72
12
 73
8
 74
0
 42
0.0000001
 43
0.0000001
 44
0.0000000001
 40
0.0
 40
0.0
 40
0.0
 40
0.0
 40
0.108168544
 40
0.2183769493
 40
0.4513358246
 40
0.7104852759
 40
1.0
 40
1.0
 40
1.0
 40
1.0
 10
27.6391400196
 20
57.3336237121
 30
0.0
 10
27.6899191009
 20
57.3629242928
 30
0.0
 10
27.7875240746
 20
57.431076994
 30
0.0
 10
27.9625931578
 20
57.6033127396
 30
0.0
 10
28.1360792788
 20
57.8860260771
 30
0.0
 10
28.2566482883
 20
58.2958294875
 30
0.0
 10
28.2804873877
 20
58.5942524581
 30
0.0
 10
28.2804873877
 20
58.7511665364
 30
0.0
  0
SPLINE
  5
327
100
AcDbEntity
  8
00_COMPONENTS_1
100
AcDbSpline
 62
7
  6
CONTINUOUS
 70
0
 71
3
 72
11
 73
7
 74
0
 42
0.0000001
 43
0.0000001
 44
0.0000000001
 40
0.0
 40
0.0
 40
0.0
 40
0.0
 40
0.2655172178
 40
0.5362651286
 40
0.7873338923
 40
1.0
 40
1.0
 40
1.0
 40
1.0
 10
60.9933879327
 20
19.257475351
 30
0.0
 10
60.9695102449
 20
19.1622252132
 30
0.0
 10
60.8966407814
 20
18.9755779712
 30
0.0
 10
60.7346509449
 20
18.7309909893
 30
0.0
 10
60.5372777085
 20
18.5412431806
 30
0.0
 10
60.3814244395
 20
18.4595404647
 30
0.0
 10
60.3052049017
 20
18.440134228
 30
0.0
  0
SPLINE
  5
328
100
AcDbEntity
  8
00_COMPONENTS_1
100
AcDbSpline
 62
7
  6
CONTINUOUS
 70
0
 71
3
 72
9
 73
5
 74
0
 42
0.0000001
 43
0.0000001
 44
0.0000000001
 40
0.0
 40
0.0
 40
0.0
 40
0.0
 40
0.2486153318
 40
1.0
 40
1.0
 40
1.0
 40
1.0
 10
39.4484001377
 20
14.1042607137
 30
0.0
 10
39.4671752376
 20
14.1151004586
 30
0.0
 10
39.5413165711
 20
14.1610541255
 30
0.0
 10
39.6095702726
 20
14.2164289517
 30
0.0
 10
39.6565158086
 20
14.2621368799
 30
0.0
  0
SPLINE
  5
329
100
AcDbEntity
  8
00_COMPONENTS_1
100
AcDbSpline
 62
7
  6
CONTINUOUS
 70
0
 71
3
 72
12
 73
8
 74
0
 42
0.0000001
 43
0.0000001
 44
0.0000000001
 40
0.0
 40
0.0
 40
0.0
 40
0.0
 40
0.1081609636
 40
0.2183678068
 40
0.4513466778
 40
0.710443771
 40
1.0
 40
1.0
 40
1.0
 40
1.0
 10
27.6391405327
 20
14.5570610971
 30
0.0
 10
27.6899092676
 20
14.5863722667
 30
0.0
 10
27.7875405061
 20
14.6544773753
 30
0.0
 10
27.9625923872
 20
14.826750232
 30
0.0
 10
28.1360678424
 20
15.1094402208
 30
0.0
 10
28.256677923
 20
15.5192438395
 30
0.0
 10
28.2804873877
 20
15.8176671491
 30
0.0
 10
28.2804873877
 20
15.974604903
 30
0.0
  0
SPLINE
  5
32A
100
AcDbEntity
  8
00_COMPONENTS_1
100
AcDbSpline
 62
7
  6
CONTINUOUS
 70
0
 71
3
 72
12
 73
8
 74
0
 42
0.0000001
 43
0.0000001
 44
0.0000000001
 40
0.0
 40
0.0
 40
0.0
 40
0.0
 40
0.2895552427
 40
0.5486519846
 40
0.7816312595
 40
0.8918385311
 40
1.0
 40
1.0
 40
1.0
 40
1.0
 10
37.8984184706
 20
76.6303858886
 30
0.0
 10
37.7623589187
 20
76.7089381304
 30
0.0
 10
37.4917187448
 20
76.8376665251
 30
0.0
 10
37.0760635005
 20
76.9382221526
 30
0.0
 10
36.7441500081
 20
76.9293216604
 30
0.0
 10
36.5071744424
 20
76.8637875728
 30
0.0
 10
36.3992607476
 20
76.8132344635
 30
0.0
 10
36.3484368034
 20
76.783891419
 30
0.0
  0
SPLINE
  5
32B
100
AcDbEntity
  8
00_COMPONENTS_1
100
AcDbSpline
 62
7
  6
CONTINUOUS
 70
0
 71
3
 72
15
 73
11
 74
0
 42
0.0000001
 43
0.0000001
 44
0.0000000001
 40
0.0
 40
0.0
 40
0.0
 40
0.0
 40
0.1141474765
 40
0.2373368178
 40
0.3669776594
 40
0.5000010819
 40
0.633024354
 40
0.7626647561
 40
0.8858534048
 40
1.0
 40
1.0
 40
1.0
 40
1.0
 10
40.0904586185
 20
72.8336820565
 30
0.0
 10
40.0904586185
 20
73.0069473102
 30
0.0
 10
40.0586997637
 20
73.367536134
 30
0.0
 10
39.9322077008
 20
73.9115155986
 30
0.0
 10
39.7294788021
 20
74.4625110416
 30
0.0
 10
39.4582416463
 20
74.9998180783
 30
0.0
 10
39.1285366561
 20
75.5033677453
 30
0.0
 10
38.7527239218
 20
75.9544303848
 30
0.0
 10
38.3448697119
 20
76.3359607952
 30
0.0
 10
38.048470272
 20
76.5437554005
 30
0.0
 10
37.8984184706
 20
76.6303858886
 30
0.0
  0
SPLINE
  5
32C
100
AcDbEntity
  8
00_COMPONENTS_1
100
AcDbSpline
 62
7
  6
CONTINUOUS
 70
0
 71
3
 72
15
 73
11
 74
0
 42
0.0000001
 43
0.0000001
 44
0.0000000001
 40
0.0
 40
0.0
 40
0.0
 40
0.0
 40
0.1153947516
 40
0.2387787045
 40
0.3679164158
 40
0.5000237929
 40
0.6321297983
 40
0.7612458494
 40
0.8846420662
 40
1.0
 40
1.0
 40
1.0
 40
1.0
 10
28.2678162111
 20
58.8629256674
 30
0.0
 10
28.1274242289
 20
58.9514474602
 30
0.0
 10
27.851124504
 20
59.1577031536
 30
0.0
 10
27.4706892848
 20
59.5272343998
 30
0.0
 10
27.1201698582
 20
59.9567293255
 30
0.0
 10
26.8112845205
 20
60.4319844433
 30
0.0
 10
26.5543121513
 20
60.9371617442
 30
0.0
 10
26.3577059498
 20
61.4554846643
 30
0.0
 10
26.2280911989
 20
61.9697010938
 30
0.0
 10
26.1877350638
 20
62.3120851482
 30
0.0
 10
26.1812953005
 20
62.4778770994
 30
0.0
  0
SPLINE
  5
32D
100
AcDbEntity
  8
00_COMPONENTS_1
100
AcDbSpline
 62
7
  6
CONTINUOUS
 70
0
 71
3
 72
12
 73
8
 74
0
 42
0.0000001
 43
0.0000001
 44
0.0000000001
 40
0.0
 40
0.0
 40
0.0
 40
0.0
 40
0.2895552427
 40
0.5486519846
 40
0.7816312595
 40
0.8918385311
 40
1.0
 40
1.0
 40
1.0
 40
1.0
 10
26.0908767883
 20
62.5436622902
 30
0.0
 10
25.9549680381
 20
62.6221274686
 30
0.0
 10
25.6846278283
 20
62.7507131871
 30
0.0
 10
25.2694332757
 20
62.8511573637
 30
0.0
 10
24.9378876598
 20
62.8422667365
 30
0.0
 10
24.701174746
 20
62.7768052835
 30
0.0
 10
24.5933806575
 20
62.7263082049
 30
0.0
 10
24.542613044
 20
62.6969976827
 30
0.0
  0
SPLINE
  5
32E
100
AcDbEntity
  8
00_COMPONENTS_1
100
AcDbSpline
 62
7
  6
CONTINUOUS
 70
0
 71
3
 72
15
 73
11
 74
0
 42
0.0000001
 43
0.0000001
 44
0.0000000001
 40
0.0
 40
0.0
 40
0.0
 40
0.0
 40
0.1141474765
 40
0.2373368178
 40
0.3669776594
 40
0.5000010819
 40
0.633024354
 40
0.7626647561
 40
0.8858534048
 40
1.0
 40
1.0
 40
1.0
 40
1.0
 10
28.2804873877
 20
58.7511665364
 30
0.0
 10
28.2804873877
 20
58.9242397515
 30
0.0
 10
28.2487637328
 20
59.2844289165
 30
0.0
 10
28.1224118673
 20
59.8278054612
 30
0.0
 10
27.9199076633
 20
60.3781902082
 30
0.0
 10
27.6489711333
 20
60.9149017204
 30
0.0
 10
27.3196315719
 20
61.417893278
 30
0.0
 10
26.9442353697
 20
61.868455982
 30
0.0
 10
26.5368332052
 20
62.249563523
 30
0.0
 10
26.2407622798
 20
62.4571278191
 30
0.0
 10
26.0908767883
 20
62.5436622902
 30
0.0
  0
SPLINE
  5
32F
100
AcDbEntity
  8
00_COMPONENTS_1
100
AcDbSpline
 62
7
  6
CONTINUOUS
 70
0
 71
3
 72
9
 73
5
 74
0
 42
0.0000001
 43
0.0000001
 44
0.0000000001
 40
0.0
 40
0.0
 40
0.0
 40
0.0
 40
0.4772642404
 40
1.0
 40
1.0
 40
1.0
 40
1.0
 10
28.2804873877
 20
15.974604903
 30
0.0
 10
28.2804873877
 20
16.2115804715
 30
0.0
 10
28.2210909782
 20
16.7085712288
 30
0.0
 10
28.0746190426
 20
17.1854908407
 30
0.0
 10
27.9797298659
 20
17.4270773951
 30
0.0
  0
SPLINE
  5
330
100
AcDbEntity
  8
00_COMPONENTS_1
100
AcDbSpline
 62
7
  6
CONTINUOUS
 70
0
 71
3
 72
11
 73
7
 74
0
 42
0.0000001
 43
0.0000001
 44
0.0000000001
 40
0.0
 40
0.0
 40
0.0
 40
0.0
 40
0.2181040376
 40
0.453339948
 40
0.713068224
 40
1.0
 40
1.0
 40
1.0
 40
1.0
 10
62.0967242892
 20
86.7356024137
 30
0.0
 10
62.1634155268
 20
86.7866978897
 30
0.0
 10
62.2857105706
 20
86.9154929836
 30
0.0
 10
62.4146296995
 20
87.1611313834
 30
0.0
 10
62.4914171484
 20
87.4545063545
 30
0.0
 10
62.5067703307
 20
87.6656381799
 30
0.0
 10
62.5067703307
 20
87.7761656405
 30
0.0
  0
SPLINE
  5
331
100
AcDbEntity
  8
00_COMPONENTS_1
100
AcDbSpline
 62
7
  6
CONTINUOUS
 70
0
 71
3
 72
9
 73
5
 74
0
 42
0.0000001
 43
0.0000001
 44
0.0000000001
 40
0.0
 40
0.0
 40
0.0
 40
0.0
 40
0.2405068467
 40
1.0
 40
1.0
 40
1.0
 40
1.0
 10
62.5067703307
 20
87.7761656405
 30
0.0
 10
62.5067703307
 20
87.8144594482
 30
0.0
 10
62.5027258005
 20
87.9736720234
 30
0.0
 10
62.4833078164
 20
88.1323522554
 30
0.0
 10
62.4616067215
 20
88.2513166019
 30
0.0
  0
SPLINE
  5
332
100
AcDbEntity
  8
00_COMPONENTS_1
100
AcDbSpline
 62
7
  6
CONTINUOUS
 70
0
 71
3
 72
15
 73
11
 74
0
 42
0.0000001
 43
0.0000001
 44
0.0000000001
 40
0.0
 40
0.0
 40
0.0
 40
0.0
 40
0.1209068489
 40
0.2529621474
 40
0.3914370138
 40
0.5308893323
 40
0.6656815635
 40
0.7907870487
 40
0.9026379148
 40
1.0
 40
1.0
 40
1.0
 40
1.0
 10
59.1471766671
 20
52.8915846419
 30
0.0
 10
59.1471766671
 20
52.7347974381
 30
0.0
 10
59.1104872285
 20
52.4064084727
 30
0.0
 10
58.9693506735
 20
51.9168772076
 30
0.0
 10
58.7472918134
 20
51.4317522633
 30
0.0
 10
58.4575554592
 20
50.9796484645
 30
0.0
 10
58.1169464949
 20
50.5869907109
 30
0.0
 10
57.7449344764
 20
50.2764116198
 30
0.0
 10
57.3625289866
 20
50.0659381614
 30
0.0
 10
57.0952119725
 20
49.9970921632
 30
0.0
 10
56.9692953003
 20
49.9878515165
 30
0.0
  0
SPLINE
  5
333
100
AcDbEntity
  8
00_COMPONENTS_1
100
AcDbSpline
 62
7
  6
CONTINUOUS
 70
0
 71
3
 72
11
 73
7
 74
0
 42
0.0000001
 43
0.0000001
 44
0.0000000001
 40
0.0
 40
0.0
 40
0.0
 40
0.0
 40
0.2895396729
 40
0.5491163863
 40
0.7822545095
 40
1.0
 40
1.0
 40
1.0
 40
1.0
 10
57.5915482253
 20
51.258595328
 30
0.0
 10
57.5520808536
 20
51.2358089663
 30
0.0
 10
57.4735020267
 20
51.1984767074
 30
0.0
 10
57.3527738595
 20
51.1692538624
 30
0.0
 10
57.2394369637
 20
51.1720999709
 30
0.0
 10
57.1712622083
 20
51.1969277837
 30
0.0
 10
57.1415810392
 20
51.2140638429
 30
0.0
  0
SPLINE
  5
334
100
AcDbEntity
  8
00_COMPONENTS_1
100
AcDbSpline
 62
7
  6
CONTINUOUS
 70
0
 71
3
 72
13
 73
9
 74
0
 42
0.0000001
 43
0.0000001
 44
0.0000000001
 40
0.0
 40
0.0
 40
0.0
 40
0.0
 40
0.114176888
 40
0.2375715548
 40
0.5000017735
 40
0.762431024
 40
0.8858245003
 40
1.0
 40
1.0
 40
1.0
 40
1.0
 10
58.2279416788
 20
52.3608672419
 30
0.0
 10
58.2279416788
 20
52.3105968532
 30
0.0
 10
58.2186764208
 20
52.205898756
 30
0.0
 10
58.1687447205
 20
51.9909507734
 30
0.0
 10
58.0524021717
 20
51.7273662076
 30
0.0
 10
57.8823039394
 20
51.4948178845
 30
0.0
 10
57.7211209048
 20
51.3441023992
 30
0.0
 10
57.6350831945
 20
51.2837301042
 30
0.0
 10
57.5915482253
 20
51.258595328
 30
0.0
  0
SPLINE
  5
335
100
AcDbEntity
  8
00_COMPONENTS_1
100
AcDbSpline
 62
7
  6
CONTINUOUS
 70
0
 71
3
 72
15
 73
11
 74
0
 42
0.0000001
 43
0.0000001
 44
0.0000000001
 40
0.0
 40
0.0
 40
0.0
 40
0.0
 40
0.1152664703
 40
0.2400046085
 40
0.3712558111
 40
0.5055313964
 40
0.6390273167
 40
0.7680084595
 40
0.8891936304
 40
1.0
 40
1.0
 40
1.0
 40
1.0
 10
35.7063783226
 20
75.3647747345
 30
0.0
 10
35.7063783226
 20
75.1818032407
 30
0.0
 10
35.741812265
 20
74.8004553161
 30
0.0
 10
35.8819516555
 20
74.2263225714
 30
0.0
 10
36.1057630409
 20
73.6469184879
 30
0.0
 10
36.4038054878
 20
73.0863511857
 30
0.0
 10
36.7638620121
 20
72.5678057982
 30
0.0
 10
37.1710302008
 20
72.1125975183
 30
0.0
 10
37.6084863326
 20
71.7397370821
 30
0.0
 10
37.9246248219
 20
71.5464582066
 30
0.0
 10
38.0832172784
 20
71.4703904927
 30
0.0
  0
SPLINE
  5
336
100
AcDbEntity
  8
00_COMPONENTS_1
100
AcDbSpline
 62
7
  6
CONTINUOUS
 70
0
 71
3
 72
11
 73
7
 74
0
 42
0.0000001
 43
0.0000001
 44
0.0000000001
 40
0.0
 40
0.0
 40
0.0
 40
0.0
 40
0.2846246432
 40
0.5422828999
 40
0.777494361
 40
1.0
 40
1.0
 40
1.0
 40
1.0
 10
38.0832172784
 20
71.4703904927
 30
0.0
 10
38.204569139
 20
71.4121849587
 30
0.0
 10
38.4452083018
 20
71.3190743242
 30
0.0
 10
38.8105160798
 20
71.2565529982
 30
0.0
 10
39.1517268778
 20
71.2826580115
 30
0.0
 10
39.3572678015
 20
71.3619813358
 30
0.0
 10
39.4483996475
 20
71.4145663138
 30
0.0
  0
SPLINE
  5
337
100
AcDbEntity
  8
00_COMPONENTS_1
100
AcDbSpline
 62
7
  6
CONTINUOUS
 70
0
 71
3
 72
9
 73
5
 74
0
 42
0.0000001
 43
0.0000001
 44
0.0000000001
 40
0.0
 40
0.0
 40
0.0
 40
0.0
 40
0.2525124625
 40
1.0
 40
1.0
 40
1.0
 40
1.0
 10
39.2076342799
 20
14.0029714662
 30
0.0
 10
39.2288236416
 20
14.0089538387
 30
0.0
 10
39.312008159
 20
14.0351513382
 30
0.0
 10
39.3919553573
 20
14.071672497
 30
0.0
 10
39.4484001377
 20
14.1042607137
 30
0.0
  0
SPLINE
  5
338
100
AcDbEntity
  8
00_COMPONENTS_1
100
AcDbSpline
 62
7
  6
CONTINUOUS
 70
0
 71
3
 72
11
 73
7
 74
0
 42
0.0000001
 43
0.0000001
 44
0.0000000001
 40
0.0
 40
0.0
 40
0.0
 40
0.0
 40
0.2177442246
 40
0.4508817658
 40
0.7104588047
 40
1.0
 40
1.0
 40
1.0
 40
1.0
 10
57.1415810392
 20
51.2140638429
 30
0.0
 10
57.1118988663
 20
51.2312004816
 30
0.0
 10
57.0563072665
 20
51.2778285836
 30
0.0
 10
56.9971714077
 20
51.3745616343
 30
0.0
 10
56.9621135548
 20
51.4937316399
 30
0.0
 10
56.9551547718
 20
51.5804527918
 30
0.0
 10
56.9551547718
 20
51.6260277649
 30
0.0
  0
SPLINE
  5
339
100
AcDbEntity
  8
00_COMPONENTS_1
100
AcDbSpline
 62
7
  6
CONTINUOUS
 70
0
 71
3
 72
9
 73
5
 74
0
 42
0.0000001
 43
0.0000001
 44
0.0000000001
 40
0.0
 40
0.0
 40
0.0
 40
0.0
 40
0.2388805615
 40
1.0
 40
1.0
 40
1.0
 40
1.0
 10
56.1262779309
 20
53.5129415607
 30
0.0
 10
56.1086310164
 20
53.5011138742
 30
0.0
 10
56.0364414542
 20
53.4491020306
 30
0.0
 10
55.9708623669
 20
53.3881758925
 30
0.0
 10
55.9247752757
 20
53.3386019457
 30
0.0
  0
SPLINE
  5
33A
100
AcDbEntity
  8
00_COMPONENTS_1
100
AcDbSpline
 62
7
  6
CONTINUOUS
 70
0
 71
3
 72
14
 73
10
 74
0
 42
0.0000001
 43
0.0000001
 44
0.0000000001
 40
0.0
 40
0.0
 40
0.0
 40
0.0
 40
0.3057422253
 40
0.4454969255
 40
0.574775505
 40
0.6933987738
 40
0.8021677852
 40
0.9032260758
 40
1.0
 40
1.0
 40
1.0
 40
1.0
 10
56.9326419392
 20
53.2402433268
 30
0.0
 10
57.0696538924
 20
53.3933219501
 30
0.0
 10
57.2904750481
 20
53.5998065822
 30
0.0
 10
57.6153116245
 20
53.8102320202
 30
0.0
 10
57.8517745867
 20
53.9217008653
 30
0.0
 10
58.0830386242
 20
53.9889206869
 30
0.0
 10
58.3043741442
 20
54.0095596944
 30
0.0
 10
58.5105066795
 20
53.9822939254
 30
0.0
 10
58.635203796
 20
53.9312069138
 30
0.0
 10
58.6915236053
 20
53.898703809
 30
0.0
  0
SPLINE
  5
33B
100
AcDbEntity
  8
00_COMPONENTS_1
100
AcDbSpline
 62
7
  6
CONTINUOUS
 70
0
 71
3
 72
9
 73
5
 74
0
 42
0.0000001
 43
0.0000001
 44
0.0000000001
 40
0.0
 40
0.0
 40
0.0
 40
0.0
 40
0.475701591
 40
1.0
 40
1.0
 40
1.0
 40
1.0
 10
56.884444388
 20
53.0818787753
 30
0.0
 10
56.884444388
 20
53.0991866279
 30
0.0
 10
56.8879218066
 20
53.1356707633
 30
0.0
 10
56.898824546
 20
53.1706717424
 30
0.0
 10
56.9060675269
 20
53.1883191979
 30
0.0
  0
SPLINE
  5
33C
100
AcDbEntity
  8
00_COMPONENTS_1
100
AcDbSpline
 62
7
  6
CONTINUOUS
 70
0
 71
3
 72
12
 73
8
 74
0
 42
0.0000001
 43
0.0000001
 44
0.0000000001
 40
0.0
 40
0.0
 40
0.0
 40
0.0
 40
0.1081609636
 40
0.2183678068
 40
0.4513466778
 40
0.710443771
 40
1.0
 40
1.0
 40
1.0
 40
1.0
 10
24.542613044
 20
62.6969976827
 30
0.0
 10
24.4918443091
 20
62.6676865131
 30
0.0
 10
24.3942130705
 20
62.5995814045
 30
0.0
 10
24.2191611895
 20
62.4273085478
 30
0.0
 10
24.0456857343
 20
62.144618559
 30
0.0
 10
23.9250756537
 20
61.7348149403
 30
0.0
 10
23.901266189
 20
61.4363916307
 30
0.0
 10
23.901266189
 20
61.2794538768
 30
0.0
  0
SPLINE
  5
33D
100
AcDbEntity
  8
00_COMPONENTS_1
100
AcDbSpline
 62
7
  6
CONTINUOUS
 70
0
 71
3
 72
15
 73
11
 74
0
 42
0.0000001
 43
0.0000001
 44
0.0000000001
 40
0.0
 40
0.0
 40
0.0
 40
0.0
 40
0.115270465
 40
0.240014038
 40
0.3712708272
 40
0.5055506913
 40
0.6390481339
 40
0.7680268621
 40
0.8892050314
 40
1.0
 40
1.0
 40
1.0
 40
1.0
 10
23.901266189
 20
61.2794538768
 30
0.0
 10
23.901266189
 20
61.0966527025
 30
0.0
 10
23.9366734885
 20
60.7156579383
 30
0.0
 10
24.0767042006
 20
60.1420609844
 30
0.0
 10
24.3003393332
 20
59.56320513
 30
0.0
 10
24.5981422815
 20
59.0031836719
 30
0.0
 10
24.9579018306
 20
58.4851668428
 30
0.0
 10
25.3647230967
 20
58.0304550123
 30
0.0
 10
25.8017913313
 20
57.6580443293
 30
0.0
 10
26.1176431581
 20
57.4650349422
 30
0.0
 10
26.2760864665
 20
57.3890907662
 30
0.0
  0
SPLINE
  5
33E
100
AcDbEntity
  8
00_COMPONENTS_1
100
AcDbSpline
 62
7
  6
CONTINUOUS
 70
0
 71
3
 72
11
 73
7
 74
0
 42
0.0000001
 43
0.0000001
 44
0.0000000001
 40
0.0
 40
0.0
 40
0.0
 40
0.0
 40
0.284606958
 40
0.5422596311
 40
0.7774784279
 40
1.0
 40
1.0
 40
1.0
 40
1.0
 10
26.2760864665
 20
57.3890907662
 30
0.0
 10
26.3972536992
 20
57.3310135539
 30
0.0
 10
26.6375245763
 20
57.2381175547
 30
0.0
 10
27.0022584719
 20
57.1757816724
 30
0.0
 10
27.3429292811
 20
57.201904429
 30
0.0
 10
27.5481462892
 20
57.2811184468
 30
0.0
 10
27.6391400196
 20
57.3336237121
 30
0.0
  0
SPLINE
  5
33F
100
AcDbEntity
  8
00_COMPONENTS_1
100
AcDbSpline
 62
7
  6
CONTINUOUS
 70
0
 71
3
 72
11
 73
7
 74
0
 42
0.0000001
 43
0.0000001
 44
0.0000000001
 40
0.0
 40
0.0
 40
0.0
 40
0.0
 40
0.2897042895
 40
0.5490907647
 40
0.7822174449
 40
1.0
 40
1.0
 40
1.0
 40
1.0
 10
58.8643351322
 20
52.7282869804
 30
0.0
 10
58.8643351322
 20
52.819490052
 30
0.0
 10
58.8505074815
 20
52.9929387818
 30
0.0
 10
58.7802630018
 20
53.2312480027
 30
0.0
 10
58.6619945597
 20
53.4246218925
 30
0.0
 10
58.5509044469
 20
53.5180143338
 30
0.0
 10
58.4915284641
 20
53.5522942679
 30
0.0
  0
SPLINE
  5
340
100
AcDbEntity
  8
00_COMPONENTS_1
100
AcDbSpline
 62
7
  6
CONTINUOUS
 70
0
 71
3
 72
15
 73
11
 74
0
 42
0.0000001
 43
0.0000001
 44
0.0000000001
 40
0.0
 40
0.0
 40
0.0
 40
0.0
 40
0.1141229605
 40
0.2373462928
 40
0.366971064
 40
0.4999983279
 40
0.633025824
 40
0.762651271
 40
0.8858756957
 40
1.0
 40
1.0
 40
1.0
 40
1.0
 10
57.5915482253
 20
50.5237431526
 30
0.0
 10
57.6786564197
 20
50.5740347918
 30
0.0
 10
57.8507492805
 20
50.6947181266
 30
0.0
 10
58.0875889755
 20
50.9162210765
 30
0.0
 10
58.3058007304
 20
51.1781564277
 30
0.0
 10
58.4972521335
 20
51.4705242957
 30
0.0
 10
58.6547232065
 20
51.7825112906
 30
0.0
 10
58.7724593127
 20
52.1024580082
 30
0.0
 10
58.8458664621
 20
52.4183215147
 30
0.0
 10
58.8643351322
 20
52.6277020671
 30
0.0
 10
58.8643351322
 20
52.7282869804
 30
0.0
  0
SPLINE
  5
341
100
AcDbEntity
  8
00_COMPONENTS_1
100
AcDbSpline
 62
7
  6
CONTINUOUS
 70
0
 71
3
 72
11
 73
7
 74
0
 42
0.0000001
 43
0.0000001
 44
0.0000000001
 40
0.0
 40
0.0
 40
0.0
 40
0.0
 40
0.2281990546
 40
0.4783995259
 40
0.7398409163
 40
1.0
 40
1.0
 40
1.0
 40
1.0
 10
56.9551547718
 20
51.6260277649
 30
0.0
 10
56.9551547718
 20
51.6964842347
 30
0.0
 10
56.973232254
 20
51.8443561715
 30
0.0
 10
57.0417938418
 20
52.0632669385
 30
0.0
 10
57.148523042
 20
52.2773603711
 30
0.0
 10
57.2420262284
 20
52.4094554002
 30
0.0
 10
57.2937324772
 20
52.4709243336
 30
0.0
  0
SPLINE
  5
342
100
AcDbEntity
  8
00_COMPONENTS_1
100
AcDbSpline
 62
7
  6
CONTINUOUS
 70
0
 71
3
 72
11
 73
7
 74
0
 42
0.0000001
 43
0.0000001
 44
0.0000000001
 40
0.0
 40
0.0
 40
0.0
 40
0.0
 40
0.2891761207
 40
0.5490246487
 40
0.7822158049
 40
1.0
 40
1.0
 40
1.0
 40
1.0
 10
56.1066236904
 20
50.5375927537
 30
0.0
 10
56.1066241408
 20
50.5274779873
 30
0.0
 10
56.1081957596
 20
50.5082143609
 30
0.0
 10
56.1159544215
 20
50.4817251944
 30
0.0
 10
56.129099042
 20
50.4602182443
 30
0.0
 10
56.1414475436
 20
50.4498399173
 30
0.0
 10
56.148051419
 20
50.4460429325
 30
0.0
  0
SPLINE
  5
343
100
AcDbEntity
  8
00_COMPONENTS_1
100
AcDbSpline
 62
7
  6
CONTINUOUS
 70
0
 71
3
 72
11
 73
7
 74
0
 42
0.0000001
 43
0.0000001
 44
0.0000000001
 40
0.0
 40
0.0
 40
0.0
 40
0.0
 40
0.21778357
 40
0.4509748072
 40
0.7108239081
 40
1.0
 40
1.0
 40
1.0
 40
1.0
 10
56.9258721073
 20
49.996978086
 30
0.0
 10
56.9192682607
 20
50.0007750758
 30
0.0
 10
56.9069197756
 20
50.0111533812
 30
0.0
 10
56.89377515
 20
50.0326603322
 30
0.0
 10
56.8860164907
 20
50.0591495176
 30
0.0
 10
56.8844448385
 20
50.0784131591
 30
0.0
 10
56.884444388
 20
50.0885279237
 30
0.0
  0
SPLINE
  5
344
100
AcDbEntity
  8
00_COMPONENTS_1
100
AcDbSpline
 62
7
  6
CONTINUOUS
 70
0
 71
3
 72
9
 73
5
 74
0
 42
0.0000001
 43
0.0000001
 44
0.0000000001
 40
0.0
 40
0.0
 40
0.0
 40
0.0
 40
0.5279155743
 40
1.0
 40
1.0
 40
1.0
 40
1.0
 10
56.1548212415
 20
53.6893081568
 30
0.0
 10
56.13932263
 20
53.6643006186
 30
0.0
 10
56.115121553
 20
53.6132593722
 30
0.0
 10
56.1066236904
 20
53.5572529354
 30
0.0
 10
56.1066236904
 20
53.5309436053
 30
0.0
  0
SPLINE
  5
345
100
AcDbEntity
  8
00_COMPONENTS_1
100
AcDbSpline
 62
7
  6
CONTINUOUS
 70
0
 71
3
 72
13
 73
9
 74
0
 42
0.0000001
 43
0.0000001
 44
0.0000000001
 40
0.0
 40
0.0
 40
0.0
 40
0.0
 40
0.3066291587
 40
0.5764405293
 40
0.6952417054
 40
0.8038040158
 40
0.9041889358
 40
1.0
 40
1.0
 40
1.0
 40
1.0
 10
57.2937324772
 20
52.4709243336
 30
0.0
 10
57.3507814835
 20
52.5387447934
 30
0.0
 10
57.4700133215
 20
52.6567947504
 30
0.0
 10
57.6433539588
 20
52.7638830085
 30
0.0
 10
57.7809928392
 20
52.8075721224
 30
0.0
 10
57.875806275
 20
52.8185192043
 30
0.0
 10
57.9641692149
 20
52.8082116687
 30
0.0
 10
58.0175288986
 20
52.7866687215
 30
0.0
 10
58.0415190624
 20
52.7728370445
 30
0.0
  0
SPLINE
  5
346
100
AcDbEntity
  8
00_COMPONENTS_1
100
AcDbSpline
 62
7
  6
CONTINUOUS
 70
0
 71
3
 72
9
 73
5
 74
0
 42
0.0000001
 43
0.0000001
 44
0.0000000001
 40
0.0
 40
0.0
 40
0.0
 40
0.0
 40
0.5227732768
 40
1.0
 40
1.0
 40
1.0
 40
1.0
 10
24.9790978404
 20
15.7024690967
 30
0.0
 10
25.1413610913
 20
15.4983394014
 30
0.0
 10
25.4822923872
 20
15.1309455377
 30
0.0
 10
25.8847219768
 20
14.8294173329
 30
0.0
 10
26.0908767883
 20
14.7103964896
 30
0.0
  0
SPLINE
  5
347
100
AcDbEntity
  8
00_COMPONENTS_1
100
AcDbSpline
 62
7
  6
CONTINUOUS
 70
0
 71
3
 72
12
 73
8
 74
0
 42
0.0000001
 43
0.0000001
 44
0.0000000001
 40
0.0
 40
0.0
 40
0.0
 40
0.0
 40
0.2895552427
 40
0.5486519846
 40
0.7816312595
 40
0.8918385311
 40
1.0
 40
1.0
 40
1.0
 40
1.0
 10
26.0908767883
 20
14.7103964896
 30
0.0
 10
26.2267855385
 20
14.6319313112
 30
0.0
 10
26.4971257483
 20
14.5033455927
 30
0.0
 10
26.9123203009
 20
14.4029014161
 30
0.0
 10
27.2438659168
 20
14.4117920433
 30
0.0
 10
27.4805788306
 20
14.4772534963
 30
0.0
 10
27.5883729192
 20
14.5277505749
 30
0.0
 10
27.6391405327
 20
14.5570610971
 30
0.0
  0
SPLINE
  5
348
100
AcDbEntity
  8
00_COMPONENTS_1
100
AcDbSpline
 62
7
  6
CONTINUOUS
 70
0
 71
3
 72
11
 73
7
 74
0
 42
0.0000001
 43
0.0000001
 44
0.0000000001
 40
0.0
 40
0.0
 40
0.0
 40
0.0
 40
0.2895690785
 40
0.5491141563
 40
0.7822458379
 40
1.0
 40
1.0
 40
1.0
 40
1.0
 10
56.5305023337
 20
51.8711954179
 30
0.0
 10
56.5305023337
 20
51.8256158943
 30
0.0
 10
56.5374528986
 20
51.738893559
 30
0.0
 10
56.572523348
 20
51.6197287048
 30
0.0
 10
56.6316535516
 20
51.5229970735
 30
0.0
 10
56.6872454655
 20
51.4763697407
 30
0.0
 10
56.7169258122
 20
51.4592265687
 30
0.0
  0
SPLINE
  5
349
100
AcDbEntity
  8
00_COMPONENTS_1
100
AcDbSpline
 62
7
  6
CONTINUOUS
 70
0
 71
3
 72
11
 73
7
 74
0
 42
0.0000001
 43
0.0000001
 44
0.0000000001
 40
0.0
 40
0.0
 40
0.0
 40
0.0
 40
0.260122791
 40
0.5215672263
 40
0.7717954133
 40
1.0
 40
1.0
 40
1.0
 40
1.0
 10
56.8702188692
 20
52.717694293
 30
0.0
 10
56.8183874498
 20
52.6561226322
 30
0.0
 10
56.7246430254
 20
52.5237966065
 30
0.0
 10
56.6174777374
 20
52.3093558379
 30
0.0
 10
56.5486589894
 20
52.089997885
 30
0.0
 10
56.5305023337
 20
51.941803086
 30
0.0
 10
56.5305023337
 20
51.8711954179
 30
0.0
  0
SPLINE
  5
34A
100
AcDbEntity
  8
00_COMPONENTS_1
100
AcDbSpline
 62
7
  6
CONTINUOUS
 70
0
 71
3
 72
14
 73
10
 74
0
 42
0.0000001
 43
0.0000001
 44
0.0000000001
 40
0.0
 40
0.0
 40
0.0
 40
0.0
 40
0.0967739436
 40
0.1978322471
 40
0.3066012715
 40
0.4252245456
 40
0.5545031342
 40
0.6942578212
 40
1.0
 40
1.0
 40
1.0
 40
1.0
 10
57.9137029089
 20
54.3477686414
 30
0.0
 10
57.8573830926
 20
54.3802717604
 30
0.0
 10
57.7326859393
 20
54.4313587423
 30
0.0
 10
57.5265533809
 20
54.4586245457
 30
0.0
 10
57.3052178393
 20
54.4379854968
 30
0.0
 10
57.0739537879
 20
54.3707656661
 30
0.0
 10
56.8374908321
 20
54.2592968015
 30
0.0
 10
56.5126542982
 20
54.0488713619
 30
0.0
 10
56.291833174
 20
53.8423867569
 30
0.0
 10
56.1548212415
 20
53.6893081568
 30
0.0
  0
SPLINE
  5
34B
100
AcDbEntity
  8
00_COMPONENTS_1
100
AcDbSpline
 62
7
  6
CONTINUOUS
 70
0
 71
3
 72
12
 73
8
 74
0
 42
0.0000001
 43
0.0000001
 44
0.0000000001
 40
0.0
 40
0.0
 40
0.0
 40
0.0
 40
0.249631622
 40
0.3744628932
 40
0.4998506177
 40
0.7506206097
 40
1.0
 40
1.0
 40
1.0
 40
1.0
 10
56.8690800387
 20
52.7198741144
 30
0.0
 10
56.7932200358
 20
52.7636709166
 30
0.0
 10
56.6803407885
 20
52.8309394204
 30
0.0
 10
56.529253442
 20
52.9200283344
 30
0.0
 10
56.376901732
 20
53.0077406233
 30
0.0
 10
56.1864197584
 20
53.11682477
 30
0.0
 10
56.0358704635
 20
53.2070367204
 30
0.0
 10
55.9604052216
 20
53.2513356978
 30
0.0
  0
SPLINE
  5
34C
100
AcDbEntity
  8
00_COMPONENTS_1
100
AcDbSpline
 62
7
  6
CONTINUOUS
 70
0
 71
3
 72
9
 73
5
 74
0
 42
0.0000001
 43
0.0000001
 44
0.0000000001
 40
0.0
 40
0.0
 40
0.0
 40
0.0
 40
0.2451537126
 40
1.0
 40
1.0
 40
1.0
 40
1.0
 10
57.4418185787
 20
53.3727823178
 30
0.0
 10
57.4402698225
 20
53.3562909726
 30
0.0
 10
57.4331180143
 20
53.2891015935
 30
0.0
 10
57.4227124027
 20
53.2222662096
 30
0.0
 10
57.4132112524
 20
53.1721575211
 30
0.0
  0
SPLINE
  5
34D
100
AcDbEntity
  8
00_COMPONENTS_1
100
AcDbSpline
 62
7
  6
CONTINUOUS
 70
0
 71
3
 72
12
 73
8
 74
0
 42
0.0000001
 43
0.0000001
 44
0.0000000001
 40
0.0
 40
0.0
 40
0.0
 40
0.0
 40
0.1081609636
 40
0.2183678068
 40
0.4513466778
 40
0.710443771
 40
1.0
 40
1.0
 40
1.0
 40
1.0
 10
36.3484368034
 20
76.783891419
 30
0.0
 10
36.2976117365
 20
76.7545477263
 30
0.0
 10
36.1998721683
 20
76.6863670496
 30
0.0
 10
36.0246260531
 20
76.5139030424
 30
0.0
 10
35.850958113
 20
76.2308993863
 30
0.0
 10
35.7302142058
 20
75.8206410577
 30
0.0
 10
35.7063783226
 20
75.5218866235
 30
0.0
 10
35.7063783226
 20
75.3647747345
 30
0.0
  0
SPLINE
  5
34E
100
AcDbEntity
  8
00_COMPONENTS_1
100
AcDbSpline
 62
7
  6
CONTINUOUS
 70
0
 71
3
 72
9
 73
5
 74
0
 42
0.0000001
 43
0.0000001
 44
0.0000000001
 40
0.0
 40
0.0
 40
0.0
 40
0.0
 40
0.2594042167
 40
1.0
 40
1.0
 40
1.0
 40
1.0
 10
55.6026995005
 20
84.2913483094
 30
0.0
 10
55.6101112064
 20
84.2507176986
 30
0.0
 10
55.6355042161
 20
84.0935437891
 30
0.0
 10
55.6478631097
 20
83.9341114375
 30
0.0
 10
55.6478631097
 20
83.8161973479
 30
0.0
  0
SPLINE
  5
34F
100
AcDbEntity
  8
00_COMPONENTS_1
100
AcDbSpline
 62
7
  6
CONTINUOUS
 70
0
 71
3
 72
11
 73
7
 74
0
 42
0.0000001
 43
0.0000001
 44
0.0000000001
 40
0.0
 40
0.0
 40
0.0
 40
0.0
 40
0.286931776
 40
0.546660052
 40
0.7818959624
 40
1.0
 40
1.0
 40
1.0
 40
1.0
 10
55.6478631097
 20
83.8161973479
 30
0.0
 10
55.6478631097
 20
83.7056698874
 30
0.0
 10
55.6325099275
 20
83.4945380619
 30
0.0
 10
55.5557224785
 20
83.2011630909
 30
0.0
 10
55.4268033497
 20
82.955524691
 30
0.0
 10
55.3045083058
 20
82.8267295971
 30
0.0
 10
55.2378170682
 20
82.7756341212
 30
0.0
  0
ELLIPSE
  5
350
100
AcDbEntity
  8
00_COMPONENTS_1
100
AcDbEllipse
 62
7
  6
CONTINUOUS
 10
28.7121004861
 20
18.7647067906
 30
0.0
 11
-1.4993953508
 21
2.6272205238
 31
0.0
 40
0.5740218783
 41
-4.4413735523
 42
-4.2104659346
  0
ELLIPSE
  5
351
100
AcDbEntity
  8
00_COMPONENTS_1
100
AcDbEllipse
 62
7
  6
CONTINUOUS
 10
40.4207451098
 20
75.5380519678
 30
0.0
 11
-1.5309084123
 21
2.608953509
 31
0.0
 40
0.582040398
 41
0.9495047683
 42
2.1653783964
  0
ELLIPSE
  5
352
100
AcDbEntity
  8
00_COMPONENTS_1
100
AcDbEllipse
 62
7
  6
CONTINUOUS
 10
28.7121004861
 20
61.541268424
 30
0.0
 11
-1.4993953508
 21
2.6272205238
 31
0.0
 40
0.5740218783
 41
1.0689516989
 42
2.0977467493
  0
ENDSEC
  0
SECTION
  2
OBJECTS
  0
DICTIONARY
  5
C
100
AcDbDictionary
280
0
281
1
  3
ACAD_GROUP
350
D
  3
ACAD_MLINESTYLE
350
17
  3
ACAD_LAYOUT
350
1A
  3
ACAD_PLOTSETTINGS
350
19
  3
ACAD_PLOTSTYLENAME
350
E
  0
DICTIONARY
  5
D
102
{ACAD_REACTORS
330
C
102
}
100
AcDbDictionary
280
0
281
1
  0
ACDBDICTIONARYWDFLT
  5
E
102
{ACAD_REACTORS
330
C
102
}
100
AcDbDictionary
281
1
  3
Normal
350
F
100
AcDbDictionaryWithDefault
340
F
  0
DICTIONARY
  5
17
102
{ACAD_REACTORS
330
C
102
}
100
AcDbDictionary
280
0
281
1
  3
Standard
350
18
  0
DICTIONARY
  5
19
102
{ACAD_REACTORS
330
C
102
}
100
AcDbDictionary
281
1
  0
DICTIONARY
  5
1A
102
{ACAD_REACTORS
330
C
102
}
100
AcDbDictionary
281
1
  3
Model
350
353
  3
Layout1
350
354
  0
ACDBPLACEHOLDER
  5
F
102
{ACAD_REACTORS
330
E
102
}
  0
MLINESTYLE
  5
18
102
{ACAD_REACTORS
330
17
102
}
100
AcDbMlineStyle
  2
STANDARD
 70
0
  3

 62
256
 51
90.0
 52
90.0
 71
2
 49
0.5
 62
256
  6
BYLAYER
 49
-0.5
 62
256
  6
BYLAYER
  0
LAYOUT
  5
353
102
{ACAD_REACTORS
330
1A
102
}
100
AcDbPlotSettings
  1

  2
none_device
  4

  6

 40
0.0
 41
0.0
 42
0.0
 43
0.0
 44
210.0
 45
297.0
 46
0.0
 47
0.0
 48
0.0
 49
0.0
140
0.0
141
0.0
142
1.0
143
1.0
 70
1024
 72
1
 73
0
 74
0
  7

 75
0
147
1.0
148
0.0
149
0.0
100
AcDbLayout
  1
Model
 70
0
 71
0
 10
0.0
 20
0.0
 11
210.0
 21
297.0
 12
0.0
 22
0.0
 32
0.0
 14
0.0
 24
0.0
 34
0.0
 15
0.0
 25
0.0
 35
0.0
146
0.0
 13
0.0
 23
0.0
 33
0.0
 16
1.0
 26
0.0
 36
0.0
 17
0.0
 27
1.0
 37
0.0
 76
0
330
211
345
0
346
0
  0
LAYOUT
  5
354
102
{ACAD_REACTORS
330
1A
102
}
100
AcDbPlotSettings
  1

  2
none_device
  4

  6

 40
0.0
 41
0.0
 42
0.0
 43
0.0
 44
210.0
 45
297.0
 46
0.0
 47
0.0
 48
0.0
 49
0.0
140
0.0
141
0.0
142
1.0
143
1.0
 70
0
 72
1
 73
0
 74
0
  7

 75
0
147
1.0
148
0.0
149
0.0
100
AcDbLayout
  1
Layout1
 70
0
 71
1
 10
0.0
 20
0.0
 11
210.0
 21
297.0
 12
0.0
 22
0.0
 32
0.0
 14
0.0
 24
0.0
 34
0.0
 15
0.0
 25
0.0
 35
0.0
146
0.0
 13
0.0
 23
0.0
 33
0.0
 16
1.0
 26
0.0
 36
0.0
 17
0.0
 27
1.0
 37
0.0
 76
0
330
212
345
0
346
0
  0
ENDSEC
  0
EOF
