999
DXF file: C:\Users\sesa63760\Dev\_Creo\CAD\MCADID0005203_3D-CAD\drw0001_4.dxf
999
Pro/ENGINEER 2019471 by Parametric Technology Corporation
  0
SECTION
  2
HEADER
  9
$ACADVER
  1
AC1024
  9
$DWGCODEPAGE
  3
ANSI_1252
  9
$EXTMAX
 10
37.2252917102
 20
52.6471982759
 30
0.0
  9
$EXTMIN
 10
0.0
 20
0.0
 30
0.0
  9
$LIMMIN
 10
0.0
 20
0.0
  9
$LIMMAX
 10
37.2252917102
 20
52.6471982759
  9
$VIEWCTR
 10
18.6126458551
 20
26.3235991379
  9
$VIEWSIZE
 40
52.6471982759
  9
$CLAYER
  8
0
  9
$LTSCALE
 40
3.4318173691
  9
$CELTYPE
  6
BYLAYER
  9
$DIMSCALE
 40
1.0
  9
$DIMASZ
 40
0.4431582346
  9
$DIMEXO
 40
1.0
  9
$DIMDLI
 40
2.3710738186
  9
$DIMEXE
 40
1.0
  9
$DIMCEN
 40
0.5615701149
  9
$DIMLFAC
 40
1.0
  9
$DIMBLK
  1
_FILLED
  9
$DIMALT
 70
0
  9
$DIMALTF
 40
0.0393700787
  9
$DIMTXT
 40
0.6204215285
  9
$DIMTOL
 70
1
  9
$DIMLIM
 70
0
  9
$DIMTFAC
 40
1.0
  9
$DIMTP
 40
0.01
  9
$DIMTM
 40
0.01
  9
$DIMGAP
 40
0.625
  9
$DIMDSEP
 70
46
  9
$AUNITS
 70
0
  9
$PDMODE
 70
3
  9
$PDSIZE
 40
0.3125
  9
$HANDSEED
  5
2C1
  9
$TILEMODE
 70
1
  9
$MEASUREMENT
 70
1
  9
$INSUNITS
 70
4
  0
ENDSEC
  0
SECTION
  2
CLASSES
  0
CLASS
  1
ACDBDICTIONARYWDFLT
  2
AcDbDictionaryWithDefault
  3
AutoCAD 2000
 90
0
 91
1
280
0
281
0
  0
CLASS
  1
ACDBPLACEHOLDER
  2
AcDbPlaceHolder
  3
AutoCAD 2000
 90
0
 91
1
280
0
281
0
  0
CLASS
  1
LAYOUT
  2
AcDbLayout
  3
AutoCAD 2000
 90
0
 91
0
280
0
281
0
  0
ENDSEC
  0
SECTION
  2
TABLES
  0
TABLE
  2
VPORT
  5
8
100
AcDbSymbolTable
 70
2
  0
VPORT
  5
1F4
100
AcDbSymbolTableRecord
100
AcDbViewportTableRecord
  2
*ACTIVE
 70
0
 10
0.0
 20
0.0
 11
1.0
 21
1.0
 12
18.6126458551
 22
26.3235991379
 13
0.0
 23
0.0
 14
1.0
 24
1.0
 15
0.0
 25
0.0
 16
0.0
 26
0.0
 36
1.0
 17
0.0
 27
0.0
 37
0.0
 40
52.6471982759
 41
0.7070707071
 42
50.0
 43
0.0
 44
0.0
 50
0.0
 51
0.0
 71
0
 72
100
 73
1
 74
1
 75
0
 76
0
 77
0
 78
0
  0
ENDTAB
  0
TABLE
  2
LTYPE
  5
5
100
AcDbSymbolTable
 70
6
  0
LTYPE
  5
14
100
AcDbSymbolTableRecord
100
AcDbLinetypeTableRecord
  2
BYBLOCK
 70
0
  3

 72
65
 73
0
 40
0.0
  0
LTYPE
  5
15
100
AcDbSymbolTableRecord
100
AcDbLinetypeTableRecord
  2
BYLAYER
 70
0
  3

 72
65
 73
0
 40
0.0
  0
LTYPE
  5
16
100
AcDbSymbolTableRecord
100
AcDbLinetypeTableRecord
  2
CONTINUOUS
 70
64
  3
Solid line
 72
65
 73
0
 40
0.0
  0
LTYPE
  5
1F5
100
AcDbSymbolTableRecord
100
AcDbLinetypeTableRecord
  2
CENTER
 70
64
  3
____ _ ____ _ ____ _ ____ _ ____ _ ____ _ ____
 72
65
 73
4
 40
0.6
 49
0.375
 74
0
 49
-0.075
 74
0
 49
0.075
 74
0
 49
-0.075
 74
0
  0
LTYPE
  5
1F6
100
AcDbSymbolTableRecord
100
AcDbLinetypeTableRecord
  2
HIDDEN
 70
64
  3
- - - - - - - - - - - - - - - - - - - -
 72
65
 73
2
 40
0.2
 49
0.1
 74
0
 49
-0.1
 74
0
  0
LTYPE
  5
1F7
100
AcDbSymbolTableRecord
100
AcDbLinetypeTableRecord
  2
PHANTOM
 70
64
  3
_____ _ _ _____ _ _ _____ _ _ _____
 72
65
 73
6
 40
0.8
 49
0.45
 74
0
 49
-0.05
 74
0
 49
0.1
 74
0
 49
-0.05
 74
0
 49
0.1
 74
0
 49
-0.05
 74
0
  0
LTYPE
  5
1F8
100
AcDbSymbolTableRecord
100
AcDbLinetypeTableRecord
  2
DOT
 70
64
  3
. . . . . . . . . . . . . . . . . . . .
 72
65
 73
2
 40
0.2
 49
0.1
 74
0
 49
-0.1
 74
0
  0
LTYPE
  5
1F9
100
AcDbSymbolTableRecord
100
AcDbLinetypeTableRecord
  2
DASHED
 70
64
  3
- - - - - - - - - - - - - - - - - - - -
 72
65
 73
2
 40
0.2
 49
0.1
 74
0
 49
-0.1
 74
0
  0
ENDTAB
  0
TABLE
  2
LAYER
  5
2
100
AcDbSymbolTable
 70
36
  0
LAYER
  5
10
100
AcDbSymbolTableRecord
100
AcDbLayerTableRecord
  2
0
 70
0
 62
7
  6
CONTINUOUS
370
-3
390
F
  0
LAYER
  5
1FA
100
AcDbSymbolTableRecord
100
AcDbLayerTableRecord
  2
DEFAULT_1
 70
0
 62
7
  6
CENTER
370
-3
390
F
  0
LAYER
  5
1FB
100
AcDbSymbolTableRecord
100
AcDbLayerTableRecord
  2
DEFAULT_2
 70
0
 62
7
  6
HIDDEN
370
-3
390
F
  0
LAYER
  5
1FC
100
AcDbSymbolTableRecord
100
AcDbLayerTableRecord
  2
DEFAULT_3
 70
0
 62
7
  6
PHANTOM
370
-3
390
F
  0
LAYER
  5
1FD
100
AcDbSymbolTableRecord
100
AcDbLayerTableRecord
  2
00_COMPONENTS
 70
0
 62
7
  6
CONTINUOUS
370
-3
390
F
  0
LAYER
  5
1FE
100
AcDbSymbolTableRecord
100
AcDbLayerTableRecord
  2
01_1_DEFAULT_DATUMS
 70
0
 62
7
  6
CONTINUOUS
370
-3
390
F
  0
LAYER
  5
1FF
100
AcDbSymbolTableRecord
100
AcDbLayerTableRecord
  2
01_PLANES
 70
0
 62
7
  6
CONTINUOUS
370
-3
390
F
  0
LAYER
  5
200
100
AcDbSymbolTableRecord
100
AcDbLayerTableRecord
  2
02_COORD_SYS
 70
0
 62
7
  6
CONTINUOUS
370
-3
390
F
  0
LAYER
  5
201
100
AcDbSymbolTableRecord
100
AcDbLayerTableRecord
  2
03_AXES
 70
0
 62
7
  6
CONTINUOUS
370
-3
390
F
  0
LAYER
  5
202
100
AcDbSymbolTableRecord
100
AcDbLayerTableRecord
  2
04_POINTS
 70
0
 62
7
  6
CONTINUOUS
370
-3
390
F
  0
LAYER
  5
203
100
AcDbSymbolTableRecord
100
AcDbLayerTableRecord
  2
05_CURVES
 70
0
 62
7
  6
CONTINUOUS
370
-3
390
F
  0
LAYER
  5
204
100
AcDbSymbolTableRecord
100
AcDbLayerTableRecord
  2
06_SURFS
 70
0
 62
7
  6
CONTINUOUS
370
-3
390
F
  0
LAYER
  5
205
100
AcDbSymbolTableRecord
100
AcDbLayerTableRecord
  2
07_COSMETICS
 70
0
 62
7
  6
CONTINUOUS
370
-3
390
F
  0
LAYER
  5
206
100
AcDbSymbolTableRecord
100
AcDbLayerTableRecord
  2
10_NOTES
 70
0
 62
7
  6
CONTINUOUS
370
-3
390
F
  0
LAYER
  5
207
100
AcDbSymbolTableRecord
100
AcDbLayerTableRecord
  2
11_NOTES_PUB
 70
0
 62
7
  6
CONTINUOUS
370
-3
390
F
  0
LAYER
  5
208
100
AcDbSymbolTableRecord
100
AcDbLayerTableRecord
  2
13_REF_GTOL
 70
0
 62
7
  6
CONTINUOUS
370
-3
390
F
  0
LAYER
  5
209
100
AcDbSymbolTableRecord
100
AcDbLayerTableRecord
  2
16_MISC
 70
0
 62
7
  6
CONTINUOUS
370
-3
390
F
  0
LAYER
  5
20A
100
AcDbSymbolTableRecord
100
AcDbLayerTableRecord
  2
17_NO_PRINT
 70
0
 62
7
  6
CONTINUOUS
370
-3
390
F
  0
LAYER
  5
20B
100
AcDbSymbolTableRecord
100
AcDbLayerTableRecord
  2
18_DATUM_CAMS_JOINTS
 70
0
 62
7
  6
CONTINUOUS
370
-3
390
F
  0
LAYER
  5
20C
100
AcDbSymbolTableRecord
100
AcDbLayerTableRecord
  2
19_DATUM_FUNCTIONAL
 70
0
 62
7
  6
CONTINUOUS
370
-3
390
F
  0
LAYER
  5
20D
100
AcDbSymbolTableRecord
100
AcDbLayerTableRecord
  2
20_DATUM_KINEMATIC_SCHEME
 70
0
 62
7
  6
CONTINUOUS
370
-3
390
F
  0
ENDTAB
  0
TABLE
  2
STYLE
  5
3
100
AcDbSymbolTable
 70
1
  0
STYLE
  5
11
100
AcDbSymbolTableRecord
100
AcDbTextStyleTableRecord
  2
STANDARD
 70
0
 40
0.0
 41
1.0
 50
0.0
 71
0
 42
0.2
  3
ARIAL.TTF
  4

  0
STYLE
  5
20E
100
AcDbSymbolTableRecord
100
AcDbTextStyleTableRecord
  2
TEXTSTYLE_1
 70
0
 40
0.0
 41
0.8
 50
0.0
 71
0
 42
0.2
  3
gdt
  4

  0
ENDTAB
  0
TABLE
  2
VIEW
  5
6
100
AcDbSymbolTable
 70
0
  0
ENDTAB
  0
TABLE
  2
UCS
  5
7
100
AcDbSymbolTable
 70
0
  0
ENDTAB
  0
TABLE
  2
APPID
  5
9
100
AcDbSymbolTable
 70
1
  0
APPID
  5
20F
100
AcDbSymbolTableRecord
100
AcDbRegAppTableRecord
  2
ACAD
 70
0
  0
ENDTAB
  0
TABLE
  2
BLOCK_RECORD
  5
1
100
AcDbSymbolTable
 70
0
  0
BLOCK_RECORD
  5
210
100
AcDbSymbolTableRecord
100
AcDbBlockTableRecord
  2
*Model_Space
  0
BLOCK_RECORD
  5
211
100
AcDbSymbolTableRecord
100
AcDbBlockTableRecord
  2
*Paper_Space
  0
BLOCK_RECORD
  5
212
100
AcDbSymbolTableRecord
100
AcDbBlockTableRecord
  2
_FILLED
  0
ENDTAB
  0
TABLE
  2
DIMSTYLE
  5
A
100
AcDbSymbolTable
 70
1
100
AcDbDimStyleTable
 71
0
  0
DIMSTYLE
105
213
100
AcDbSymbolTableRecord
100
AcDbDimStyleTableRecord
  2
STANDARD
 70
0
  3

  4

 40
1.0
 41
0.4431582346
 42
1.0
 43
0.38
 44
1.0
 45
0.0
 46
0.0
 47
0.01
 48
0.01
140
0.6204215285
141
0.09
142
0.0
143
25.4
144
1.0
145
0.0
146
1.0
147
0.625
 71
1
 72
0
 73
0
 74
0
 75
0
 76
0
 77
1
 78
8
 79
2
170
0
171
1
172
0
173
0
174
0
175
0
176
0
177
0
178
0
270
2
179
2
271
2
272
2
273
2
274
2
275
0
280
0
281
0
282
0
283
1
284
8
285
0
286
0
287
3
288
0
340
11
278
46
341
212
342
212
343
212
344
212
  0
ENDTAB
  0
ENDSEC
  0
SECTION
  2
BLOCKS
  0
BLOCK
  5
20
100
AcDbEntity
  8
0
100
AcDbBlockBegin
  2
*Model_Space
 70
0
 10
0.0
 20
0.0
 30
0.0
  3
*Model_Space
  1

  0
ENDBLK
  5
21
100
AcDbEntity
  8
0
100
AcDbBlockEnd
  0
BLOCK
  5
1C
100
AcDbEntity
  8
0
100
AcDbBlockBegin
  2
*Paper_Space
 70
0
 10
0.0
 20
0.0
 30
0.0
  3
*Paper_Space
  1

  0
ENDBLK
  5
1D
100
AcDbEntity
  8
0
100
AcDbBlockEnd
  0
BLOCK
  5
214
100
AcDbEntity
  8
0
100
AcDbBlockBegin
  2
_FILLED
 70
64
 10
0.0
 20
0.0
  3
_FILLED
  1

  0
SOLID
  5
215
100
AcDbEntity
  8
0
  6
BYBLOCK
 62
0
100
AcDbTrace
 10
0.0
 20
0.0
 11
-1.0
 21
0.25
 12
-1.0
 22
-0.25
 13
-1.0
 23
-0.25
  0
ENDBLK
  5
216
100
AcDbEntity
  8
0
  6
BYBLOCK
 62
0
100
AcDbBlockEnd
  0
ENDSEC
  0
SECTION
  2
ENTITIES
  0
LINE
  5
217
100
AcDbEntity
  8
0
100
AcDbLine
 62
7
  6
BYLAYER
 10
4.1459432689
 20
17.6507166416
 11
4.1459432689
 21
27.4507166416
  0
LINE
  5
218
100
AcDbEntity
  8
0
100
AcDbLine
 62
7
  6
BYLAYER
 10
4.4309432689
 20
33.4507166416
 11
4.4309432689
 21
27.4507166416
  0
LINE
  5
219
100
AcDbEntity
  8
0
100
AcDbLine
 62
7
  6
BYLAYER
 10
5.1459434596
 20
18.101050292
 11
5.1459434596
 21
23.0675179561
  0
LINE
  5
21A
100
AcDbEntity
  8
0
100
AcDbLine
 62
7
  6
BYLAYER
 10
6.9709432689
 20
33.6507166416
 11
6.9709432689
 21
33.4507166416
  0
LINE
  5
21B
100
AcDbEntity
  8
0
100
AcDbLine
 62
7
  6
BYLAYER
 10
6.9709432689
 20
27.4507166416
 11
6.9709432689
 21
25.041630405
  0
LINE
  5
21C
100
AcDbEntity
  8
0
100
AcDbLine
 62
7
  6
BYLAYER
 10
7.7709435303
 20
24.7739540856
 11
7.7709435303
 21
27.4507166416
  0
LINE
  5
21D
100
AcDbEntity
  8
0
100
AcDbLine
 62
7
  6
BYLAYER
 10
7.7709435303
 20
33.4507166416
 11
7.7709435303
 21
33.6507166416
  0
LINE
  5
21E
100
AcDbEntity
  8
0
100
AcDbLine
 62
7
  6
BYLAYER
 10
8.2309445107
 20
27.4507166416
 11
8.2309445107
 21
33.4507166416
  0
LINE
  5
21F
100
AcDbEntity
  8
0
100
AcDbLine
 62
7
  6
BYLAYER
 10
10.4459432689
 20
18.1010498515
 11
10.4459432689
 21
22.0302724656
  0
LINE
  5
220
100
AcDbEntity
  8
0
100
AcDbLine
 62
7
  6
BYLAYER
 10
10.5583767004
 20
33.6507166416
 11
10.5583767004
 21
33.4507166416
  0
LINE
  5
221
100
AcDbEntity
  8
0
100
AcDbLine
 62
7
  6
BYLAYER
 10
10.5583767004
 20
27.4507166416
 11
10.5583767004
 21
24.7739549829
  0
LINE
  5
222
100
AcDbEntity
  8
0
100
AcDbLine
 62
7
  6
BYLAYER
 10
19.0959432689
 20
36.7972813007
 11
17.572387863
 21
35.9724080669
  0
LINE
  5
223
100
AcDbEntity
  8
0
100
AcDbLine
 62
7
  6
BYLAYER
 10
34.0459432689
 20
17.6507166416
 11
21.7823870011
 21
17.6507166416
  0
LINE
  5
224
100
AcDbEntity
  8
0
100
AcDbLine
 62
7
  6
BYLAYER
 10
16.4094995367
 20
17.6507166416
 11
4.1459432689
 21
17.6507166416
  0
LINE
  5
225
100
AcDbEntity
  8
0
100
AcDbLine
 62
7
  6
BYLAYER
 10
11.8459432689
 20
33.4507166416
 11
11.8459432689
 21
27.4507166416
  0
LINE
  5
226
100
AcDbEntity
  8
0
100
AcDbLine
 62
7
  6
BYLAYER
 10
17.572387863
 20
35.9724080669
 11
17.4993822498
 21
35.9057624649
  0
LINE
  5
227
100
AcDbEntity
  8
0
100
AcDbLine
 62
7
  6
BYLAYER
 10
5.1459434596
 20
18.101050292
 11
10.4459432689
 21
18.1010498515
  0
LINE
  5
228
100
AcDbEntity
  8
0
100
AcDbLine
 62
7
  6
BYLAYER
 10
27.7459432689
 20
18.1010498515
 11
33.0459432689
 21
18.1010498515
  0
LINE
  5
229
100
AcDbEntity
  8
0
100
AcDbLine
 62
7
  6
BYLAYER
 10
10.4459432689
 20
18.3897249861
 11
12.4459432689
 21
18.3897249861
  0
LINE
  5
22A
100
AcDbEntity
  8
0
100
AcDbLine
 62
7
  6
BYLAYER
 10
25.7459432689
 20
18.9670752553
 11
27.7459432689
 21
18.9670752553
  0
LINE
  5
22B
100
AcDbEntity
  8
0
100
AcDbLine
 62
7
  6
BYLAYER
 10
12.3459432689
 20
33.4507166416
 11
12.3459432689
 21
27.4507166416
  0
LINE
  5
22C
100
AcDbEntity
  8
0
100
AcDbLine
 62
7
  6
BYLAYER
 10
12.3578072527
 20
33.0507166416
 11
12.3578072527
 21
33.4507166416
  0
LINE
  5
22D
100
AcDbEntity
  8
0
100
AcDbLine
 62
7
  6
BYLAYER
 10
12.4459432689
 20
18.3897249861
 11
12.4459432689
 21
21.861918597
  0
LINE
  5
22E
100
AcDbEntity
  8
0
100
AcDbLine
 62
7
  6
BYLAYER
 10
12.5752423352
 20
27.4507166416
 11
12.5752423352
 21
27.1507166416
  0
LINE
  5
22F
100
AcDbEntity
  8
0
100
AcDbLine
 62
7
  6
BYLAYER
 10
16.04661913
 20
19.9849903333
 11
18.3129813252
 21
19.9849903333
  0
LINE
  5
230
100
AcDbEntity
  8
0
100
AcDbLine
 62
7
  6
BYLAYER
 10
19.8789052126
 20
19.9849903333
 11
22.1427503846
 21
19.9849903333
  0
LINE
  5
231
100
AcDbEntity
  8
0
100
AcDbLine
 62
7
  6
BYLAYER
 10
22.0797995772
 20
20.1334326297
 11
19.7532508853
 21
20.1334326297
  0
LINE
  5
232
100
AcDbEntity
  8
0
100
AcDbLine
 62
7
  6
BYLAYER
 10
18.4386356536
 20
20.1334326297
 11
16.1095259628
 21
20.1334326297
  0
LINE
  5
233
100
AcDbEntity
  8
0
100
AcDbLine
 62
7
  6
BYLAYER
 10
22.0250790016
 20
20.150717023
 11
16.1642083132
 21
20.150717023
  0
LINE
  5
234
100
AcDbEntity
  8
0
100
AcDbLine
 62
7
  6
BYLAYER
 10
17.4993822498
 20
35.9057624649
 11
17.1002428596
 21
34.8504263678
  0
LINE
  5
235
100
AcDbEntity
  8
0
100
AcDbLine
 62
7
  6
BYLAYER
 10
12.4459432689
 20
18.9670752553
 11
16.04661913
 21
19.9849903333
  0
LINE
  5
236
100
AcDbEntity
  8
0
100
AcDbLine
 62
7
  6
BYLAYER
 10
25.7459432689
 20
21.5252108598
 11
21.0523085804
 21
20.7519125789
  0
LINE
  5
237
100
AcDbEntity
  8
0
100
AcDbLine
 62
7
  6
BYLAYER
 10
17.4837760397
 20
20.7007166416
 11
20.7048321285
 21
20.7007166416
  0
LINE
  5
238
100
AcDbEntity
  8
0
100
AcDbLine
 62
7
  6
BYLAYER
 10
17.1351954871
 20
20.7520945482
 11
12.4459432689
 21
21.5252108598
  0
LINE
  5
239
100
AcDbEntity
  8
0
100
AcDbLine
 62
7
  6
BYLAYER
 10
22.1427503846
 20
19.9849903333
 11
25.7459432689
 21
18.9670752553
  0
LINE
  5
23A
100
AcDbEntity
  8
0
100
AcDbLine
 62
7
  6
BYLAYER
 10
14.8459432689
 20
33.4507166416
 11
14.8459432689
 21
33.0507166416
  0
LINE
  5
23B
100
AcDbEntity
  8
0
100
AcDbLine
 62
7
  6
BYLAYER
 10
15.199837741
 20
33.6507166416
 11
15.199837741
 21
33.0507166416
  0
LINE
  5
23C
100
AcDbEntity
  8
0
100
AcDbLine
 62
7
  6
BYLAYER
 10
15.199837741
 20
27.1507166416
 11
15.199837741
 21
23.7593801646
  0
LINE
  5
23D
100
AcDbEntity
  8
0
100
AcDbLine
 62
7
  6
BYLAYER
 10
17.1002428596
 20
34.8504263678
 11
17.0959434794
 21
34.8276665069
  0
LINE
  5
23E
100
AcDbEntity
  8
0
100
AcDbLine
 62
7
  6
BYLAYER
 10
27.7459432689
 20
21.5252108598
 11
25.7459432689
 21
21.5252108598
  0
LINE
  5
23F
100
AcDbEntity
  8
0
100
AcDbLine
 62
7
  6
BYLAYER
 10
12.4459432689
 20
21.861918597
 11
10.4459432689
 21
21.861918597
  0
LINE
  5
240
100
AcDbEntity
  8
0
100
AcDbLine
 62
7
  6
BYLAYER
 10
27.7459432689
 20
22.0302724656
 11
22.3457999406
 21
22.0302724656
  0
LINE
  5
241
100
AcDbEntity
  8
0
100
AcDbLine
 62
7
  6
BYLAYER
 10
15.8459432689
 20
22.0302724656
 11
10.4459432689
 21
22.0302724656
  0
LINE
  5
242
100
AcDbEntity
  8
0
100
AcDbLine
 62
7
  6
BYLAYER
 10
19.8523760149
 20
22.1487906009
 11
18.3393525987
 21
22.1487906009
  0
LINE
  5
243
100
AcDbEntity
  8
0
100
AcDbLine
 62
7
  6
BYLAYER
 10
16.5410094071
 20
16.1705645492
 11
16.3652904837
 21
18.1482923917
  0
LINE
  5
244
100
AcDbEntity
  8
0
100
AcDbLine
 62
7
  6
BYLAYER
 10
16.3652904803
 20
18.1482924292
 11
16.3649655015
 21
18.1556081807
  0
LINE
  5
245
100
AcDbEntity
  8
0
100
AcDbLine
 62
7
  6
BYLAYER
 10
16.5407053408
 20
16.1774095283
 11
16.541009407
 21
16.1705645507
  0
LINE
  5
246
100
AcDbEntity
  8
0
100
AcDbLine
 62
7
  6
BYLAYER
 10
15.6158213601
 20
25.4507166416
 11
15.6158213601
 21
27.1507166416
  0
LINE
  5
247
100
AcDbEntity
  8
0
100
AcDbLine
 62
7
  6
BYLAYER
 10
15.6158213601
 20
33.0507166416
 11
15.6158213601
 21
33.6507166416
  0
LINE
  5
248
100
AcDbEntity
  8
0
100
AcDbLine
 62
7
  6
BYLAYER
 10
15.8401416524
 20
21.6954915901
 11
15.8401416524
 21
23.9507166416
  0
LINE
  5
249
100
AcDbEntity
  8
0
100
AcDbLine
 62
7
  6
BYLAYER
 10
16.1459432689
 20
27.1507166416
 11
16.1459432689
 21
29.650717023
  0
LINE
  5
24A
100
AcDbEntity
  8
0
100
AcDbLine
 62
7
  6
BYLAYER
 10
4.1459432689
 20
23.0675179561
 11
15.8459432689
 21
23.0675179561
  0
LINE
  5
24B
100
AcDbEntity
  8
0
100
AcDbLine
 62
7
  6
BYLAYER
 10
22.3457999406
 20
23.0675179561
 11
34.0459432689
 21
23.0675179561
  0
LINE
  5
24C
100
AcDbEntity
  8
0
100
AcDbLine
 62
7
  6
BYLAYER
 10
17.0959434794
 20
34.8276665069
 11
17.1175372434
 21
33.0507166416
  0
LINE
  5
24D
100
AcDbEntity
  8
0
100
AcDbLine
 62
7
  6
BYLAYER
 10
17.1892349373
 20
27.1507166416
 11
17.2281218222
 21
23.9507166416
  0
LINE
  5
24E
100
AcDbEntity
  8
0
100
AcDbLine
 62
7
  6
BYLAYER
 10
17.286910023
 20
19.1130382478
 11
17.2922427864
 21
18.6742053889
  0
LINE
  5
24F
100
AcDbEntity
  8
0
100
AcDbLine
 62
7
  6
BYLAYER
 10
17.1351954871
 20
20.7520945482
 11
17.1351954871
 21
20.1507168279
  0
LINE
  5
250
100
AcDbEntity
  8
0
100
AcDbLine
 62
7
  6
BYLAYER
 10
15.8401416524
 20
23.9507166416
 11
22.3515869612
 21
23.9507166416
  0
LINE
  5
251
100
AcDbEntity
  8
0
100
AcDbLine
 62
7
  6
BYLAYER
 10
27.6335073243
 20
24.7739540856
 11
30.4209435303
 21
24.7739540856
  0
LINE
  5
252
100
AcDbEntity
  8
0
100
AcDbLine
 62
7
  6
BYLAYER
 10
7.7709435303
 20
24.7739540856
 11
10.5583767004
 21
24.7739549829
  0
LINE
  5
253
100
AcDbEntity
  8
0
100
AcDbLine
 62
7
  6
BYLAYER
 10
18.5459432689
 20
17.137056448
 11
18.5459432689
 21
15.5230599161
  0
LINE
  5
254
100
AcDbEntity
  8
0
100
AcDbLine
 62
7
  6
BYLAYER
 10
22.5760745748
 20
25.4507166416
 11
20.9819929429
 21
25.4507166416
  0
LINE
  5
255
100
AcDbEntity
  8
0
100
AcDbLine
 62
7
  6
BYLAYER
 10
17.2098935949
 20
25.4507166416
 11
15.6158215032
 21
25.4507166416
  0
LINE
  5
256
100
AcDbEntity
  8
0
100
AcDbLine
 62
7
  6
BYLAYER
 10
19.6459432689
 20
15.523268379
 11
19.6459432689
 21
17.137056448
  0
LINE
  5
257
100
AcDbEntity
  8
0
100
AcDbLine
 62
7
  6
BYLAYER
 10
12.5752423352
 20
27.1507166416
 11
25.6166574832
 21
27.1507166416
  0
LINE
  5
258
100
AcDbEntity
  8
0
100
AcDbLine
 62
7
  6
BYLAYER
 10
4.1459432689
 20
27.4507166416
 11
12.5752423352
 21
27.4507166416
  0
LINE
  5
259
100
AcDbEntity
  8
0
100
AcDbLine
 62
7
  6
BYLAYER
 10
25.6166574832
 20
27.4507166416
 11
34.0459432689
 21
27.4507166416
  0
LINE
  5
25A
100
AcDbEntity
  8
0
100
AcDbLine
 62
7
  6
BYLAYER
 10
21.0523085804
 20
20.1507168277
 11
21.0523085804
 21
20.7519125789
  0
LINE
  5
25B
100
AcDbEntity
  8
0
100
AcDbLine
 62
7
  6
BYLAYER
 10
20.899641799
 20
18.6740447263
 11
20.9049765148
 21
19.1130382478
  0
LINE
  5
25C
100
AcDbEntity
  8
0
100
AcDbLine
 62
7
  6
BYLAYER
 10
20.9637647156
 20
23.9507166416
 11
21.0026516005
 21
27.1507166416
  0
LINE
  5
25D
100
AcDbEntity
  8
0
100
AcDbLine
 62
7
  6
BYLAYER
 10
21.0743492944
 20
33.0507166416
 11
21.0959430583
 21
34.8276665069
  0
LINE
  5
25E
100
AcDbEntity
  8
0
100
AcDbLine
 62
7
  6
BYLAYER
 10
22.0459432689
 20
29.650717023
 11
22.0459432689
 21
27.1507166416
  0
LINE
  5
25F
100
AcDbEntity
  8
0
100
AcDbLine
 62
7
  6
BYLAYER
 10
22.3515869612
 20
23.9507166416
 11
22.3515869612
 21
21.6954915901
  0
LINE
  5
260
100
AcDbEntity
  8
0
100
AcDbLine
 62
7
  6
BYLAYER
 10
22.5760747179
 20
33.6507166416
 11
22.5760747179
 21
33.0507166416
  0
LINE
  5
261
100
AcDbEntity
  8
0
100
AcDbLine
 62
7
  6
BYLAYER
 10
22.5760747179
 20
27.1507166416
 11
22.5760747179
 21
25.4507166416
  0
LINE
  5
262
100
AcDbEntity
  8
0
100
AcDbLine
 62
7
  6
BYLAYER
 10
21.6508771308
 20
16.170564551
 11
21.651181197
 21
16.1774095283
  0
LINE
  5
263
100
AcDbEntity
  8
0
100
AcDbLine
 62
7
  6
BYLAYER
 10
21.8269210363
 20
18.1556081807
 11
21.8265960575
 21
18.1482924292
  0
LINE
  5
264
100
AcDbEntity
  8
0
100
AcDbLine
 62
7
  6
BYLAYER
 10
21.6508771307
 20
16.1705645492
 11
21.8265960541
 21
18.1482923917
  0
LINE
  5
265
100
AcDbEntity
  8
0
100
AcDbLine
 62
7
  6
BYLAYER
 10
22.0459432689
 20
29.650717023
 11
16.1459432689
 21
29.650717023
  0
LINE
  5
266
100
AcDbEntity
  8
0
100
AcDbLine
 62
7
  6
BYLAYER
 10
21.0959430583
 20
34.8276665069
 11
21.0916436782
 21
34.8504263678
  0
LINE
  5
267
100
AcDbEntity
  8
0
100
AcDbLine
 62
7
  6
BYLAYER
 10
22.9920488249
 20
33.6507166416
 11
22.9920488249
 21
33.0507166416
  0
LINE
  5
268
100
AcDbEntity
  8
0
100
AcDbLine
 62
7
  6
BYLAYER
 10
22.9920488249
 20
27.1507166416
 11
22.9920488249
 21
23.7593801358
  0
LINE
  5
269
100
AcDbEntity
  8
0
100
AcDbLine
 62
7
  6
BYLAYER
 10
23.3459432689
 20
33.0507166416
 11
23.3459432689
 21
33.4507166416
  0
LINE
  5
26A
100
AcDbEntity
  8
0
100
AcDbLine
 62
7
  6
BYLAYER
 10
20.6925042879
 20
35.9057624649
 11
21.0916436782
 21
34.8504263678
  0
LINE
  5
26B
100
AcDbEntity
  8
0
100
AcDbLine
 62
7
  6
BYLAYER
 10
25.6166574832
 20
27.1507166416
 11
25.6166574832
 21
27.4507166416
  0
LINE
  5
26C
100
AcDbEntity
  8
0
100
AcDbLine
 62
7
  6
BYLAYER
 10
25.7459432689
 20
18.9670752553
 11
25.7459432689
 21
21.5252108598
  0
LINE
  5
26D
100
AcDbEntity
  8
0
100
AcDbLine
 62
7
  6
BYLAYER
 10
25.8340826539
 20
33.4507166416
 11
25.8340826539
 21
33.0507166416
  0
LINE
  5
26E
100
AcDbEntity
  8
0
100
AcDbLine
 62
7
  6
BYLAYER
 10
25.842976928
 20
27.4507166416
 11
25.842976928
 21
33.4507166416
  0
LINE
  5
26F
100
AcDbEntity
  8
0
100
AcDbLine
 62
7
  6
BYLAYER
 10
25.8459432689
 20
33.4507166416
 11
25.8459432689
 21
27.4507166416
  0
LINE
  5
270
100
AcDbEntity
  8
0
100
AcDbLine
 62
7
  6
BYLAYER
 10
26.3459432689
 20
27.4507166416
 11
26.3459432689
 21
33.4507166416
  0
LINE
  5
271
100
AcDbEntity
  8
0
100
AcDbLine
 62
7
  6
BYLAYER
 10
12.3578072527
 20
33.0507166416
 11
25.8340826539
 21
33.0507166416
  0
LINE
  5
272
100
AcDbEntity
  8
0
100
AcDbLine
 62
7
  6
BYLAYER
 10
25.8340826539
 20
33.4507166416
 11
23.3459432689
 21
33.4507166416
  0
LINE
  5
273
100
AcDbEntity
  8
0
100
AcDbLine
 62
7
  6
BYLAYER
 10
4.4309432689
 20
33.4507166416
 11
14.8459432689
 21
33.4507166416
  0
LINE
  5
274
100
AcDbEntity
  8
0
100
AcDbLine
 62
7
  6
BYLAYER
 10
25.842976928
 20
33.4507166416
 11
33.7609432689
 21
33.4507166416
  0
LINE
  5
275
100
AcDbEntity
  8
0
100
AcDbLine
 62
7
  6
BYLAYER
 10
6.9709432689
 20
33.6507166416
 11
17.1102459525
 21
33.6507166416
  0
LINE
  5
276
100
AcDbEntity
  8
0
100
AcDbLine
 62
7
  6
BYLAYER
 10
21.0816405853
 20
33.6507166416
 11
31.2209432689
 21
33.6507166416
  0
LINE
  5
277
100
AcDbEntity
  8
0
100
AcDbLine
 62
7
  6
BYLAYER
 10
27.6335073243
 20
24.7739540856
 11
27.6335073243
 21
27.4507166416
  0
LINE
  5
278
100
AcDbEntity
  8
0
100
AcDbLine
 62
7
  6
BYLAYER
 10
27.6335073243
 20
33.4507166416
 11
27.6335073243
 21
33.6507166416
  0
LINE
  5
279
100
AcDbEntity
  8
0
100
AcDbLine
 62
7
  6
BYLAYER
 10
27.7459432689
 20
18.1010498515
 11
27.7459432689
 21
22.0302724656
  0
LINE
  5
27A
100
AcDbEntity
  8
0
100
AcDbLine
 62
7
  6
BYLAYER
 10
20.6925042879
 20
35.9057624649
 11
20.6194986747
 21
35.9724080669
  0
LINE
  5
27B
100
AcDbEntity
  8
0
100
AcDbLine
 62
7
  6
BYLAYER
 10
19.0959432689
 20
36.7972813007
 11
20.6194986747
 21
35.9724080669
  0
LINE
  5
27C
100
AcDbEntity
  8
0
100
AcDbLine
 62
7
  6
BYLAYER
 10
29.9609445107
 20
33.4507166416
 11
29.9609445107
 21
27.4507166416
  0
LINE
  5
27D
100
AcDbEntity
  8
0
100
AcDbLine
 62
7
  6
BYLAYER
 10
30.4209435303
 20
33.6507166416
 11
30.4209435303
 21
33.4507166416
  0
LINE
  5
27E
100
AcDbEntity
  8
0
100
AcDbLine
 62
7
  6
BYLAYER
 10
30.4209435303
 20
27.4507166416
 11
30.4209435303
 21
24.7739540856
  0
LINE
  5
27F
100
AcDbEntity
  8
0
100
AcDbLine
 62
7
  6
BYLAYER
 10
31.2209432689
 20
25.041630405
 11
31.2209432689
 21
27.4507166416
  0
LINE
  5
280
100
AcDbEntity
  8
0
100
AcDbLine
 62
7
  6
BYLAYER
 10
31.2209432689
 20
33.4507166416
 11
31.2209432689
 21
33.6507166416
  0
LINE
  5
281
100
AcDbEntity
  8
0
100
AcDbLine
 62
7
  6
BYLAYER
 10
33.0459432689
 20
23.0675179561
 11
33.0459432689
 21
18.1010498515
  0
LINE
  5
282
100
AcDbEntity
  8
0
100
AcDbLine
 62
7
  6
BYLAYER
 10
33.7609432689
 20
27.4507166416
 11
33.7609432689
 21
33.4507166416
  0
LINE
  5
283
100
AcDbEntity
  8
0
100
AcDbLine
 62
7
  6
BYLAYER
 10
34.0459432689
 20
17.6507166416
 11
34.0459432689
 21
27.4507166416
  0
ARC
  5
284
100
AcDbEntity
  8
0
100
AcDbCircle
 62
7
  6
BYLAYER
 10
19.0959432689
 20
31.0592755466
 40
14.8154187852
100
AcDbArc
 50
267.8724920369
 51
272.1275079631
  0
ARC
  5
285
100
AcDbEntity
  8
0
100
AcDbCircle
 62
7
  6
BYLAYER
 10
19.0959432689
 20
2.3318501414
 40
14.8154187852
100
AcDbArc
 50
87.8724920369
 51
92.1275079631
  0
ARC
  5
286
100
AcDbEntity
  8
0
100
AcDbCircle
 62
7
  6
BYLAYER
 10
19.1485413555
 20
26.9415460212
 40
11.4246602925
100
AcDbArc
 50
272.495307583
 51
273.6917718096
  0
ARC
  5
287
100
AcDbEntity
  8
0
100
AcDbCircle
 62
7
  6
BYLAYER
 10
19.0239804998
 20
26.5826809379
 40
11.0652930233
100
AcDbArc
 50
265.9256601604
 51
267.5239659076
  0
ARC
  5
288
100
AcDbEntity
  8
0
100
AcDbCircle
 62
7
  6
BYLAYER
 10
19.2534298507
 20
25.3362435865
 40
9.8159354823
100
AcDbArc
 50
273.6841426924
 51
275.830648359
  0
ARC
  5
289
100
AcDbEntity
  8
0
100
AcDbCircle
 62
7
  6
BYLAYER
 10
18.9011067424
 20
24.9155275703
 40
9.3936236762
100
AcDbArc
 50
264.4110193943
 51
265.9507334468
  0
ARC
  5
28A
100
AcDbEntity
  8
0
100
AcDbCircle
 62
7
  6
BYLAYER
 10
16.6409732908
 20
18.1727869694
 40
0.2767688466
100
AcDbArc
 50
180.0025868494
 51
185.0774190562
  0
ARC
  5
28B
100
AcDbEntity
  8
0
100
AcDbCircle
 62
7
  6
BYLAYER
 10
21.550913247
 20
18.1727869694
 40
0.2767688466
100
AcDbArc
 50
354.9225809438
 51
359.9974131506
  0
ARC
  5
28C
100
AcDbEntity
  8
0
100
AcDbCircle
 62
7
  6
BYLAYER
 10
16.4477464453
 20
18.1555667291
 40
0.0827809542
100
AcDbArc
 50
171.8023740535
 51
179.9713098083
  0
ARC
  5
28D
100
AcDbEntity
  8
0
100
AcDbCircle
 62
7
  6
BYLAYER
 10
21.7441400924
 20
18.1555667291
 40
0.0827809542
100
AcDbArc
 50
0.0286901919
 51
8.1976259463
  0
SPLINE
  5
28E
100
AcDbEntity
  8
0
100
AcDbSpline
 62
7
  6
BYLAYER
 70
0
 71
3
 72
21
 73
17
 74
0
 42
0.0000001
 43
0.0000001
 44
0.0000000001
 40
0.0
 40
0.0
 40
0.0
 40
0.0
 40
0.1691354276
 40
0.3271172526
 40
0.4700850642
 40
0.5954014865
 40
0.6511126834
 40
0.7023921238
 40
0.7498732315
 40
0.7947733113
 40
0.8392221171
 40
0.8869345932
 40
0.91294555
 40
0.9402916175
 40
0.9691548061
 40
1.0
 40
1.0
 40
1.0
 40
1.0
 10
18.5459438668
 20
15.5228831322
 30
0.0
 10
18.4200747222
 20
15.5282442452
 30
0.0
 10
18.1767737796
 20
15.5423309539
 30
0.0
 10
17.8280394896
 20
15.5747180935
 30
0.0
 10
17.5132780605
 20
15.6171324638
 30
0.0
 10
17.2759403462
 20
15.6618963894
 30
0.0
 10
17.1080157886
 20
15.7038590989
 30
0.0
 10
16.9977896139
 20
15.7370396118
 30
0.0
 10
16.8973149951
 20
15.7741410576
 30
0.0
 10
16.8049156351
 20
15.8174666636
 30
0.0
 10
16.7174223192
 20
15.8707042534
 30
0.0
 10
16.6514537835
 20
15.9300839887
 30
0.0
 10
16.6048413999
 20
15.9894343212
 30
0.0
 10
16.5740809075
 20
16.0426775271
 30
0.0
 10
16.5510506754
 20
16.1036184665
 30
0.0
 10
16.5430427533
 20
16.1476791043
 30
0.0
 10
16.541009412
 20
16.1705644945
 30
0.0
  0
SPLINE
  5
28F
100
AcDbEntity
  8
0
100
AcDbSpline
 62
7
  6
BYLAYER
 70
0
 71
3
 72
25
 73
21
 74
0
 42
0.0000001
 43
0.0000001
 44
0.0000000001
 40
0.0
 40
0.0
 40
0.0
 40
0.0
 40
0.031060751
 40
0.059938828
 40
0.1127825613
 40
0.1373771454
 40
0.1607823536
 40
0.1832319046
 40
0.2052865868
 40
0.2274539385
 40
0.2501095064
 40
0.2734379239
 40
0.2975906084
 40
0.3488822178
 40
0.4045713628
 40
0.4649138711
 40
0.5298907975
 40
0.6728508447
 40
0.8308686619
 40
1.0
 40
1.0
 40
1.0
 40
1.0
 10
21.6508771258
 20
16.1705644948
 30
0.0
 10
21.648829564
 20
16.1475190504
 30
0.0
 10
21.6407739014
 20
16.103278232
 30
0.0
 10
21.6108818217
 20
16.0244012962
 30
0.0
 10
21.5655541348
 20
15.9579165906
 30
0.0
 10
21.5122070328
 20
15.9049200706
 30
0.0
 10
21.4714774813
 20
15.8717019606
 30
0.0
 10
21.4296393771
 20
15.8431757998
 30
0.0
 10
21.3865220752
 20
15.8184514472
 30
0.0
 10
21.3418672532
 20
15.7963260652
 30
0.0
 10
21.2954307369
 20
15.7757824763
 30
0.0
 10
21.2468250033
 20
15.7565946878
 30
0.0
 10
21.1774548001
 20
15.7320471683
 30
0.0
 10
21.0838864768
 20
15.7038206965
 30
0.0
 10
20.9629346935
 20
15.6736064033
 30
0.0
 10
20.830947754
 20
15.6459401902
 30
0.0
 10
20.6341472949
 20
15.6111074527
 30
0.0
 10
20.3638785626
 20
15.5747251948
 30
0.0
 10
20.0151383443
 20
15.5423374362
 30
0.0
 10
19.7718092542
 20
15.5282454108
 30
0.0
 10
19.6459425254
 20
15.5228833565
 30
0.0
  0
SPLINE
  5
290
100
AcDbEntity
  8
0
100
AcDbSpline
 62
7
  6
BYLAYER
 70
0
 71
3
 72
22
 73
18
 74
0
 42
0.0000001
 43
0.0000001
 44
0.0000000001
 40
0.0
 40
0.0
 40
0.0
 40
0.0
 40
0.0238318475
 40
0.045696741
 40
0.0661802019
 40
0.0857710503
 40
0.1048285184
 40
0.1236121674
 40
0.1624996202
 40
0.2056672954
 40
0.25419804
 40
0.308484828
 40
0.3685624061
 40
0.5048622732
 40
0.6592356672
 40
0.8263608702
 40
1.0
 40
1.0
 40
1.0
 40
1.0
 10
16.3642044444
 20
18.1727744735
 30
0.0
 10
16.3642044444
 20
18.1961826712
 30
0.0
 10
16.3698265513
 20
18.2413087774
 30
0.0
 10
16.393529896
 20
18.3023816966
 30
0.0
 10
16.4265412514
 20
18.3538976438
 30
0.0
 10
16.4659355912
 20
18.3968869599
 30
0.0
 10
16.5093593669
 20
18.4330828961
 30
0.0
 10
16.5718904293
 20
18.475349087
 30
0.0
 10
16.6609296823
 20
18.5195311876
 30
0.0
 10
16.7808899953
 20
18.5652009441
 30
0.0
 10
16.9184175067
 20
18.6061784757
 30
0.0
 10
17.0740502521
 20
18.6435284988
 30
0.0
 10
17.3157224572
 20
18.6908732389
 30
0.0
 10
17.6570287546
 20
18.7393818123
 30
0.0
 10
18.1048811383
 20
18.7810258876
 30
0.0
 10
18.5906548403
 20
18.8066610134
 30
0.0
 10
18.9253908569
 20
18.8124063067
 30
0.0
 10
19.0959432689
 20
18.8124063067
 30
0.0
  0
SPLINE
  5
291
100
AcDbEntity
  8
0
100
AcDbSpline
 62
7
  6
BYLAYER
 70
0
 71
3
 72
24
 73
20
 74
0
 42
0.0000001
 43
0.0000001
 44
0.0000000001
 40
0.0
 40
0.0
 40
0.0
 40
0.0
 40
0.1736348246
 40
0.340757681
 40
0.4951257186
 40
0.5658357001
 40
0.6314345602
 40
0.6915095648
 40
0.7457930608
 40
0.7943212155
 40
0.8374875086
 40
0.8573399911
 40
0.8763959511
 40
0.8951743181
 40
0.9142295528
 40
0.9338245472
 40
0.9543098426
 40
0.9761734953
 40
1.0
 40
1.0
 40
1.0
 40
1.0
 10
19.0959432689
 20
18.8124063067
 30
0.0
 10
19.2664975892
 20
18.8124063067
 30
0.0
 10
19.6012428969
 20
18.8066648774
 30
0.0
 10
20.0870062045
 20
18.7810112703
 30
0.0
 10
20.4707445829
 20
18.7453824064
 30
0.0
 10
20.7538637987
 20
18.7081926647
 30
0.0
 10
20.9443436643
 20
18.677532663
 30
0.0
 10
21.1178460348
 20
18.6435204738
 30
0.0
 10
21.2734870023
 20
18.6061782485
 30
0.0
 10
21.4109812031
 20
18.5651953064
 30
0.0
 10
21.5135399101
 20
18.5261966491
 30
0.0
 10
21.586532637
 20
18.4918817448
 30
0.0
 10
21.6361735634
 20
18.4644372448
 30
0.0
 10
21.6825284084
 20
18.4330855824
 30
0.0
 10
21.7259456104
 20
18.3968841779
 30
0.0
 10
21.7653463569
 20
18.3538933291
 30
0.0
 10
21.7983625711
 20
18.3023717147
 30
0.0
 10
21.8220600591
 20
18.2412990695
 30
0.0
 10
21.8276820934
 20
18.1961782655
 30
0.0
 10
21.8276820934
 20
18.1727744735
 30
0.0
  0
SPLINE
  5
292
100
AcDbEntity
  8
0
100
AcDbSpline
 62
7
  6
BYLAYER
 70
0
 71
3
 72
16
 73
12
 74
0
 42
0.0000001
 43
0.0000001
 44
0.0000000001
 40
0.0
 40
0.0
 40
0.0
 40
0.0
 40
0.0870663337
 40
0.1833170004
 40
0.2908531167
 40
0.4109863523
 40
0.4759092299
 40
0.5439060168
 40
0.6883430331
 40
0.8418037702
 40
1.0
 40
1.0
 40
1.0
 40
1.0
 10
4.1704414315
 20
17.6507166416
 30
0.0
 10
4.1823746714
 20
17.681267143
 30
0.0
 10
4.2159388344
 20
17.7424672296
 30
0.0
 10
4.2883852766
 20
17.8255427685
 30
0.0
 10
4.3843271792
 20
17.9018651809
 30
0.0
 10
4.480451005
 20
17.9565999588
 30
0.0
 10
4.5675264204
 20
17.9955125304
 30
0.0
 10
4.6654776175
 20
18.032054946
 30
0.0
 10
4.7988127144
 20
18.0682992081
 30
0.0
 10
4.9688424629
 20
18.0949822227
 30
0.0
 10
5.0863408609
 20
18.1010506065
 30
0.0
 10
5.1459343197
 20
18.101050292
 30
0.0
  0
SPLINE
  5
293
100
AcDbEntity
  8
0
100
AcDbSpline
 62
7
  6
BYLAYER
 70
0
 71
3
 72
16
 73
12
 74
0
 42
0.0000001
 43
0.0000001
 44
0.0000000001
 40
0.0
 40
0.0
 40
0.0
 40
0.0
 40
0.1582153919
 40
0.3116964924
 40
0.4561133217
 40
0.5241013237
 40
0.5890151375
 40
0.709134643
 40
0.8166691671
 40
0.9129272349
 40
1.0
 40
1.0
 40
1.0
 40
1.0
 10
33.045939216
 20
18.1010498515
 30
0.0
 10
33.1055402957
 20
18.1010497121
 30
0.0
 10
33.2230534614
 20
18.0949703716
 30
0.0
 10
33.3930938799
 20
18.0683001574
 30
0.0
 10
33.5264241238
 20
18.0320456457
 30
0.0
 10
33.6243624308
 20
17.9955081321
 30
0.0
 10
33.71142743
 20
17.956599693
 30
0.0
 10
33.8075439057
 20
17.9018696454
 30
0.0
 10
33.9034867697
 20
17.8255516527
 30
0.0
 10
33.9759367844
 20
17.7424723792
 30
0.0
 10
34.0095075872
 20
17.6812693953
 30
0.0
 10
34.0214423285
 20
17.6507166416
 30
0.0
  0
SPLINE
  5
294
100
AcDbEntity
  8
0
100
AcDbSpline
 62
7
  6
BYLAYER
 70
0
 71
3
 72
31
 73
27
 74
0
 42
0.0000001
 43
0.0000001
 44
0.0000000001
 40
0.0
 40
0.0
 40
0.0
 40
0.0
 40
0.091813529
 40
0.1736726938
 40
0.2440216396
 40
0.2744675388
 40
0.3016108436
 40
0.3253844532
 40
0.3457680611
 40
0.3628510815
 40
0.3768698899
 40
0.3883284963
 40
0.3982261057
 40
0.4080810155
 40
0.4194288045
 40
0.4332991277
 40
0.4502157136
 40
0.4704246788
 40
0.4940222026
 40
0.5209920034
 40
0.5512685554
 40
0.6212999579
 40
0.7028789775
 40
0.7944558992
 40
0.8942537307
 40
1.0
 40
1.0
 40
1.0
 40
1.0
 10
20.2506156108
 20
15.5710907484
 30
0.0
 10
20.3415132249
 20
15.5804930455
 30
0.0
 10
20.5131949771
 20
15.6010422727
 30
0.0
 10
20.7530291476
 20
15.639786734
 30
0.0
 10
20.9308904176
 20
15.6780977554
 30
0.0
 10
21.0536169479
 20
15.7121913294
 30
0.0
 10
21.1305704778
 20
15.7375298724
 30
0.0
 10
21.1965858764
 20
15.7637193064
 30
0.0
 10
21.2513566139
 20
15.7906571348
 30
0.0
 10
21.2947198205
 20
15.818230236
 30
0.0
 10
21.3266319724
 20
15.8464556326
 30
0.0
 10
21.3470203621
 20
15.875801794
 30
0.0
 10
21.3545697167
 20
15.9068962808
 30
0.0
 10
21.3477481198
 20
15.9380590168
 30
0.0
 10
21.3279767344
 20
15.9674901586
 30
0.0
 10
21.2966577944
 20
15.9957549963
 30
0.0
 10
21.2538887309
 20
16.0233600256
 30
0.0
 10
21.1997075535
 20
16.0503332966
 30
0.0
 10
21.1342689801
 20
16.0765639251
 30
0.0
 10
21.0578746193
 20
16.1019503703
 30
0.0
 10
20.9358554526
 20
16.1361359211
 30
0.0
 10
20.7587993604
 20
16.1745660679
 30
0.0
 10
20.5198277605
 20
16.2134607132
 30
0.0
 10
20.2500461627
 20
16.2460255291
 30
0.0
 10
19.9553734312
 20
16.2714945644
 30
0.0
 10
19.7510931188
 20
16.2831254518
 30
0.0
 10
19.6459432689
 20
16.2877145839
 30
0.0
  0
SPLINE
  5
295
100
AcDbEntity
  8
0
100
AcDbSpline
 62
7
  6
BYLAYER
 70
0
 71
3
 72
32
 73
28
 74
0
 42
0.0000001
 43
0.0000001
 44
0.0000000001
 40
0.0
 40
0.0
 40
0.0
 40
0.0
 40
0.1051572239
 40
0.2043153525
 40
0.2951795375
 40
0.3759531844
 40
0.4450725148
 40
0.4748537945
 40
0.5013054181
 40
0.5243645672
 40
0.5440254735
 40
0.5604032073
 40
0.5737764399
 40
0.584739219
 40
0.5896754511
 40
0.594485476
 40
0.6045104886
 40
0.6163346043
 40
0.630860111
 40
0.6485277677
 40
0.6695406797
 40
0.6939610055
 40
0.7217527646
 40
0.7528411435
 40
0.8244044711
 40
0.9073280897
 40
1.0
 40
1.0
 40
1.0
 40
1.0
 10
18.5459432689
 20
16.2877145839
 30
0.0
 10
18.4397912336
 20
16.2830817127
 30
0.0
 10
18.2336492237
 20
16.2713195623
 30
0.0
 10
17.9364667009
 20
16.2455019207
 30
0.0
 10
17.6647796255
 20
16.2124689317
 30
0.0
 10
17.4246614511
 20
16.1730109926
 30
0.0
 10
17.2471958864
 20
16.1340111411
 30
0.0
 10
17.1253455696
 20
16.0992995207
 30
0.0
 10
17.049429275
 20
16.0735677855
 30
0.0
 10
16.9847225313
 20
16.0469882465
 30
0.0
 10
16.9315164722
 20
16.0196747515
 30
0.0
 10
16.8899601456
 20
15.9917017912
 30
0.0
 10
16.8600393957
 20
15.9630829336
 30
0.0
 10
16.8445645705
 20
15.937154082
 30
0.0
 10
16.8396465539
 20
15.9166632887
 30
0.0
 10
16.839179397
 20
15.8965371199
 30
0.0
 10
16.8477131456
 20
15.8701578249
 30
0.0
 10
16.8706171605
 20
15.8408259455
 30
0.0
 10
16.9051647653
 20
15.8124678165
 30
0.0
 10
16.9513922341
 20
15.7847641341
 30
0.0
 10
17.0092188182
 20
15.7577249826
 30
0.0
 10
17.0784477771
 20
15.7314729523
 30
0.0
 10
17.158743864
 20
15.7061201007
 30
0.0
 10
17.2861264324
 20
15.6721375239
 30
0.0
 10
17.469872449
 20
15.6340737269
 30
0.0
 10
17.7167275977
 20
15.595823889
 30
0.0
 10
17.8930571911
 20
15.5756995647
 30
0.0
 10
17.9862477255
 20
15.5665597796
 30
0.0
  0
SPLINE
  5
296
100
AcDbEntity
  8
0
100
AcDbSpline
 62
7
  6
BYLAYER
 70
0
 71
3
 72
22
 73
18
 74
0
 42
0.0000001
 43
0.0000001
 44
0.0000000001
 40
0.0
 40
0.0
 40
0.0
 40
0.0
 40
0.195960824
 40
0.3794160409
 40
0.545161254
 40
0.6200481909
 40
0.6889536835
 40
0.7514344699
 40
0.8071618249
 40
0.855870517
 40
0.8974178258
 40
0.9318698467
 40
0.959572531
 40
0.9711903937
 40
0.9815759275
 40
0.9910406399
 40
1.0
 40
1.0
 40
1.0
 40
1.0
 10
18.5459432689
 20
16.6107214384
 30
0.0
 10
18.4084039881
 20
16.6054570024
 30
0.0
 10
18.1422299195
 20
16.5912900972
 30
0.0
 10
17.7606827989
 20
16.5581395505
 30
0.0
 10
17.4650531251
 20
16.5207296711
 30
0.0
 10
17.2505570453
 20
16.4850724798
 30
0.0
 10
17.1083735054
 20
16.4571017474
 30
0.0
 10
16.9803666468
 20
16.4271765594
 30
0.0
 10
16.8674224068
 20
16.395555769
 30
0.0
 10
16.7702992957
 20
16.3624869998
 30
0.0
 10
16.6895732085
 20
16.3281750114
 30
0.0
 10
16.6256936236
 20
16.2929044138
 30
0.0
 10
16.5843429232
 20
16.2609970905
 30
0.0
 10
16.5612974871
 20
16.2346184388
 30
0.0
 10
16.5495304658
 20
16.2157684087
 30
0.0
 10
16.5423438685
 20
16.1966913673
 30
0.0
 10
16.5407053408
 20
16.1837024508
 30
0.0
 10
16.5407053408
 20
16.1774095283
 30
0.0
  0
SPLINE
  5
297
100
AcDbEntity
  8
0
100
AcDbSpline
 62
7
  6
BYLAYER
 70
0
 71
3
 72
25
 73
21
 74
0
 42
0.0000001
 43
0.0000001
 44
0.0000000001
 40
0.0
 40
0.0
 40
0.0
 40
0.0
 40
0.0154837829
 40
0.0336129705
 40
0.0543715135
 40
0.0776953309
 40
0.1315618731
 40
0.1941217277
 40
0.2639486687
 40
0.3394213977
 40
0.5
 40
0.6605786023
 40
0.7360513313
 40
0.8058782723
 40
0.8684381269
 40
0.9223046691
 40
0.9456284865
 40
0.9663870295
 40
0.9845162171
 40
1.0
 40
1.0
 40
1.0
 40
1.0
 10
20.619503815
 20
35.9724083532
 30
0.0
 10
20.6054824125
 20
35.9799992162
 30
0.0
 10
20.5740538046
 20
35.9946510902
 30
0.0
 10
20.5215908986
 20
36.014301084
 30
0.0
 10
20.4603524362
 20
36.0332157128
 30
0.0
 10
20.3626844039
 20
36.0585022147
 30
0.0
 10
20.2214353425
 20
36.0865940703
 30
0.0
 10
20.0316015426
 20
36.1143130007
 30
0.0
 10
19.8186818582
 20
36.1366978562
 30
0.0
 10
19.5044530146
 20
36.1590393171
 30
0.0
 10
19.0959432689
 20
36.169713108
 30
0.0
 10
18.6874335232
 20
36.1590393171
 30
0.0
 10
18.3732046796
 20
36.1366978562
 30
0.0
 10
18.1602849952
 20
36.1143130007
 30
0.0
 10
17.9704511953
 20
36.0865940703
 30
0.0
 10
17.8292021339
 20
36.0585022147
 30
0.0
 10
17.7315341016
 20
36.0332157128
 30
0.0
 10
17.6702956392
 20
36.014301084
 30
0.0
 10
17.6178327332
 20
35.9946510902
 30
0.0
 10
17.5864041252
 20
35.9799992162
 30
0.0
 10
17.5723827228
 20
35.9724083532
 30
0.0
  0
SPLINE
  5
298
100
AcDbEntity
  8
0
100
AcDbSpline
 62
7
  6
BYLAYER
 70
0
 71
3
 72
22
 73
18
 74
0
 42
0.0000001
 43
0.0000001
 44
0.0000000001
 40
0.0
 40
0.0
 40
0.0
 40
0.0
 40
0.0089593601
 40
0.0184240725
 40
0.0288096063
 40
0.040427469
 40
0.0681301533
 40
0.1025821742
 40
0.144129483
 40
0.1928381751
 40
0.2485655301
 40
0.3110463165
 40
0.3799518091
 40
0.454838746
 40
0.6205839591
 40
0.804039176
 40
1.0
 40
1.0
 40
1.0
 40
1.0
 10
21.651181197
 20
16.1774095283
 30
0.0
 10
21.651181197
 20
16.1837024508
 30
0.0
 10
21.6495426693
 20
16.1966913673
 30
0.0
 10
21.642356072
 20
16.2157684087
 30
0.0
 10
21.6305890507
 20
16.2346184388
 30
0.0
 10
21.6075436146
 20
16.2609970905
 30
0.0
 10
21.5661929142
 20
16.2929044138
 30
0.0
 10
21.5023133293
 20
16.3281750114
 30
0.0
 10
21.4215872421
 20
16.3624869998
 30
0.0
 10
21.324464131
 20
16.395555769
 30
0.0
 10
21.211519891
 20
16.4271765594
 30
0.0
 10
21.0835130324
 20
16.4571017474
 30
0.0
 10
20.9413294925
 20
16.4850724798
 30
0.0
 10
20.7268334127
 20
16.5207296711
 30
0.0
 10
20.4312037389
 20
16.5581395505
 30
0.0
 10
20.0496566183
 20
16.5912900972
 30
0.0
 10
19.7834825497
 20
16.6054570024
 30
0.0
 10
19.6459432689
 20
16.6107214384
 30
0.0
  0
SPLINE
  5
299
100
AcDbEntity
  8
0
100
AcDbSpline
 62
7
  6
BYLAYER
 70
0
 71
3
 72
10
 73
6
 74
0
 42
0.0000001
 43
0.0000001
 44
0.0000000001
 40
0.0
 40
0.0
 40
0.0
 40
0.0
 40
0.2079093065
 40
0.563634874
 40
1.0
 40
1.0
 40
1.0
 40
1.0
 10
16.3658113353
 20
18.1673702934
 30
0.0
 10
16.3669763849
 20
18.175475879
 30
0.0
 10
16.3734272026
 20
18.1970446905
 30
0.0
 10
16.3961858987
 20
18.2299829457
 30
0.0
 10
16.4197613244
 20
18.2507237949
 30
0.0
 10
16.4334368159
 20
18.2611341303
 30
0.0
  0
SPLINE
  5
29A
100
AcDbEntity
  8
0
100
AcDbSpline
 62
7
  6
BYLAYER
 70
0
 71
3
 72
14
 73
10
 74
0
 42
0.0000001
 43
0.0000001
 44
0.0000000001
 40
0.0
 40
0.0
 40
0.0
 40
0.0
 40
0.0739265468
 40
0.1625598963
 40
0.2662392393
 40
0.384931195
 40
0.5182494785
 40
0.6656658476
 40
1.0
 40
1.0
 40
1.0
 40
1.0
 10
16.4334368159
 20
18.2611341303
 30
0.0
 10
16.4505230261
 20
18.2741408422
 30
0.0
 10
16.4906810601
 20
18.2993321753
 30
0.0
 10
16.5603989344
 20
18.3329922646
 30
0.0
 10
16.6446886116
 20
18.3657086264
 30
0.0
 10
16.7431176363
 20
18.3972584444
 30
0.0
 10
16.8551678576
 20
18.427490893
 30
0.0
 10
17.0293322169
 20
18.4674531673
 30
0.0
 10
17.1671785758
 20
18.4920900534
 30
0.0
 10
17.2631145872
 20
18.5071734008
 30
0.0
  0
SPLINE
  5
29B
100
AcDbEntity
  8
0
100
AcDbSpline
 62
7
  6
BYLAYER
 70
0
 71
3
 72
11
 73
7
 74
0
 42
0.0000001
 43
0.0000001
 44
0.0000000001
 40
0.0
 40
0.0
 40
0.0
 40
0.0
 40
0.2200773832
 40
0.4654374443
 40
0.7283283505
 40
1.0
 40
1.0
 40
1.0
 40
1.0
 10
17.2631145872
 20
18.5071734008
 30
0.0
 10
17.3963506
 20
18.5281211664
 30
0.0
 10
17.6794538474
 20
18.5640831473
 30
0.0
 10
18.124319807
 20
18.6016134221
 30
0.0
 10
18.6018251108
 20
18.6246682238
 30
0.0
 10
18.9294514327
 20
18.6298374933
 30
0.0
 10
19.0959432689
 20
18.6298374933
 30
0.0
  0
SPLINE
  5
29C
100
AcDbEntity
  8
0
100
AcDbSpline
 62
7
  6
BYLAYER
 70
0
 71
3
 72
11
 73
7
 74
0
 42
0.0000001
 43
0.0000001
 44
0.0000000001
 40
0.0
 40
0.0
 40
0.0
 40
0.0
 40
0.2716716495
 40
0.5345625557
 40
0.7799226168
 40
1.0
 40
1.0
 40
1.0
 40
1.0
 10
19.0959432689
 20
18.6298374933
 30
0.0
 10
19.262435105
 20
18.6298374933
 30
0.0
 10
19.590061427
 20
18.6246682238
 30
0.0
 10
20.0675667308
 20
18.6016134221
 30
0.0
 10
20.5124326904
 20
18.5640831473
 30
0.0
 10
20.7955359378
 20
18.5281211664
 30
0.0
 10
20.9287719505
 20
18.5071734008
 30
0.0
  0
SPLINE
  5
29D
100
AcDbEntity
  8
0
100
AcDbSpline
 62
7
  6
BYLAYER
 70
0
 71
3
 72
14
 73
10
 74
0
 42
0.0000001
 43
0.0000001
 44
0.0000000001
 40
0.0
 40
0.0
 40
0.0
 40
0.0
 40
0.3343341524
 40
0.4817505215
 40
0.615068805
 40
0.7337607607
 40
0.8374401037
 40
0.9260734532
 40
1.0
 40
1.0
 40
1.0
 40
1.0
 10
20.9287719505
 20
18.5071734008
 30
0.0
 10
21.024707962
 20
18.4920900534
 30
0.0
 10
21.1625543209
 20
18.4674531673
 30
0.0
 10
21.3367186802
 20
18.427490893
 30
0.0
 10
21.4487689014
 20
18.3972584444
 30
0.0
 10
21.5471979262
 20
18.3657086264
 30
0.0
 10
21.6314876034
 20
18.3329922646
 30
0.0
 10
21.7012054777
 20
18.2993321753
 30
0.0
 10
21.7413635117
 20
18.2741408422
 30
0.0
 10
21.7584497219
 20
18.2611341303
 30
0.0
  0
SPLINE
  5
29E
100
AcDbEntity
  8
0
100
AcDbSpline
 62
7
  6
BYLAYER
 70
0
 71
3
 72
11
 73
7
 74
0
 42
0.0000001
 43
0.0000001
 44
0.0000000001
 40
0.0
 40
0.0
 40
0.0
 40
0.0
 40
0.3010779779
 40
0.5010707498
 40
0.6817911038
 40
1.0
 40
1.0
 40
1.0
 40
1.0
 10
21.7584497219
 20
18.2611341303
 30
0.0
 10
21.7678885732
 20
18.2539488962
 30
0.0
 10
21.7830198666
 20
18.2411716334
 30
0.0
 10
21.8011972657
 20
18.2212863645
 30
0.0
 10
21.8169637707
 20
18.1986783135
 30
0.0
 10
21.8242914686
 20
18.1797802433
 30
0.0
 10
21.8260752025
 20
18.1673702934
 30
0.0
  0
SPLINE
  5
29F
100
AcDbEntity
  8
0
100
AcDbSpline
 62
7
  6
BYLAYER
 70
0
 71
3
 72
15
 73
11
 74
0
 42
0.0000001
 43
0.0000001
 44
0.0000000001
 40
0.0
 40
0.0
 40
0.0
 40
0.0
 40
0.092811007
 40
0.1900698297
 40
0.2954241393
 40
0.4116048539
 40
0.5401017283
 40
0.6814114703
 40
0.8352109542
 40
1.0
 40
1.0
 40
1.0
 40
1.0
 10
20.9049765148
 20
19.1130382478
 30
0.0
 10
20.9053411315
 20
19.1575782434
 30
0.0
 10
20.8938653359
 20
19.2492874794
 30
0.0
 10
20.8412138526
 20
19.3822982089
 30
0.0
 10
20.7543859666
 20
19.5095689562
 30
0.0
 10
20.635121653
 20
19.6289892733
 30
0.0
 10
20.4851747611
 20
19.7387927743
 30
0.0
 10
20.3065588276
 20
19.8368967757
 30
0.0
 10
20.1021405774
 20
19.9211328868
 30
0.0
 10
19.9555299175
 20
19.9654180021
 30
0.0
 10
19.8789052126
 20
19.9849903333
 30
0.0
  0
SPLINE
  5
2A0
100
AcDbEntity
  8
0
100
AcDbSpline
 62
7
  6
BYLAYER
 70
0
 71
3
 72
9
 73
5
 74
0
 42
0.0000001
 43
0.0000001
 44
0.0000000001
 40
0.0
 40
0.0
 40
0.0
 40
0.0
 40
0.4996701562
 40
1.0
 40
1.0
 40
1.0
 40
1.0
 10
19.8788455334
 20
19.9849903333
 30
0.0
 10
19.8782132817
 20
19.9882735524
 30
0.0
 10
19.8766491849
 20
19.9947828821
 30
0.0
 10
19.8748693603
 20
20.0012399433
 30
0.0
 10
19.8737949072
 20
20.0044108042
 30
0.0
  0
SPLINE
  5
2A1
100
AcDbEntity
  8
0
100
AcDbSpline
 62
7
  6
BYLAYER
 70
0
 71
3
 72
11
 73
7
 74
0
 42
0.0000001
 43
0.0000001
 44
0.0000000001
 40
0.0
 40
0.0
 40
0.0
 40
0.0
 40
0.2538232539
 40
0.5049991946
 40
0.7534442865
 40
1.0
 40
1.0
 40
1.0
 40
1.0
 10
19.8737081366
 20
20.0044108042
 30
0.0
 10
19.8688188387
 20
20.0188398031
 30
0.0
 10
19.8548805318
 20
20.046228079
 30
0.0
 10
19.8254735413
 20
20.080942383
 30
0.0
 10
19.7910448405
 20
20.1098203956
 30
0.0
 10
19.7660745919
 20
20.1260466366
 30
0.0
 10
19.7532508853
 20
20.1334326297
 30
0.0
  0
SPLINE
  5
2A2
100
AcDbEntity
  8
0
100
AcDbSpline
 62
7
  6
BYLAYER
 70
0
 71
3
 72
10
 73
6
 74
0
 42
0.0000001
 43
0.0000001
 44
0.0000000001
 40
0.0
 40
0.0
 40
0.0
 40
0.0
 40
0.2517726638
 40
0.5019674339
 40
1.0
 40
1.0
 40
1.0
 40
1.0
 10
19.7533691686
 20
20.1334326297
 30
0.0
 10
19.7471838805
 20
20.1367136188
 30
0.0
 10
19.7340724246
 20
20.141787417
 30
0.0
 10
19.7069898436
 20
20.1482287022
 30
0.0
 10
19.6861650138
 20
20.1502577822
 30
0.0
 10
19.6723226963
 20
20.150717023
 30
0.0
  0
SPLINE
  5
2A3
100
AcDbEntity
  8
0
100
AcDbSpline
 62
7
  6
BYLAYER
 70
0
 71
3
 72
11
 73
7
 74
0
 42
0.0000001
 43
0.0000001
 44
0.0000000001
 40
0.0
 40
0.0
 40
0.0
 40
0.0
 40
0.2465554827
 40
0.4950000263
 40
0.7461765583
 40
1.0
 40
1.0
 40
1.0
 40
1.0
 10
18.4386356536
 20
20.1334326297
 30
0.0
 10
18.4258119591
 20
20.1260466439
 30
0.0
 10
18.4008417787
 20
20.1098203986
 30
0.0
 10
18.3664129745
 20
20.0809425048
 30
0.0
 10
18.3370061529
 20
20.0462280659
 30
0.0
 10
18.3230676238
 20
20.0188398402
 30
0.0
 10
18.3181784012
 20
20.0044108042
 30
0.0
  0
SPLINE
  5
2A4
100
AcDbEntity
  8
0
100
AcDbSpline
 62
7
  6
BYLAYER
 70
0
 71
3
 72
9
 73
5
 74
0
 42
0.0000001
 43
0.0000001
 44
0.0000000001
 40
0.0
 40
0.0
 40
0.0
 40
0.0
 40
0.5003489663
 40
1.0
 40
1.0
 40
1.0
 40
1.0
 10
18.3180859229
 20
20.0044108042
 30
0.0
 10
18.3170118477
 20
20.0012410016
 30
0.0
 10
18.3152214392
 20
19.994788723
 30
0.0
 10
18.3137003775
 20
19.9882721941
 30
0.0
 10
18.3130683586
 20
19.9849903333
 30
0.0
  0
SPLINE
  5
2A5
100
AcDbEntity
  8
0
100
AcDbSpline
 62
7
  6
BYLAYER
 70
0
 71
3
 72
15
 73
11
 74
0
 42
0.0000001
 43
0.0000001
 44
0.0000000001
 40
0.0
 40
0.0
 40
0.0
 40
0.0
 40
0.1647914554
 40
0.3185931496
 40
0.4598989563
 40
0.5883924207
 40
0.7045703296
 40
0.8099245466
 40
0.9071867587
 40
1.0
 40
1.0
 40
1.0
 40
1.0
 10
18.3129813252
 20
19.9849903333
 30
0.0
 10
18.2363552982
 20
19.9654185309
 30
0.0
 10
18.0897429409
 20
19.9211312708
 30
0.0
 10
17.885324177
 20
19.8368956457
 30
0.0
 10
17.7067109865
 20
19.7387918366
 30
0.0
 10
17.5567677038
 20
19.6289917305
 30
0.0
 10
17.4375051007
 20
19.5095742554
 30
0.0
 10
17.3506748698
 20
19.3823045796
 30
0.0
 10
17.2980239153
 20
19.2492908971
 30
0.0
 10
17.2865453976
 20
19.157579312
 30
0.0
 10
17.286910023
 20
19.1130382478
 30
0.0
  0
SPLINE
  5
2A6
100
AcDbEntity
  8
0
100
AcDbSpline
 62
7
  6
BYLAYER
 70
0
 71
3
 72
33
 73
29
 74
0
 42
0.0000001
 43
0.0000001
 44
0.0000000001
 40
0.0
 40
0.0
 40
0.0
 40
0.0
 40
0.0094205432
 40
0.015132405
 40
0.021629715
 40
0.0371621193
 40
0.0562178623
 40
0.07881229
 40
0.1048486244
 40
0.1341572728
 40
0.1665362255
 40
0.2394366291
 40
0.3211868074
 40
0.4090386873
 40
0.5
 40
0.5909613127
 40
0.6788131926
 40
0.7605633709
 40
0.8334637745
 40
0.8658427272
 40
0.8951513756
 40
0.92118771
 40
0.9437821377
 40
0.9628378807
 40
0.978370285
 40
0.984867595
 40
0.9905794568
 40
1.0
 40
1.0
 40
1.0
 40
1.0
 10
21.0916203223
 20
34.8504261005
 30
0.0
 10
21.0870371681
 20
34.8625006709
 30
0.0
 10
21.0745986183
 20
34.8799247562
 30
0.0
 10
21.0528154895
 20
34.900001596
 30
0.0
 10
21.0220368381
 20
34.9225097891
 30
0.0
 10
20.9722672508
 20
34.9493097412
 30
0.0
 10
20.8995825612
 20
34.9789016191
 30
0.0
 10
20.8111500721
 20
35.0072532778
 30
0.0
 10
20.7076954002
 20
35.034137756
 30
0.0
 10
20.5900597441
 20
35.0593015077
 30
0.0
 10
20.4083399681
 20
35.09146273
 30
0.0
 10
20.1539679549
 20
35.1247186994
 30
0.0
 10
19.8226677978
 20
35.1533757127
 30
0.0
 10
19.4658081413
 20
35.1710110487
 30
0.0
 10
19.0959432689
 20
35.1769683157
 30
0.0
 10
18.7260783965
 20
35.1710110487
 30
0.0
 10
18.36921874
 20
35.1533757127
 30
0.0
 10
18.0379185829
 20
35.1247186994
 30
0.0
 10
17.7835465697
 20
35.09146273
 30
0.0
 10
17.6018267937
 20
35.0593015077
 30
0.0
 10
17.4841911376
 20
35.034137756
 30
0.0
 10
17.3807364657
 20
35.0072532778
 30
0.0
 10
17.2923039766
 20
34.9789016191
 30
0.0
 10
17.219619287
 20
34.9493097412
 30
0.0
 10
17.1698496997
 20
34.9225097891
 30
0.0
 10
17.1390710483
 20
34.900001596
 30
0.0
 10
17.1172879195
 20
34.8799247562
 30
0.0
 10
17.1048493697
 20
34.8625006709
 30
0.0
 10
17.1002662155
 20
34.8504261005
 30
0.0
  0
SPLINE
  5
2A7
100
AcDbEntity
  8
0
100
AcDbSpline
 62
7
  6
BYLAYER
 70
0
 71
3
 72
11
 73
7
 74
0
 42
0.0000001
 43
0.0000001
 44
0.0000000001
 40
0.0
 40
0.0
 40
0.0
 40
0.0
 40
0.2650124129
 40
0.5170196615
 40
0.7606069183
 40
1.0
 40
1.0
 40
1.0
 40
1.0
 10
15.6158215032
 20
25.4507166416
 30
0.0
 10
15.6957795726
 20
25.3620616376
 30
0.0
 10
15.8359987236
 20
25.1740374103
 30
0.0
 10
15.9871807897
 20
24.864461142
 30
0.0
 10
16.0762438314
 20
24.5437283416
 30
0.0
 10
16.095958496
 20
24.3256597748
 30
0.0
 10
16.095958496
 20
24.2178151358
 30
0.0
  0
SPLINE
  5
2A8
100
AcDbEntity
  8
0
100
AcDbSpline
 62
7
  6
BYLAYER
 70
0
 71
3
 72
11
 73
7
 74
0
 42
0.0000001
 43
0.0000001
 44
0.0000000001
 40
0.0
 40
0.0
 40
0.0
 40
0.0
 40
0.2393940949
 40
0.4829830036
 40
0.7349888822
 40
1.0
 40
1.0
 40
1.0
 40
1.0
 10
22.0959429521
 20
24.2178138202
 30
0.0
 10
22.0959429521
 20
24.3256588069
 30
0.0
 10
22.1156574229
 20
24.5437283793
 30
0.0
 10
22.2047203399
 20
24.8644614484
 30
0.0
 10
22.355900491
 20
25.1740376724
 30
0.0
 10
22.4961176876
 20
25.3620615191
 30
0.0
 10
22.5760745748
 20
25.4507166416
 30
0.0
  0
SPLINE
  5
2A9
100
AcDbEntity
  8
0
100
AcDbSpline
 62
7
  6
BYLAYER
 70
0
 71
3
 72
21
 73
17
 74
0
 42
0.0000001
 43
0.0000001
 44
0.0000000001
 40
0.0
 40
0.0
 40
0.0
 40
0.0
 40
0.1243932398
 40
0.2488376088
 40
0.3733518148
 40
0.49796502
 40
0.5603367376
 40
0.6227607054
 40
0.6852537107
 40
0.7478398632
 40
0.810552283
 40
0.8734297044
 40
0.9049887544
 40
0.9366122615
 40
0.968289411
 40
1.0
 40
1.0
 40
1.0
 40
1.0
 10
24.2657721703
 20
33.0507166416
 30
0.0
 10
24.216155394
 20
32.8810882913
 30
0.0
 10
24.1122636196
 20
32.5430910403
 30
0.0
 10
23.9397285675
 20
32.0413557482
 30
0.0
 10
23.746518895
 20
31.5468236926
 30
0.0
 10
23.5634319716
 20
31.1435209516
 30
0.0
 10
23.3990162723
 20
30.8295104847
 30
0.0
 10
23.2648085785
 20
30.5996014551
 30
0.0
 10
23.1174325255
 20
30.3774637458
 30
0.0
 10
22.9536495136
 20
30.1664125291
 30
0.0
 10
22.7691995086
 20
29.9721496091
 30
0.0
 10
22.5933776674
 20
29.8325167833
 30
0.0
 10
22.4374537946
 20
29.7436648806
 30
0.0
 10
22.3126206955
 20
29.6917606795
 30
0.0
 10
22.1812813109
 20
29.6584183548
 30
0.0
 10
22.0910442223
 20
29.650717023
 30
0.0
 10
22.0459903142
 20
29.650717023
 30
0.0
  0
SPLINE
  5
2AA
100
AcDbEntity
  8
0
100
AcDbSpline
 62
7
  6
BYLAYER
 70
0
 71
3
 72
21
 73
17
 74
0
 42
0.0000001
 43
0.0000001
 44
0.0000000001
 40
0.0
 40
0.0
 40
0.0
 40
0.0
 40
0.0317103028
 40
0.0633872118
 40
0.0950108201
 40
0.1265700276
 40
0.1894478521
 40
0.2521603493
 40
0.3147465333
 40
0.3772395118
 40
0.4396634363
 40
0.5020351064
 40
0.6266482532
 40
0.7511624329
 40
0.8756067804
 40
1.0
 40
1.0
 40
1.0
 40
1.0
 10
16.1459402821
 20
29.650717023
 30
0.0
 10
16.100886694
 20
29.6507195173
 30
0.0
 10
16.0106501399
 20
29.658416725
 30
0.0
 10
15.8793111228
 20
29.6917604868
 30
0.0
 10
15.7544773226
 20
29.743663306
 30
0.0
 10
15.5985520178
 20
29.8325154821
 30
0.0
 10
15.4227284444
 20
29.9721481871
 30
0.0
 10
15.2382768229
 20
30.1664113346
 30
0.0
 10
15.0744926804
 20
30.3774624674
 30
0.0
 10
14.9271157385
 20
30.5996001436
 30
0.0
 10
14.792907253
 20
30.8295091091
 30
0.0
 10
14.6284903922
 20
31.1435194983
 30
0.0
 10
14.4454020393
 20
31.5468223246
 30
0.0
 10
14.2521908216
 20
32.0413547146
 30
0.0
 10
14.0796542976
 20
32.5430904794
 30
0.0
 10
13.9757616016
 20
32.8810880981
 30
0.0
 10
13.9261443755
 20
33.0507166416
 30
0.0
  0
SPLINE
  5
2AB
100
AcDbEntity
  8
0
100
AcDbSpline
 62
7
  6
BYLAYER
 70
0
 71
3
 72
18
 73
14
 74
0
 42
0.0000001
 43
0.0000001
 44
0.0000000001
 40
0.0
 40
0.0
 40
0.0
 40
0.0
 40
0.0289505081
 40
0.0599630962
 40
0.0946164035
 40
0.1340065357
 40
0.1787895465
 40
0.2293254915
 40
0.3477768141
 40
0.488255539
 40
0.6473584869
 40
0.8201515394
 40
1.0
 40
1.0
 40
1.0
 40
1.0
 10
6.9709432689
 20
25.0416302546
 30
0.0
 10
6.9709432545
 20
25.0330320931
 30
0.0
 10
6.9736129914
 20
25.0151385613
 30
0.0
 10
6.9851705206
 20
24.9892278394
 30
0.0
 10
7.0039653783
 20
24.9640672162
 30
0.0
 10
7.029768383
 20
24.9397954326
 30
0.0
 10
7.0623831266
 20
24.9164631572
 30
0.0
 10
7.1177292118
 20
24.8851696391
 30
0.0
 10
7.2033019424
 20
24.85066238
 30
0.0
 10
7.3231936799
 20
24.8177503325
 30
0.0
 10
7.4614412525
 20
24.7929067266
 30
0.0
 10
7.6127593937
 20
24.7774428017
 30
0.0
 10
7.7175288836
 20
24.7739540739
 30
0.0
 10
7.7709430101
 20
24.7739540856
 30
0.0
  0
SPLINE
  5
2AC
100
AcDbEntity
  8
0
100
AcDbSpline
 62
7
  6
BYLAYER
 70
0
 71
3
 72
21
 73
17
 74
0
 42
0.0000001
 43
0.0000001
 44
0.0000000001
 40
0.0
 40
0.0
 40
0.0
 40
0.0
 40
0.124968242
 40
0.2499384988
 40
0.3749110649
 40
0.499885631
 40
0.5623797435
 40
0.6248764733
 40
0.6873763432
 40
0.7498797329
 40
0.8123847077
 40
0.8748761271
 40
0.9061560159
 40
0.937442903
 40
0.9687229185
 40
1.0
 40
1.0
 40
1.0
 40
1.0
 10
18.3393525987
 20
22.1487906009
 30
0.0
 10
18.3570375976
 20
22.0801346259
 30
0.0
 10
18.3936316683
 20
21.9431320602
 30
0.0
 10
18.4530209803
 20
21.7388740483
 30
0.0
 10
18.5181073611
 20
21.5363456129
 30
0.0
 10
18.5785894501
 20
21.3696569361
 30
0.0
 10
18.6322486286
 20
21.2383694279
 30
0.0
 10
18.6757495722
 20
21.1412763452
 30
0.0
 10
18.7233258453
 20
21.0460938624
 30
0.0
 10
18.7762040197
 20
20.9536915718
 30
0.0
 10
18.8362329757
 20
20.8657328322
 30
0.0
 10
18.8948609924
 20
20.7986470968
 30
0.0
 10
18.9492535428
 20
20.752847584
 30
0.0
 10
18.9945568836
 20
20.7244256464
 30
0.0
 10
19.0445812353
 20
20.7050554706
 30
0.0
 10
19.0802287659
 20
20.7004858986
 30
0.0
 10
19.0979729149
 20
20.700485886
 30
0.0
  0
SPLINE
  5
2AD
100
AcDbEntity
  8
0
100
AcDbSpline
 62
7
  6
BYLAYER
 70
0
 71
3
 72
21
 73
17
 74
0
 42
0.0000001
 43
0.0000001
 44
0.0000000001
 40
0.0
 40
0.0
 40
0.0
 40
0.0
 40
0.1249682894
 40
0.2499385853
 40
0.3749111813
 40
0.4998858059
 40
0.5623798793
 40
0.6248765435
 40
0.6873763335
 40
0.7498796498
 40
0.8123845877
 40
0.8748771388
 40
0.9061563576
 40
0.9374433291
 40
0.9687229192
 40
1.0
 40
1.0
 40
1.0
 40
1.0
 10
19.8523760149
 20
22.1487906009
 30
0.0
 10
19.8347345759
 20
22.0803037326
 30
0.0
 10
19.7982336203
 20
21.9436378802
 30
0.0
 10
19.7390083826
 20
21.7398779772
 30
0.0
 10
19.6741208555
 20
21.5378362537
 30
0.0
 10
19.6138487626
 20
21.3715368704
 30
0.0
 10
19.5604024075
 20
21.2405401674
 30
0.0
 10
19.5170922935
 20
21.1436493945
 30
0.0
 10
19.4697508524
 20
21.048643581
 30
0.0
 10
19.4171738851
 20
20.9563738521
 30
0.0
 10
19.3575472115
 20
20.8684616634
 30
0.0
 10
19.2994045209
 20
20.8012661309
 30
0.0
 10
19.2455293197
 20
20.7551409418
 30
0.0
 10
19.2006827435
 20
20.7262631124
 30
0.0
 10
19.1511165154
 20
20.7061654178
 30
0.0
 10
19.1156700164
 20
20.7008294546
 30
0.0
 10
19.0979729149
 20
20.700485886
 30
0.0
  0
ELLIPSE
  5
2AE
100
AcDbEntity
  8
0
100
AcDbEllipse
 62
7
  6
BYLAYER
 10
14.0959802339
 20
24.2178151358
 30
0.0
 11
1.999978262
 21
-0.0
 31
0.0
 40
0.9483870182
 41
-0.1412885858
 42
-0.0
  0
ELLIPSE
  5
2AF
100
AcDbEntity
  8
0
100
AcDbEllipse
 62
7
  6
BYLAYER
 10
24.0959419687
 20
24.2178138202
 30
0.0
 11
1.9999990166
 21
0.0
 31
0.0
 40
0.9483870182
 41
-3.1415926536
 42
-3.0003062444
  0
ELLIPSE
  5
2B0
100
AcDbEntity
  8
0
100
AcDbEllipse
 62
7
  6
BYLAYER
 10
24.0959419687
 20
23.2013561905
 30
0.0
 11
1.9999990166
 21
-0.0
 31
0.0
 40
0.3345953195
 41
2.155493448
 42
2.635231223
  0
ELLIPSE
  5
2B1
100
AcDbEntity
  8
0
100
AcDbEllipse
 62
7
  6
BYLAYER
 10
19.0959432689
 20
27.4507166416
 30
0.0
 11
11.7
 21
-0.0
 31
0.0
 40
0.3345953195
 41
-1.231312445
 42
-0.7529039677
  0
ELLIPSE
  5
2B2
100
AcDbEntity
  8
0
100
AcDbEllipse
 62
7
  6
BYLAYER
 10
30.4209435277
 20
25.0416302546
 30
0.0
 11
0.7999997412
 21
-0.0
 31
0.0
 40
0.3345953195
 41
-1.5707963235
 42
0.0000000003
  0
ELLIPSE
  5
2B3
100
AcDbEntity
  8
0
100
AcDbEllipse
 62
7
  6
BYLAYER
 10
16.6174210461
 20
20.0044108042
 30
0.0
 11
0.572178189
 21
-0.0
 31
0.0
 40
0.4896526932
 41
2.6630174131
 42
3.2109653718
  0
ELLIPSE
  5
2B4
100
AcDbEntity
  8
0
100
AcDbEllipse
 62
7
  6
BYLAYER
 10
16.1712715409
 20
20.115978261
 30
0.0
 11
0.0712964524
 21
0.0
 31
0.0
 40
0.4896526932
 41
1.6700275307
 42
2.618023026
  0
ELLIPSE
  5
2B5
100
AcDbEntity
  8
0
100
AcDbEllipse
 62
7
  6
BYLAYER
 10
14.0959802339
 20
23.2013566547
 30
0.0
 11
1.999978262
 21
0.0
 31
0.0
 40
0.3345953195
 41
0.5064641004
 42
0.986113705
  0
ELLIPSE
  5
2B6
100
AcDbEntity
  8
0
100
AcDbEllipse
 62
7
  6
BYLAYER
 10
22.0180108364
 20
20.115978261
 30
0.0
 11
0.0713462917
 21
-0.0
 31
0.0
 40
0.4893106446
 41
0.5235696276
 42
1.4715651229
  0
ELLIPSE
  5
2B7
100
AcDbEntity
  8
0
100
AcDbEllipse
 62
7
  6
BYLAYER
 10
21.571549454
 20
20.0044108042
 30
0.0
 11
0.5725781655
 21
-0.0
 31
0.0
 40
0.4893106446
 41
-0.0693727182
 42
0.4785752405
  0
ELLIPSE
  5
2B8
100
AcDbEntity
  8
0
100
AcDbEllipse
 62
7
  6
BYLAYER
 10
19.0943040841
 20
22.099267824
 30
0.0
 11
4.454912012
 21
0.0
 31
0.0
 40
0.3367077372
 41
-2.026131878
 42
-1.940691142
  0
ELLIPSE
  5
2B9
100
AcDbEntity
  8
0
100
AcDbEllipse
 62
7
  6
BYLAYER
 10
19.0943040841
 20
22.099267824
 30
0.0
 11
4.454912012
 21
-0.0
 31
0.0
 40
0.3367077372
 41
-1.2009015116
 42
-1.1157367119
  0
ELLIPSE
  5
2BA
100
AcDbEntity
  8
0
100
AcDbEllipse
 62
7
  6
BYLAYER
 10
19.0959422425
 20
27.4507162324
 30
0.0
 11
11.6999984149
 21
0.0
 31
0.0
 40
0.3345953195
 41
-2.3886890163
 42
-1.9102801608
  0
ELLIPSE
  5
2BB
100
AcDbEntity
  8
0
100
AcDbEllipse
 62
7
  6
BYLAYER
 10
19.0958643068
 20
21.6954915901
 30
0.0
 11
3.2557226544
 21
-0.0
 31
0.0
 40
0.3367077372
 41
3.1415926536
 42
4.2787753968
  0
ELLIPSE
  5
2BC
100
AcDbEntity
  8
0
100
AcDbEllipse
 62
7
  6
BYLAYER
 10
19.0958643068
 20
30.1753730421
 30
0.0
 11
0.0
 21
8.2524607698
 31
0.0
 40
0.3945153749
 41
-3.8578339814
 42
-3.3760998343
  0
ELLIPSE
  5
2BD
100
AcDbEntity
  8
0
100
AcDbEllipse
 62
7
  6
BYLAYER
 10
19.0958643068
 20
30.1753730421
 30
0.0
 11
-0.0
 21
8.2524607698
 31
0.0
 40
0.3945153749
 41
-2.9070854729
 42
-2.4253513258
  0
ELLIPSE
  5
2BE
100
AcDbEntity
  8
0
100
AcDbEllipse
 62
7
  6
BYLAYER
 10
19.0958643068
 20
21.6954915901
 30
0.0
 11
3.2557226544
 21
-0.0
 31
0.0
 40
0.3367077372
 41
5.1460025639
 42
6.2831853072
  0
ENDSEC
  0
SECTION
  2
OBJECTS
  0
DICTIONARY
  5
C
100
AcDbDictionary
280
0
281
1
  3
ACAD_GROUP
350
D
  3
ACAD_MLINESTYLE
350
17
  3
ACAD_LAYOUT
350
1A
  3
ACAD_PLOTSETTINGS
350
19
  3
ACAD_PLOTSTYLENAME
350
E
  0
DICTIONARY
  5
D
102
{ACAD_REACTORS
330
C
102
}
100
AcDbDictionary
280
0
281
1
  0
ACDBDICTIONARYWDFLT
  5
E
102
{ACAD_REACTORS
330
C
102
}
100
AcDbDictionary
281
1
  3
Normal
350
F
100
AcDbDictionaryWithDefault
340
F
  0
DICTIONARY
  5
17
102
{ACAD_REACTORS
330
C
102
}
100
AcDbDictionary
280
0
281
1
  3
Standard
350
18
  0
DICTIONARY
  5
19
102
{ACAD_REACTORS
330
C
102
}
100
AcDbDictionary
281
1
  0
DICTIONARY
  5
1A
102
{ACAD_REACTORS
330
C
102
}
100
AcDbDictionary
281
1
  3
Model
350
2BF
  3
Layout1
350
2C0
  0
ACDBPLACEHOLDER
  5
F
102
{ACAD_REACTORS
330
E
102
}
  0
MLINESTYLE
  5
18
102
{ACAD_REACTORS
330
17
102
}
100
AcDbMlineStyle
  2
STANDARD
 70
0
  3

 62
256
 51
90.0
 52
90.0
 71
2
 49
0.5
 62
256
  6
BYLAYER
 49
-0.5
 62
256
  6
BYLAYER
  0
LAYOUT
  5
2BF
102
{ACAD_REACTORS
330
1A
102
}
100
AcDbPlotSettings
  1

  2
none_device
  4

  6

 40
0.0
 41
0.0
 42
0.0
 43
0.0
 44
210.0
 45
297.0
 46
0.0
 47
0.0
 48
0.0
 49
0.0
140
0.0
141
0.0
142
1.0
143
1.0
 70
1024
 72
1
 73
0
 74
0
  7

 75
0
147
1.0
148
0.0
149
0.0
100
AcDbLayout
  1
Model
 70
0
 71
0
 10
0.0
 20
0.0
 11
210.0
 21
297.0
 12
0.0
 22
0.0
 32
0.0
 14
0.0
 24
0.0
 34
0.0
 15
0.0
 25
0.0
 35
0.0
146
0.0
 13
0.0
 23
0.0
 33
0.0
 16
1.0
 26
0.0
 36
0.0
 17
0.0
 27
1.0
 37
0.0
 76
0
330
210
345
0
346
0
  0
LAYOUT
  5
2C0
102
{ACAD_REACTORS
330
1A
102
}
100
AcDbPlotSettings
  1

  2
none_device
  4

  6

 40
0.0
 41
0.0
 42
0.0
 43
0.0
 44
210.0
 45
297.0
 46
0.0
 47
0.0
 48
0.0
 49
0.0
140
0.0
141
0.0
142
1.0
143
1.0
 70
0
 72
1
 73
0
 74
0
  7

 75
0
147
1.0
148
0.0
149
0.0
100
AcDbLayout
  1
Layout1
 70
0
 71
1
 10
0.0
 20
0.0
 11
210.0
 21
297.0
 12
0.0
 22
0.0
 32
0.0
 14
0.0
 24
0.0
 34
0.0
 15
0.0
 25
0.0
 35
0.0
146
0.0
 13
0.0
 23
0.0
 33
0.0
 16
1.0
 26
0.0
 36
0.0
 17
0.0
 27
1.0
 37
0.0
 76
0
330
211
345
0
346
0
  0
ENDSEC
  0
EOF
