999
DXF file: C:\Users\sesa63760\Dev\_Creo\CAD\MCADID0001848_3D-CAD\drw0001_1.dxf
999
Pro/ENGINEER 2019471 by Parametric Technology Corporation
  0
SECTION
  2
HEADER
  9
$ACADVER
  1
AC1024
  9
$DWGCODEPAGE
  3
ANSI_1252
  9
$EXTMAX
 10
76.6208801493
 20
108.3638162111
 30
0.0
  9
$EXTMIN
 10
0.0
 20
0.0
 30
0.0
  9
$LIMMIN
 10
0.0
 20
0.0
  9
$LIMMAX
 10
76.6208801493
 20
108.3638162111
  9
$VIEWCTR
 10
38.3104400746
 20
54.1819081056
  9
$VIEWSIZE
 40
108.3638162111
  9
$CLAYER
  8
0
  9
$LTSCALE
 40
7.0637154271
  9
$CELTYPE
  6
BYLAYER
  9
$DIMSCALE
 40
1.0
  9
$DIMASZ
 40
0.9121533351
  9
$DIMEXO
 40
1.0
  9
$DIMDLI
 40
4.8803852042
  9
$DIMEXE
 40
1.0
  9
$DIMCEN
 40
1.1558807063
  9
$DIMLFAC
 40
1.0
  9
$DIMBLK
  1
_FILLED
  9
$DIMALT
 70
0
  9
$DIMALTF
 40
0.0393700787
  9
$DIMTXT
 40
1.2770146692
  9
$DIMTOL
 70
1
  9
$DIMLIM
 70
0
  9
$DIMTFAC
 40
1.0
  9
$DIMTP
 40
0.01
  9
$DIMTM
 40
0.01
  9
$DIMGAP
 40
0.625
  9
$DIMDSEP
 70
46
  9
$AUNITS
 70
0
  9
$PDMODE
 70
3
  9
$PDSIZE
 40
0.3125
  9
$HANDSEED
  5
423
  9
$TILEMODE
 70
1
  9
$MEASUREMENT
 70
1
  9
$INSUNITS
 70
4
  0
ENDSEC
  0
SECTION
  2
CLASSES
  0
CLASS
  1
ACDBDICTIONARYWDFLT
  2
AcDbDictionaryWithDefault
  3
AutoCAD 2000
 90
0
 91
1
280
0
281
0
  0
CLASS
  1
ACDBPLACEHOLDER
  2
AcDbPlaceHolder
  3
AutoCAD 2000
 90
0
 91
1
280
0
281
0
  0
CLASS
  1
LAYOUT
  2
AcDbLayout
  3
AutoCAD 2000
 90
0
 91
0
280
0
281
0
  0
ENDSEC
  0
SECTION
  2
TABLES
  0
TABLE
  2
VPORT
  5
8
100
AcDbSymbolTable
 70
2
  0
VPORT
  5
1F4
100
AcDbSymbolTableRecord
100
AcDbViewportTableRecord
  2
*ACTIVE
 70
0
 10
0.0
 20
0.0
 11
1.0
 21
1.0
 12
38.3104400746
 22
54.1819081056
 13
0.0
 23
0.0
 14
1.0
 24
1.0
 15
0.0
 25
0.0
 16
0.0
 26
0.0
 36
1.0
 17
0.0
 27
0.0
 37
0.0
 40
108.3638162111
 41
0.7070707071
 42
50.0
 43
0.0
 44
0.0
 50
0.0
 51
0.0
 71
0
 72
100
 73
1
 74
1
 75
0
 76
0
 77
0
 78
0
  0
ENDTAB
  0
TABLE
  2
LTYPE
  5
5
100
AcDbSymbolTable
 70
6
  0
LTYPE
  5
14
100
AcDbSymbolTableRecord
100
AcDbLinetypeTableRecord
  2
BYBLOCK
 70
0
  3

 72
65
 73
0
 40
0.0
  0
LTYPE
  5
15
100
AcDbSymbolTableRecord
100
AcDbLinetypeTableRecord
  2
BYLAYER
 70
0
  3

 72
65
 73
0
 40
0.0
  0
LTYPE
  5
16
100
AcDbSymbolTableRecord
100
AcDbLinetypeTableRecord
  2
CONTINUOUS
 70
64
  3
Solid line
 72
65
 73
0
 40
0.0
  0
LTYPE
  5
1F5
100
AcDbSymbolTableRecord
100
AcDbLinetypeTableRecord
  2
CENTER
 70
64
  3
____ _ ____ _ ____ _ ____ _ ____ _ ____ _ ____
 72
65
 73
4
 40
0.6
 49
0.375
 74
0
 49
-0.075
 74
0
 49
0.075
 74
0
 49
-0.075
 74
0
  0
LTYPE
  5
1F6
100
AcDbSymbolTableRecord
100
AcDbLinetypeTableRecord
  2
HIDDEN
 70
64
  3
- - - - - - - - - - - - - - - - - - - -
 72
65
 73
2
 40
0.2
 49
0.1
 74
0
 49
-0.1
 74
0
  0
LTYPE
  5
1F7
100
AcDbSymbolTableRecord
100
AcDbLinetypeTableRecord
  2
PHANTOM
 70
64
  3
_____ _ _ _____ _ _ _____ _ _ _____
 72
65
 73
6
 40
0.8
 49
0.45
 74
0
 49
-0.05
 74
0
 49
0.1
 74
0
 49
-0.05
 74
0
 49
0.1
 74
0
 49
-0.05
 74
0
  0
LTYPE
  5
1F8
100
AcDbSymbolTableRecord
100
AcDbLinetypeTableRecord
  2
DOT
 70
64
  3
. . . . . . . . . . . . . . . . . . . .
 72
65
 73
2
 40
0.2
 49
0.1
 74
0
 49
-0.1
 74
0
  0
LTYPE
  5
1F9
100
AcDbSymbolTableRecord
100
AcDbLinetypeTableRecord
  2
DASHED
 70
64
  3
- - - - - - - - - - - - - - - - - - - -
 72
65
 73
2
 40
0.2
 49
0.1
 74
0
 49
-0.1
 74
0
  0
ENDTAB
  0
TABLE
  2
LAYER
  5
2
100
AcDbSymbolTable
 70
36
  0
LAYER
  5
10
100
AcDbSymbolTableRecord
100
AcDbLayerTableRecord
  2
0
 70
0
 62
7
  6
CONTINUOUS
370
-3
390
F
  0
LAYER
  5
1FA
100
AcDbSymbolTableRecord
100
AcDbLayerTableRecord
  2
DEFAULT_1
 70
0
 62
7
  6
CENTER
370
-3
390
F
  0
LAYER
  5
1FB
100
AcDbSymbolTableRecord
100
AcDbLayerTableRecord
  2
DEFAULT_2
 70
0
 62
8
  6
HIDDEN
370
-3
390
F
  0
LAYER
  5
1FC
100
AcDbSymbolTableRecord
100
AcDbLayerTableRecord
  2
DEFAULT_3
 70
0
 62
7
  6
PHANTOM
370
-3
390
F
  0
LAYER
  5
1FD
100
AcDbSymbolTableRecord
100
AcDbLayerTableRecord
  2
00_COMPONENTS
 70
0
 62
7
  6
CONTINUOUS
370
-3
390
F
  0
LAYER
  5
1FE
100
AcDbSymbolTableRecord
100
AcDbLayerTableRecord
  2
01_1_DEFAULT_DATUMS
 70
0
 62
7
  6
CONTINUOUS
370
-3
390
F
  0
LAYER
  5
1FF
100
AcDbSymbolTableRecord
100
AcDbLayerTableRecord
  2
01_PLANES
 70
0
 62
7
  6
CONTINUOUS
370
-3
390
F
  0
LAYER
  5
200
100
AcDbSymbolTableRecord
100
AcDbLayerTableRecord
  2
02_COORD_SYS
 70
0
 62
7
  6
CONTINUOUS
370
-3
390
F
  0
LAYER
  5
201
100
AcDbSymbolTableRecord
100
AcDbLayerTableRecord
  2
03_AXES
 70
0
 62
7
  6
CONTINUOUS
370
-3
390
F
  0
LAYER
  5
202
100
AcDbSymbolTableRecord
100
AcDbLayerTableRecord
  2
04_POINTS
 70
0
 62
7
  6
CONTINUOUS
370
-3
390
F
  0
LAYER
  5
203
100
AcDbSymbolTableRecord
100
AcDbLayerTableRecord
  2
05_CURVES
 70
0
 62
7
  6
CONTINUOUS
370
-3
390
F
  0
LAYER
  5
204
100
AcDbSymbolTableRecord
100
AcDbLayerTableRecord
  2
06_SURFS
 70
0
 62
7
  6
CONTINUOUS
370
-3
390
F
  0
LAYER
  5
205
100
AcDbSymbolTableRecord
100
AcDbLayerTableRecord
  2
07_COSMETICS
 70
0
 62
7
  6
CONTINUOUS
370
-3
390
F
  0
LAYER
  5
206
100
AcDbSymbolTableRecord
100
AcDbLayerTableRecord
  2
10_NOTES
 70
0
 62
7
  6
CONTINUOUS
370
-3
390
F
  0
LAYER
  5
207
100
AcDbSymbolTableRecord
100
AcDbLayerTableRecord
  2
11_NOTES_PUB
 70
0
 62
7
  6
CONTINUOUS
370
-3
390
F
  0
LAYER
  5
208
100
AcDbSymbolTableRecord
100
AcDbLayerTableRecord
  2
13_REF_GTOL
 70
0
 62
7
  6
CONTINUOUS
370
-3
390
F
  0
LAYER
  5
209
100
AcDbSymbolTableRecord
100
AcDbLayerTableRecord
  2
16_MISC
 70
0
 62
7
  6
CONTINUOUS
370
-3
390
F
  0
LAYER
  5
20A
100
AcDbSymbolTableRecord
100
AcDbLayerTableRecord
  2
17_NO_PRINT
 70
0
 62
7
  6
CONTINUOUS
370
-3
390
F
  0
LAYER
  5
20B
100
AcDbSymbolTableRecord
100
AcDbLayerTableRecord
  2
18_DATUM_CAMS_JOINTS
 70
0
 62
7
  6
CONTINUOUS
370
-3
390
F
  0
LAYER
  5
20C
100
AcDbSymbolTableRecord
100
AcDbLayerTableRecord
  2
19_DATUM_FUNCTIONAL
 70
0
 62
7
  6
CONTINUOUS
370
-3
390
F
  0
LAYER
  5
20D
100
AcDbSymbolTableRecord
100
AcDbLayerTableRecord
  2
20_DATUM_KINEMATIC_SCHEME
 70
0
 62
7
  6
CONTINUOUS
370
-3
390
F
  0
ENDTAB
  0
TABLE
  2
STYLE
  5
3
100
AcDbSymbolTable
 70
1
  0
STYLE
  5
11
100
AcDbSymbolTableRecord
100
AcDbTextStyleTableRecord
  2
STANDARD
 70
0
 40
0.0
 41
0.8
 50
0.0
 71
0
 42
0.2
  3
txt
  4

  0
STYLE
  5
20E
100
AcDbSymbolTableRecord
100
AcDbTextStyleTableRecord
  2
TEXTSTYLE_1
 70
0
 40
0.0
 41
0.8
 50
0.0
 71
0
 42
0.2
  3
gdt
  4

  0
ENDTAB
  0
TABLE
  2
VIEW
  5
6
100
AcDbSymbolTable
 70
0
  0
ENDTAB
  0
TABLE
  2
UCS
  5
7
100
AcDbSymbolTable
 70
0
  0
ENDTAB
  0
TABLE
  2
APPID
  5
9
100
AcDbSymbolTable
 70
1
  0
APPID
  5
20F
100
AcDbSymbolTableRecord
100
AcDbRegAppTableRecord
  2
ACAD
 70
0
  0
ENDTAB
  0
TABLE
  2
BLOCK_RECORD
  5
1
100
AcDbSymbolTable
 70
0
  0
BLOCK_RECORD
  5
210
100
AcDbSymbolTableRecord
100
AcDbBlockTableRecord
  2
*Model_Space
  0
BLOCK_RECORD
  5
211
100
AcDbSymbolTableRecord
100
AcDbBlockTableRecord
  2
*Paper_Space
  0
BLOCK_RECORD
  5
212
100
AcDbSymbolTableRecord
100
AcDbBlockTableRecord
  2
_FILLED
  0
ENDTAB
  0
TABLE
  2
DIMSTYLE
  5
A
100
AcDbSymbolTable
 70
1
100
AcDbDimStyleTable
 71
0
  0
DIMSTYLE
105
213
100
AcDbSymbolTableRecord
100
AcDbDimStyleTableRecord
  2
STANDARD
 70
0
  3

  4

 40
1.0
 41
0.9121533351
 42
1.0
 43
0.38
 44
1.0
 45
0.0
 46
0.0
 47
0.01
 48
0.01
140
1.2770146692
141
0.09
142
0.0
143
25.4
144
1.0
145
0.0
146
1.0
147
0.625
 71
1
 72
0
 73
0
 74
0
 75
0
 76
0
 77
1
 78
8
 79
2
170
0
171
1
172
0
173
0
174
0
175
0
176
0
177
0
178
0
270
2
179
2
271
2
272
2
273
2
274
2
275
0
280
0
281
0
282
0
283
1
284
8
285
0
286
0
287
3
288
0
340
11
278
46
341
212
342
212
343
212
344
212
  0
ENDTAB
  0
ENDSEC
  0
SECTION
  2
BLOCKS
  0
BLOCK
  5
20
100
AcDbEntity
  8
0
100
AcDbBlockBegin
  2
*Model_Space
 70
0
 10
0.0
 20
0.0
 30
0.0
  3
*Model_Space
  1

  0
ENDBLK
  5
21
100
AcDbEntity
  8
0
100
AcDbBlockEnd
  0
BLOCK
  5
1C
100
AcDbEntity
  8
0
100
AcDbBlockBegin
  2
*Paper_Space
 70
0
 10
0.0
 20
0.0
 30
0.0
  3
*Paper_Space
  1

  0
ENDBLK
  5
1D
100
AcDbEntity
  8
0
100
AcDbBlockEnd
  0
BLOCK
  5
214
100
AcDbEntity
  8
0
100
AcDbBlockBegin
  2
_FILLED
 70
64
 10
0.0
 20
0.0
  3
_FILLED
  1

  0
SOLID
  5
215
100
AcDbEntity
  8
0
  6
BYBLOCK
 62
0
100
AcDbTrace
 10
0.0
 20
0.0
 11
-1.0
 21
0.25
 12
-1.0
 22
-0.25
 13
-1.0
 23
-0.25
  0
ENDBLK
  5
216
100
AcDbEntity
  8
0
  6
BYBLOCK
 62
0
100
AcDbBlockEnd
  0
ENDSEC
  0
SECTION
  2
ENTITIES
  0
LINE
  5
217
100
AcDbEntity
  8
0
100
AcDbLine
 62
7
  6
CONTINUOUS
 10
16.9114024106
 20
10.4209443686
 11
12.5273221147
 21
12.9520370466
  0
LINE
  5
218
100
AcDbEntity
  8
0
100
AcDbLine
 62
7
  6
CONTINUOUS
 10
16.8085090985
 20
10.6585935167
 11
12.4244288026
 21
13.1896861947
  0
LINE
  5
219
100
AcDbEntity
  8
0
100
AcDbLine
 62
7
  6
CONTINUOUS
 10
23.1724051483
 20
11.6872133717
 11
27.9100373619
 21
8.9519915626
  0
LINE
  5
21A
100
AcDbEntity
  8
0
100
AcDbLine
 62
7
  6
CONTINUOUS
 10
16.9114096605
 20
10.4209569422
 11
17.1600517688
 21
10.4455749399
  0
LINE
  5
21B
100
AcDbEntity
  8
0
100
AcDbLine
 62
7
  6
CONTINUOUS
 10
12.7779836652
 20
20.0746766213
 11
16.4549542359
 21
17.9518246978
  0
LINE
  5
21C
100
AcDbEntity
  8
0
100
AcDbLine
 62
7
  6
CONTINUOUS
 10
12.4244288026
 20
20.9464591574
 11
12.7779836652
 21
20.7423387802
  0
LINE
  5
21D
100
AcDbEntity
  8
0
100
AcDbLine
 62
7
  6
CONTINUOUS
 10
16.4549542359
 20
18.6194868566
 11
16.8085090985
 21
18.4153664794
  0
LINE
  5
21E
100
AcDbEntity
  8
0
100
AcDbLine
 62
7
  6
CONTINUOUS
 10
13.6915588757
 20
20.5077818076
 11
16.5467433839
 21
18.8593775551
  0
LINE
  5
21F
100
AcDbEntity
  8
0
100
AcDbLine
 62
7
  6
CONTINUOUS
 10
16.598606777
 20
18.9139880133
 11
13.7643936873
 21
20.5502846856
  0
LINE
  5
220
100
AcDbEntity
  8
0
100
AcDbLine
 62
7
  6
CONTINUOUS
 10
17.0206402497
 20
18.7827904507
 11
16.6670853871
 21
18.9869108279
  0
LINE
  5
221
100
AcDbEntity
  8
0
100
AcDbLine
 62
7
  6
CONTINUOUS
 10
12.9901148163
 20
21.1097627515
 11
12.6365599537
 21
21.3138831287
  0
LINE
  5
222
100
AcDbEntity
  8
0
100
AcDbLine
 62
7
  6
CONTINUOUS
 10
26.3829378387
 20
14.6509823411
 11
25.4094075633
 21
15.2130375922
  0
LINE
  5
223
100
AcDbEntity
  8
0
100
AcDbLine
 62
7
  6
CONTINUOUS
 10
12.5273293646
 20
12.9520496202
 11
12.4244288026
 21
13.1896861947
  0
LINE
  5
224
100
AcDbEntity
  8
0
100
AcDbLine
 62
7
  6
CONTINUOUS
 10
36.960929974
 20
11.8912014073
 11
41.6985621857
 21
9.1559795992
  0
LINE
  5
225
100
AcDbEntity
  8
0
100
AcDbLine
 62
7
  6
CONTINUOUS
 10
16.8085090985
 20
10.6585935167
 11
16.9114096605
 21
10.4209569422
  0
LINE
  5
226
100
AcDbEntity
  8
0
100
AcDbLine
 62
7
  6
CONTINUOUS
 10
40.1714626643
 20
14.8549703789
 11
39.0140486218
 21
15.5231885707
  0
LINE
  5
227
100
AcDbEntity
  8
0
100
AcDbLine
 62
7
  6
CONTINUOUS
 10
39.0140486218
 20
16.1763905044
 11
39.4234602853
 21
15.9400219177
  0
LINE
  5
228
100
AcDbEntity
  8
0
100
AcDbLine
 62
7
  6
CONTINUOUS
 10
13.7643936873
 20
31.0260106974
 11
16.9251741587
 21
29.2011745247
  0
LINE
  5
229
100
AcDbEntity
  8
0
100
AcDbLine
 62
7
  6
CONTINUOUS
 10
17.1373064874
 20
29.1603507891
 11
13.6940144367
 21
31.1482914083
  0
LINE
  5
22A
100
AcDbEntity
  8
0
100
AcDbLine
 62
7
  6
CONTINUOUS
 10
38.5865581073
 20
16.8080421877
 11
41.3450102699
 21
15.2154851176
  0
LINE
  5
22B
100
AcDbEntity
  8
0
100
AcDbLine
 62
7
  6
CONTINUOUS
 10
8.992465225
 20
40.1585298411
 11
8.8889036415
 21
40.3874135217
  0
LINE
  5
22C
100
AcDbEntity
  8
0
100
AcDbLine
 62
7
  6
CONTINUOUS
 10
8.8889036415
 20
40.3874135217
 11
8.8889036415
 21
40.5507140131
  0
LINE
  5
22D
100
AcDbEntity
  8
0
100
AcDbLine
 62
7
  6
CONTINUOUS
 10
9.2424555601
 20
40.7548360901
 11
9.2424555601
 21
42.2114556622
  0
LINE
  5
22E
100
AcDbEntity
  8
0
100
AcDbLine
 62
7
  6
CONTINUOUS
 10
9.2424555601
 20
48.2797431098
 11
9.2424555601
 21
48.9198602614
  0
LINE
  5
22F
100
AcDbEntity
  8
0
100
AcDbLine
 62
7
  6
CONTINUOUS
 10
51.1030067212
 20
94.3578044484
 11
55.2749193544
 21
96.7664449526
  0
LINE
  5
230
100
AcDbEntity
  8
0
100
AcDbLine
 62
7
  6
CONTINUOUS
 10
54.8050165206
 20
24.5724744934
 11
57.2636229229
 21
24.9586365986
  0
LINE
  5
231
100
AcDbEntity
  8
0
100
AcDbLine
 62
7
  6
CONTINUOUS
 10
41.0164916954
 20
24.3684864529
 11
43.4750980997
 21
24.7546485584
  0
LINE
  5
232
100
AcDbEntity
  8
0
100
AcDbLine
 62
7
  6
CONTINUOUS
 10
16.9251741587
 20
30.6708788755
 11
13.7643936873
 21
32.4957150482
  0
LINE
  5
233
100
AcDbEntity
  8
0
100
AcDbLine
 62
7
  6
CONTINUOUS
 10
27.7686136514
 20
25.3963429006
 11
28.122168514
 21
25.1922225234
  0
LINE
  5
234
100
AcDbEntity
  8
0
100
AcDbLine
 62
7
  6
CONTINUOUS
 10
27.6872960331
 20
27.1461687833
 11
27.5140541504
 21
27.2461877682
  0
LINE
  5
235
100
AcDbEntity
  8
0
100
AcDbLine
 62
7
  6
CONTINUOUS
 10
13.2729839374
 20
37.8563208437
 11
13.3765455209
 21
37.6274371631
  0
LINE
  5
236
100
AcDbEntity
  8
0
100
AcDbLine
 62
7
  6
CONTINUOUS
 10
11.3637670717
 20
44.0538258152
 11
11.3637670717
 21
47.0550310442
  0
LINE
  5
237
100
AcDbEntity
  8
0
100
AcDbLine
 62
7
  6
CONTINUOUS
 10
12.4244288026
 20
13.1896861947
 11
12.4244288026
 21
14.1354712834
  0
LINE
  5
238
100
AcDbEntity
  8
0
100
AcDbLine
 62
7
  6
CONTINUOUS
 10
12.4244288026
 20
15.3907303733
 11
12.4244288026
 21
20.9464591574
  0
LINE
  5
239
100
AcDbEntity
  8
0
100
AcDbLine
 62
7
  6
CONTINUOUS
 10
12.7779836652
 20
20.7423387802
 11
12.7779836652
 21
20.0746766213
  0
LINE
  5
23A
100
AcDbEntity
  8
0
100
AcDbLine
 62
7
  6
CONTINUOUS
 10
13.2729839374
 20
37.8563208437
 11
13.2729839374
 21
38.0196213351
  0
LINE
  5
23B
100
AcDbEntity
  8
0
100
AcDbLine
 62
7
  6
CONTINUOUS
 10
13.626535856
 20
38.223743412
 11
13.626535856
 21
39.6803629841
  0
LINE
  5
23C
100
AcDbEntity
  8
0
100
AcDbLine
 62
7
  6
CONTINUOUS
 10
13.626535856
 20
45.7486504318
 11
13.626535856
 21
46.3887675833
  0
LINE
  5
23D
100
AcDbEntity
  8
0
100
AcDbLine
 62
7
  6
CONTINUOUS
 10
13.6915585772
 20
20.5077823249
 11
13.6915585772
 21
31.128071739
  0
LINE
  5
23E
100
AcDbEntity
  8
0
100
AcDbLine
 62
7
  6
CONTINUOUS
 10
13.6915585772
 20
32.5977760899
 11
13.6915585772
 21
37.6897323775
  0
LINE
  5
23F
100
AcDbEntity
  8
0
100
AcDbLine
 62
7
  6
CONTINUOUS
 10
13.6940144367
 20
31.1482914083
 11
13.6940144367
 21
32.6179957591
  0
LINE
  5
240
100
AcDbEntity
  8
0
100
AcDbLine
 62
7
  6
CONTINUOUS
 10
13.7643936873
 20
20.5502846856
 11
13.7643936873
 21
31.0260106974
  0
LINE
  5
241
100
AcDbEntity
  8
0
100
AcDbLine
 62
7
  6
CONTINUOUS
 10
13.7643936873
 20
32.4957150482
 11
13.7643936873
 21
37.7317835013
  0
LINE
  5
242
100
AcDbEntity
  8
0
100
AcDbLine
 62
7
  6
CONTINUOUS
 10
55.628471273
 20
96.5623158209
 11
60.8722442044
 21
99.5897914628
  0
LINE
  5
243
100
AcDbEntity
  8
0
100
AcDbLine
 62
7
  6
CONTINUOUS
 10
56.0527429995
 20
95.9091376704
 11
53.5778795692
 21
94.4802831318
  0
LINE
  5
244
100
AcDbEntity
  8
0
100
AcDbLine
 62
7
  6
CONTINUOUS
 10
55.6992087447
 20
93.2555608683
 11
58.1740721749
 21
94.6844154068
  0
LINE
  5
245
100
AcDbEntity
  8
0
100
AcDbLine
 62
7
  6
CONTINUOUS
 10
27.6872960331
 20
27.1461687833
 11
27.3973834598
 21
27.1720659153
  0
LINE
  5
246
100
AcDbEntity
  8
0
100
AcDbLine
 62
7
  6
CONTINUOUS
 10
27.3973834598
 20
27.2566096558
 11
27.5140541504
 21
27.2461877682
  0
LINE
  5
247
100
AcDbEntity
  8
0
100
AcDbLine
 62
7
  6
CONTINUOUS
 10
13.3765400978
 20
37.6274277697
 11
8.9924598018
 21
40.1585204478
  0
LINE
  5
248
100
AcDbEntity
  8
0
100
AcDbLine
 62
7
  6
CONTINUOUS
 10
13.2729839374
 20
37.8563208437
 11
8.8889036415
 21
40.3874135217
  0
LINE
  5
249
100
AcDbEntity
  8
0
100
AcDbLine
 62
7
  6
CONTINUOUS
 10
8.8889036415
 20
40.5507140131
 11
13.2729839374
 21
38.0196213351
  0
LINE
  5
24A
100
AcDbEntity
  8
0
100
AcDbLine
 62
7
  6
CONTINUOUS
 10
9.2424555601
 20
40.7548360901
 11
13.626535856
 21
38.223743412
  0
LINE
  5
24B
100
AcDbEntity
  8
0
100
AcDbLine
 62
7
  6
CONTINUOUS
 10
40.6605960691
 20
23.0339147379
 11
43.0604923933
 21
21.6483652944
  0
LINE
  5
24C
100
AcDbEntity
  8
0
100
AcDbLine
 62
7
  6
CONTINUOUS
 10
56.1134428068
 20
14.6906367176
 11
52.3373915877
 21
16.870691586
  0
LINE
  5
24D
100
AcDbEntity
  8
0
100
AcDbLine
 62
7
  6
CONTINUOUS
 10
9.2424555601
 20
42.2114556622
 11
13.626535856
 21
39.6803629841
  0
LINE
  5
24E
100
AcDbEntity
  8
0
100
AcDbLine
 62
7
  6
CONTINUOUS
 10
40.9500700917
 20
24.1194123227
 11
42.991410584
 21
22.9408705022
  0
LINE
  5
24F
100
AcDbEntity
  8
0
100
AcDbLine
 62
7
  6
CONTINUOUS
 10
55.6992181654
 20
15.6062090132
 11
52.4937097035
 21
17.4568683191
  0
LINE
  5
250
100
AcDbEntity
  8
0
100
AcDbLine
 62
7
  6
CONTINUOUS
 10
14.1922218789
 20
38.7952912866
 11
14.1922217237
 21
38.223739324
  0
LINE
  5
251
100
AcDbEntity
  8
0
100
AcDbLine
 62
7
  6
CONTINUOUS
 10
15.0407435304
 20
46.0825650675
 11
15.0407435304
 21
45.8580269028
  0
LINE
  5
252
100
AcDbEntity
  8
0
100
AcDbLine
 62
7
  6
CONTINUOUS
 10
15.0407435304
 20
41.2039631252
 11
15.0407435304
 21
40.9794249605
  0
LINE
  5
253
100
AcDbEntity
  8
0
100
AcDbLine
 62
7
  6
CONTINUOUS
 10
15.7478473676
 20
41.5221106575
 11
15.7478473676
 21
46.388746409
  0
LINE
  5
254
100
AcDbEntity
  8
0
100
AcDbLine
 62
7
  6
CONTINUOUS
 10
16.4549542359
 20
17.9518246978
 11
16.4549542359
 21
18.6194868566
  0
LINE
  5
255
100
AcDbEntity
  8
0
100
AcDbLine
 62
7
  6
CONTINUOUS
 10
16.8085090985
 20
10.6585935167
 11
16.8085090985
 21
18.4153664794
  0
LINE
  5
256
100
AcDbEntity
  8
0
100
AcDbLine
 62
7
  6
CONTINUOUS
 10
16.9251741587
 20
40.0673152406
 11
16.9251741587
 21
30.6708788755
  0
LINE
  5
257
100
AcDbEntity
  8
0
100
AcDbLine
 62
7
  6
CONTINUOUS
 10
16.9251741587
 20
29.2011745247
 11
16.9251741587
 21
19.1359175603
  0
LINE
  5
258
100
AcDbEntity
  8
0
100
AcDbLine
 62
7
  6
CONTINUOUS
 10
17.1373064874
 20
30.63005514
 11
17.1373064874
 21
29.1603507891
  0
LINE
  5
259
100
AcDbEntity
  8
0
100
AcDbLine
 62
7
  6
CONTINUOUS
 10
17.2787275493
 20
19.340040487
 11
17.2787275493
 21
40.5227362668
  0
LINE
  5
25A
100
AcDbEntity
  8
0
100
AcDbLine
 62
7
  6
CONTINUOUS
 10
17.3741911871
 20
48.1442131378
 11
17.3741910325
 21
47.5748306532
  0
LINE
  5
25B
100
AcDbEntity
  8
0
100
AcDbLine
 62
7
  6
CONTINUOUS
 10
17.5156117999
 20
47.6564794327
 11
17.5156129357
 21
47.5318356204
  0
LINE
  5
25C
100
AcDbEntity
  8
0
100
AcDbLine
 62
7
  6
CONTINUOUS
 10
13.6940144367
 20
31.1482914083
 11
13.6916162212
 21
31.1280716881
  0
LINE
  5
25D
100
AcDbEntity
  8
0
100
AcDbLine
 62
7
  6
CONTINUOUS
 10
11.332742845
 20
43.9008500536
 11
11.3496828263
 21
43.941650129
  0
LINE
  5
25E
100
AcDbEntity
  8
0
100
AcDbLine
 62
7
  6
CONTINUOUS
 10
55.4870870171
 20
91.8267117704
 11
59.6589996503
 21
94.2353522745
  0
LINE
  5
25F
100
AcDbEntity
  8
0
100
AcDbLine
 62
7
  6
CONTINUOUS
 10
51.9451913841
 20
89.5441131416
 11
52.6489259209
 21
89.9504120405
  0
LINE
  5
260
100
AcDbEntity
  8
0
100
AcDbLine
 62
7
  6
CONTINUOUS
 10
65.2563245003
 20
97.0586987848
 11
60.0125515689
 21
94.0312231429
  0
LINE
  5
261
100
AcDbEntity
  8
0
100
AcDbLine
 62
7
  6
CONTINUOUS
 10
52.7664095125
 20
89.834997247
 11
51.9161840798
 21
89.3441222947
  0
LINE
  5
262
100
AcDbEntity
  8
0
100
AcDbLine
 62
7
  6
CONTINUOUS
 10
51.9161840798
 20
89.1243960468
 11
52.7664087056
 21
89.6152705332
  0
LINE
  5
263
100
AcDbEntity
  8
0
100
AcDbLine
 62
7
  6
CONTINUOUS
 10
51.9306879826
 20
88.9160319861
 11
53.1918858206
 21
89.6441805509
  0
LINE
  5
264
100
AcDbEntity
  8
0
100
AcDbLine
 62
7
  6
CONTINUOUS
 10
52.7956476369
 20
89.3819194234
 11
51.9451913841
 21
88.8909112078
  0
LINE
  5
265
100
AcDbEntity
  8
0
100
AcDbLine
 62
7
  6
CONTINUOUS
 10
37.3144818874
 20
78.6402704805
 11
41.4863945331
 21
81.0489109919
  0
LINE
  5
266
100
AcDbEntity
  8
0
100
AcDbLine
 62
7
  6
CONTINUOUS
 10
41.8399464517
 20
80.8447818602
 11
47.0912420529
 21
83.8766006901
  0
LINE
  5
267
100
AcDbEntity
  8
0
100
AcDbLine
 62
7
  6
CONTINUOUS
 10
27.6872960331
 20
32.4289394221
 11
27.3973834598
 21
32.4548365541
  0
LINE
  5
268
100
AcDbEntity
  8
0
100
AcDbLine
 62
7
  6
CONTINUOUS
 10
27.3973834598
 20
32.5393802947
 11
27.5140541504
 21
32.528958407
  0
LINE
  5
269
100
AcDbEntity
  8
0
100
AcDbLine
 62
7
  6
CONTINUOUS
 10
27.6872960331
 20
32.4289394221
 11
27.5140541504
 21
32.528958407
  0
LINE
  5
26A
100
AcDbEntity
  8
0
100
AcDbLine
 62
7
  6
CONTINUOUS
 10
16.3653113598
 20
39.4973258117
 11
15.5331851321
 21
39.9777432448
  0
LINE
  5
26B
100
AcDbEntity
  8
0
100
AcDbLine
 62
7
  6
CONTINUOUS
 10
16.3889147142
 20
39.8225034873
 11
15.8266028641
 21
40.1471470409
  0
LINE
  5
26C
100
AcDbEntity
  8
0
100
AcDbLine
 62
7
  6
CONTINUOUS
 10
10.3031113126
 20
43.5309337243
 11
14.6871916085
 21
40.9998410463
  0
LINE
  5
26D
100
AcDbEntity
  8
0
100
AcDbLine
 62
7
  6
CONTINUOUS
 10
52.9407660027
 20
19.1332831069
 11
55.6992181654
 21
17.5407260367
  0
LINE
  5
26E
100
AcDbEntity
  8
0
100
AcDbLine
 62
7
  6
CONTINUOUS
 10
10.6566632345
 20
43.7350558032
 11
15.0407435304
 21
41.2039631252
  0
LINE
  5
26F
100
AcDbEntity
  8
0
100
AcDbLine
 62
7
  6
CONTINUOUS
 10
16.4111009274
 20
40.4846051423
 11
16.7326915062
 21
40.2989389353
  0
LINE
  5
270
100
AcDbEntity
  8
0
100
AcDbLine
 62
7
  6
CONTINUOUS
 10
11.332742845
 20
43.9008500536
 11
15.7168231409
 21
41.3697573756
  0
LINE
  5
271
100
AcDbEntity
  8
0
100
AcDbLine
 62
7
  6
CONTINUOUS
 10
11.3496828263
 20
43.941650129
 11
15.7337631223
 21
41.4105574509
  0
LINE
  5
272
100
AcDbEntity
  8
0
100
AcDbLine
 62
7
  6
CONTINUOUS
 10
15.7478473676
 20
41.5221106575
 11
11.3637670717
 21
44.0532033355
  0
LINE
  5
273
100
AcDbEntity
  8
0
100
AcDbLine
 62
7
  6
CONTINUOUS
 10
38.9501655621
 20
15.5980806589
 11
39.0115095466
 21
15.5246544734
  0
LINE
  5
274
100
AcDbEntity
  8
0
100
AcDbLine
 62
7
  6
CONTINUOUS
 10
15.7168231443
 20
46.4728974846
 11
15.7337631227
 21
46.4516578985
  0
LINE
  5
275
100
AcDbEntity
  8
0
100
AcDbLine
 62
7
  6
CONTINUOUS
 10
17.3741911871
 20
48.1442131378
 11
17.2706296028
 21
48.3730969448
  0
LINE
  5
276
100
AcDbEntity
  8
0
100
AcDbLine
 62
7
  6
CONTINUOUS
 10
42.2642181738
 20
80.1916037072
 11
39.7893547436
 21
78.7627491686
  0
LINE
  5
277
100
AcDbEntity
  8
0
100
AcDbLine
 62
7
  6
CONTINUOUS
 10
41.910683919
 20
77.5380269051
 11
44.3855473492
 21
78.9668814436
  0
LINE
  5
278
100
AcDbEntity
  8
0
100
AcDbLine
 62
7
  6
CONTINUOUS
 10
9.2424555601
 20
48.2797431098
 11
13.626535856
 21
45.7486504318
  0
LINE
  5
279
100
AcDbEntity
  8
0
100
AcDbLine
 62
7
  6
CONTINUOUS
 10
9.2424555601
 20
48.9198602614
 11
13.626535856
 21
46.3887675833
  0
LINE
  5
27A
100
AcDbEntity
  8
0
100
AcDbLine
 62
7
  6
CONTINUOUS
 10
54.4491208932
 20
23.2379027742
 11
56.8490172196
 21
21.8523533294
  0
LINE
  5
27B
100
AcDbEntity
  8
0
100
AcDbLine
 62
7
  6
CONTINUOUS
 10
15.6594571157
 20
46.4397773903
 11
15.7478473676
 21
46.388746409
  0
LINE
  5
27C
100
AcDbEntity
  8
0
100
AcDbLine
 62
7
  6
CONTINUOUS
 10
15.7337631227
 20
46.4516578985
 11
15.7118610886
 21
46.4643027577
  0
LINE
  5
27D
100
AcDbEntity
  8
0
100
AcDbLine
 62
7
  6
CONTINUOUS
 10
54.7385949189
 20
24.3234003707
 11
56.7799354096
 21
23.1448585511
  0
LINE
  5
27E
100
AcDbEntity
  8
0
100
AcDbLine
 62
7
  6
CONTINUOUS
 10
23.1724051483
 20
11.6872133717
 11
23.1724051483
 21
13.9203204698
  0
LINE
  5
27F
100
AcDbEntity
  8
0
100
AcDbLine
 62
7
  6
CONTINUOUS
 10
23.1724051483
 20
55.8599941403
 11
23.1724051483
 21
62.3103632387
  0
LINE
  5
280
100
AcDbEntity
  8
0
100
AcDbLine
 62
7
  6
CONTINUOUS
 10
15.9811826756
 20
24.2919397855
 11
15.8954398469
 21
23.9730574179
  0
LINE
  5
281
100
AcDbEntity
  8
0
100
AcDbLine
 62
7
  6
CONTINUOUS
 10
15.7337631223
 20
41.4105574509
 11
15.7168231409
 21
41.3697573756
  0
LINE
  5
282
100
AcDbEntity
  8
0
100
AcDbLine
 62
7
  6
CONTINUOUS
 10
23.1724051483
 20
62.3103632387
 11
23.5259570635
 21
62.9227365183
  0
LINE
  5
283
100
AcDbEntity
  8
0
100
AcDbLine
 62
7
  6
CONTINUOUS
 10
9.2424555601
 20
42.2114556622
 11
10.3031113126
 21
43.5309337243
  0
LINE
  5
284
100
AcDbEntity
  8
0
100
AcDbLine
 62
7
  6
CONTINUOUS
 10
41.6985621833
 20
76.1091778024
 11
45.870474829
 21
78.5178183138
  0
LINE
  5
285
100
AcDbEntity
  8
0
100
AcDbLine
 62
7
  6
CONTINUOUS
 10
38.2273769421
 20
73.8674035937
 11
38.8604010952
 21
74.2328780773
  0
LINE
  5
286
100
AcDbEntity
  8
0
100
AcDbLine
 62
7
  6
CONTINUOUS
 10
51.4753223488
 20
81.3455080121
 11
46.2240267476
 21
78.3136891822
  0
LINE
  5
287
100
AcDbEntity
  8
0
100
AcDbLine
 62
7
  6
CONTINUOUS
 10
39.0485950705
 20
74.1582876992
 11
38.1983696378
 21
73.6674127469
  0
LINE
  5
288
100
AcDbEntity
  8
0
100
AcDbLine
 62
7
  6
CONTINUOUS
 10
38.1983696378
 20
73.447686499
 11
39.0485942636
 21
73.9385609854
  0
LINE
  5
289
100
AcDbEntity
  8
0
100
AcDbLine
 62
7
  6
CONTINUOUS
 10
38.2128735406
 20
73.2393224383
 11
39.4033609949
 21
73.9266465877
  0
LINE
  5
28A
100
AcDbEntity
  8
0
100
AcDbLine
 62
7
  6
CONTINUOUS
 10
39.077833195
 20
73.7052098756
 11
38.2273769421
 21
73.21420166
  0
LINE
  5
28B
100
AcDbEntity
  8
0
100
AcDbLine
 62
7
  6
CONTINUOUS
 10
23.5259570635
 20
62.9227365183
 11
27.6978697118
 21
65.3313770312
  0
LINE
  5
28C
100
AcDbEntity
  8
0
100
AcDbLine
 62
7
  6
CONTINUOUS
 10
28.0514216304
 20
65.1272478996
 11
33.3027172272
 21
68.1590667269
  0
LINE
  5
28D
100
AcDbEntity
  8
0
100
AcDbLine
 62
7
  6
CONTINUOUS
 10
13.3765455209
 20
37.6274371631
 11
13.626535856
 21
37.652191712
  0
LINE
  5
28E
100
AcDbEntity
  8
0
100
AcDbLine
 62
7
  6
CONTINUOUS
 10
61.8510215491
 20
21.6073372559
 11
64.7501431889
 21
19.9335664626
  0
LINE
  5
28F
100
AcDbEntity
  8
0
100
AcDbLine
 62
7
  6
CONTINUOUS
 10
17.3741910768
 20
47.7381268781
 11
17.5156117999
 21
47.6564794327
  0
LINE
  5
290
100
AcDbEntity
  8
0
100
AcDbLine
 62
7
  6
CONTINUOUS
 10
62.1083225726
 20
22.0487996986
 11
64.7501431889
 21
20.5235783597
  0
LINE
  5
291
100
AcDbEntity
  8
0
100
AcDbLine
 62
7
  6
CONTINUOUS
 10
12.6365589696
 20
50.8794350738
 11
17.0206392655
 21
48.3483423957
  0
LINE
  5
292
100
AcDbEntity
  8
0
100
AcDbLine
 62
7
  6
CONTINUOUS
 10
64.8626847964
 20
20.8048325537
 11
62.4723611303
 21
22.1848553455
  0
LINE
  5
293
100
AcDbEntity
  8
0
100
AcDbLine
 62
7
  6
CONTINUOUS
 10
17.2706350259
 20
48.3731063382
 11
12.88655473
 21
50.9041990163
  0
LINE
  5
294
100
AcDbEntity
  8
0
100
AcDbLine
 62
7
  6
CONTINUOUS
 10
27.6872960331
 20
44.1865742288
 11
27.5140541504
 21
44.2865932137
  0
LINE
  5
295
100
AcDbEntity
  8
0
100
AcDbLine
 62
7
  6
CONTINUOUS
 10
64.7103551743
 20
23.0212824791
 11
66.0728436862
 21
22.2346671656
  0
LINE
  5
296
100
AcDbEntity
  8
0
100
AcDbLine
 62
7
  6
CONTINUOUS
 10
27.3973834598
 20
42.9877177351
 11
27.3973834598
 21
32.4548365541
  0
LINE
  5
297
100
AcDbEntity
  8
0
100
AcDbLine
 62
7
  6
CONTINUOUS
 10
27.3973834598
 20
31.2300829284
 11
27.3973834598
 21
27.1720659153
  0
LINE
  5
298
100
AcDbEntity
  8
0
100
AcDbLine
 62
7
  6
CONTINUOUS
 10
27.3973834598
 20
25.9473122896
 11
27.3973834598
 21
25.1820143289
  0
LINE
  5
299
100
AcDbEntity
  8
0
100
AcDbLine
 62
7
  6
CONTINUOUS
 10
27.3973834598
 20
44.2124713608
 11
27.3973834598
 21
46.3375990123
  0
LINE
  5
29A
100
AcDbEntity
  8
0
100
AcDbLine
 62
7
  6
CONTINUOUS
 10
27.5564854442
 20
9.1561206937
 11
27.5564854442
 21
16.4537891986
  0
LINE
  5
29B
100
AcDbEntity
  8
0
100
AcDbLine
 62
7
  6
CONTINUOUS
 10
27.5564854442
 20
53.3289014622
 11
27.5564854442
 21
59.7792705607
  0
LINE
  5
29C
100
AcDbEntity
  8
0
100
AcDbLine
 62
7
  6
CONTINUOUS
 10
27.6872960331
 20
44.1865742288
 11
27.6872960331
 21
43.3483750732
  0
LINE
  5
29D
100
AcDbEntity
  8
0
100
AcDbLine
 62
7
  6
CONTINUOUS
 10
27.6872960331
 20
32.4289394221
 11
27.6872960331
 21
31.5907402665
  0
LINE
  5
29E
100
AcDbEntity
  8
0
100
AcDbLine
 62
7
  6
CONTINUOUS
 10
27.6872960331
 20
27.1461687833
 11
27.6872960331
 21
26.3079696277
  0
LINE
  5
29F
100
AcDbEntity
  8
0
100
AcDbLine
 62
7
  6
CONTINUOUS
 10
28.122168514
 20
25.1922225234
 11
28.122168514
 21
46.7560513606
  0
LINE
  5
2A0
100
AcDbEntity
  8
0
100
AcDbLine
 62
7
  6
CONTINUOUS
 10
28.4756933481
 20
62.0246048206
 11
28.4756933481
 21
64.4740697439
  0
LINE
  5
2A1
100
AcDbEntity
  8
0
100
AcDbLine
 62
7
  6
CONTINUOUS
 10
36.960929974
 20
78.0278972041
 11
37.3144818874
 21
78.6402704805
  0
LINE
  5
2A2
100
AcDbEntity
  8
0
100
AcDbLine
 62
7
  6
CONTINUOUS
 10
27.9100373595
 20
60.3916438403
 11
27.5564854442
 21
59.7792705607
  0
LINE
  5
2A3
100
AcDbEntity
  8
0
100
AcDbLine
 62
7
  6
CONTINUOUS
 10
14.6871916085
 20
40.9998410463
 11
13.626535856
 21
39.6803629841
  0
LINE
  5
2A4
100
AcDbEntity
  8
0
100
AcDbLine
 62
7
  6
CONTINUOUS
 10
28.4756933481
 20
64.4740697439
 11
26.0008299179
 21
63.0452152054
  0
LINE
  5
2A5
100
AcDbEntity
  8
0
100
AcDbLine
 62
7
  6
CONTINUOUS
 10
28.1221590933
 20
61.8204929418
 11
30.5970225236
 21
63.2493474804
  0
LINE
  5
2A6
100
AcDbEntity
  8
0
100
AcDbLine
 62
7
  6
CONTINUOUS
 10
27.9100373595
 20
60.3916438403
 11
32.0819500077
 21
62.8002843532
  0
LINE
  5
2A7
100
AcDbEntity
  8
0
100
AcDbLine
 62
7
  6
CONTINUOUS
 10
24.3681417327
 20
58.1090452151
 11
25.0718762695
 21
58.5153441141
  0
LINE
  5
2A8
100
AcDbEntity
  8
0
100
AcDbLine
 62
7
  6
CONTINUOUS
 10
32.4355019263
 20
62.5961552215
 11
37.6867975231
 21
65.6279740489
  0
LINE
  5
2A9
100
AcDbEntity
  8
0
100
AcDbLine
 62
7
  6
CONTINUOUS
 10
25.1893598611
 20
58.3999293206
 11
24.3391344284
 21
57.9090543683
  0
LINE
  5
2AA
100
AcDbEntity
  8
0
100
AcDbLine
 62
7
  6
CONTINUOUS
 10
16.3654785962
 20
39.497615964
 11
16.4903092393
 21
39.5097077829
  0
LINE
  5
2AB
100
AcDbEntity
  8
0
100
AcDbLine
 62
7
  6
CONTINUOUS
 10
16.6312969813
 20
40.611734635
 11
16.7561277366
 21
40.623826643
  0
LINE
  5
2AC
100
AcDbEntity
  8
0
100
AcDbLine
 62
7
  6
CONTINUOUS
 10
27.6872960331
 20
44.1865742288
 11
27.3973834598
 21
44.2124713608
  0
LINE
  5
2AD
100
AcDbEntity
  8
0
100
AcDbLine
 62
7
  6
CONTINUOUS
 10
27.3973834598
 20
44.2970151013
 11
27.5140541504
 21
44.2865932137
  0
LINE
  5
2AE
100
AcDbEntity
  8
0
100
AcDbLine
 62
7
  6
CONTINUOUS
 10
13.626535856
 20
45.7486504318
 11
14.6871916136
 21
45.6539048269
  0
LINE
  5
2AF
100
AcDbEntity
  8
0
100
AcDbLine
 62
7
  6
CONTINUOUS
 10
64.9297574848
 20
23.1032818241
 11
66.2527383907
 21
22.3394757216
  0
LINE
  5
2B0
100
AcDbEntity
  8
0
100
AcDbLine
 62
7
  6
CONTINUOUS
 10
66.5179027819
 20
22.7297399253
 11
65.5010609106
 21
23.3168005724
  0
LINE
  5
2B1
100
AcDbEntity
  8
0
100
AcDbLine
 62
7
  6
CONTINUOUS
 10
66.3017918979
 20
23.6160654995
 11
66.5179027819
 21
23.4912966451
  0
LINE
  5
2B2
100
AcDbEntity
  8
0
100
AcDbLine
 62
7
  6
CONTINUOUS
 10
63.6987770567
 20
26.4313829926
 11
66.8100598474
 21
24.6351236727
  0
LINE
  5
2B3
100
AcDbEntity
  8
0
100
AcDbLine
 62
7
  6
CONTINUOUS
 10
67.2250054128
 20
25.2767401347
 11
64.1137226222
 21
27.0729994546
  0
LINE
  5
2B4
100
AcDbEntity
  8
0
100
AcDbLine
 62
7
  6
CONTINUOUS
 10
50.7494547997
 20
93.7454311579
 11
51.1030067212
 21
94.3578044484
  0
LINE
  5
2B5
100
AcDbEntity
  8
0
100
AcDbLine
 62
7
  6
CONTINUOUS
 10
41.6985621833
 20
76.1091778024
 11
41.3450102699
 21
75.496804526
  0
LINE
  5
2B6
100
AcDbEntity
  8
0
100
AcDbLine
 62
7
  6
CONTINUOUS
 10
16.7326915062
 20
40.2989389353
 11
16.3889147142
 21
39.8225034873
  0
LINE
  5
2B7
100
AcDbEntity
  8
0
100
AcDbLine
 62
7
  6
CONTINUOUS
 10
16.5917037643
 20
39.6051632881
 11
17.1703398441
 21
40.4070869328
  0
LINE
  5
2B8
100
AcDbEntity
  8
0
100
AcDbLine
 62
7
  6
CONTINUOUS
 10
52.4513590748
 20
80.3832857909
 11
52.8795426291
 21
80.810490215
  0
LINE
  5
2B9
100
AcDbEntity
  8
0
100
AcDbLine
 62
7
  6
CONTINUOUS
 10
38.6628241138
 20
64.6657781508
 11
39.0910178015
 21
65.0929562496
  0
LINE
  5
2BA
100
AcDbEntity
  8
0
100
AcDbLine
 62
7
  6
CONTINUOUS
 10
24.3391344284
 20
57.6893281204
 11
25.1893590542
 21
58.1802026068
  0
LINE
  5
2BB
100
AcDbEntity
  8
0
100
AcDbLine
 62
7
  6
CONTINUOUS
 10
9.2424555601
 20
48.9198602614
 11
12.6365589696
 21
50.8794350738
  0
LINE
  5
2BC
100
AcDbEntity
  8
0
100
AcDbLine
 62
7
  6
CONTINUOUS
 10
24.3536383312
 20
57.4809640597
 11
25.6148361693
 21
58.2091126245
  0
LINE
  5
2BD
100
AcDbEntity
  8
0
100
AcDbLine
 62
7
  6
CONTINUOUS
 10
25.2185979856
 20
57.946851497
 11
24.3681417327
 21
57.4558432814
  0
LINE
  5
2BE
100
AcDbEntity
  8
0
100
AcDbLine
 62
7
  6
CONTINUOUS
 10
13.7376169335
 20
50.4128491398
 11
23.1724051483
 21
55.8599941403
  0
LINE
  5
2BF
100
AcDbEntity
  8
0
100
AcDbLine
 62
7
  6
CONTINUOUS
 10
66.9328471407
 20
44.5793729473
 11
67.1214135902
 21
44.574831798
  0
LINE
  5
2C0
100
AcDbEntity
  8
0
100
AcDbLine
 62
7
  6
CONTINUOUS
 10
25.1616407365
 20
57.8522183118
 11
25.2229847209
 21
57.7787921263
  0
LINE
  5
2C1
100
AcDbEntity
  8
0
100
AcDbLine
 62
7
  6
CONTINUOUS
 10
55.4870870171
 20
91.8267117704
 11
55.1335350956
 21
91.2143384799
  0
LINE
  5
2C2
100
AcDbEntity
  8
0
100
AcDbLine
 62
7
  6
CONTINUOUS
 10
57.263622925
 20
78.2793975369
 11
54.8050747473
 21
75.8264713382
  0
LINE
  5
2C3
100
AcDbEntity
  8
0
100
AcDbLine
 62
7
  6
CONTINUOUS
 10
17.0206392655
 20
48.3483423957
 11
13.626535856
 21
46.3887675833
  0
LINE
  5
2C4
100
AcDbEntity
  8
0
100
AcDbLine
 62
7
  6
CONTINUOUS
 10
10.3031113126
 20
43.5309337243
 11
10.6566632345
 21
43.7350558032
  0
LINE
  5
2C5
100
AcDbEntity
  8
0
100
AcDbLine
 62
7
  6
CONTINUOUS
 10
17.3741910325
 20
47.5748306532
 11
17.5156117999
 21
47.6564794327
  0
LINE
  5
2C6
100
AcDbEntity
  8
0
100
AcDbLine
 62
7
  6
CONTINUOUS
 10
17.5156129357
 20
47.5318356204
 11
27.5564854442
 21
53.3289014622
  0
LINE
  5
2C7
100
AcDbEntity
  8
0
100
AcDbLine
 62
7
  6
CONTINUOUS
 10
15.7168231443
 20
46.4728974846
 11
15.0407435304
 21
46.0825650675
  0
LINE
  5
2C8
100
AcDbEntity
  8
0
100
AcDbLine
 62
7
  6
CONTINUOUS
 10
10.8511217692
 20
43.6227876557
 11
11.332742845
 21
43.9008500536
  0
LINE
  5
2C9
100
AcDbEntity
  8
0
100
AcDbLine
 62
7
  6
CONTINUOUS
 10
15.0407435304
 20
45.8580269028
 11
14.6871916136
 21
45.6539048269
  0
LINE
  5
2CA
100
AcDbEntity
  8
0
100
AcDbLine
 62
7
  6
CONTINUOUS
 10
17.2706296028
 20
48.3730969448
 11
17.0206392655
 21
48.3483423957
  0
LINE
  5
2CB
100
AcDbEntity
  8
0
100
AcDbLine
 62
7
  6
CONTINUOUS
 10
23.1724051483
 20
55.8599941403
 11
27.5564854442
 21
53.3289014622
  0
LINE
  5
2CC
100
AcDbEntity
  8
0
100
AcDbLine
 62
7
  6
CONTINUOUS
 10
26.3829378387
 20
57.1091080318
 11
25.2255237962
 21
57.7773262237
  0
LINE
  5
2CD
100
AcDbEntity
  8
0
100
AcDbLine
 62
7
  6
CONTINUOUS
 10
25.2255237962
 20
58.4305281574
 11
25.6349354597
 21
58.1941595706
  0
LINE
  5
2CE
100
AcDbEntity
  8
0
100
AcDbLine
 62
7
  6
CONTINUOUS
 10
36.960929974
 20
11.8912014073
 11
36.960929974
 21
14.5857468651
  0
LINE
  5
2CF
100
AcDbEntity
  8
0
100
AcDbLine
 62
7
  6
CONTINUOUS
 10
36.960929974
 20
72.1725208267
 11
36.960929974
 21
78.0278972041
  0
LINE
  5
2D0
100
AcDbEntity
  8
0
100
AcDbLine
 62
7
  6
CONTINUOUS
 10
38.6073302896
 20
66.3482233953
 11
38.6764121
 21
67.7204969505
  0
LINE
  5
2D1
100
AcDbEntity
  8
0
100
AcDbLine
 62
7
  6
CONTINUOUS
 10
27.3973834598
 20
42.9877177351
 11
27.6872960331
 21
43.3483750732
  0
LINE
  5
2D2
100
AcDbEntity
  8
0
100
AcDbLine
 62
7
  6
CONTINUOUS
 10
43.4750980975
 20
62.5618635716
 11
41.0164916932
 21
60.1090884846
  0
LINE
  5
2D3
100
AcDbEntity
  8
0
100
AcDbLine
 62
7
  6
CONTINUOUS
 10
8.8889036415
 20
40.5507140131
 11
9.2424555601
 21
40.7548360901
  0
LINE
  5
2D4
100
AcDbEntity
  8
0
100
AcDbLine
 62
7
  6
CONTINUOUS
 10
64.5380161305
 20
72.0772978215
 11
65.3865419415
 21
72.5671915026
  0
LINE
  5
2D5
100
AcDbEntity
  8
0
100
AcDbLine
 62
7
  6
CONTINUOUS
 10
67.2720679971
 20
72.022789146
 11
65.7400926538
 21
71.1383080488
  0
LINE
  5
2D6
100
AcDbEntity
  8
0
100
AcDbLine
 62
7
  6
CONTINUOUS
 10
14.6871916085
 20
40.9998410463
 11
15.0407435304
 21
41.2039631252
  0
LINE
  5
2D7
100
AcDbEntity
  8
0
100
AcDbLine
 62
7
  6
CONTINUOUS
 10
15.0407435304
 20
40.9794249605
 11
15.7168231409
 21
41.3697573756
  0
LINE
  5
2D8
100
AcDbEntity
  8
0
100
AcDbLine
 62
7
  6
CONTINUOUS
 10
12.6365589696
 20
50.8794350738
 11
12.8865493068
 21
50.9041896229
  0
LINE
  5
2D9
100
AcDbEntity
  8
0
100
AcDbLine
 62
7
  6
CONTINUOUS
 10
67.9841366368
 20
45.5978764114
 11
65.7957645754
 21
46.1038112817
  0
LINE
  5
2DA
100
AcDbEntity
  8
0
100
AcDbLine
 62
7
  6
CONTINUOUS
 10
64.5380161305
 20
47.4715476482
 11
64.8728538462
 21
47.3941357313
  0
LINE
  5
2DB
100
AcDbEntity
  8
0
100
AcDbLine
 62
7
  6
CONTINUOUS
 10
23.1724051483
 20
62.3103632387
 11
27.5564854442
 21
59.7792705607
  0
LINE
  5
2DC
100
AcDbEntity
  8
0
100
AcDbLine
 62
7
  6
CONTINUOUS
 10
23.5259570635
 20
62.9227365183
 11
27.9100373595
 21
60.3916438403
  0
LINE
  5
2DD
100
AcDbEntity
  8
0
100
AcDbLine
 62
7
  6
CONTINUOUS
 10
42.991410584
 20
22.9408705022
 11
43.0604923933
 21
21.6483652944
  0
LINE
  5
2DE
100
AcDbEntity
  8
0
100
AcDbLine
 62
7
  6
CONTINUOUS
 10
41.3450102699
 20
9.3601087293
 11
41.3450102699
 21
15.2154851176
  0
LINE
  5
2DF
100
AcDbEntity
  8
0
100
AcDbLine
 62
7
  6
CONTINUOUS
 10
41.3450102699
 20
69.6414281486
 11
41.3450102699
 21
75.496804526
  0
LINE
  5
2E0
100
AcDbEntity
  8
0
100
AcDbLine
 62
7
  6
CONTINUOUS
 10
42.2642181738
 20
77.7421387839
 11
42.2642181738
 21
80.1916037072
  0
LINE
  5
2E1
100
AcDbEntity
  8
0
100
AcDbLine
 62
7
  6
CONTINUOUS
 10
43.0604923959
 20
65.1894042724
 11
42.9914105855
 21
63.8171307173
  0
LINE
  5
2E2
100
AcDbEntity
  8
0
100
AcDbLine
 62
7
  6
CONTINUOUS
 10
16.6312969763
 20
40.6117346321
 11
14.545773793
 21
39.4076644427
  0
LINE
  5
2E3
100
AcDbEntity
  8
0
100
AcDbLine
 62
7
  6
CONTINUOUS
 10
28.122168514
 20
46.7560513606
 11
17.3741901884
 21
40.5507402217
  0
LINE
  5
2E4
100
AcDbEntity
  8
0
100
AcDbLine
 62
7
  6
CONTINUOUS
 10
13.2729839374
 20
38.0196213351
 11
13.626535856
 21
38.223743412
  0
LINE
  5
2E5
100
AcDbEntity
  8
0
100
AcDbLine
 62
7
  6
CONTINUOUS
 10
13.9800905677
 20
37.856315423
 11
13.626535856
 21
37.652191712
  0
LINE
  5
2E6
100
AcDbEntity
  8
0
100
AcDbLine
 62
7
  6
CONTINUOUS
 10
68.0784431357
 20
45.5607221469
 11
67.9841366368
 21
45.5978764114
  0
LINE
  5
2E7
100
AcDbEntity
  8
0
100
AcDbLine
 62
7
  6
CONTINUOUS
 10
64.8728538462
 20
47.3941357313
 11
64.967160345
 21
47.3569814668
  0
LINE
  5
2E8
100
AcDbEntity
  8
0
100
AcDbLine
 62
7
  6
CONTINUOUS
 10
26.0008299179
 20
63.0452152054
 11
28.1221590933
 21
61.8204929418
  0
LINE
  5
2E9
100
AcDbEntity
  8
0
100
AcDbLine
 62
7
  6
CONTINUOUS
 10
30.5970225236
 20
63.2493474804
 11
28.4756933481
 21
64.4740697439
  0
LINE
  5
2EA
100
AcDbEntity
  8
0
100
AcDbLine
 62
7
  6
CONTINUOUS
 10
63.6662692877
 20
44.4112544675
 11
63.9016173939
 21
44.275379249
  0
LINE
  5
2EB
100
AcDbEntity
  8
0
100
AcDbLine
 62
7
  6
CONTINUOUS
 10
27.6978697118
 20
65.3313770312
 11
32.4355019263
 21
62.5961552215
  0
LINE
  5
2EC
100
AcDbEntity
  8
0
100
AcDbLine
 62
7
  6
CONTINUOUS
 10
39.7381911091
 20
61.8749828015
 11
38.3512577862
 21
65.474355931
  0
LINE
  5
2ED
100
AcDbEntity
  8
0
100
AcDbLine
 62
7
  6
CONTINUOUS
 10
39.0910178015
 20
65.0929562496
 11
38.6073302896
 21
66.3482233953
  0
LINE
  5
2EE
100
AcDbEntity
  8
0
100
AcDbLine
 62
7
  6
CONTINUOUS
 10
41.0164916932
 20
60.1090884846
 11
40.5328041787
 21
61.3643556368
  0
LINE
  5
2EF
100
AcDbEntity
  8
0
100
AcDbLine
 62
7
  6
CONTINUOUS
 10
27.3973834598
 20
31.2300829284
 11
27.6872960331
 21
31.5907402665
  0
LINE
  5
2F0
100
AcDbEntity
  8
0
100
AcDbLine
 62
7
  6
CONTINUOUS
 10
64.5021880926
 20
44.9084252308
 11
64.7501419825
 21
44.7652722243
  0
LINE
  5
2F1
100
AcDbEntity
  8
0
100
AcDbLine
 62
7
  6
CONTINUOUS
 10
64.5380161305
 20
45.6868821353
 11
64.8058191952
 21
45.5322694616
  0
LINE
  5
2F2
100
AcDbEntity
  8
0
100
AcDbLine
 62
7
  6
CONTINUOUS
 10
66.8648206048
 20
44.5539487329
 11
67.2250054128
 21
44.3460006415
  0
LINE
  5
2F3
100
AcDbEntity
  8
0
100
AcDbLine
 62
7
  6
CONTINUOUS
 10
64.5380161305
 20
46.8299562573
 11
65.7957645754
 21
46.1038112817
  0
LINE
  5
2F4
100
AcDbEntity
  8
0
100
AcDbLine
 62
7
  6
CONTINUOUS
 10
64.8728538462
 20
47.3941357313
 11
67.9841366368
 21
45.5978764114
  0
LINE
  5
2F5
100
AcDbEntity
  8
0
100
AcDbLine
 62
7
  6
CONTINUOUS
 10
68.0785500542
 20
45.560907862
 11
64.9672672636
 21
47.3571671819
  0
LINE
  5
2F6
100
AcDbEntity
  8
0
100
AcDbLine
 62
7
  6
CONTINUOUS
 10
40.5328041787
 20
61.3643556368
 11
39.7381911091
 21
61.8749828015
  0
LINE
  5
2F7
100
AcDbEntity
  8
0
100
AcDbLine
 62
7
  6
CONTINUOUS
 10
38.3512577862
 20
65.474355931
 11
38.1868205678
 21
65.6744574036
  0
LINE
  5
2F8
100
AcDbEntity
  8
0
100
AcDbLine
 62
7
  6
CONTINUOUS
 10
38.6764121
 20
67.7204969505
 11
36.960929974
 21
72.1725208267
  0
LINE
  5
2F9
100
AcDbEntity
  8
0
100
AcDbLine
 62
7
  6
CONTINUOUS
 10
42.9914105855
 20
63.8171307173
 11
43.4750980975
 21
62.5618635716
  0
LINE
  5
2FA
100
AcDbEntity
  8
0
100
AcDbLine
 62
7
  6
CONTINUOUS
 10
38.3512577811
 20
15.9256903507
 11
39.7381911042
 21
21.1265465711
  0
LINE
  5
2FB
100
AcDbEntity
  8
0
100
AcDbLine
 62
7
  6
CONTINUOUS
 10
40.532804186
 20
22.5547084201
 11
41.0164916954
 21
24.3684864529
  0
LINE
  5
2FC
100
AcDbEntity
  8
0
100
AcDbLine
 62
7
  6
CONTINUOUS
 10
27.3973834598
 20
25.9473122896
 11
27.6872960331
 21
26.3079696277
  0
LINE
  5
2FD
100
AcDbEntity
  8
0
100
AcDbLine
 62
7
  6
CONTINUOUS
 10
15.0215315174
 20
24.9383246106
 11
15.0145680965
 21
24.9328889098
  0
LINE
  5
2FE
100
AcDbEntity
  8
0
100
AcDbLine
 62
7
  6
CONTINUOUS
 10
15.0215315174
 20
24.9383246106
 11
15.2255113875
 21
25.0872193929
  0
LINE
  5
2FF
100
AcDbEntity
  8
0
100
AcDbLine
 62
7
  6
CONTINUOUS
 10
15.2255113875
 20
25.0872193929
 11
15.2341500698
 21
25.093060002
  0
LINE
  5
300
100
AcDbEntity
  8
0
100
AcDbLine
 62
7
  6
CONTINUOUS
 10
15.1490740989
 20
31.0241270451
 11
15.2904948663
 21
31.1057758758
  0
LINE
  5
301
100
AcDbEntity
  8
0
100
AcDbLine
 62
7
  6
CONTINUOUS
 10
15.3990729796
 20
30.591113697
 11
15.5404937471
 21
30.6727625278
  0
LINE
  5
302
100
AcDbEntity
  8
0
100
AcDbLine
 62
7
  6
CONTINUOUS
 10
33.3027172272
 20
68.1590667269
 11
37.6867975231
 21
65.6279740489
  0
LINE
  5
303
100
AcDbEntity
  8
0
100
AcDbLine
 62
7
  6
CONTINUOUS
 10
39.0910178015
 20
65.0929562496
 11
43.4750980975
 21
62.5618635716
  0
LINE
  5
304
100
AcDbEntity
  8
0
100
AcDbLine
 62
7
  6
CONTINUOUS
 10
38.1868701347
 20
65.6745433633
 11
33.8027898388
 21
68.2056360414
  0
LINE
  5
305
100
AcDbEntity
  8
0
100
AcDbLine
 62
7
  6
CONTINUOUS
 10
38.6073302896
 20
66.3482233953
 11
42.9914105855
 21
63.8171307173
  0
LINE
  5
306
100
AcDbEntity
  8
0
100
AcDbLine
 62
7
  6
CONTINUOUS
 10
41.3450102699
 20
69.6414281486
 11
43.0604923959
 21
65.1894042724
  0
LINE
  5
307
100
AcDbEntity
  8
0
100
AcDbLine
 62
7
  6
CONTINUOUS
 10
50.7494547997
 20
87.8900547807
 11
50.7494547997
 21
93.7454311579
  0
LINE
  5
308
100
AcDbEntity
  8
0
100
AcDbLine
 62
7
  6
CONTINUOUS
 10
52.3958551157
 20
82.0657573578
 11
52.4649369257
 21
83.4380309045
  0
LINE
  5
309
100
AcDbEntity
  8
0
100
AcDbLine
 62
7
  6
CONTINUOUS
 10
43.4750980997
 20
24.7546485584
 11
42.991410584
 21
22.9408705022
  0
LINE
  5
30A
100
AcDbEntity
  8
0
100
AcDbLine
 62
7
  6
CONTINUOUS
 10
43.0604923933
 20
21.6483652944
 11
41.3450102699
 21
15.2154851176
  0
LINE
  5
30B
100
AcDbEntity
  8
0
100
AcDbLine
 62
7
  6
CONTINUOUS
 10
38.6764121
 20
67.7204969505
 11
43.0604923959
 21
65.1894042724
  0
LINE
  5
30C
100
AcDbEntity
  8
0
100
AcDbLine
 62
7
  6
CONTINUOUS
 10
36.960929974
 20
72.1725208267
 11
41.3450102699
 21
69.6414281486
  0
LINE
  5
30D
100
AcDbEntity
  8
0
100
AcDbLine
 62
7
  6
CONTINUOUS
 10
39.0208759459
 20
73.6105766904
 11
39.0822199303
 21
73.537150505
  0
LINE
  5
30E
100
AcDbEntity
  8
0
100
AcDbLine
 62
7
  6
CONTINUOUS
 10
56.7799354096
 20
23.1448585511
 11
56.8490172196
 21
21.8523533294
  0
LINE
  5
30F
100
AcDbEntity
  8
0
100
AcDbLine
 62
7
  6
CONTINUOUS
 10
55.1335350956
 20
85.3589621027
 11
55.1335350956
 21
91.2143384799
  0
LINE
  5
310
100
AcDbEntity
  8
0
100
AcDbLine
 62
7
  6
CONTINUOUS
 10
55.6992181654
 20
15.6062090132
 11
55.6992181654
 21
17.5407260367
  0
LINE
  5
311
100
AcDbEntity
  8
0
100
AcDbLine
 62
7
  6
CONTINUOUS
 10
56.0527429995
 20
93.4596727471
 11
56.0527429995
 21
95.9091376704
  0
LINE
  5
312
100
AcDbEntity
  8
0
100
AcDbLine
 62
7
  6
CONTINUOUS
 10
56.8490172216
 20
80.9069382265
 11
56.7799354116
 21
79.5346646798
  0
LINE
  5
313
100
AcDbEntity
  8
0
100
AcDbLine
 62
7
  6
CONTINUOUS
 10
39.7381911042
 20
21.1265465711
 11
40.532804186
 21
22.5547084201
  0
LINE
  5
314
100
AcDbEntity
  8
0
100
AcDbLine
 62
7
  6
CONTINUOUS
 10
32.0819500013
 20
11.3606320703
 11
32.4355019199
 21
11.9730053558
  0
LINE
  5
315
100
AcDbEntity
  8
0
100
AcDbLine
 62
7
  6
CONTINUOUS
 10
67.2720679971
 20
72.022789146
 11
68.9220611276
 21
74.8806769446
  0
LINE
  5
316
100
AcDbEntity
  8
0
100
AcDbLine
 62
7
  6
CONTINUOUS
 10
12.6382778695
 20
21.3148749619
 11
13.6915585772
 21
21.9229832321
  0
LINE
  5
317
100
AcDbEntity
  8
0
100
AcDbLine
 62
7
  6
CONTINUOUS
 10
13.6915585772
 20
21.5147390782
 11
12.9918327321
 21
21.1107545847
  0
LINE
  5
318
100
AcDbEntity
  8
0
100
AcDbLine
 62
7
  6
CONTINUOUS
 10
13.6915585772
 20
20.6021261942
 11
12.7779836652
 21
20.0746766213
  0
LINE
  5
319
100
AcDbEntity
  8
0
100
AcDbLine
 62
7
  6
CONTINUOUS
 10
13.7486843006
 20
20.5404966655
 11
13.6915689357
 21
20.5077760059
  0
LINE
  5
31A
100
AcDbEntity
  8
0
100
AcDbLine
 62
7
  6
CONTINUOUS
 10
13.7000114093
 20
20.5125802361
 11
13.6928721609
 21
20.5085176668
  0
LINE
  5
31B
100
AcDbEntity
  8
0
100
AcDbLine
 62
7
  6
CONTINUOUS
 10
15.6641095026
 20
24.3461883636
 11
15.6556861806
 21
24.3421303475
  0
LINE
  5
31C
100
AcDbEntity
  8
0
100
AcDbLine
 62
7
  6
CONTINUOUS
 10
15.4247490532
 20
24.2399271831
 11
15.6556861806
 21
24.3421303475
  0
LINE
  5
31D
100
AcDbEntity
  8
0
100
AcDbLine
 62
7
  6
CONTINUOUS
 10
62.2659671121
 20
43.8879060082
 11
64.2890487904
 21
44.6440118673
  0
LINE
  5
31E
100
AcDbEntity
  8
0
100
AcDbLine
 62
7
  6
CONTINUOUS
 10
63.9016173939
 20
44.275379249
 11
61.9398232656
 21
43.542178978
  0
LINE
  5
31F
100
AcDbEntity
  8
0
100
AcDbLine
 62
7
  6
CONTINUOUS
 10
40.1389567947
 20
72.927056994
 11
39.0847590056
 21
73.5356846023
  0
LINE
  5
320
100
AcDbEntity
  8
0
100
AcDbLine
 62
7
  6
CONTINUOUS
 10
18.8161670984
 20
11.2263733661
 11
19.6575967506
 21
11.8891858731
  0
LINE
  5
321
100
AcDbEntity
  8
0
100
AcDbLine
 62
7
  6
CONTINUOUS
 10
16.6688033029
 20
18.9879026612
 11
27.7686136515
 21
25.3963429007
  0
LINE
  5
322
100
AcDbEntity
  8
0
100
AcDbLine
 62
7
  6
CONTINUOUS
 10
28.122168514
 20
25.1922225234
 11
17.0223581655
 21
18.7837822839
  0
LINE
  5
323
100
AcDbEntity
  8
0
100
AcDbLine
 62
7
  6
CONTINUOUS
 10
65.7957645754
 20
46.1038112817
 11
64.8058191952
 21
45.5322694616
  0
LINE
  5
324
100
AcDbEntity
  8
0
100
AcDbLine
 62
7
  6
CONTINUOUS
 10
64.7501419825
 20
44.7652722243
 11
63.9016173939
 21
44.275379249
  0
LINE
  5
325
100
AcDbEntity
  8
0
100
AcDbLine
 62
7
  6
CONTINUOUS
 10
13.9416642775
 20
16.4815959978
 11
12.9129420867
 21
15.8879164292
  0
LINE
  5
326
100
AcDbEntity
  8
0
100
AcDbLine
 62
7
  6
CONTINUOUS
 10
15.4168019701
 20
24.2367038425
 11
15.4247490532
 21
24.2399271831
  0
LINE
  5
327
100
AcDbEntity
  8
0
100
AcDbLine
 62
7
  6
CONTINUOUS
 10
61.8510215491
 20
42.6800931828
 11
66.9328471407
 21
44.5793729473
  0
LINE
  5
328
100
AcDbEntity
  8
0
100
AcDbLine
 62
7
  6
CONTINUOUS
 10
36.960929974
 20
78.0278972041
 11
41.3450102699
 21
75.496804526
  0
LINE
  5
329
100
AcDbEntity
  8
0
100
AcDbLine
 62
7
  6
CONTINUOUS
 10
37.3144818874
 20
78.6402704805
 11
41.6985621833
 21
76.1091778024
  0
LINE
  5
32A
100
AcDbEntity
  8
0
100
AcDbLine
 62
7
  6
CONTINUOUS
 10
39.7893547436
 20
78.7627491686
 11
41.910683919
 21
77.5380269051
  0
LINE
  5
32B
100
AcDbEntity
  8
0
100
AcDbLine
 62
7
  6
CONTINUOUS
 10
53.5267159316
 20
77.5925167639
 11
52.1397826055
 21
81.1918898879
  0
LINE
  5
32C
100
AcDbEntity
  8
0
100
AcDbLine
 62
7
  6
CONTINUOUS
 10
61.8510215491
 20
43.2462895634
 11
61.8510215491
 21
20.6664383998
  0
LINE
  5
32D
100
AcDbEntity
  8
0
100
AcDbLine
 62
7
  6
CONTINUOUS
 10
64.1137226222
 20
27.0729994546
 11
64.1137226222
 21
43.5257543106
  0
LINE
  5
32E
100
AcDbEntity
  8
0
100
AcDbLine
 62
7
  6
CONTINUOUS
 10
64.5380161305
 20
45.0289817507
 11
64.5380161305
 21
72.0772978215
  0
LINE
  5
32F
100
AcDbEntity
  8
0
100
AcDbLine
 62
7
  6
CONTINUOUS
 10
64.7501431889
 20
20.5235783597
 11
64.7501431889
 21
19.9335664626
  0
LINE
  5
330
100
AcDbEntity
  8
0
100
AcDbLine
 62
7
  6
CONTINUOUS
 10
52.1397826068
 20
16.1296783884
 11
53.5267159352
 21
21.3305346238
  0
LINE
  5
331
100
AcDbEntity
  8
0
100
AcDbLine
 62
7
  6
CONTINUOUS
 10
54.3213290121
 20
22.758696464
 11
54.8050165206
 21
24.5724744934
  0
LINE
  5
332
100
AcDbEntity
  8
0
100
AcDbLine
 62
7
  6
CONTINUOUS
 10
57.2636229229
 20
24.9586365986
 11
56.7799354096
 21
23.1448585511
  0
LINE
  5
333
100
AcDbEntity
  8
0
100
AcDbLine
 62
7
  6
CONTINUOUS
 10
56.8490172196
 20
21.8523533294
 11
55.6992181654
 21
17.5407260367
  0
LINE
  5
334
100
AcDbEntity
  8
0
100
AcDbLine
 62
7
  6
CONTINUOUS
 10
14.2629205383
 20
13.5496712045
 11
15.2914262928
 21
14.1437256541
  0
LINE
  5
335
100
AcDbEntity
  8
0
100
AcDbLine
 62
7
  6
CONTINUOUS
 10
44.3855473492
 20
78.9668814436
 11
42.2642181738
 21
80.1916037072
  0
LINE
  5
336
100
AcDbEntity
  8
0
100
AcDbLine
 62
7
  6
CONTINUOUS
 10
41.4863945331
 20
81.0489109919
 11
46.2240267476
 21
78.3136891822
  0
LINE
  5
337
100
AcDbEntity
  8
0
100
AcDbLine
 62
7
  6
CONTINUOUS
 10
52.8795426291
 20
80.810490215
 11
52.3958551157
 21
82.0657573578
  0
LINE
  5
338
100
AcDbEntity
  8
0
100
AcDbLine
 62
7
  6
CONTINUOUS
 10
54.8050747473
 20
75.8264713382
 11
54.3213290085
 21
77.0818895944
  0
LINE
  5
339
100
AcDbEntity
  8
0
100
AcDbLine
 62
7
  6
CONTINUOUS
 10
52.4649369257
 20
83.4380309045
 11
50.7494547997
 21
87.8900547807
  0
LINE
  5
33A
100
AcDbEntity
  8
0
100
AcDbLine
 62
7
  6
CONTINUOUS
 10
56.7799354116
 20
79.5346646798
 11
57.263622925
 21
78.2793975369
  0
LINE
  5
33B
100
AcDbEntity
  8
0
100
AcDbLine
 62
7
  6
CONTINUOUS
 10
65.3865407352
 20
71.6412978075
 11
65.3865419415
 21
72.5671915026
  0
LINE
  5
33C
100
AcDbEntity
  8
0
100
AcDbLine
 62
7
  6
CONTINUOUS
 10
66.5179027819
 20
23.4912966451
 11
66.5179027819
 21
22.7297399253
  0
LINE
  5
33D
100
AcDbEntity
  8
0
100
AcDbLine
 62
7
  6
CONTINUOUS
 10
67.2250054128
 20
44.3460006415
 11
67.2250054128
 21
25.2767401347
  0
LINE
  5
33E
100
AcDbEntity
  8
0
100
AcDbLine
 62
7
  6
CONTINUOUS
 10
68.2856623749
 20
23.1995408576
 11
68.2856623749
 21
45.1031217142
  0
LINE
  5
33F
100
AcDbEntity
  8
0
100
AcDbLine
 62
7
  6
CONTINUOUS
 10
64.8058191952
 20
45.5322694616
 11
64.7501419825
 21
44.7652722243
  0
LINE
  5
340
100
AcDbEntity
  8
0
100
AcDbLine
 62
7
  6
CONTINUOUS
 10
53.5267159352
 20
21.3305346238
 11
54.3213290121
 21
22.758696464
  0
LINE
  5
341
100
AcDbEntity
  8
0
100
AcDbLine
 62
7
  6
CONTINUOUS
 10
45.8704748265
 20
11.5646201078
 11
46.2240267451
 21
12.1769933933
  0
LINE
  5
342
100
AcDbEntity
  8
0
100
AcDbLine
 62
7
  6
CONTINUOUS
 10
27.5564854442
 20
16.4537891986
 11
19.6575967506
 21
11.8891858731
  0
LINE
  5
343
100
AcDbEntity
  8
0
100
AcDbLine
 62
7
  6
CONTINUOUS
 10
18.8161670984
 20
11.2263733661
 11
17.9315805336
 21
10.72116652
  0
LINE
  5
344
100
AcDbEntity
  8
0
100
AcDbLine
 62
7
  6
CONTINUOUS
 10
64.5380161305
 20
71.8323115526
 11
65.7400926538
 21
71.1383080488
  0
LINE
  5
345
100
AcDbEntity
  8
0
100
AcDbLine
 62
7
  6
CONTINUOUS
 10
64.5846824139
 20
72.1042404519
 11
65.3865407352
 21
71.6412978075
  0
LINE
  5
346
100
AcDbEntity
  8
0
100
AcDbLine
 62
7
  6
CONTINUOUS
 10
54.3213290085
 20
77.0818895944
 11
53.5267159316
 21
77.5925167639
  0
LINE
  5
347
100
AcDbEntity
  8
0
100
AcDbLine
 62
7
  6
CONTINUOUS
 10
52.1397826055
 20
81.1918898879
 11
51.9752608475
 21
81.3949439552
  0
LINE
  5
348
100
AcDbEntity
  8
0
100
AcDbLine
 62
7
  6
CONTINUOUS
 10
55.1335350956
 20
85.3589621027
 11
56.8490172216
 21
80.9069382265
  0
LINE
  5
349
100
AcDbEntity
  8
0
100
AcDbLine
 62
7
  6
CONTINUOUS
 10
68.9220611276
 20
89.1161600767
 11
68.9220611276
 21
74.8806769446
  0
LINE
  5
34A
100
AcDbEntity
  8
0
100
AcDbLine
 62
7
  6
CONTINUOUS
 10
38.3643588644
 20
15.9748180551
 11
38.8604010952
 21
16.2612064611
  0
LINE
  5
34B
100
AcDbEntity
  8
0
100
AcDbLine
 62
7
  6
CONTINUOUS
 10
38.9778846868
 20
16.1457916676
 11
38.2571067103
 21
15.7296527929
  0
LINE
  5
34C
100
AcDbEntity
  8
0
100
AcDbLine
 62
7
  6
CONTINUOUS
 10
47.0912420529
 20
83.8766006901
 11
51.4753223488
 21
81.3455080121
  0
LINE
  5
34D
100
AcDbEntity
  8
0
100
AcDbLine
 62
7
  6
CONTINUOUS
 10
52.8795426291
 20
80.810490215
 11
57.263622925
 21
78.2793975369
  0
LINE
  5
34E
100
AcDbEntity
  8
0
100
AcDbLine
 62
7
  6
CONTINUOUS
 10
51.9753138643
 20
81.3950358966
 11
47.5912335684
 21
83.9261285746
  0
LINE
  5
34F
100
AcDbEntity
  8
0
100
AcDbLine
 62
7
  6
CONTINUOUS
 10
52.3958551157
 20
82.0657573578
 11
56.7799354116
 21
79.5346646798
  0
LINE
  5
350
100
AcDbEntity
  8
0
100
AcDbLine
 62
7
  6
CONTINUOUS
 10
52.4649369257
 20
83.4380309045
 11
56.8490172216
 21
80.9069382265
  0
LINE
  5
351
100
AcDbEntity
  8
0
100
AcDbLine
 62
7
  6
CONTINUOUS
 10
52.7386903878
 20
89.2872862383
 11
52.8000343722
 21
89.2138600528
  0
LINE
  5
352
100
AcDbEntity
  8
0
100
AcDbLine
 62
7
  6
CONTINUOUS
 10
65.3865407352
 20
71.6412978075
 11
65.7400926538
 21
71.1383080488
  0
LINE
  5
353
100
AcDbEntity
  8
0
100
AcDbLine
 62
7
  6
CONTINUOUS
 10
38.1276592541
 20
15.4351904674
 11
38.9778838799
 21
15.9260649538
  0
LINE
  5
354
100
AcDbEntity
  8
0
100
AcDbLine
 62
7
  6
CONTINUOUS
 10
37.6867975231
 20
15.0048241884
 11
32.4355019199
 21
11.9730053558
  0
LINE
  5
355
100
AcDbEntity
  8
0
100
AcDbLine
 62
7
  6
CONTINUOUS
 10
38.1421631569
 20
15.2268264067
 11
39.4004606468
 21
15.9533004648
  0
LINE
  5
356
100
AcDbEntity
  8
0
100
AcDbLine
 62
7
  6
CONTINUOUS
 10
39.0071228112
 20
15.692713844
 11
38.1566665584
 21
15.2017056284
  0
LINE
  5
357
100
AcDbEntity
  8
0
100
AcDbLine
 62
7
  6
CONTINUOUS
 10
32.0819500013
 20
11.3606320703
 11
27.9100373619
 21
8.9519915626
  0
LINE
  5
358
100
AcDbEntity
  8
0
100
AcDbLine
 62
7
  6
CONTINUOUS
 10
61.8510215491
 20
25.7408034772
 11
63.6987770567
 21
26.4313829926
  0
LINE
  5
359
100
AcDbEntity
  8
0
100
AcDbLine
 62
7
  6
CONTINUOUS
 10
17.1700881577
 20
10.451534834
 11
17.9315805336
 21
10.72116652
  0
LINE
  5
35A
100
AcDbEntity
  8
0
100
AcDbLine
 62
7
  6
CONTINUOUS
 10
50.7494547997
 20
87.8900547807
 11
55.1335350956
 21
85.3589621027
  0
LINE
  5
35B
100
AcDbEntity
  8
0
100
AcDbLine
 62
7
  6
CONTINUOUS
 10
57.8205296866
 20
15.4167178158
 11
61.6742455892
 21
20.2108214444
  0
LINE
  5
35C
100
AcDbEntity
  8
0
100
AcDbLine
 62
7
  6
CONTINUOUS
 10
51.4753223488
 20
15.2088122261
 11
46.2240267451
 21
12.1769933933
  0
LINE
  5
35D
100
AcDbEntity
  8
0
100
AcDbLine
 62
7
  6
CONTINUOUS
 10
66.8100598474
 20
24.6351236727
 11
61.8510215491
 21
22.7817343845
  0
LINE
  5
35E
100
AcDbEntity
  8
0
100
AcDbLine
 62
7
  6
CONTINUOUS
 10
61.8510215491
 20
21.9526361015
 11
66.3426078185
 21
23.6313200279
  0
LINE
  5
35F
100
AcDbEntity
  8
0
100
AcDbLine
 62
7
  6
CONTINUOUS
 10
53.95998749
 20
88.5441759583
 11
52.8025734475
 21
89.2123941502
  0
LINE
  5
360
100
AcDbEntity
  8
0
100
AcDbLine
 62
7
  6
CONTINUOUS
 10
52.8025734475
 20
89.8655960839
 11
53.211985111
 21
89.6292274971
  0
LINE
  5
361
100
AcDbEntity
  8
0
100
AcDbLine
 62
7
  6
CONTINUOUS
 10
50.7494547997
 20
93.7454311579
 11
55.1335350956
 21
91.2143384799
  0
LINE
  5
362
100
AcDbEntity
  8
0
100
AcDbLine
 62
7
  6
CONTINUOUS
 10
66.0728436862
 20
22.2346671656
 11
64.8626847964
 21
20.8048325537
  0
LINE
  5
363
100
AcDbEntity
  8
0
100
AcDbLine
 62
7
  6
CONTINUOUS
 10
45.8704748265
 20
11.5646201078
 11
41.6985621857
 21
9.1559795992
  0
LINE
  5
364
100
AcDbEntity
  8
0
100
AcDbLine
 62
7
  6
CONTINUOUS
 10
64.7501431889
 20
19.9335664626
 11
67.2250066191
 21
21.3624210011
  0
LINE
  5
365
100
AcDbEntity
  8
0
100
AcDbLine
 62
7
  6
CONTINUOUS
 10
51.1030067212
 20
94.3578044484
 11
55.4870870171
 21
91.8267117704
  0
LINE
  5
366
100
AcDbEntity
  8
0
100
AcDbLine
 62
7
  6
CONTINUOUS
 10
53.5778795692
 20
94.4802831318
 11
55.6992087447
 21
93.2555608683
  0
LINE
  5
367
100
AcDbEntity
  8
0
100
AcDbLine
 62
7
  6
CONTINUOUS
 10
68.9220611276
 20
89.1161600767
 11
65.9207847577
 21
96.9050806644
  0
LINE
  5
368
100
AcDbEntity
  8
0
100
AcDbLine
 62
7
  6
CONTINUOUS
 10
58.1740721749
 20
94.6844154068
 11
56.0527429995
 21
95.9091376704
  0
LINE
  5
369
100
AcDbEntity
  8
0
100
AcDbLine
 62
7
  6
CONTINUOUS
 10
55.2749193544
 20
96.7664449526
 11
60.0125515689
 21
94.0312231429
  0
LINE
  5
36A
100
AcDbEntity
  8
0
100
AcDbLine
 62
7
  6
CONTINUOUS
 10
60.8722442039
 20
99.5897914626
 11
65.2563244998
 21
97.0586987846
  0
LINE
  5
36B
100
AcDbEntity
  8
0
100
AcDbLine
 62
7
  6
CONTINUOUS
 10
65.7563160176
 20
97.1082266695
 11
61.3722357217
 21
99.6393193475
  0
LINE
  5
36C
100
AcDbEntity
  8
0
100
AcDbLine
 62
7
  6
CONTINUOUS
 10
65.9207847577
 20
96.9050806644
 11
65.7562630008
 21
97.1081347281
  0
ARC
  5
36D
100
AcDbEntity
  8
0
100
AcDbCircle
 62
7
  6
CONTINUOUS
 10
38.3781635109
 20
72.7731168464
 40
1.5477135005
100
AcDbArc
 50
59.9593883823
 51
63.5614743188
  0
ARC
  5
36E
100
AcDbEntity
  8
0
100
AcDbCircle
 62
7
  6
CONTINUOUS
 10
13.5998302547
 20
14.7200215715
 40
1.3548998679
100
AcDbArc
 50
120.4615790187
 51
179.9729333443
  0
ARC
  5
36F
100
AcDbEntity
  8
0
100
AcDbCircle
 62
7
  6
CONTINUOUS
 10
16.2025839602
 20
25.1383118861
 40
1.3295173822
100
AcDbArc
 50
218.7865767446
 51
221.5744106818
  0
ARC
  5
370
100
AcDbEntity
  8
0
100
AcDbCircle
 62
7
  6
CONTINUOUS
 10
16.0385158392
 20
24.987120452
 40
1.0516086244
100
AcDbArc
 50
225.997371486
 51
230.7344829712
  0
ARC
  5
371
100
AcDbEntity
  8
0
100
AcDbCircle
 62
7
  6
CONTINUOUS
 10
15.9369622767
 20
25.088861727
 40
1.0123790058
100
AcDbArc
 50
189.2101741317
 51
192.306077864
  0
ARC
  5
372
100
AcDbEntity
  8
0
100
AcDbCircle
 62
7
  6
CONTINUOUS
 10
39.9666059543
 20
15.9137956626
 40
0.9880898353
100
AcDbArc
 50
163.2355434355
 51
164.5878777534
  0
ARC
  5
373
100
AcDbEntity
  8
0
100
AcDbCircle
 62
7
  6
CONTINUOUS
 10
26.1780811287
 20
58.1679333156
 40
0.9880898353
100
AcDbArc
 50
163.2355434355
 51
164.5878777534
  0
ARC
  5
374
100
AcDbEntity
  8
0
100
AcDbCircle
 62
7
  6
CONTINUOUS
 10
53.75513078
 20
89.6030012421
 40
0.9880898354
100
AcDbArc
 50
163.2355434355
 51
164.5878777533
  0
ARC
  5
375
100
AcDbEntity
  8
0
100
AcDbCircle
 62
7
  6
CONTINUOUS
 10
38.5691600178
 20
73.690758509
 40
0.5877340755
100
AcDbArc
 50
119.9868525366
 51
127.5996015171
  0
ARC
  5
376
100
AcDbEntity
  8
0
100
AcDbCircle
 62
7
  6
CONTINUOUS
 10
16.9205624806
 20
10.8603025011
 40
0.4789092494
100
AcDbArc
 50
300.0047887457
 51
301.4013099013
  0
ARC
  5
377
100
AcDbEntity
  8
0
100
AcDbCircle
 62
7
  6
CONTINUOUS
 10
15.3591125271
 20
24.5633881344
 40
0.3113936227
100
AcDbArc
 50
239.9888323075
 51
243.3474968144
  0
ARC
  5
378
100
AcDbEntity
  8
0
100
AcDbCircle
 62
7
  6
CONTINUOUS
 10
15.1852290643
 20
25.2079679394
 40
0.2842878545
100
AcDbArc
 50
108.147138741
 51
120.4849679392
  0
ARC
  5
379
100
AcDbEntity
  8
0
100
AcDbCircle
 62
7
  6
CONTINUOUS
 10
15.6385996594
 20
24.5004692044
 40
0.198376342
100
AcDbArc
 50
272.4804502909
 51
274.2343741266
  0
ARC
  5
37A
100
AcDbEntity
  8
0
100
AcDbCircle
 62
7
  6
CONTINUOUS
 10
15.3538227472
 20
24.9934280625
 40
0.1980536886
100
AcDbArc
 50
145.57062244
 51
147.5213935279
  0
ARC
  5
37B
100
AcDbEntity
  8
0
100
AcDbCircle
 62
7
  6
CONTINUOUS
 10
15.3450879155
 20
24.9994932228
 40
0.1874198223
100
AcDbArc
 50
138.8394345153
 51
145.5902188341
  0
ARC
  5
37C
100
AcDbEntity
  8
0
100
AcDbCircle
 62
7
  6
CONTINUOUS
 10
15.6398238363
 20
24.4871444718
 40
0.1849977439
100
AcDbArc
 50
274.1609777798
 51
281.2077928474
  0
ARC
  5
37D
100
AcDbEntity
  8
0
100
AcDbCircle
 62
7
  6
CONTINUOUS
 10
15.3554000904
 20
24.401842226
 40
0.1761352822
100
AcDbArc
 50
283.9306630223
 51
290.4175494478
  0
ARC
  5
37E
100
AcDbEntity
  8
0
100
AcDbCircle
 62
7
  6
CONTINUOUS
 10
15.6415401107
 20
24.4782189811
 40
0.1759088928
100
AcDbArc
 50
281.2244969689
 51
284.3631963129
  0
ARC
  5
37F
100
AcDbEntity
  8
0
100
AcDbCircle
 62
7
  6
CONTINUOUS
 10
15.3360698416
 20
25.0071276607
 40
0.1756057336
100
AcDbArc
 50
135.2703532166
 51
138.7781880528
  0
ARC
  5
380
100
AcDbEntity
  8
0
100
AcDbCircle
 62
7
  6
CONTINUOUS
 10
15.3189598973
 20
24.3774910348
 40
0.1165755243
100
AcDbArc
 50
298.1187871681
 51
301.9928751878
  0
ARC
  5
381
100
AcDbEntity
  8
0
100
AcDbCircle
 62
7
  6
CONTINUOUS
 10
13.7800491229
 20
32.5984613044
 40
0.0885330794
100
AcDbArc
 50
191.4212579901
 51
196.2626351552
  0
ARC
  5
382
100
AcDbEntity
  8
0
100
AcDbCircle
 62
7
  6
CONTINUOUS
 10
13.777146516
 20
32.5978818632
 40
0.0855732093
100
AcDbArc
 50
180.0708590427
 51
191.4258178161
  0
SPLINE
  5
383
100
AcDbEntity
  8
0
100
AcDbSpline
 62
7
  6
CONTINUOUS
 70
0
 71
3
 72
11
 73
7
 74
0
 42
0.0000001
 43
0.0000001
 44
0.0000000001
 40
0.0
 40
0.0
 40
0.0
 40
0.0
 40
0.2870787143
 40
0.5471981254
 40
0.7820962593
 40
1.0
 40
1.0
 40
1.0
 40
1.0
 10
15.3589272951
 20
24.4878946678
 30
0.0
 10
15.3589272951
 20
24.4775943999
 30
0.0
 10
15.3574500177
 20
24.4579100272
 30
0.0
 10
15.3501752165
 20
24.4305991128
 30
0.0
 10
15.3378950714
 20
24.4078512551
 30
0.0
 10
15.3262731605
 20
24.3960841729
 30
0.0
 10
15.3199553081
 20
24.3914786845
 30
0.0
  0
SPLINE
  5
384
100
AcDbEntity
  8
0
100
AcDbSpline
 62
7
  6
CONTINUOUS
 70
0
 71
3
 72
11
 73
7
 74
0
 42
0.0000001
 43
0.0000001
 44
0.0000000001
 40
0.0
 40
0.0
 40
0.0
 40
0.0
 40
0.2176907916
 40
0.4508868986
 40
0.7106214304
 40
1.0
 40
1.0
 40
1.0
 40
1.0
 10
15.149079457
 20
31.0241177432
 30
0.0
 10
15.1408329584
 20
31.0193649742
 30
0.0
 10
15.125402505
 20
31.0063973806
 30
0.0
 10
15.1089588714
 20
30.9795318701
 30
0.0
 10
15.0992410517
 20
30.9464189746
 30
0.0
 10
15.097296108
 20
30.9223330191
 30
0.0
 10
15.097296108
 20
30.9096805597
 30
0.0
  0
SPLINE
  5
385
100
AcDbEntity
  8
0
100
AcDbSpline
 62
7
  6
CONTINUOUS
 70
0
 71
3
 72
10
 73
6
 74
0
 42
0.0000001
 43
0.0000001
 44
0.0000000001
 40
0.0
 40
0.0
 40
0.0
 40
0.0
 40
0.5239246953
 40
0.7720963452
 40
1.0
 40
1.0
 40
1.0
 40
1.0
 10
17.1373064874
 20
30.63005514
 30
0.0
 10
17.0992463189
 20
30.6269159417
 30
0.0
 10
17.0420980097
 20
30.6296380081
 30
0.0
 10
16.9714717279
 20
30.6483496011
 30
0.0
 10
16.939560768
 20
30.6625729506
 30
0.0
 10
16.9251741587
 20
30.6708788755
 30
0.0
  0
SPLINE
  5
386
100
AcDbEntity
  8
0
100
AcDbSpline
 62
7
  6
CONTINUOUS
 70
0
 71
3
 72
10
 73
6
 74
0
 42
0.0000001
 43
0.0000001
 44
0.0000000001
 40
0.0
 40
0.0
 40
0.0
 40
0.0
 40
0.2831236181
 40
0.543607966
 40
1.0
 40
1.0
 40
1.0
 40
1.0
 10
13.7643936873
 20
32.4957150482
 30
0.0
 10
13.7557163968
 20
32.5007625739
 30
0.0
 10
13.7396401264
 20
32.5115766396
 30
0.0
 10
13.7135264989
 20
32.5355964193
 30
0.0
 10
13.6995869702
 20
32.5581329524
 30
0.0
 10
13.6950584183
 20
32.5736684369
 30
0.0
  0
SPLINE
  5
387
100
AcDbEntity
  8
0
100
AcDbSpline
 62
7
  6
CONTINUOUS
 70
0
 71
3
 72
17
 73
13
 74
0
 42
0.0000001
 43
0.0000001
 44
0.0000000001
 40
0.0
 40
0.0
 40
0.0
 40
0.0
 40
0.0931308148
 40
0.145327964
 40
0.2014461743
 40
0.2613668896
 40
0.3247371455
 40
0.459570428
 40
0.6007279011
 40
0.7419075203
 40
0.8767950658
 40
1.0
 40
1.0
 40
1.0
 40
1.0
 10
15.0257645578
 20
25.4793874871
 30
0.0
 10
15.0769584989
 20
25.4840765883
 30
0.0
 10
15.1587269007
 20
25.4741739958
 30
0.0
 10
15.2636602036
 20
25.437123132
 30
0.0
 10
15.3468119512
 20
25.3951368977
 30
0.0
 10
15.4297324927
 20
25.3406757413
 30
0.0
 10
15.5406222818
 20
25.2508899522
 30
0.0
 10
15.6694006216
 20
25.1135057673
 30
0.0
 10
15.7995382766
 20
24.9225400186
 30
0.0
 10
15.9000461295
 20
24.7143084456
 30
0.0
 10
15.9643326753
 20
24.5025780329
 30
0.0
 10
15.9811826756
 20
24.3599489509
 30
0.0
 10
15.9811826756
 20
24.2919397855
 30
0.0
  0
SPLINE
  5
388
100
AcDbEntity
  8
0
100
AcDbSpline
 62
7
  6
CONTINUOUS
 70
0
 71
3
 72
11
 73
7
 74
0
 42
0.0000001
 43
0.0000001
 44
0.0000000001
 40
0.0
 40
0.0
 40
0.0
 40
0.0
 40
0.2349141478
 40
0.4780021904
 40
0.7323102953
 40
1.0
 40
1.0
 40
1.0
 40
1.0
 10
15.3978042205
 20
24.2308874736
 30
0.0
 10
15.383267812
 20
24.2272826864
 30
0.0
 10
15.3526502111
 20
24.2237570759
 30
0.0
 10
15.3059268222
 20
24.2287975438
 30
0.0
 10
15.2590542172
 20
24.2431563942
 30
0.0
 10
15.2290734255
 20
24.2579167805
 30
0.0
 10
15.2142935142
 20
24.2664497732
 30
0.0
  0
SPLINE
  5
389
100
AcDbEntity
  8
0
100
AcDbSpline
 62
7
  6
CONTINUOUS
 70
0
 71
3
 72
15
 73
11
 74
0
 42
0.0000001
 43
0.0000001
 44
0.0000000001
 40
0.0
 40
0.0
 40
0.0
 40
0.0
 40
0.1254700942
 40
0.2607335681
 40
0.4005903904
 40
0.5388832814
 40
0.6696974941
 40
0.7894234571
 40
0.8981691215
 40
1.0
 40
1.0
 40
1.0
 40
1.0
 10
15.2142935142
 20
24.2664497732
 30
0.0
 10
15.1859916659
 20
24.2827894833
 30
0.0
 10
15.1313825327
 20
24.3242143763
 30
0.0
 10
15.0613528212
 20
24.402211213
 30
0.0
 10
15.0035316633
 20
24.4936335042
 30
0.0
 10
14.961743044
 20
24.5921511811
 30
0.0
 10
14.9390207686
 20
24.6914640485
 30
0.0
 10
14.9376715487
 20
24.7859277505
 30
0.0
 10
14.9602223805
 20
24.8703799883
 30
0.0
 10
14.9941782446
 20
24.9159444481
 30
0.0
 10
15.014578243
 20
24.932894498
 30
0.0
  0
SPLINE
  5
38A
100
AcDbEntity
  8
0
100
AcDbSpline
 62
7
  6
CONTINUOUS
 70
0
 71
3
 72
17
 73
13
 74
0
 42
0.0000001
 43
0.0000001
 44
0.0000000001
 40
0.0
 40
0.0
 40
0.0
 40
0.0
 40
0.0430018287
 40
0.0883119197
 40
0.1371112467
 40
0.1900769797
 40
0.3089173476
 40
0.4430589929
 40
0.5867794012
 40
0.7325442731
 40
0.872643681
 40
1.0
 40
1.0
 40
1.0
 40
1.0
 10
15.1003857439
 20
24.7717858875
 30
0.0
 10
15.1060300594
 20
24.7742824281
 30
0.0
 10
15.1183096774
 20
24.7779680662
 30
0.0
 10
15.1381021886
 20
24.7791210396
 30
0.0
 10
15.1591180418
 20
24.7760992466
 30
0.0
 10
15.1893531997
 20
24.7662906448
 30
0.0
 10
15.2275585434
 20
24.7436045167
 30
0.0
 10
15.2695423562
 20
24.7046929411
 30
0.0
 10
15.3063921663
 20
24.6559663342
 30
0.0
 10
15.3352841199
 20
24.6011825385
 30
0.0
 10
15.3539392161
 20
24.5446014174
 30
0.0
 10
15.3589272951
 20
24.5061733479
 30
0.0
 10
15.3589272951
 20
24.4878946678
 30
0.0
  0
SPLINE
  5
38B
100
AcDbEntity
  8
0
100
AcDbSpline
 62
7
  6
CONTINUOUS
 70
0
 71
3
 72
17
 73
13
 74
0
 42
0.0000001
 43
0.0000001
 44
0.0000000001
 40
0.0
 40
0.0
 40
0.0
 40
0.0
 40
0.1286583215
 40
0.2703136878
 40
0.417429293
 40
0.5617691287
 40
0.6954408117
 40
0.8127129847
 40
0.8646719982
 40
0.912513003
 40
0.9571378773
 40
1.0
 40
1.0
 40
1.0
 40
1.0
 10
15.097296108
 20
30.9096805597
 30
0.0
 10
15.097296108
 20
30.888317308
 30
0.0
 10
15.1032858029
 20
30.8433837463
 30
0.0
 10
15.1255804282
 20
30.777408293
 30
0.0
 10
15.1599808845
 20
30.7138638417
 30
0.0
 10
15.2036556965
 20
30.6579440459
 30
0.0
 10
15.2530808723
 20
30.6141773283
 30
0.0
 10
15.2978105451
 20
30.5897001605
 30
0.0
 10
15.3328090215
 20
30.5804103659
 30
0.0
 10
15.3568914744
 20
30.578618982
 30
0.0
 10
15.3793174316
 20
30.5819238945
 30
0.0
 10
15.3929013294
 20
30.5875691315
 30
0.0
 10
15.3990676215
 20
30.5911229988
 30
0.0
  0
SPLINE
  5
38C
100
AcDbEntity
  8
0
100
AcDbSpline
 62
7
  6
CONTINUOUS
 70
0
 71
3
 72
17
 73
13
 74
0
 42
0.0000001
 43
0.0000001
 44
0.0000000001
 40
0.0
 40
0.0
 40
0.0
 40
0.0
 40
0.0428572716
 40
0.0874788458
 40
0.1353175345
 40
0.1872738754
 40
0.3045409073
 40
0.4382063355
 40
0.5825472936
 40
0.7296721167
 40
0.8713406818
 40
1.0
 40
1.0
 40
1.0
 40
1.0
 10
15.2905001871
 20
31.1057666454
 30
0.0
 10
15.2966656067
 20
31.1093204235
 30
0.0
 10
15.3102474901
 20
31.1149673705
 30
0.0
 10
15.3326722213
 20
31.1182695637
 30
0.0
 10
15.3567531978
 20
31.1164804832
 30
0.0
 10
15.3917506512
 20
31.1071926009
 30
0.0
 10
15.4364791084
 20
31.0827182141
 30
0.0
 10
15.485904545
 20
31.0389541559
 30
0.0
 10
15.5295803797
 20
30.9830342522
 30
0.0
 10
15.5639847787
 20
30.9194874205
 30
0.0
 10
15.5862812821
 20
30.8535083385
 30
0.0
 10
15.592271738
 20
30.8085724455
 30
0.0
 10
15.592271738
 20
30.7872090132
 30
0.0
  0
SPLINE
  5
38D
100
AcDbEntity
  8
0
100
AcDbSpline
 62
7
  6
CONTINUOUS
 70
0
 71
3
 72
17
 73
13
 74
0
 42
0.0000001
 43
0.0000001
 44
0.0000000001
 40
0.0
 40
0.0
 40
0.0
 40
0.0
 40
0.0429860063
 40
0.0871058466
 40
0.1340582011
 40
0.1850142894
 40
0.3005899539
 40
0.4336304403
 40
0.5784726628
 40
0.7268805732
 40
0.8700723273
 40
1.0
 40
1.0
 40
1.0
 40
1.0
 10
15.3199553081
 20
24.3914786845
 30
0.0
 10
15.3147894821
 20
24.3877129822
 30
0.0
 10
15.3032581203
 20
24.3814345003
 30
0.0
 10
15.2836890803
 20
24.376684343
 30
0.0
 10
15.2623922347
 20
24.3766981297
 30
0.0
 10
15.2311216974
 20
24.3831161233
 30
0.0
 10
15.1906419239
 20
24.4033602768
 30
0.0
 10
15.1456662381
 20
24.441368898
 30
0.0
 10
15.105644566
 20
24.4909858689
 30
0.0
 10
15.0739683025
 20
24.5480073019
 30
0.0
 10
15.0533622873
 20
24.6075372205
 30
0.0
 10
15.047799016
 20
24.6481983775
 30
0.0
 10
15.047799016
 20
24.6675205998
 30
0.0
  0
SPLINE
  5
38E
100
AcDbEntity
  8
0
100
AcDbSpline
 62
7
  6
CONTINUOUS
 70
0
 71
3
 72
17
 73
13
 74
0
 42
0.0000001
 43
0.0000001
 44
0.0000000001
 40
0.0
 40
0.0
 40
0.0
 40
0.0
 40
0.1286583215
 40
0.2703136878
 40
0.417429293
 40
0.5617691287
 40
0.6954408117
 40
0.8127129847
 40
0.8646719982
 40
0.912513003
 40
0.9571378773
 40
1.0
 40
1.0
 40
1.0
 40
1.0
 10
15.4508509705
 20
30.7055601824
 30
0.0
 10
15.4508509705
 20
30.7269234341
 30
0.0
 10
15.4448612756
 20
30.7718569958
 30
0.0
 10
15.4225666503
 20
30.837832449
 30
0.0
 10
15.388166194
 20
30.9013769003
 30
0.0
 10
15.344491382
 20
30.9572966962
 30
0.0
 10
15.2950662062
 20
31.0010634138
 30
0.0
 10
15.2503365334
 20
31.0255405816
 30
0.0
 10
15.215338057
 20
31.0348303762
 30
0.0
 10
15.1912556041
 20
31.0366217601
 30
0.0
 10
15.1688296469
 20
31.0333168476
 30
0.0
 10
15.1552457491
 20
31.0276716106
 30
0.0
 10
15.149079457
 20
31.0241177432
 30
0.0
  0
SPLINE
  5
38F
100
AcDbEntity
  8
0
100
AcDbSpline
 62
7
  6
CONTINUOUS
 70
0
 71
3
 72
11
 73
7
 74
0
 42
0.0000001
 43
0.0000001
 44
0.0000000001
 40
0.0
 40
0.0
 40
0.0
 40
0.0
 40
0.2903213789
 40
0.5496235602
 40
0.7820977483
 40
1.0
 40
1.0
 40
1.0
 40
1.0
 10
15.7586968168
 20
24.546419429
 30
0.0
 10
15.7586968168
 20
24.5239542242
 30
0.0
 10
15.7551792882
 20
24.4812708845
 30
0.0
 10
15.7373467183
 20
24.4228314963
 30
0.0
 10
15.7072284081
 20
24.3759128228
 30
0.0
 10
15.6790435522
 20
24.3540153974
 30
0.0
 10
15.6641001125
 20
24.3462051669
 30
0.0
  0
SPLINE
  5
390
100
AcDbEntity
  8
0
100
AcDbSpline
 62
7
  6
CONTINUOUS
 70
0
 71
3
 72
13
 73
9
 74
0
 42
0.0000001
 43
0.0000001
 44
0.0000000001
 40
0.0
 40
0.0
 40
0.0
 40
0.0
 40
0.1141732089
 40
0.2375638708
 40
0.4999989157
 40
0.7624345537
 40
0.8858259098
 40
1.0
 40
1.0
 40
1.0
 40
1.0
 10
15.4539309066
 20
25.0742865397
 30
0.0
 10
15.4747791522
 20
25.0622500718
 30
0.0
 10
15.5159820324
 20
25.0333402213
 30
0.0
 10
15.5931723536
 20
24.9611644342
 30
0.0
 10
15.6746346946
 20
24.8497989441
 30
0.0
 10
15.7303494915
 20
24.7235678756
 30
0.0
 10
15.7542611515
 20
24.6206309141
 30
0.0
 10
15.7586968168
 20
24.5704929592
 30
0.0
 10
15.7586968168
 20
24.546419429
 30
0.0
  0
SPLINE
  5
391
100
AcDbEntity
  8
0
100
AcDbSpline
 62
7
  6
CONTINUOUS
 70
0
 71
3
 72
11
 73
7
 74
0
 42
0.0000001
 43
0.0000001
 44
0.0000000001
 40
0.0
 40
0.0
 40
0.0
 40
0.0
 40
0.2176907916
 40
0.4508868986
 40
0.7106214304
 40
1.0
 40
1.0
 40
1.0
 40
1.0
 10
15.3990676215
 20
30.5911229988
 30
0.0
 10
15.4073141201
 20
30.5958757679
 30
0.0
 10
15.4227445735
 20
30.6088433614
 30
0.0
 10
15.4391882071
 20
30.635708872
 30
0.0
 10
15.4489060268
 20
30.6688217674
 30
0.0
 10
15.4508509705
 20
30.692907723
 30
0.0
 10
15.4508509705
 20
30.7055601824
 30
0.0
  0
SPLINE
  5
392
100
AcDbEntity
  8
0
100
AcDbSpline
 62
7
  6
CONTINUOUS
 70
0
 71
3
 72
9
 73
5
 74
0
 42
0.0000001
 43
0.0000001
 44
0.0000000001
 40
0.0
 40
0.0
 40
0.0
 40
0.0
 40
0.5029710144
 40
1.0
 40
1.0
 40
1.0
 40
1.0
 10
15.1624405222
 20
25.4557595032
 30
0.0
 10
15.1447540084
 20
25.4515024
 30
0.0
 10
15.110295674
 20
25.4396516831
 30
0.0
 10
15.0789784579
 20
25.420984299
 30
0.0
 10
15.0645516406
 20
25.410259115
 30
0.0
  0
SPLINE
  5
393
100
AcDbEntity
  8
0
100
AcDbSpline
 62
7
  6
CONTINUOUS
 70
0
 71
3
 72
11
 73
7
 74
0
 42
0.0000001
 43
0.0000001
 44
0.0000000001
 40
0.0
 40
0.0
 40
0.0
 40
0.0
 40
0.218042445
 40
0.4529658811
 40
0.7127768715
 40
1.0
 40
1.0
 40
1.0
 40
1.0
 10
15.0645516406
 20
25.410259115
 30
0.0
 10
15.0420736815
 20
25.3935485515
 30
0.0
 10
15.0007374448
 20
25.3511531839
 30
0.0
 10
14.9571784939
 20
25.2695364086
 30
0.0
 10
14.9312194218
 20
25.171769645
 30
0.0
 10
14.9260354942
 20
25.1013074746
 30
0.0
 10
14.9260354942
 20
25.0644118151
 30
0.0
  0
SPLINE
  5
394
100
AcDbEntity
  8
0
100
AcDbSpline
 62
7
  6
CONTINUOUS
 70
0
 71
3
 72
14
 73
10
 74
0
 42
0.0000001
 43
0.0000001
 44
0.0000000001
 40
0.0
 40
0.0
 40
0.0
 40
0.0
 40
0.2926189195
 40
0.4250626589
 40
0.548888301
 40
0.6657443867
 40
0.7779524502
 40
0.8883388949
 40
1.0
 40
1.0
 40
1.0
 40
1.0
 10
15.4862046904
 20
24.0941756925
 30
0.0
 10
15.5279009368
 20
24.070102898
 30
0.0
 10
15.5923027636
 20
24.0406444375
 30
0.0
 10
15.6806101596
 20
24.0205006393
 30
0.0
 10
15.7421313513
 20
24.0161366601
 30
0.0
 10
15.8002059283
 20
24.0222055364
 30
0.0
 10
15.8539608171
 20
24.0387165606
 30
0.0
 10
15.9024425648
 20
24.0654897333
 30
0.0
 10
15.9302972908
 20
24.0895830199
 30
0.0
 10
15.9429746374
 20
24.1028806166
 30
0.0
  0
SPLINE
  5
395
100
AcDbEntity
  8
0
100
AcDbSpline
 62
7
  6
CONTINUOUS
 70
0
 71
3
 72
9
 73
5
 74
0
 42
0.0000001
 43
0.0000001
 44
0.0000000001
 40
0.0
 40
0.0
 40
0.0
 40
0.0
 40
0.2410895111
 40
1.0
 40
1.0
 40
1.0
 40
1.0
 10
14.9260354942
 20
25.0644118151
 30
0.0
 10
14.9260354942
 20
25.0533087726
 30
0.0
 10
14.9270751718
 20
25.007257435
 30
0.0
 10
14.9320466471
 20
24.9613248198
 30
0.0
 10
14.9376350038
 20
24.926823914
 30
0.0
  0
SPLINE
  5
396
100
AcDbEntity
  8
0
100
AcDbSpline
 62
7
  6
CONTINUOUS
 70
0
 71
3
 72
9
 73
5
 74
0
 42
0.0000001
 43
0.0000001
 44
0.0000000001
 40
0.0
 40
0.0
 40
0.0
 40
0.0
 40
0.2587332704
 40
1.0
 40
1.0
 40
1.0
 40
1.0
 10
15.3729369363
 20
24.1729426931
 30
0.0
 10
15.3821638691
 20
24.1654190722
 30
0.0
 10
15.4183495494
 20
24.1369955366
 30
0.0
 10
15.4566651788
 20
24.1112299517
 30
0.0
 10
15.4862046904
 20
24.0941756925
 30
0.0
  0
SPLINE
  5
397
100
AcDbEntity
  8
0
100
AcDbSpline
 62
7
  6
CONTINUOUS
 70
0
 71
3
 72
9
 73
5
 74
0
 42
0.0000001
 43
0.0000001
 44
0.0000000001
 40
0.0
 40
0.0
 40
0.0
 40
0.0
 40
0.2571759611
 40
1.0
 40
1.0
 40
1.0
 40
1.0
 10
15.1673628057
 20
25.0613718123
 30
0.0
 10
15.1687144095
 20
25.0648066604
 30
0.0
 10
15.1742626467
 20
25.0780441825
 30
0.0
 10
15.1810202626
 20
25.0907863129
 30
0.0
 10
15.1867462383
 20
25.099779855
 30
0.0
  0
SPLINE
  5
398
100
AcDbEntity
  8
0
100
AcDbSpline
 62
7
  6
CONTINUOUS
 70
0
 71
3
 72
13
 73
9
 74
0
 42
0.0000001
 43
0.0000001
 44
0.0000000001
 40
0.0
 40
0.0
 40
0.0
 40
0.0
 40
0.1113602835
 40
0.2217251997
 40
0.3341088317
 40
0.4512395989
 40
0.707279547
 40
1.0
 40
1.0
 40
1.0
 40
1.0
 10
15.2113133088
 20
25.1307123733
 30
0.0
 10
15.2190483252
 20
25.1385178413
 30
0.0
 10
15.2359983432
 20
25.1526261612
 30
0.0
 10
15.2653235496
 20
25.1681790234
 30
0.0
 10
15.2977277473
 20
25.1776539758
 30
0.0
 10
15.3456851575
 20
25.1821724298
 30
0.0
 10
15.4115456198
 20
25.1708530965
 30
0.0
 10
15.4611891525
 20
25.1480318761
 30
0.0
 10
15.4862046904
 20
25.1335894752
 30
0.0
  0
SPLINE
  5
399
100
AcDbEntity
  8
0
100
AcDbSpline
 62
7
  6
CONTINUOUS
 70
0
 71
3
 72
13
 73
9
 74
0
 42
0.0000001
 43
0.0000001
 44
0.0000000001
 40
0.0
 40
0.0
 40
0.0
 40
0.0
 40
0.2927634819
 40
0.5486950506
 40
0.6657640573
 40
0.7781167189
 40
0.8885145347
 40
1.0
 40
1.0
 40
1.0
 40
1.0
 10
15.8261915486
 20
24.5447182319
 30
0.0
 10
15.8261915486
 20
24.5157205343
 30
0.0
 10
15.8210978535
 20
24.4611174938
 30
0.0
 10
15.797776879
 20
24.3982252056
 30
0.0
 10
15.7696578383
 20
24.3589132337
 30
0.0
 10
15.7450567673
 20
24.3356126811
 30
0.0
 10
15.7167083695
 20
24.3180775687
 30
0.0
 10
15.6958742907
 20
24.3105493882
 30
0.0
 10
15.68517742
 20
24.3078085243
 30
0.0
  0
SPLINE
  5
39A
100
AcDbEntity
  8
0
100
AcDbSpline
 62
7
  6
CONTINUOUS
 70
0
 71
3
 72
9
 73
5
 74
0
 42
0.0000001
 43
0.0000001
 44
0.0000000001
 40
0.0
 40
0.0
 40
0.0
 40
0.0
 40
0.2433990288
 40
1.0
 40
1.0
 40
1.0
 40
1.0
 10
15.6471850905
 20
24.3022787318
 30
0.0
 10
15.6436948654
 20
24.302127274
 30
0.0
 10
15.629340217
 20
24.3018778602
 30
0.0
 10
15.6149715542
 20
24.3030867044
 30
0.0
 10
15.6042318832
 20
24.3046955279
 30
0.0
  0
SPLINE
  5
39B
100
AcDbEntity
  8
0
100
AcDbSpline
 62
7
  6
CONTINUOUS
 70
0
 71
3
 72
13
 73
9
 74
0
 42
0.0000001
 43
0.0000001
 44
0.0000000001
 40
0.0
 40
0.0
 40
0.0
 40
0.0
 40
0.1142250362
 40
0.2375584228
 40
0.4999988469
 40
0.762439898
 40
0.8857740437
 40
1.0
 40
1.0
 40
1.0
 40
1.0
 10
15.4862046904
 20
25.1335894752
 30
0.0
 10
15.5094730146
 20
25.1201558059
 30
0.0
 10
15.555448622
 20
25.0879204671
 30
0.0
 10
15.6415287764
 20
25.0073699487
 30
0.0
 10
15.7324440069
 20
24.883175499
 30
0.0
 10
15.7945426612
 20
24.7423435153
 30
0.0
 10
15.8212622281
 20
24.6275203021
 30
0.0
 10
15.8261915486
 20
24.5715862427
 30
0.0
 10
15.8261915486
 20
24.5447182319
 30
0.0
  0
SPLINE
  5
39C
100
AcDbEntity
  8
0
100
AcDbSpline
 62
7
  6
CONTINUOUS
 70
0
 71
3
 72
9
 73
5
 74
0
 42
0.0000001
 43
0.0000001
 44
0.0000000001
 40
0.0
 40
0.0
 40
0.0
 40
0.0
 40
0.4773767013
 40
1.0
 40
1.0
 40
1.0
 40
1.0
 10
14.8695492006
 20
25.0701620349
 30
0.0
 10
14.8695492006
 20
25.0067405969
 30
0.0
 10
14.8852509398
 20
24.8737631426
 30
0.0
 10
14.9240456619
 20
24.7460466025
 30
0.0
 10
14.949182223
 20
24.68132378
 30
0.0
  0
SPLINE
  5
39D
100
AcDbEntity
  8
0
100
AcDbSpline
 62
7
  6
CONTINUOUS
 70
0
 71
3
 72
9
 73
5
 74
0
 42
0.0000001
 43
0.0000001
 44
0.0000000001
 40
0.0
 40
0.0
 40
0.0
 40
0.0
 40
0.256255249
 40
1.0
 40
1.0
 40
1.0
 40
1.0
 10
15.2079792694
 20
24.2560545661
 30
0.0
 10
15.2181459669
 20
24.2445994087
 30
0.0
 10
15.2586076596
 20
24.200607622
 30
0.0
 10
15.3022573139
 20
24.1595078916
 30
0.0
 10
15.3364826804
 20
24.1311411321
 30
0.0
  0
SPLINE
  5
39E
100
AcDbEntity
  8
0
100
AcDbSpline
 62
7
  6
CONTINUOUS
 70
0
 71
3
 72
9
 73
5
 74
0
 42
0.0000001
 43
0.0000001
 44
0.0000000001
 40
0.0
 40
0.0
 40
0.0
 40
0.0
 40
0.2591141649
 40
1.0
 40
1.0
 40
1.0
 40
1.0
 10
15.3364826804
 20
24.1311411321
 30
0.0
 10
15.3467634533
 20
24.1226201946
 30
0.0
 10
15.3870598197
 20
24.0904990744
 30
0.0
 10
15.4298765963
 20
24.061471513
 30
0.0
 10
15.4629416863
 20
24.0423818062
 30
0.0
  0
SPLINE
  5
39F
100
AcDbEntity
  8
0
100
AcDbSpline
 62
7
  6
CONTINUOUS
 70
0
 71
3
 72
15
 73
11
 74
0
 42
0.0000001
 43
0.0000001
 44
0.0000000001
 40
0.0
 40
0.0
 40
0.0
 40
0.0
 40
0.1447692104
 40
0.2745569859
 40
0.3911255938
 40
0.4999981472
 40
0.6088710714
 40
0.7254405943
 40
0.8552294963
 40
1.0
 40
1.0
 40
1.0
 40
1.0
 10
15.2033631555
 20
24.8616715686
 30
0.0
 10
15.1881116674
 20
24.8704768202
 30
0.0
 10
15.1577438615
 20
24.8849015486
 30
0.0
 10
15.1110999929
 20
24.8961990472
 30
0.0
 10
15.0672733058
 20
24.8950813372
 30
0.0
 10
15.0283072764
 20
24.8809113843
 30
0.0
 10
14.9965533389
 20
24.8542498952
 30
0.0
 10
14.9736726932
 20
24.8168530023
 30
0.0
 10
14.9601352591
 20
24.7708089005
 30
0.0
 10
14.9574439082
 20
24.7372969247
 30
0.0
 10
14.9574439082
 20
24.7196859655
 30
0.0
  0
SPLINE
  5
3A0
100
AcDbEntity
  8
0
100
AcDbSpline
 62
7
  6
CONTINUOUS
 70
0
 71
3
 72
10
 73
6
 74
0
 42
0.0000001
 43
0.0000001
 44
0.0000000001
 40
0.0
 40
0.0
 40
0.0
 40
0.0
 40
0.2806721463
 40
0.5398950618
 40
1.0
 40
1.0
 40
1.0
 40
1.0
 10
15.2194281173
 20
24.2850820908
 30
0.0
 10
15.2305605561
 20
24.279503597
 30
0.0
 10
15.2527157574
 20
24.2701000046
 30
0.0
 10
15.295720215
 20
24.2590070253
 30
0.0
 10
15.3288379806
 20
24.2594181375
 30
0.0
 10
15.3485563071
 20
24.2646958856
 30
0.0
  0
SPLINE
  5
3A1
100
AcDbEntity
  8
0
100
AcDbSpline
 62
7
  6
CONTINUOUS
 70
0
 71
3
 72
9
 73
5
 74
0
 42
0.0000001
 43
0.0000001
 44
0.0000000001
 40
0.0
 40
0.0
 40
0.0
 40
0.0
 40
0.2525749625
 40
1.0
 40
1.0
 40
1.0
 40
1.0
 10
15.3485563071
 20
24.2646958856
 30
0.0
 10
15.3507743836
 20
24.2652895693
 30
0.0
 10
15.3594889803
 20
24.2678838345
 30
0.0
 10
15.3679091919
 20
24.2714722884
 30
0.0
 10
15.3739020705
 20
24.2746746427
 30
0.0
  0
SPLINE
  5
3A2
100
AcDbEntity
  8
0
100
AcDbSpline
 62
7
  6
CONTINUOUS
 70
0
 71
3
 72
17
 73
13
 74
0
 42
0.0000001
 43
0.0000001
 44
0.0000000001
 40
0.0
 40
0.0
 40
0.0
 40
0.0
 40
0.0428740904
 40
0.0877076697
 40
0.1358406538
 40
0.1881377786
 40
0.3059246304
 40
0.4397563914
 40
0.5839045023
 40
0.730615679
 40
0.8717362755
 40
1.0
 40
1.0
 40
1.0
 40
1.0
 10
15.3807232193
 20
24.2786217022
 30
0.0
 10
15.3890739922
 20
24.2838385186
 30
0.0
 10
15.404847794
 20
24.296764601
 30
0.0
 10
15.4236210501
 20
24.3220039423
 30
0.0
 10
15.4375498839
 20
24.3525588356
 30
0.0
 10
15.4497692553
 20
24.4013909199
 30
0.0
 10
15.450599439
 20
24.4720907889
 30
0.0
 10
15.4316650027
 20
24.5615202342
 30
0.0
 10
15.3944802956
 20
24.6522160785
 30
0.0
 10
15.3419849781
 20
24.7369438863
 30
0.0
 10
15.2784239629
 20
24.8088960373
 30
0.0
 10
15.2288735531
 20
24.8469434669
 30
0.0
 10
15.2033631555
 20
24.8616715686
 30
0.0
  0
SPLINE
  5
3A3
100
AcDbEntity
  8
0
100
AcDbSpline
 62
7
  6
CONTINUOUS
 70
0
 71
3
 72
11
 73
7
 74
0
 42
0.0000001
 43
0.0000001
 44
0.0000000001
 40
0.0
 40
0.0
 40
0.0
 40
0.0
 40
0.2895099636
 40
0.5489458597
 40
0.7822272157
 40
1.0
 40
1.0
 40
1.0
 40
1.0
 10
15.4629416863
 20
24.0423818062
 30
0.0
 10
15.4995150928
 20
24.0212666179
 30
0.0
 10
15.5722755551
 20
23.9866063855
 30
0.0
 10
15.6840979614
 20
23.9593306276
 30
0.0
 10
15.7891041413
 20
23.9614582227
 30
0.0
 10
15.8525042033
 20
23.9838607962
 30
0.0
 10
15.8801690315
 20
23.9994743147
 30
0.0
  0
SPLINE
  5
3A4
100
AcDbEntity
  8
0
100
AcDbSpline
 62
7
  6
CONTINUOUS
 70
0
 71
3
 72
9
 73
5
 74
0
 42
0.0000001
 43
0.0000001
 44
0.0000000001
 40
0.0
 40
0.0
 40
0.0
 40
0.0
 40
0.249093948
 40
1.0
 40
1.0
 40
1.0
 40
1.0
 10
15.8801690315
 20
23.9994743147
 30
0.0
 10
15.8845720608
 20
24.0019593032
 30
0.0
 10
15.901974145
 20
24.0124150425
 30
0.0
 10
15.9182226521
 20
24.0247783107
 30
0.0
 10
15.9295909786
 20
24.0349298899
 30
0.0
  0
SPLINE
  5
3A5
100
AcDbEntity
  8
0
100
AcDbSpline
 62
7
  6
CONTINUOUS
 70
0
 71
3
 72
11
 73
7
 74
0
 42
0.0000001
 43
0.0000001
 44
0.0000000001
 40
0.0
 40
0.0
 40
0.0
 40
0.0
 40
0.2181438221
 40
0.4513307368
 40
0.710717336
 40
1.0
 40
1.0
 40
1.0
 40
1.0
 10
13.6915733722
 20
31.128071682
 30
0.0
 10
13.6915774837
 20
31.118553436
 30
0.0
 10
13.6950449424
 20
31.0987256521
 30
0.0
 10
13.7100218915
 20
31.0710837264
 30
0.0
 10
13.733689741
 20
31.0461002704
 30
0.0
 10
13.7534830845
 20
31.0323573268
 30
0.0
 10
13.7643936873
 20
31.0260106974
 30
0.0
  0
SPLINE
  5
3A6
100
AcDbEntity
  8
0
100
AcDbSpline
 62
7
  6
CONTINUOUS
 70
0
 71
3
 72
15
 73
11
 74
0
 42
0.0000001
 43
0.0000001
 44
0.0000000001
 40
0.0
 40
0.0
 40
0.0
 40
0.0
 40
0.1517656082
 40
0.2932272289
 40
0.4243368502
 40
0.5463916942
 40
0.6616651187
 40
0.7732602059
 40
0.8848151685
 40
1.0
 40
1.0
 40
1.0
 40
1.0
 10
14.7083851703
 20
25.0267731436
 30
0.0
 10
14.7083851703
 20
25.0576784076
 30
0.0
 10
14.7116682461
 20
25.1174666677
 30
0.0
 10
14.7274334332
 20
25.2027007172
 30
0.0
 10
14.7538761071
 20
25.2789605347
 30
0.0
 10
14.7906061716
 20
25.344889189
 30
0.0
 10
14.83723877
 20
25.3991986692
 30
0.0
 10
14.8929586723
 20
25.4407651671
 30
0.0
 10
14.9566646415
 20
25.4684795357
 30
0.0
 10
15.0024063134
 20
25.4772479923
 30
0.0
 10
15.0257645578
 20
25.4793874871
 30
0.0
  0
SPLINE
  5
3A7
100
AcDbEntity
  8
0
100
AcDbSpline
 62
7
  6
CONTINUOUS
 70
0
 71
3
 72
21
 73
17
 74
0
 42
0.0000001
 43
0.0000001
 44
0.0000000001
 40
0.0
 40
0.0
 40
0.0
 40
0.0
 40
0.0452931955
 40
0.0892348159
 40
0.1341160376
 40
0.1820096737
 40
0.234343038
 40
0.2918166928
 40
0.3544756003
 40
0.4218699025
 40
0.4931883089
 40
0.567347162
 40
0.7189738428
 40
0.8663148749
 40
0.9354243581
 40
1.0
 40
1.0
 40
1.0
 40
1.0
 10
15.895439737
 20
23.9730575548
 30
0.0
 10
15.8786066214
 20
23.9492350618
 30
0.0
 10
15.8394402516
 20
23.9060803333
 30
0.0
 10
15.7648319768
 20
23.8602967594
 30
0.0
 10
15.6787322073
 20
23.837063876
 30
0.0
 10
15.5843949768
 20
23.8366966925
 30
0.0
 10
15.4845055807
 20
23.8584137259
 30
0.0
 10
15.381502807
 20
23.9012786739
 30
0.0
 10
15.2778415468
 20
23.9639806192
 30
0.0
 10
15.1760630376
 20
24.0448438428
 30
0.0
 10
15.0787706323
 20
24.1418069563
 30
0.0
 10
14.9575251946
 20
24.2901814304
 30
0.0
 10
14.8329415222
 20
24.4973585288
 30
0.0
 10
14.7495781313
 20
24.721096287
 30
0.0
 10
14.7146993421
 20
24.8990217168
 30
0.0
 10
14.7083851703
 20
24.9851853302
 30
0.0
 10
14.7083851703
 20
25.0267731436
 30
0.0
  0
SPLINE
  5
3A8
100
AcDbEntity
  8
0
100
AcDbSpline
 62
7
  6
CONTINUOUS
 70
0
 71
3
 72
13
 73
9
 74
0
 42
0.0000001
 43
0.0000001
 44
0.0000000001
 40
0.0
 40
0.0
 40
0.0
 40
0.0
 40
0.1141767831
 40
0.2375713001
 40
0.500001251
 40
0.7624305195
 40
0.8858241805
 40
1.0
 40
1.0
 40
1.0
 40
1.0
 10
14.9574439082
 20
24.7196859655
 30
0.0
 10
14.9574439082
 20
24.7002603271
 30
0.0
 10
14.9610242469
 20
24.6598025714
 30
0.0
 10
14.9803191792
 20
24.5767417569
 30
0.0
 10
15.0252770462
 20
24.4748867241
 30
0.0
 10
15.0910075145
 20
24.3850249839
 30
0.0
 10
15.1532928785
 20
24.3267853499
 30
0.0
 10
15.1865401061
 20
24.3034562714
 30
0.0
 10
15.2033631555
 20
24.293743699
 30
0.0
  0
SPLINE
  5
3A9
100
AcDbEntity
  8
0
100
AcDbSpline
 62
7
  6
CONTINUOUS
 70
0
 71
3
 72
10
 73
6
 74
0
 42
0.0000001
 43
0.0000001
 44
0.0000000001
 40
0.0
 40
0.0
 40
0.0
 40
0.0
 40
0.2279036548
 40
0.4760753047
 40
1.0
 40
1.0
 40
1.0
 40
1.0
 10
16.9251741587
 20
29.2011745247
 30
0.0
 10
16.939560768
 20
29.1928685998
 30
0.0
 10
16.9714717279
 20
29.1786452502
 30
0.0
 10
17.0420980097
 20
29.1599336572
 30
0.0
 10
17.0992463189
 20
29.1572115909
 30
0.0
 10
17.1373064874
 20
29.1603507891
 30
0.0
  0
SPLINE
  5
3AA
100
AcDbEntity
  8
0
100
AcDbSpline
 62
7
  6
CONTINUOUS
 70
0
 71
3
 72
11
 73
7
 74
0
 42
0.0000001
 43
0.0000001
 44
0.0000000001
 40
0.0
 40
0.0
 40
0.0
 40
0.0
 40
0.2177718354
 40
0.4510527629
 40
0.7104890033
 40
1.0
 40
1.0
 40
1.0
 40
1.0
 10
15.0410063419
 20
25.4529564913
 30
0.0
 10
15.0136514562
 20
25.4368046223
 30
0.0
 10
14.9625487804
 20
25.3930988369
 30
0.0
 10
14.9082020343
 20
25.3032219541
 30
0.0
 10
14.8759122287
 20
25.1927395195
 30
0.0
 10
14.8695492006
 20
25.1123944666
 30
0.0
 10
14.8695492006
 20
25.0701620349
 30
0.0
  0
SPLINE
  5
3AB
100
AcDbEntity
  8
0
100
AcDbSpline
 62
7
  6
CONTINUOUS
 70
0
 71
3
 72
11
 73
7
 74
0
 42
0.0000001
 43
0.0000001
 44
0.0000000001
 40
0.0
 40
0.0
 40
0.0
 40
0.0
 40
0.291262987
 40
0.5501944475
 40
0.7816711098
 40
1.0
 40
1.0
 40
1.0
 40
1.0
 10
15.047799016
 20
24.6675205998
 30
0.0
 10
15.047799016
 20
24.6794821157
 30
0.0
 10
15.0497558474
 20
24.7021662059
 30
0.0
 10
15.0596928904
 20
24.733057818
 30
0.0
 10
15.0765557727
 20
24.7574086087
 30
0.0
 10
15.092185776
 20
24.7681589547
 30
0.0
 10
15.1003857439
 20
24.7717858875
 30
0.0
  0
SPLINE
  5
3AC
100
AcDbEntity
  8
0
100
AcDbSpline
 62
7
  6
CONTINUOUS
 70
0
 71
3
 72
11
 73
7
 74
0
 42
0.0000001
 43
0.0000001
 44
0.0000000001
 40
0.0
 40
0.0
 40
0.0
 40
0.0
 40
0.2178664803
 40
0.4504597428
 40
0.7098139022
 40
1.0
 40
1.0
 40
1.0
 40
1.0
 10
15.234160013
 20
25.0930432289
 30
0.0
 10
15.2483942322
 20
25.1019304141
 30
0.0
 10
15.2813824099
 20
25.1151067578
 30
0.0
 10
15.3368234449
 20
25.1175002008
 30
0.0
 10
15.3960451172
 20
25.1036831572
 30
0.0
 10
15.4345741857
 20
25.0854618949
 30
0.0
 10
15.4539309066
 20
25.0742865397
 30
0.0
  0
SPLINE
  5
3AD
100
AcDbEntity
  8
0
100
AcDbSpline
 62
7
  6
CONTINUOUS
 70
0
 71
3
 72
11
 73
7
 74
0
 42
0.0000001
 43
0.0000001
 44
0.0000000001
 40
0.0
 40
0.0
 40
0.0
 40
0.0
 40
0.2183969168
 40
0.4498472534
 40
0.7086136425
 40
1.0
 40
1.0
 40
1.0
 40
1.0
 10
15.4247423314
 20
24.2399398458
 30
0.0
 10
15.439800016
 20
24.2466139925
 30
0.0
 10
15.4685071245
 20
24.2663512107
 30
0.0
 10
15.4994555237
 20
24.3110693246
 30
0.0
 10
15.5177317355
 20
24.3677818848
 30
0.0
 10
15.5213044432
 20
24.4094392608
 30
0.0
 10
15.5213044432
 20
24.4314143213
 30
0.0
  0
SPLINE
  5
3AE
100
AcDbEntity
  8
0
100
AcDbSpline
 62
7
  6
CONTINUOUS
 70
0
 71
3
 72
11
 73
7
 74
0
 42
0.0000001
 43
0.0000001
 44
0.0000000001
 40
0.0
 40
0.0
 40
0.0
 40
0.0
 40
0.2829796003
 40
0.5428832274
 40
0.7802721585
 40
1.0
 40
1.0
 40
1.0
 40
1.0
 10
15.2356369394
 20
24.9262022053
 30
0.0
 10
15.2213117074
 20
24.9344726947
 30
0.0
 10
15.1927347882
 20
24.9485629013
 30
0.0
 10
15.1489504097
 20
24.9621320287
 30
0.0
 10
15.1069935356
 20
24.9666788519
 30
0.0
 10
15.0801503307
 20
24.9634010726
 30
0.0
 10
15.0677257936
 20
24.9601456348
 30
0.0
  0
SPLINE
  5
3AF
100
AcDbEntity
  8
0
100
AcDbSpline
 62
7
  6
CONTINUOUS
 70
0
 71
3
 72
9
 73
5
 74
0
 42
0.0000001
 43
0.0000001
 44
0.0000000001
 40
0.0
 40
0.0
 40
0.0
 40
0.0
 40
0.2531517762
 40
1.0
 40
1.0
 40
1.0
 40
1.0
 10
15.0677257936
 20
24.9601456348
 30
0.0
 10
15.0635418553
 20
24.9590493726
 30
0.0
 10
15.0472160861
 20
24.9539822611
 30
0.0
 10
15.0318498401
 20
24.9458297655
 30
0.0
 10
15.0215391238
 20
24.938312456
 30
0.0
  0
SPLINE
  5
3B0
100
AcDbEntity
  8
0
100
AcDbSpline
 62
7
  6
CONTINUOUS
 70
0
 71
3
 72
11
 73
7
 74
0
 42
0.0000001
 43
0.0000001
 44
0.0000000001
 40
0.0
 40
0.0
 40
0.0
 40
0.0
 40
0.2893966051
 40
0.5491278405
 40
0.7823136736
 40
1.0
 40
1.0
 40
1.0
 40
1.0
 10
15.592271738
 20
30.7872090132
 30
0.0
 10
15.592271738
 20
30.7745557324
 30
0.0
 10
15.5903270833
 20
30.7504689322
 30
0.0
 10
15.5806081081
 20
30.7173562555
 30
0.0
 10
15.5641656202
 20
30.6904906139
 30
0.0
 10
15.5487345378
 20
30.6775248573
 30
0.0
 10
15.5404884263
 20
30.6727717582
 30
0.0
  0
SPLINE
  5
3B1
100
AcDbEntity
  8
0
100
AcDbSpline
 62
7
  6
CONTINUOUS
 70
0
 71
3
 72
13
 73
9
 74
0
 42
0.0000001
 43
0.0000001
 44
0.0000000001
 40
0.0
 40
0.0
 40
0.0
 40
0.0
 40
0.1141740902
 40
0.2375654463
 40
0.5000010843
 40
0.7624361292
 40
0.8858267911
 40
1.0
 40
1.0
 40
1.0
 40
1.0
 10
15.5213044432
 20
24.4314143213
 30
0.0
 10
15.5213044432
 20
24.4539792639
 30
0.0
 10
15.5171467425
 20
24.5009752826
 30
0.0
 10
15.4947335263
 20
24.5974616148
 30
0.0
 10
15.442510143
 20
24.7157823095
 30
0.0
 10
15.3661527066
 20
24.8201689895
 30
0.0
 10
15.2937995804
 20
24.8878218215
 30
0.0
 10
15.2551787126
 20
24.9149200125
 30
0.0
 10
15.2356369394
 20
24.9262022053
 30
0.0
  0
SPLINE
  5
3B2
100
AcDbEntity
  8
0
100
AcDbSpline
 62
7
  6
CONTINUOUS
 70
0
 71
3
 72
11
 73
7
 74
0
 42
0.0000001
 43
0.0000001
 44
0.0000000001
 40
0.0
 40
0.0
 40
0.0
 40
0.0
 40
0.2398941886
 40
0.4862695875
 40
0.7391935066
 40
1.0
 40
1.0
 40
1.0
 40
1.0
 10
13.7486842958
 20
20.540496643
 30
0.0
 10
13.7499693426
 20
20.5412366952
 30
0.0
 10
13.7525948745
 20
20.5427037707
 30
0.0
 10
13.7564664954
 20
20.5451232483
 30
0.0
 10
13.760796344
 20
20.5470715079
 30
0.0
 10
13.7629961934
 20
20.5494808603
 30
0.0
 10
13.7643936873
 20
20.5502846856
 30
0.0
  0
SPLINE
  5
3B3
100
AcDbEntity
  8
0
100
AcDbSpline
 62
7
  6
CONTINUOUS
 70
0
 71
3
 72
12
 73
8
 74
0
 42
0.0000001
 43
0.0000001
 44
0.0000000001
 40
0.0
 40
0.0
 40
0.0
 40
0.0
 40
0.2248823591
 40
0.3488115412
 40
0.4783172282
 40
0.7436837316
 40
1.0
 40
1.0
 40
1.0
 40
1.0
 10
40.3661042935
 20
13.7622942763
 30
0.0
 10
40.1955389947
 20
13.8211141341
 30
0.0
 10
39.9496106178
 20
13.9683203209
 30
0.0
 10
39.6655796715
 20
14.226625913
 30
0.0
 10
39.3936455825
 20
14.5432145938
 30
0.0
 10
39.1225781879
 20
14.9946185996
 30
0.0
 10
38.9883308093
 20
15.396015033
 30
0.0
 10
38.9501338442
 20
15.5980783442
 30
0.0
  0
SPLINE
  5
3B4
100
AcDbEntity
  8
0
100
AcDbSpline
 62
7
  6
CONTINUOUS
 70
0
 71
3
 72
11
 73
7
 74
0
 42
0.0000001
 43
0.0000001
 44
0.0000000001
 40
0.0
 40
0.0
 40
0.0
 40
0.0
 40
0.2377488291
 40
0.5005113868
 40
0.7629957398
 40
1.0
 40
1.0
 40
1.0
 40
1.0
 10
16.4549542359
 20
18.6194868566
 30
0.0
 10
16.4552016118
 20
18.6544628178
 30
0.0
 10
16.4686413947
 20
18.7280636582
 30
0.0
 10
16.5145877864
 20
18.8313520319
 30
0.0
 10
16.5813740508
 20
18.9225377151
 30
0.0
 10
16.6387313509
 20
18.970255958
 30
0.0
 10
16.6688033029
 20
18.9879026612
 30
0.0
  0
SPLINE
  5
3B5
100
AcDbEntity
  8
0
100
AcDbSpline
 62
7
  6
CONTINUOUS
 70
0
 71
3
 72
10
 73
6
 74
0
 42
0.0000001
 43
0.0000001
 44
0.0000000001
 40
0.0
 40
0.0
 40
0.0
 40
0.0
 40
0.2254928972
 40
0.4651168618
 40
1.0
 40
1.0
 40
1.0
 40
1.0
 10
38.4173303427
 20
16.2870531667
 30
0.0
 10
38.4621858587
 20
16.2992968993
 30
0.0
 10
38.5578092149
 20
16.3141251173
 30
0.0
 10
38.7647746604
 20
16.3048566977
 30
0.0
 10
38.9199614459
 20
16.2550403276
 30
0.0
 10
39.0204279345
 20
16.2095326536
 30
0.0
  0
SPLINE
  5
3B6
100
AcDbEntity
  8
0
100
AcDbSpline
 62
7
  6
CONTINUOUS
 70
0
 71
3
 72
9
 73
5
 74
0
 42
0.0000001
 43
0.0000001
 44
0.0000000001
 40
0.0
 40
0.0
 40
0.0
 40
0.0
 40
0.2450521806
 40
1.0
 40
1.0
 40
1.0
 40
1.0
 10
39.0204279345
 20
16.2095326536
 30
0.0
 10
39.031524106
 20
16.2045064906
 30
0.0
 10
39.0765369387
 20
16.1834073588
 30
0.0
 10
39.1204696348
 20
16.1600193286
 30
0.0
 10
39.152970122
 20
16.1412555881
 30
0.0
  0
SPLINE
  5
3B7
100
AcDbEntity
  8
0
100
AcDbSpline
 62
7
  6
CONTINUOUS
 70
0
 71
3
 72
11
 73
7
 74
0
 42
0.0000001
 43
0.0000001
 44
0.0000000001
 40
0.0
 40
0.0
 40
0.0
 40
0.0
 40
0.2234007372
 40
0.4727349906
 40
0.7371093428
 40
1.0
 40
1.0
 40
1.0
 40
1.0
 10
26.5775794678
 20
13.5583062385
 30
0.0
 10
26.4270984561
 20
13.6101999811
 30
0.0
 10
26.1288612492
 20
13.7795500041
 30
0.0
 10
25.7481307872
 20
14.1466554559
 30
0.0
 10
25.4331036208
 20
14.6057274807
 30
0.0
 10
25.282589855
 20
14.9532287569
 30
0.0
 10
25.2271496918
 20
15.1321512844
 30
0.0
  0
SPLINE
  5
3B8
100
AcDbEntity
  8
0
100
AcDbSpline
 62
7
  6
CONTINUOUS
 70
0
 71
3
 72
11
 73
7
 74
0
 42
0.0000001
 43
0.0000001
 44
0.0000000001
 40
0.0
 40
0.0
 40
0.0
 40
0.0
 40
0.2895956669
 40
0.5491549125
 40
0.7822917288
 40
1.0
 40
1.0
 40
1.0
 40
1.0
 10
60.8722442044
 20
99.5897914628
 30
0.0
 10
60.9161057539
 20
99.6151147891
 30
0.0
 10
61.0034169205
 20
99.6566122422
 30
0.0
 10
61.137578515
 20
99.689053106
 30
0.0
 10
61.2634907222
 20
99.6858732352
 30
0.0
 10
61.3392507349
 20
99.6583368113
 30
0.0
 10
61.3722288122
 20
99.639307282
 30
0.0
  0
SPLINE
  5
3B9
100
AcDbEntity
  8
0
100
AcDbSpline
 62
7
  6
CONTINUOUS
 70
0
 71
3
 72
11
 73
7
 74
0
 42
0.0000001
 43
0.0000001
 44
0.0000000001
 40
0.0
 40
0.0
 40
0.0
 40
0.0
 40
0.2177839237
 40
0.4509111717
 40
0.7102971901
 40
1.0
 40
1.0
 40
1.0
 40
1.0
 10
56.1134477966
 20
14.6906453604
 30
0.0
 10
56.1794189118
 20
14.6525578142
 30
0.0
 10
56.3309976883
 20
14.5975499694
 30
0.0
 10
56.5827669342
 20
14.5911773725
 30
0.0
 10
56.8510936424
 20
14.6559758673
 30
0.0
 10
57.0256694371
 20
14.7390266065
 30
0.0
 10
57.1134258398
 20
14.7896924867
 30
0.0
  0
SPLINE
  5
3BA
100
AcDbEntity
  8
0
100
AcDbSpline
 62
7
  6
CONTINUOUS
 70
0
 71
3
 72
11
 73
7
 74
0
 42
0.0000001
 43
0.0000001
 44
0.0000000001
 40
0.0
 40
0.0
 40
0.0
 40
0.0
 40
0.2895956669
 40
0.5491549125
 40
0.7822917288
 40
1.0
 40
1.0
 40
1.0
 40
1.0
 10
47.0912420529
 20
83.8766006901
 30
0.0
 10
47.1351036022
 20
83.9019240163
 30
0.0
 10
47.2224147685
 20
83.9434214692
 30
0.0
 10
47.3565763626
 20
83.9758623329
 30
0.0
 10
47.4824885693
 20
83.9726824621
 30
0.0
 10
47.5582485818
 20
83.9451460384
 30
0.0
 10
47.5912266589
 20
83.9261165091
 30
0.0
  0
SPLINE
  5
3BB
100
AcDbEntity
  8
0
100
AcDbSpline
 62
7
  6
CONTINUOUS
 70
0
 71
3
 72
11
 73
7
 74
0
 42
0.0000001
 43
0.0000001
 44
0.0000000001
 40
0.0
 40
0.0
 40
0.0
 40
0.0
 40
0.2890994765
 40
0.5484622741
 40
0.7818038226
 40
1.0
 40
1.0
 40
1.0
 40
1.0
 10
33.3027172272
 20
68.1590667269
 30
0.0
 10
33.3466515823
 20
68.1839879534
 30
0.0
 10
33.4340698339
 20
68.2247418227
 30
0.0
 10
33.56822418
 20
68.2562119367
 30
0.0
 10
33.6940545641
 20
68.2523730869
 30
0.0
 10
33.7697639652
 20
68.2246782459
 30
0.0
 10
33.8027833878
 20
68.2056247751
 30
0.0
  0
SPLINE
  5
3BC
100
AcDbEntity
  8
0
100
AcDbSpline
 62
7
  6
CONTINUOUS
 70
0
 71
3
 72
12
 73
8
 74
0
 42
0.0000001
 43
0.0000001
 44
0.0000000001
 40
0.0
 40
0.0
 40
0.0
 40
0.0
 40
0.2248823591
 40
0.3488115412
 40
0.4783172282
 40
0.7436837316
 40
1.0
 40
1.0
 40
1.0
 40
1.0
 10
54.1546291191
 20
87.4514998557
 30
0.0
 10
53.9840638203
 20
87.5103197135
 30
0.0
 10
53.7381354434
 20
87.6575259003
 30
0.0
 10
53.4541044971
 20
87.9158314924
 30
0.0
 10
53.1821704081
 20
88.2324201733
 30
0.0
 10
52.9111030136
 20
88.6838241791
 30
0.0
 10
52.7768556349
 20
89.0852206124
 30
0.0
 10
52.7386586698
 20
89.2872839236
 30
0.0
  0
SPLINE
  5
3BD
100
AcDbEntity
  8
0
100
AcDbSpline
 62
7
  6
CONTINUOUS
 70
0
 71
3
 72
9
 73
5
 74
0
 42
0.0000001
 43
0.0000001
 44
0.0000000001
 40
0.0
 40
0.0
 40
0.0
 40
0.0
 40
0.270984698
 40
1.0
 40
1.0
 40
1.0
 40
1.0
 10
11.3496828263
 20
43.941650129
 30
0.0
 10
11.3528579169
 20
43.9513984362
 30
0.0
 10
11.3630057404
 20
43.9878014906
 30
0.0
 10
11.3668625449
 20
44.0264187314
 30
0.0
 10
11.3637670717
 20
44.0538258152
 30
0.0
  0
SPLINE
  5
3BE
100
AcDbEntity
  8
0
100
AcDbSpline
 62
7
  6
CONTINUOUS
 70
0
 71
3
 72
11
 73
7
 74
0
 42
0.0000001
 43
0.0000001
 44
0.0000000001
 40
0.0
 40
0.0
 40
0.0
 40
0.0
 40
0.2237198772
 40
0.459434483
 40
0.7164898899
 40
1.0
 40
1.0
 40
1.0
 40
1.0
 10
52.0639346102
 20
89.9173525315
 30
0.0
 10
52.1138395502
 20
89.9461385669
 30
0.0
 10
52.2258281724
 20
89.9900762909
 30
0.0
 10
52.4116154405
 20
90.0068827511
 30
0.0
 10
52.6108261294
 20
89.9767459797
 30
0.0
 10
52.7424481994
 20
89.928862386
 30
0.0
 10
52.8089527602
 20
89.8987382331
 30
0.0
  0
SPLINE
  5
3BF
100
AcDbEntity
  8
0
100
AcDbSpline
 62
7
  6
CONTINUOUS
 70
0
 71
3
 72
9
 73
5
 74
0
 42
0.0000001
 43
0.0000001
 44
0.0000000001
 40
0.0
 40
0.0
 40
0.0
 40
0.0
 40
0.2450521806
 40
1.0
 40
1.0
 40
1.0
 40
1.0
 10
52.8089527602
 20
89.8987382331
 30
0.0
 10
52.8200489316
 20
89.89371207
 30
0.0
 10
52.8650617644
 20
89.8726129382
 30
0.0
 10
52.9089944605
 20
89.8492249081
 30
0.0
 10
52.9414949476
 20
89.8304611675
 30
0.0
  0
SPLINE
  5
3C0
100
AcDbEntity
  8
0
100
AcDbSpline
 62
7
  6
CONTINUOUS
 70
0
 71
3
 72
11
 73
7
 74
0
 42
0.0000001
 43
0.0000001
 44
0.0000000001
 40
0.0
 40
0.0
 40
0.0
 40
0.0
 40
0.2270971647
 40
0.4805853329
 40
0.7449699977
 40
1.0
 40
1.0
 40
1.0
 40
1.0
 10
40.3818223243
 20
71.7951634487
 30
0.0
 10
40.2165811828
 20
71.860599852
 30
0.0
 10
39.8936599566
 20
72.0673272149
 30
0.0
 10
39.4957123262
 20
72.4993631025
 30
0.0
 10
39.1867200847
 20
73.0242770814
 30
0.0
 10
39.0579163945
 20
73.4144612888
 30
0.0
 10
39.0208442279
 20
73.6105743757
 30
0.0
  0
SPLINE
  5
3C1
100
AcDbEntity
  8
0
100
AcDbSpline
 62
7
  6
CONTINUOUS
 70
0
 71
3
 72
11
 73
7
 74
0
 42
0.0000001
 43
0.0000001
 44
0.0000000001
 40
0.0
 40
0.0
 40
0.0
 40
0.0
 40
0.2215854245
 40
0.4563325361
 40
0.7142084541
 40
1.0
 40
1.0
 40
1.0
 40
1.0
 10
38.2754097845
 20
74.1998185683
 30
0.0
 10
38.3281388717
 20
74.2302336208
 30
0.0
 10
38.447422556
 20
74.2758299221
 30
0.0
 10
38.6455361758
 20
74.2891239669
 30
0.0
 10
38.8575940872
 20
74.2501725363
 30
0.0
 10
38.9969552999
 20
74.1938970715
 30
0.0
 10
39.0672633765
 20
74.1589589929
 30
0.0
  0
SPLINE
  5
3C2
100
AcDbEntity
  8
0
100
AcDbSpline
 62
7
  6
CONTINUOUS
 70
0
 71
3
 72
12
 73
8
 74
0
 42
0.0000001
 43
0.0000001
 44
0.0000000001
 40
0.0
 40
0.0
 40
0.0
 40
0.0
 40
0.2248823591
 40
0.3488115412
 40
0.4783172282
 40
0.7436837316
 40
1.0
 40
1.0
 40
1.0
 40
1.0
 10
26.5775794678
 20
56.0164319292
 30
0.0
 10
26.407014169
 20
56.0752517871
 30
0.0
 10
26.1610857921
 20
56.2224579738
 30
0.0
 10
25.8770548458
 20
56.4807635659
 30
0.0
 10
25.6051207568
 20
56.7973522468
 30
0.0
 10
25.3340533623
 20
57.2487562526
 30
0.0
 10
25.1998059836
 20
57.650152686
 30
0.0
 10
25.1616090185
 20
57.8522159971
 30
0.0
  0
SPLINE
  5
3C3
100
AcDbEntity
  8
0
100
AcDbSpline
 62
7
  6
CONTINUOUS
 70
0
 71
3
 72
11
 73
7
 74
0
 42
0.0000001
 43
0.0000001
 44
0.0000000001
 40
0.0
 40
0.0
 40
0.0
 40
0.0
 40
0.2377488291
 40
0.5005113868
 40
0.7629957398
 40
1.0
 40
1.0
 40
1.0
 40
1.0
 10
12.4244288026
 20
20.9464591574
 30
0.0
 10
12.4246761784
 20
20.9814351186
 30
0.0
 10
12.4381159614
 20
21.0550359589
 30
0.0
 10
12.4840623531
 20
21.1583243327
 30
0.0
 10
12.5508486175
 20
21.2495100159
 30
0.0
 10
12.6082059176
 20
21.2972282587
 30
0.0
 10
12.6382778695
 20
21.3148749619
 30
0.0
  0
SPLINE
  5
3C4
100
AcDbEntity
  8
0
100
AcDbSpline
 62
7
  6
CONTINUOUS
 70
0
 71
3
 72
11
 73
7
 74
0
 42
0.0000001
 43
0.0000001
 44
0.0000000001
 40
0.0
 40
0.0
 40
0.0
 40
0.0
 40
0.2237198772
 40
0.459434483
 40
0.7164898899
 40
1.0
 40
1.0
 40
1.0
 40
1.0
 10
24.4868849588
 20
58.482284605
 30
0.0
 10
24.5367898988
 20
58.5110706404
 30
0.0
 10
24.648778521
 20
58.5550083645
 30
0.0
 10
24.8345657891
 20
58.5718148246
 30
0.0
 10
25.0337764781
 20
58.5416780533
 30
0.0
 10
25.1653985481
 20
58.4937944595
 30
0.0
 10
25.2319031088
 20
58.4636703066
 30
0.0
  0
SPLINE
  5
3C5
100
AcDbEntity
  8
0
100
AcDbSpline
 62
7
  6
CONTINUOUS
 70
0
 71
3
 72
9
 73
5
 74
0
 42
0.0000001
 43
0.0000001
 44
0.0000000001
 40
0.0
 40
0.0
 40
0.0
 40
0.0
 40
0.2450521806
 40
1.0
 40
1.0
 40
1.0
 40
1.0
 10
25.2319031088
 20
58.4636703066
 30
0.0
 10
25.2429992803
 20
58.4586441435
 30
0.0
 10
25.288012113
 20
58.4375450117
 30
0.0
 10
25.3319448091
 20
58.4141569816
 30
0.0
 10
25.3644452963
 20
58.3953932411
 30
0.0
  0
SPLINE
  5
3C6
100
AcDbEntity
  8
0
100
AcDbSpline
 62
7
  6
CONTINUOUS
 70
0
 71
3
 72
15
 73
11
 74
0
 42
0.0000001
 43
0.0000001
 44
0.0000000001
 40
0.0
 40
0.0
 40
0.0
 40
0.0
 40
0.1250129496
 40
0.2502473866
 40
0.3753756778
 40
0.5004869131
 40
0.6254462454
 40
0.75031369
 40
0.8751355192
 40
1.0
 40
1.0
 40
1.0
 40
1.0
 10
14.2629205383
 20
13.5496712045
 30
0.0
 10
14.1610616054
 20
13.4919852875
 30
0.0
 10
13.9410279313
 20
13.4027488231
 30
0.0
 10
13.5885225703
 20
13.3582136138
 30
0.0
 10
13.2361383507
 20
13.4060660633
 30
0.0
 10
12.9081559974
 20
13.5427178507
 30
0.0
 10
12.6267462494
 20
13.7592911178
 30
0.0
 10
12.4110303387
 20
14.0410817922
 30
0.0
 10
12.2756517431
 20
14.3687937945
 30
0.0
 10
12.2449510864
 20
14.6037412249
 30
0.0
 10
12.2449510864
 20
14.7206616195
 30
0.0
  0
SPLINE
  5
3C7
100
AcDbEntity
  8
0
100
AcDbSpline
 62
7
  6
CONTINUOUS
 70
0
 71
3
 72
11
 73
7
 74
0
 42
0.0000001
 43
0.0000001
 44
0.0000000001
 40
0.0
 40
0.0
 40
0.0
 40
0.0
 40
0.2370011036
 40
0.4995824839
 40
0.7625543497
 40
1.0
 40
1.0
 40
1.0
 40
1.0
 10
61.8510215491
 20
43.2413559838
 30
0.0
 10
61.851031794
 20
43.2996775399
 30
0.0
 10
61.8723325839
 20
43.4227245807
 30
0.0
 10
61.9478121543
 20
43.5960918906
 30
0.0
 10
62.0591533301
 20
43.7490217981
 30
0.0
 10
62.1548141919
 20
43.8297639334
 30
0.0
 10
62.2054169559
 20
43.8589792785
 30
0.0
  0
SPLINE
  5
3C8
100
AcDbEntity
  8
0
100
AcDbSpline
 62
7
  6
CONTINUOUS
 70
0
 71
3
 72
10
 73
6
 74
0
 42
0.0000001
 43
0.0000001
 44
0.0000000001
 40
0.0
 40
0.0
 40
0.0
 40
0.0
 40
0.5217462283
 40
0.771779079
 40
1.0
 40
1.0
 40
1.0
 40
1.0
 10
61.6742455892
 20
20.2108214444
 30
0.0
 10
61.7282979828
 20
20.278063759
 30
0.0
 10
61.7935536836
 20
20.3908377295
 30
0.0
 10
61.8416272657
 20
20.5495024454
 30
0.0
 10
61.8510215488
 20
20.6287006769
 30
0.0
 10
61.8510215491
 20
20.6664383998
 30
0.0
  0
SPLINE
  5
3C9
100
AcDbEntity
  8
0
100
AcDbSpline
 62
7
  6
CONTINUOUS
 70
0
 71
3
 72
9
 73
5
 74
0
 42
0.0000001
 43
0.0000001
 44
0.0000000001
 40
0.0
 40
0.0
 40
0.0
 40
0.0
 40
0.4773841558
 40
1.0
 40
1.0
 40
1.0
 40
1.0
 10
57.1134258398
 20
14.7896924867
 30
0.0
 10
57.2442068958
 20
14.8651985139
 30
0.0
 10
57.4997431442
 20
15.0558561458
 30
0.0
 10
57.7169526446
 20
15.2878657961
 30
0.0
 10
57.8205296866
 20
15.4167178158
 30
0.0
  0
SPLINE
  5
3CA
100
AcDbEntity
  8
0
100
AcDbSpline
 62
7
  6
CONTINUOUS
 70
0
 71
3
 72
11
 73
7
 74
0
 42
0.0000001
 43
0.0000001
 44
0.0000000001
 40
0.0
 40
0.0
 40
0.0
 40
0.0
 40
0.2296136228
 40
0.4826012008
 40
0.7447377938
 40
1.0
 40
1.0
 40
1.0
 40
1.0
 10
51.4753223488
 20
15.2088122261
 30
0.0
 10
51.5522389942
 20
15.253219807
 30
0.0
 10
51.701177994
 20
15.3690050665
 30
0.0
 10
51.8900713798
 20
15.5884218246
 30
0.0
 10
52.0429747713
 20
15.8458479584
 30
0.0
 10
52.1143412307
 20
16.0342758647
 30
0.0
 10
52.1397826068
 20
16.1296783884
 30
0.0
  0
SPLINE
  5
3CB
100
AcDbEntity
  8
0
100
AcDbSpline
 62
7
  6
CONTINUOUS
 70
0
 71
3
 72
11
 73
7
 74
0
 42
0.0000001
 43
0.0000001
 44
0.0000000001
 40
0.0
 40
0.0
 40
0.0
 40
0.0
 40
0.2296136228
 40
0.4826012008
 40
0.7447377938
 40
1.0
 40
1.0
 40
1.0
 40
1.0
 10
37.6867975231
 20
15.0048241884
 30
0.0
 10
37.7637141685
 20
15.0492317692
 30
0.0
 10
37.9126531683
 20
15.1650170287
 30
0.0
 10
38.1015465541
 20
15.3844337868
 30
0.0
 10
38.2544499456
 20
15.6418599206
 30
0.0
 10
38.325816405
 20
15.8302878269
 30
0.0
 10
38.3512577811
 20
15.9256903507
 30
0.0
  0
SPLINE
  5
3CC
100
AcDbEntity
  8
0
100
AcDbSpline
 62
7
  6
CONTINUOUS
 70
0
 71
3
 72
9
 73
5
 74
0
 42
0.0000001
 43
0.0000001
 44
0.0000000001
 40
0.0
 40
0.0
 40
0.0
 40
0.0
 40
0.4522197181
 40
1.0
 40
1.0
 40
1.0
 40
1.0
 10
17.2350490729
 20
40.5309319713
 30
0.0
 10
17.2555716376
 20
40.5225077579
 30
0.0
 10
17.3074069231
 20
40.5191407833
 30
0.0
 10
17.3534252428
 20
40.5390995362
 30
0.0
 10
17.376846428
 20
40.5522737932
 30
0.0
  0
SPLINE
  5
3CD
100
AcDbEntity
  8
0
100
AcDbSpline
 62
7
  6
CONTINUOUS
 70
0
 71
3
 72
9
 73
5
 74
0
 42
0.0000001
 43
0.0000001
 44
0.0000000001
 40
0.0
 40
0.0
 40
0.0
 40
0.0
 40
0.2512852768
 40
1.0
 40
1.0
 40
1.0
 40
1.0
 10
17.1703398441
 20
40.4070869328
 30
0.0
 10
17.1772839133
 20
40.4165400628
 30
0.0
 10
17.2034376792
 20
40.455217203
 30
0.0
 10
17.2238741451
 20
40.4978181443
 30
0.0
 10
17.2350490729
 20
40.5309319713
 30
0.0
  0
SPLINE
  5
3CE
100
AcDbEntity
  8
0
100
AcDbSpline
 62
7
  6
CONTINUOUS
 70
0
 71
3
 72
9
 73
5
 74
0
 42
0.0000001
 43
0.0000001
 44
0.0000000001
 40
0.0
 40
0.0
 40
0.0
 40
0.0
 40
0.2309695689
 40
1.0
 40
1.0
 40
1.0
 40
1.0
 10
16.4903092393
 20
39.5097077829
 30
0.0
 10
16.4996335686
 20
39.5150911548
 30
0.0
 10
16.5383955338
 20
39.541164068
 30
0.0
 10
16.5707272608
 20
39.5760922459
 30
0.0
 10
16.5917037643
 20
39.6051632881
 30
0.0
  0
SPLINE
  5
3CF
100
AcDbEntity
  8
0
100
AcDbSpline
 62
7
  6
CONTINUOUS
 70
0
 71
3
 72
11
 73
7
 74
0
 42
0.0000001
 43
0.0000001
 44
0.0000000001
 40
0.0
 40
0.0
 40
0.0
 40
0.0
 40
0.2379207995
 40
0.5000015961
 40
0.7620815284
 40
1.0
 40
1.0
 40
1.0
 40
1.0
 10
14.1922218789
 20
38.7952912866
 30
0.0
 10
14.1932837548
 20
38.8532837037
 30
0.0
 10
14.2161467547
 20
38.9748846027
 30
0.0
 10
14.2921154008
 20
39.1458668922
 30
0.0
 10
14.402204988
 20
39.2971489078
 30
0.0
 10
14.4960822397
 20
39.3777490334
 30
0.0
 10
14.545773793
 20
39.4076644427
 30
0.0
  0
SPLINE
  5
3D0
100
AcDbEntity
  8
0
100
AcDbSpline
 62
7
  6
CONTINUOUS
 70
0
 71
3
 72
11
 73
7
 74
0
 42
0.0000001
 43
0.0000001
 44
0.0000000001
 40
0.0
 40
0.0
 40
0.0
 40
0.0
 40
0.2379184714
 40
0.4999984025
 40
0.7620791986
 40
1.0
 40
1.0
 40
1.0
 40
1.0
 10
13.9800905677
 20
37.856315423
 30
0.0
 10
14.0099055
 20
37.8742646694
 30
0.0
 10
14.0662318518
 20
37.9226247458
 30
0.0
 10
14.1322856056
 20
38.0133939566
 30
0.0
 10
14.1778667953
 20
38.115983332
 30
0.0
 10
14.191584597
 20
38.1889438728
 30
0.0
 10
14.1922217237
 20
38.223739324
 30
0.0
  0
SPLINE
  5
3D1
100
AcDbEntity
  8
0
100
AcDbSpline
 62
7
  6
CONTINUOUS
 70
0
 71
3
 72
11
 73
7
 74
0
 42
0.0000001
 43
0.0000001
 44
0.0000000001
 40
0.0
 40
0.0
 40
0.0
 40
0.0
 40
0.2372423277
 40
0.4999983784
 40
0.7627553116
 40
1.0
 40
1.0
 40
1.0
 40
1.0
 10
64.3258849636
 20
44.6615577662
 30
0.0
 10
64.3560019269
 20
44.6789456993
 30
0.0
 10
64.4129915616
 20
44.726914333
 30
0.0
 10
64.4795077088
 20
44.8178120525
 30
0.0
 10
64.5249689749
 20
44.9208661396
 30
0.0
 10
64.5380161288
 20
44.9942053828
 30
0.0
 10
64.5380161305
 20
45.0289817507
 30
0.0
  0
SPLINE
  5
3D2
100
AcDbEntity
  8
0
100
AcDbSpline
 62
7
  6
CONTINUOUS
 70
0
 71
3
 72
9
 73
5
 74
0
 42
0.0000001
 43
0.0000001
 44
0.0000000001
 40
0.0
 40
0.0
 40
0.0
 40
0.0
 40
0.241272164
 40
1.0
 40
1.0
 40
1.0
 40
1.0
 10
64.2890487904
 20
44.6440118673
 30
0.0
 10
64.2921245769
 20
44.645161411
 30
0.0
 10
64.3047622222
 20
44.6502199092
 30
0.0
 10
64.3169424832
 20
44.6563948535
 30
0.0
 10
64.3258849636
 20
44.6615577662
 30
0.0
  0
SPLINE
  5
3D3
100
AcDbEntity
  8
0
100
AcDbSpline
 62
7
  6
CONTINUOUS
 70
0
 71
3
 72
9
 73
5
 74
0
 42
0.0000001
 43
0.0000001
 44
0.0000000001
 40
0.0
 40
0.0
 40
0.0
 40
0.0
 40
0.2587557849
 40
1.0
 40
1.0
 40
1.0
 40
1.0
 10
62.2054169559
 20
43.8589792785
 30
0.0
 10
62.2104325152
 20
43.8618749957
 30
0.0
 10
62.2300186864
 20
43.8727068006
 30
0.0
 10
62.2504412467
 20
43.8820586138
 30
0.0
 10
62.2659671121
 20
43.8879060082
 30
0.0
  0
SPLINE
  5
3D4
100
AcDbEntity
  8
0
100
AcDbSpline
 62
7
  6
CONTINUOUS
 70
0
 71
3
 72
9
 73
5
 74
0
 42
0.0000001
 43
0.0000001
 44
0.0000000001
 40
0.0
 40
0.0
 40
0.0
 40
0.0
 40
0.2644887672
 40
1.0
 40
1.0
 40
1.0
 40
1.0
 10
39.0115074998
 20
16.1778575887
 30
0.0
 10
39.0081009396
 20
16.1797627981
 30
0.0
 10
38.9954646113
 20
16.1873834966
 30
0.0
 10
38.9838160836
 20
16.1967126516
 30
0.0
 10
38.9762625355
 20
16.2045072965
 30
0.0
  0
SPLINE
  5
3D5
100
AcDbEntity
  8
0
100
AcDbSpline
 62
7
  6
CONTINUOUS
 70
0
 71
3
 72
11
 73
7
 74
0
 42
0.0000001
 43
0.0000001
 44
0.0000000001
 40
0.0
 40
0.0
 40
0.0
 40
0.0
 40
0.2306888345
 40
0.4731377086
 40
0.7307877186
 40
1.0
 40
1.0
 40
1.0
 40
1.0
 10
38.9459622101
 20
16.0174982032
 30
0.0
 10
38.9459622101
 20
16.0278564755
 30
0.0
 10
38.9465638734
 20
16.049087644
 30
0.0
 10
38.9505400375
 20
16.0818488595
 30
0.0
 10
38.9581737638
 20
16.1150601463
 30
0.0
 10
38.968398708
 20
16.1382992224
 30
0.0
 10
38.9778846868
 20
16.1457916676
 30
0.0
  0
SPLINE
  5
3D6
100
AcDbEntity
  8
0
100
AcDbSpline
 62
7
  6
CONTINUOUS
 70
0
 71
3
 72
17
 73
13
 74
0
 42
0.0000001
 43
0.0000001
 44
0.0000000001
 40
0.0
 40
0.0
 40
0.0
 40
0.0
 40
0.1286880245
 40
0.270278509
 40
0.4174305517
 40
0.5617723386
 40
0.6954448884
 40
0.8127093339
 40
0.8646747764
 40
0.9125085238
 40
0.9571389706
 40
1.0
 40
1.0
 40
1.0
 40
1.0
 10
52.9414949476
 20
89.8304611675
 30
0.0
 10
53.0714191162
 20
89.7554511108
 30
0.0
 10
53.3236190482
 20
89.5613813699
 30
0.0
 10
53.646409521
 20
89.1941432636
 30
0.0
 10
53.912110836
 20
88.7620098757
 30
0.0
 10
54.0987501702
 20
88.3000860733
 30
0.0
 10
54.191393704
 20
87.8459285122
 30
0.0
 10
54.1830841768
 20
87.4880639962
 30
0.0
 10
54.1168367194
 20
87.2426199424
 30
0.0
 10
54.0430736608
 20
87.0899571695
 30
0.0
 10
53.944363125
 20
86.9651379782
 30
0.0
 10
53.8623377661
 20
86.902342763
 30
0.0
 10
53.8190552851
 20
86.8773766769
 30
0.0
  0
SPLINE
  5
3D7
100
AcDbEntity
  8
0
100
AcDbSpline
 62
7
  6
CONTINUOUS
 70
0
 71
3
 72
14
 73
10
 74
0
 42
0.0000001
 43
0.0000001
 44
0.0000000001
 40
0.0
 40
0.0
 40
0.0
 40
0.0
 40
0.1086358863
 40
0.2146012233
 40
0.3318942955
 40
0.4549522591
 40
0.584701547
 40
0.7193865111
 40
1.0
 40
1.0
 40
1.0
 40
1.0
 10
38.9778838799
 20
15.9260649538
 30
0.0
 10
38.9742643036
 20
15.9247443271
 30
0.0
 10
38.9652469118
 20
15.9252376677
 30
0.0
 10
38.958669305
 20
15.936032764
 30
0.0
 10
38.9543059446
 20
15.9473055444
 30
0.0
 10
38.9506891027
 20
15.9600130494
 30
0.0
 10
38.9483901864
 20
15.9735640956
 30
0.0
 10
38.9463480413
 20
15.9928004161
 30
0.0
 10
38.9459622101
 20
16.0075457304
 30
0.0
 10
38.9459622101
 20
16.0174982032
 30
0.0
  0
SPLINE
  5
3D8
100
AcDbEntity
  8
0
100
AcDbSpline
 62
7
  6
CONTINUOUS
 70
0
 71
3
 72
9
 73
5
 74
0
 42
0.0000001
 43
0.0000001
 44
0.0000000001
 40
0.0
 40
0.0
 40
0.0
 40
0.0
 40
0.2440264314
 40
1.0
 40
1.0
 40
1.0
 40
1.0
 10
38.1276592541
 20
15.4351904674
 30
0.0
 10
38.1288842934
 20
15.4160854764
 30
0.0
 10
38.1351211005
 20
15.3378753561
 30
0.0
 10
38.1460773873
 20
15.2600598548
 30
0.0
 10
38.1566665584
 20
15.2017056284
 30
0.0
  0
SPLINE
  5
3D9
100
AcDbEntity
  8
0
100
AcDbSpline
 62
7
  6
CONTINUOUS
 70
0
 71
3
 72
17
 73
13
 74
0
 42
0.0000001
 43
0.0000001
 44
0.0000000001
 40
0.0
 40
0.0
 40
0.0
 40
0.0
 40
0.1286880245
 40
0.270278509
 40
0.4174305517
 40
0.5617723386
 40
0.6954448884
 40
0.8127093339
 40
0.8646747764
 40
0.9125085238
 40
0.9571389706
 40
1.0
 40
1.0
 40
1.0
 40
1.0
 10
39.152970122
 20
74.1129272043
 30
0.0
 10
39.2828942905
 20
74.0379171476
 30
0.0
 10
39.5350942226
 20
73.8438474067
 30
0.0
 10
39.8578846953
 20
73.4766093004
 30
0.0
 10
40.1235860103
 20
73.0444759125
 30
0.0
 10
40.3102253445
 20
72.5825521101
 30
0.0
 10
40.4028688783
 20
72.128394549
 30
0.0
 10
40.3945593511
 20
71.7705300329
 30
0.0
 10
40.3283118937
 20
71.5250859791
 30
0.0
 10
40.2545488351
 20
71.3724232063
 30
0.0
 10
40.1558382993
 20
71.247604015
 30
0.0
 10
40.0738129404
 20
71.1848087998
 30
0.0
 10
40.0305304594
 20
71.1598427137
 30
0.0
  0
SPLINE
  5
3DA
100
AcDbEntity
  8
0
100
AcDbSpline
 62
7
  6
CONTINUOUS
 70
0
 71
3
 72
11
 73
7
 74
0
 42
0.0000001
 43
0.0000001
 44
0.0000000001
 40
0.0
 40
0.0
 40
0.0
 40
0.0
 40
0.2918124983
 40
0.5501461397
 40
0.7803772147
 40
1.0
 40
1.0
 40
1.0
 40
1.0
 10
39.0071228112
 20
15.692713844
 30
0.0
 10
38.9972890016
 20
15.6868712
 30
0.0
 10
38.9795946679
 20
15.6742773431
 30
0.0
 10
38.9591646269
 20
15.650961732
 30
0.0
 10
38.9484884375
 20
15.6246809669
 30
0.0
 10
38.9485382614
 20
15.6065347062
 30
0.0
 10
38.9501623249
 20
15.5980804516
 30
0.0
  0
SPLINE
  5
3DB
100
AcDbEntity
  8
0
100
AcDbSpline
 62
7
  6
CONTINUOUS
 70
0
 71
3
 72
17
 73
13
 74
0
 42
0.0000001
 43
0.0000001
 44
0.0000000001
 40
0.0
 40
0.0
 40
0.0
 40
0.0
 40
0.1286880245
 40
0.270278509
 40
0.4174305517
 40
0.5617723386
 40
0.6954448884
 40
0.8127093339
 40
0.8646747764
 40
0.9125085238
 40
0.9571389706
 40
1.0
 40
1.0
 40
1.0
 40
1.0
 10
25.3644452963
 20
58.3953932411
 30
0.0
 10
25.4943694648
 20
58.3203831844
 30
0.0
 10
25.7465693969
 20
58.1263134435
 30
0.0
 10
26.0693598697
 20
57.7590753372
 30
0.0
 10
26.3350611846
 20
57.3269419493
 30
0.0
 10
26.5217005189
 20
56.8650181468
 30
0.0
 10
26.6143440526
 20
56.4108605858
 30
0.0
 10
26.6060345255
 20
56.0529960697
 30
0.0
 10
26.5397870681
 20
55.8075520159
 30
0.0
 10
26.4660240095
 20
55.6548892431
 30
0.0
 10
26.3673134737
 20
55.5300700518
 30
0.0
 10
26.2852881148
 20
55.4672748366
 30
0.0
 10
26.2420056337
 20
55.4423087505
 30
0.0
  0
SPLINE
  5
3DC
100
AcDbEntity
  8
0
100
AcDbSpline
 62
7
  6
CONTINUOUS
 70
0
 71
3
 72
16
 73
12
 74
0
 42
0.0000001
 43
0.0000001
 44
0.0000000001
 40
0.0
 40
0.0
 40
0.0
 40
0.0
 40
0.1465375656
 40
0.295819019
 40
0.442102187
 40
0.580042267
 40
0.7053620791
 40
0.8157739632
 40
0.9121239379
 40
0.9566699042
 40
1.0
 40
1.0
 40
1.0
 40
1.0
 10
25.8821327214
 20
15.5077570746
 30
0.0
 10
25.9745713094
 20
15.4053951052
 30
0.0
 10
26.1455520845
 20
15.1842049605
 30
0.0
 10
26.3530214505
 20
14.822095777
 30
0.0
 10
26.505653828
 20
14.4421843973
 30
0.0
 10
26.5949905708
 20
14.065547546
 30
0.0
 10
26.6158286594
 20
13.7122581927
 30
0.0
 10
26.5664707034
 20
13.4006053624
 30
0.0
 10
26.4620048296
 20
13.1828273927
 30
0.0
 10
26.3447938467
 20
13.0536386451
 30
0.0
 10
26.2773328543
 20
13.0045604136
 30
0.0
 10
26.2420056337
 20
12.9841830597
 30
0.0
  0
SPLINE
  5
3DD
100
AcDbEntity
  8
0
100
AcDbSpline
 62
7
  6
CONTINUOUS
 70
0
 71
3
 72
17
 73
13
 74
0
 42
0.0000001
 43
0.0000001
 44
0.0000000001
 40
0.0
 40
0.0
 40
0.0
 40
0.0
 40
0.1286880245
 40
0.270278509
 40
0.4174305517
 40
0.5617723386
 40
0.6954448884
 40
0.8127093339
 40
0.8646747764
 40
0.9125085238
 40
0.9571389706
 40
1.0
 40
1.0
 40
1.0
 40
1.0
 10
39.152970122
 20
16.1412555881
 30
0.0
 10
39.2828942905
 20
16.0662455314
 30
0.0
 10
39.5350942226
 20
15.8721757905
 30
0.0
 10
39.8578846953
 20
15.5049376842
 30
0.0
 10
40.1235860103
 20
15.0728042963
 30
0.0
 10
40.3102253445
 20
14.6108804939
 30
0.0
 10
40.4028688783
 20
14.1567229328
 30
0.0
 10
40.3945593511
 20
13.7988584167
 30
0.0
 10
40.3283118937
 20
13.5534143629
 30
0.0
 10
40.2545488351
 20
13.4007515901
 30
0.0
 10
40.1558382993
 20
13.2759323988
 30
0.0
 10
40.0738129404
 20
13.2131371836
 30
0.0
 10
40.0305304594
 20
13.1881710975
 30
0.0
  0
SPLINE
  5
3DE
100
AcDbEntity
  8
0
100
AcDbSpline
 62
7
  6
CONTINUOUS
 70
0
 71
3
 72
9
 73
5
 74
0
 42
0.0000001
 43
0.0000001
 44
0.0000000001
 40
0.0
 40
0.0
 40
0.0
 40
0.0
 40
0.5346259894
 40
1.0
 40
1.0
 40
1.0
 40
1.0
 10
66.3426078185
 20
23.6313200279
 30
0.0
 10
66.3619755968
 20
23.6385585348
 30
0.0
 10
66.4007163481
 20
23.647137968
 30
0.0
 10
66.4401892477
 20
23.6376442261
 30
0.0
 10
66.4557777652
 20
23.6286483864
 30
0.0
  0
SPLINE
  5
3DF
100
AcDbEntity
  8
0
100
AcDbSpline
 62
7
  6
CONTINUOUS
 70
0
 71
3
 72
11
 73
7
 74
0
 42
0.0000001
 43
0.0000001
 44
0.0000000001
 40
0.0
 40
0.0
 40
0.0
 40
0.0
 40
0.2918124983
 40
0.5501461397
 40
0.7803772147
 40
1.0
 40
1.0
 40
1.0
 40
1.0
 10
25.2185979856
 20
57.946851497
 30
0.0
 10
25.2087641759
 20
57.9410088529
 30
0.0
 10
25.1910698423
 20
57.928414996
 30
0.0
 10
25.1706398012
 20
57.9050993849
 30
0.0
 10
25.1599636119
 20
57.8788186199
 30
0.0
 10
25.1600134358
 20
57.8606723592
 30
0.0
 10
25.1616374992
 20
57.8522181045
 30
0.0
  0
SPLINE
  5
3E0
100
AcDbEntity
  8
0
100
AcDbSpline
 62
7
  6
CONTINUOUS
 70
0
 71
3
 72
9
 73
5
 74
0
 42
0.0000001
 43
0.0000001
 44
0.0000000001
 40
0.0
 40
0.0
 40
0.0
 40
0.0
 40
0.2440264314
 40
1.0
 40
1.0
 40
1.0
 40
1.0
 10
24.3391344284
 20
57.6893281204
 30
0.0
 10
24.3403594677
 20
57.6702231293
 30
0.0
 10
24.3465962748
 20
57.5920130091
 30
0.0
 10
24.3575525617
 20
57.5141975078
 30
0.0
 10
24.3681417327
 20
57.4558432814
 30
0.0
  0
SPLINE
  5
3E1
100
AcDbEntity
  8
0
100
AcDbSpline
 62
7
  6
CONTINUOUS
 70
0
 71
3
 72
14
 73
10
 74
0
 42
0.0000001
 43
0.0000001
 44
0.0000000001
 40
0.0
 40
0.0
 40
0.0
 40
0.0
 40
0.1086358863
 40
0.2146012233
 40
0.3318942955
 40
0.4549522591
 40
0.584701547
 40
0.7193865111
 40
1.0
 40
1.0
 40
1.0
 40
1.0
 10
25.1893590542
 20
58.1802026068
 30
0.0
 10
25.1857394779
 20
58.1788819801
 30
0.0
 10
25.1767220862
 20
58.1793753207
 30
0.0
 10
25.1701444794
 20
58.190170417
 30
0.0
 10
25.1657811189
 20
58.2014431974
 30
0.0
 10
25.162164277
 20
58.2141507024
 30
0.0
 10
25.1598653607
 20
58.2277017486
 30
0.0
 10
25.1578232157
 20
58.2469380691
 30
0.0
 10
25.1574373845
 20
58.2616833833
 30
0.0
 10
25.1574373845
 20
58.2716358561
 30
0.0
  0
SPLINE
  5
3E2
100
AcDbEntity
  8
0
100
AcDbSpline
 62
7
  6
CONTINUOUS
 70
0
 71
3
 72
13
 73
9
 74
0
 42
0.0000001
 43
0.0000001
 44
0.0000000001
 40
0.0
 40
0.0
 40
0.0
 40
0.0
 40
0.114175582
 40
0.23756922
 40
0.49999856
 40
0.7624286893
 40
0.8858231943
 40
1.0
 40
1.0
 40
1.0
 40
1.0
 10
67.2250066191
 20
21.3624210011
 30
0.0
 10
67.2975649535
 20
21.4043123249
 30
0.0
 10
67.4409612377
 20
21.5049329868
 30
0.0
 10
67.7095998367
 20
21.756125593
 30
0.0
 10
67.9930968431
 20
22.1437063431
 30
0.0
 10
68.1870008841
 20
22.5830138881
 30
0.0
 10
68.2702203755
 20
22.9412602802
 30
0.0
 10
68.2856623749
 20
23.1157569369
 30
0.0
 10
68.2856623749
 20
23.1995408576
 30
0.0
  0
SPLINE
  5
3E3
100
AcDbEntity
  8
0
100
AcDbSpline
 62
7
  6
CONTINUOUS
 70
0
 71
3
 72
11
 73
7
 74
0
 42
0.0000001
 43
0.0000001
 44
0.0000000001
 40
0.0
 40
0.0
 40
0.0
 40
0.0
 40
0.2306888345
 40
0.4731377086
 40
0.7307877186
 40
1.0
 40
1.0
 40
1.0
 40
1.0
 10
25.1574373845
 20
58.2716358561
 30
0.0
 10
25.1574373845
 20
58.2819941285
 30
0.0
 10
25.1580390477
 20
58.303225297
 30
0.0
 10
25.1620152119
 20
58.3359865125
 30
0.0
 10
25.1696489381
 20
58.3691977992
 30
0.0
 10
25.1798738823
 20
58.3924368754
 30
0.0
 10
25.1893598611
 20
58.3999293206
 30
0.0
  0
SPLINE
  5
3E4
100
AcDbEntity
  8
0
100
AcDbSpline
 62
7
  6
CONTINUOUS
 70
0
 71
3
 72
9
 73
5
 74
0
 42
0.0000001
 43
0.0000001
 44
0.0000000001
 40
0.0
 40
0.0
 40
0.0
 40
0.0
 40
0.2420010819
 40
1.0
 40
1.0
 40
1.0
 40
1.0
 10
24.3681417327
 20
58.1090452151
 30
0.0
 10
24.3644799175
 20
58.0930940877
 30
0.0
 10
24.3507675768
 20
58.0268567529
 30
0.0
 10
24.3426757617
 20
57.9595065071
 30
0.0
 10
24.3391344284
 20
57.9083670457
 30
0.0
  0
SPLINE
  5
3E5
100
AcDbEntity
  8
0
100
AcDbSpline
 62
7
  6
CONTINUOUS
 70
0
 71
3
 72
9
 73
5
 74
0
 42
0.0000001
 43
0.0000001
 44
0.0000000001
 40
0.0
 40
0.0
 40
0.0
 40
0.0
 40
0.2644887672
 40
1.0
 40
1.0
 40
1.0
 40
1.0
 10
25.2229826742
 20
58.4319952417
 30
0.0
 10
25.2195761139
 20
58.4339004511
 30
0.0
 10
25.2069397857
 20
58.4415211496
 30
0.0
 10
25.195291258
 20
58.4508503045
 30
0.0
 10
25.1877377098
 20
58.4586449495
 30
0.0
  0
SPLINE
  5
3E6
100
AcDbEntity
  8
0
100
AcDbSpline
 62
7
  6
CONTINUOUS
 70
0
 71
3
 72
11
 73
7
 74
0
 42
0.0000001
 43
0.0000001
 44
0.0000000001
 40
0.0
 40
0.0
 40
0.0
 40
0.0
 40
0.2894517677
 40
0.5489688303
 40
0.7820614808
 40
1.0
 40
1.0
 40
1.0
 40
1.0
 10
68.2856623749
 20
45.1031217142
 30
0.0
 10
68.2856623749
 20
45.1537450102
 30
0.0
 10
68.2779132073
 20
45.2500731497
 30
0.0
 10
68.2390153092
 20
45.3824591518
 30
0.0
 10
68.1733345263
 20
45.4899833092
 30
0.0
 10
68.1115225809
 20
45.5417852706
 30
0.0
 10
68.0785134667
 20
45.5608439638
 30
0.0
  0
SPLINE
  5
3E7
100
AcDbEntity
  8
0
100
AcDbSpline
 62
7
  6
CONTINUOUS
 70
0
 71
3
 72
9
 73
5
 74
0
 42
0.0000001
 43
0.0000001
 44
0.0000000001
 40
0.0
 40
0.0
 40
0.0
 40
0.0
 40
0.2412721595
 40
1.0
 40
1.0
 40
1.0
 40
1.0
 10
63.6987770567
 20
26.4313829926
 30
0.0
 10
63.7039033697
 20
26.433298899
 30
0.0
 10
63.7249661208
 20
26.4417297311
 30
0.0
 10
63.7452665642
 20
26.4520213086
 30
0.0
 10
63.7601707042
 20
26.4606261665
 30
0.0
  0
SPLINE
  5
3E8
100
AcDbEntity
  8
0
100
AcDbSpline
 62
7
  6
CONTINUOUS
 70
0
 71
3
 72
11
 73
7
 74
0
 42
0.0000001
 43
0.0000001
 44
0.0000000001
 40
0.0
 40
0.0
 40
0.0
 40
0.0
 40
0.2918124983
 40
0.5501461397
 40
0.7803772147
 40
1.0
 40
1.0
 40
1.0
 40
1.0
 10
39.077833195
 20
73.7052098756
 30
0.0
 10
39.0679993853
 20
73.6993672315
 30
0.0
 10
39.0503050517
 20
73.6867733747
 30
0.0
 10
39.0298750106
 20
73.6634577635
 30
0.0
 10
39.0191988213
 20
73.6371769985
 30
0.0
 10
39.0192486452
 20
73.6190307378
 30
0.0
 10
39.0208727086
 20
73.6105764832
 30
0.0
  0
SPLINE
  5
3E9
100
AcDbEntity
  8
0
100
AcDbSpline
 62
7
  6
CONTINUOUS
 70
0
 71
3
 72
9
 73
5
 74
0
 42
0.0000001
 43
0.0000001
 44
0.0000000001
 40
0.0
 40
0.0
 40
0.0
 40
0.0
 40
0.2440264314
 40
1.0
 40
1.0
 40
1.0
 40
1.0
 10
38.1983696378
 20
73.447686499
 30
0.0
 10
38.1995946771
 20
73.4285815079
 30
0.0
 10
38.2058314842
 20
73.3503713877
 30
0.0
 10
38.2167877711
 20
73.2725558864
 30
0.0
 10
38.2273769421
 20
73.21420166
 30
0.0
  0
SPLINE
  5
3EA
100
AcDbEntity
  8
0
100
AcDbSpline
 62
7
  6
CONTINUOUS
 70
0
 71
3
 72
11
 73
7
 74
0
 42
0.0000001
 43
0.0000001
 44
0.0000000001
 40
0.0
 40
0.0
 40
0.0
 40
0.0
 40
0.2372423297
 40
0.4999983826
 40
0.7627553157
 40
1.0
 40
1.0
 40
1.0
 40
1.0
 10
63.7601707042
 20
26.4606261665
 30
0.0
 10
63.8103656415
 20
26.4896060541
 30
0.0
 10
63.9053483627
 20
26.5695537753
 30
0.0
 10
64.016208602
 20
26.721049971
 30
0.0
 10
64.0919773717
 20
26.8928067774
 30
0.0
 10
64.1137226226
 20
27.0150388448
 30
0.0
 10
64.1137226222
 20
27.0729994546
 30
0.0
  0
SPLINE
  5
3EB
100
AcDbEntity
  8
0
100
AcDbSpline
 62
7
  6
CONTINUOUS
 70
0
 71
3
 72
14
 73
10
 74
0
 42
0.0000001
 43
0.0000001
 44
0.0000000001
 40
0.0
 40
0.0
 40
0.0
 40
0.0
 40
0.1086358863
 40
0.2146012233
 40
0.3318942955
 40
0.4549522591
 40
0.584701547
 40
0.7193865111
 40
1.0
 40
1.0
 40
1.0
 40
1.0
 10
39.0485942636
 20
73.9385609854
 30
0.0
 10
39.0449746873
 20
73.9372403587
 30
0.0
 10
39.0359572956
 20
73.9377336993
 30
0.0
 10
39.0293796888
 20
73.9485287956
 30
0.0
 10
39.0250163283
 20
73.959801576
 30
0.0
 10
39.0213994864
 20
73.972509081
 30
0.0
 10
39.0191005701
 20
73.9860601272
 30
0.0
 10
39.017058425
 20
74.0052964477
 30
0.0
 10
39.0166725939
 20
74.0200417619
 30
0.0
 10
39.0166725939
 20
74.0299942348
 30
0.0
  0
SPLINE
  5
3EC
100
AcDbEntity
  8
0
100
AcDbSpline
 62
7
  6
CONTINUOUS
 70
0
 71
3
 72
11
 73
7
 74
0
 42
0.0000001
 43
0.0000001
 44
0.0000000001
 40
0.0
 40
0.0
 40
0.0
 40
0.0
 40
0.2306888345
 40
0.4731377086
 40
0.7307877186
 40
1.0
 40
1.0
 40
1.0
 40
1.0
 10
39.0166725939
 20
74.0299942348
 30
0.0
 10
39.0166725939
 20
74.0403525071
 30
0.0
 10
39.0172742571
 20
74.0615836756
 30
0.0
 10
39.0212504213
 20
74.0943448911
 30
0.0
 10
39.0288841475
 20
74.1275561779
 30
0.0
 10
39.0391090917
 20
74.150795254
 30
0.0
 10
39.0485950705
 20
74.1582876992
 30
0.0
  0
SPLINE
  5
3ED
100
AcDbEntity
  8
0
100
AcDbSpline
 62
7
  6
CONTINUOUS
 70
0
 71
3
 72
9
 73
5
 74
0
 42
0.0000001
 43
0.0000001
 44
0.0000000001
 40
0.0
 40
0.0
 40
0.0
 40
0.0
 40
0.2420010819
 40
1.0
 40
1.0
 40
1.0
 40
1.0
 10
38.2273769421
 20
73.8674035937
 30
0.0
 10
38.2237151269
 20
73.8514524663
 30
0.0
 10
38.2100027862
 20
73.7852151315
 30
0.0
 10
38.2019109711
 20
73.7178648857
 30
0.0
 10
38.1983696378
 20
73.6667254243
 30
0.0
  0
SPLINE
  5
3EE
100
AcDbEntity
  8
0
100
AcDbSpline
 62
7
  6
CONTINUOUS
 70
0
 71
3
 72
9
 73
5
 74
0
 42
0.0000001
 43
0.0000001
 44
0.0000000001
 40
0.0
 40
0.0
 40
0.0
 40
0.0
 40
0.2644887672
 40
1.0
 40
1.0
 40
1.0
 40
1.0
 10
52.8000323255
 20
89.8670631681
 30
0.0
 10
52.7966257652
 20
89.8689683775
 30
0.0
 10
52.783989437
 20
89.8765890761
 30
0.0
 10
52.7723409093
 20
89.885918231
 30
0.0
 10
52.7647873611
 20
89.893712876
 30
0.0
  0
SPLINE
  5
3EF
100
AcDbEntity
  8
0
100
AcDbSpline
 62
7
  6
CONTINUOUS
 70
0
 71
3
 72
9
 73
5
 74
0
 42
0.0000001
 43
0.0000001
 44
0.0000000001
 40
0.0
 40
0.0
 40
0.0
 40
0.0
 40
0.2420010819
 40
1.0
 40
1.0
 40
1.0
 40
1.0
 10
51.9451913841
 20
89.5441131416
 30
0.0
 10
51.9415295688
 20
89.5281620141
 30
0.0
 10
51.9278172281
 20
89.4619246793
 30
0.0
 10
51.919725413
 20
89.3945744336
 30
0.0
 10
51.9161840798
 20
89.3434349721
 30
0.0
  0
SPLINE
  5
3F0
100
AcDbEntity
  8
0
100
AcDbSpline
 62
7
  6
CONTINUOUS
 70
0
 71
3
 72
11
 73
7
 74
0
 42
0.0000001
 43
0.0000001
 44
0.0000000001
 40
0.0
 40
0.0
 40
0.0
 40
0.0
 40
0.2306888345
 40
0.4731377086
 40
0.7307877186
 40
1.0
 40
1.0
 40
1.0
 40
1.0
 10
52.7344870358
 20
89.7067037826
 30
0.0
 10
52.7344870358
 20
89.7170620549
 30
0.0
 10
52.735088699
 20
89.7382932234
 30
0.0
 10
52.7390648632
 20
89.7710544389
 30
0.0
 10
52.7466985895
 20
89.8042657257
 30
0.0
 10
52.7569235337
 20
89.8275048018
 30
0.0
 10
52.7664095125
 20
89.834997247
 30
0.0
  0
SPLINE
  5
3F1
100
AcDbEntity
  8
0
100
AcDbSpline
 62
7
  6
CONTINUOUS
 70
0
 71
3
 72
14
 73
10
 74
0
 42
0.0000001
 43
0.0000001
 44
0.0000000001
 40
0.0
 40
0.0
 40
0.0
 40
0.0
 40
0.1086358863
 40
0.2146012233
 40
0.3318942955
 40
0.4549522591
 40
0.584701547
 40
0.7193865111
 40
1.0
 40
1.0
 40
1.0
 40
1.0
 10
52.7664087056
 20
89.6152705332
 30
0.0
 10
52.7627891293
 20
89.6139499065
 30
0.0
 10
52.7537717375
 20
89.6144432471
 30
0.0
 10
52.7471941307
 20
89.6252383434
 30
0.0
 10
52.7428307702
 20
89.6365111239
 30
0.0
 10
52.7392139284
 20
89.6492186288
 30
0.0
 10
52.7369150121
 20
89.662769675
 30
0.0
 10
52.734872867
 20
89.6820059956
 30
0.0
 10
52.7344870358
 20
89.6967513098
 30
0.0
 10
52.7344870358
 20
89.7067037826
 30
0.0
  0
SPLINE
  5
3F2
100
AcDbEntity
  8
0
100
AcDbSpline
 62
7
  6
CONTINUOUS
 70
0
 71
3
 72
9
 73
5
 74
0
 42
0.0000001
 43
0.0000001
 44
0.0000000001
 40
0.0
 40
0.0
 40
0.0
 40
0.0
 40
0.2440264314
 40
1.0
 40
1.0
 40
1.0
 40
1.0
 10
51.9161840798
 20
89.1243960468
 30
0.0
 10
51.917409119
 20
89.1052910558
 30
0.0
 10
51.9236459261
 20
89.0270809355
 30
0.0
 10
51.934602213
 20
88.9492654342
 30
0.0
 10
51.9451913841
 20
88.8909112078
 30
0.0
  0
SPLINE
  5
3F3
100
AcDbEntity
  8
0
100
AcDbSpline
 62
7
  6
CONTINUOUS
 70
0
 71
3
 72
11
 73
7
 74
0
 42
0.0000001
 43
0.0000001
 44
0.0000000001
 40
0.0
 40
0.0
 40
0.0
 40
0.0
 40
0.2918124983
 40
0.5501461397
 40
0.7803772147
 40
1.0
 40
1.0
 40
1.0
 40
1.0
 10
52.7956476369
 20
89.3819194234
 30
0.0
 10
52.7858138272
 20
89.3760767794
 30
0.0
 10
52.7681194936
 20
89.3634829225
 30
0.0
 10
52.7476894526
 20
89.3401673114
 30
0.0
 10
52.7370132632
 20
89.3138865463
 30
0.0
 10
52.7370630871
 20
89.2957402856
 30
0.0
 10
52.7386871505
 20
89.287286031
 30
0.0
  0
SPLINE
  5
3F4
100
AcDbEntity
  8
0
100
AcDbSpline
 62
7
  6
CONTINUOUS
 70
0
 71
3
 72
11
 73
7
 74
0
 42
0.0000001
 43
0.0000001
 44
0.0000000001
 40
0.0
 40
0.0
 40
0.0
 40
0.0
 40
0.2181961774
 40
0.4515377259
 40
0.7109005235
 40
1.0
 40
1.0
 40
1.0
 40
1.0
 10
38.1868636837
 20
65.6745320971
 30
0.0
 10
38.1538442611
 20
65.6935855679
 30
0.0
 10
38.07813486
 20
65.7212804089
 30
0.0
 10
37.9523044759
 20
65.7251192587
 30
0.0
 10
37.8181501298
 20
65.6936491447
 30
0.0
 10
37.7307318782
 20
65.6528952754
 30
0.0
 10
37.6867975231
 20
65.6279740489
 30
0.0
  0
SPLINE
  5
3F5
100
AcDbEntity
  8
0
100
AcDbSpline
 62
7
  6
CONTINUOUS
 70
0
 71
3
 72
11
 73
7
 74
0
 42
0.0000001
 43
0.0000001
 44
0.0000000001
 40
0.0
 40
0.0
 40
0.0
 40
0.0
 40
0.2177669599
 40
0.450898211
 40
0.7103709681
 40
1.0
 40
1.0
 40
1.0
 40
1.0
 10
26.2420056337
 20
12.9841830597
 30
0.0
 10
26.1841015425
 20
12.9507829751
 30
0.0
 10
26.0511254274
 20
12.9024121734
 30
0.0
 10
25.8301302271
 20
12.8968612211
 30
0.0
 10
25.5946634937
 20
12.9537656658
 30
0.0
 10
25.4414401355
 20
13.0266224381
 30
0.0
 10
25.3644452963
 20
13.0710744237
 30
0.0
  0
SPLINE
  5
3F6
100
AcDbEntity
  8
0
100
AcDbSpline
 62
7
  6
CONTINUOUS
 70
0
 71
3
 72
11
 73
7
 74
0
 42
0.0000001
 43
0.0000001
 44
0.0000000001
 40
0.0
 40
0.0
 40
0.0
 40
0.0
 40
0.2370042602
 40
0.4994886132
 40
0.7622511709
 40
1.0
 40
1.0
 40
1.0
 40
1.0
 10
17.0223581655
 20
18.7837822839
 30
0.0
 10
16.9922862135
 20
18.7661355807
 30
0.0
 10
16.9349289134
 20
18.7184173379
 30
0.0
 10
16.868142649
 20
18.6272316547
 30
0.0
 10
16.8221962573
 20
18.5239432809
 30
0.0
 10
16.8087564743
 20
18.4503424406
 30
0.0
 10
16.8085090985
 20
18.4153664794
 30
0.0
  0
SPLINE
  5
3F7
100
AcDbEntity
  8
0
100
AcDbSpline
 62
7
  6
CONTINUOUS
 70
0
 71
3
 72
11
 73
7
 74
0
 42
0.0000001
 43
0.0000001
 44
0.0000000001
 40
0.0
 40
0.0
 40
0.0
 40
0.0
 40
0.2177082712
 40
0.4508450875
 40
0.7104043331
 40
1.0
 40
1.0
 40
1.0
 40
1.0
 10
51.9753069549
 20
81.3950238311
 30
0.0
 10
51.9423288777
 20
81.4140533604
 30
0.0
 10
51.8665688652
 20
81.4415897841
 30
0.0
 10
51.7406566585
 20
81.4447696549
 30
0.0
 10
51.6064950644
 20
81.4123287912
 30
0.0
 10
51.5191838981
 20
81.3708313383
 30
0.0
 10
51.4753223488
 20
81.3455080121
 30
0.0
  0
SPLINE
  5
3F8
100
AcDbEntity
  8
0
100
AcDbSpline
 62
7
  6
CONTINUOUS
 70
0
 71
3
 72
13
 73
9
 74
0
 42
0.0000001
 43
0.0000001
 44
0.0000000001
 40
0.0
 40
0.0
 40
0.0
 40
0.0
 40
0.3023436154
 40
0.5828546376
 40
0.7056389904
 40
0.8145855716
 40
0.9111482606
 40
1.0
 40
1.0
 40
1.0
 40
1.0
 10
16.3889147142
 20
39.8225034873
 30
0.0
 10
16.3678260971
 20
39.7932770682
 30
0.0
 10
16.3341984518
 20
39.7316326166
 30
0.0
 10
16.3128886125
 20
39.6489059482
 30
0.0
 10
16.3133793588
 20
39.5874847124
 30
0.0
 10
16.3221535391
 20
39.5489663037
 30
0.0
 10
16.3390362645
 20
39.5175757997
 30
0.0
 10
16.3561427585
 20
39.5026287006
 30
0.0
 10
16.3653153213
 20
39.4973331551
 30
0.0
  0
SPLINE
  5
3F9
100
AcDbEntity
  8
0
100
AcDbSpline
 62
7
  6
CONTINUOUS
 70
0
 71
3
 72
13
 73
9
 74
0
 42
0.0000001
 43
0.0000001
 44
0.0000000001
 40
0.0
 40
0.0
 40
0.0
 40
0.0
 40
0.2687584017
 40
0.4056964322
 40
0.5400547286
 40
0.6688906387
 40
0.7896916811
 40
1.0
 40
1.0
 40
1.0
 40
1.0
 10
25.2675888476
 20
15.1505542935
 30
0.0
 10
25.319759832
 20
14.9702801896
 30
0.0
 10
25.4313466304
 20
14.706535004
 30
0.0
 10
25.6315737809
 20
14.3864545509
 30
0.0
 10
25.8044673593
 20
14.1662507867
 30
0.0
 10
25.9938306523
 20
13.9751841931
 30
0.0
 10
26.2468959537
 20
13.777469418
 30
0.0
 10
26.4604912262
 20
13.6727431365
 30
0.0
 10
26.6037800958
 20
13.6405706308
 30
0.0
  0
SPLINE
  5
3FA
100
AcDbEntity
  8
0
100
AcDbSpline
 62
7
  6
CONTINUOUS
 70
0
 71
3
 72
17
 73
13
 74
0
 42
0.0000001
 43
0.0000001
 44
0.0000000001
 40
0.0
 40
0.0
 40
0.0
 40
0.0
 40
0.1286827341
 40
0.2703000275
 40
0.4174463461
 40
0.5617881563
 40
0.695449514
 40
0.8127084433
 40
0.8646752835
 40
0.9125065274
 40
0.9571388016
 40
1.0
 40
1.0
 40
1.0
 40
1.0
 10
14.6164689505
 20
16.4147056434
 30
0.0
 10
14.7163759605
 20
16.3570256092
 30
0.0
 10
14.910318215
 20
16.2077596106
 30
0.0
 10
15.1585805764
 20
15.9253689901
 30
0.0
 10
15.362879682
 20
15.5930207343
 30
0.0
 10
15.5064117899
 20
15.2378285055
 30
0.0
 10
15.5776614078
 20
14.8885894782
 30
0.0
 10
15.5712395401
 20
14.6134258689
 30
0.0
 10
15.5203931837
 20
14.4246521374
 30
0.0
 10
15.4636181079
 20
14.3072863611
 30
0.0
 10
15.3877905085
 20
14.2112307622
 30
0.0
 10
15.3246691028
 20
14.1629959941
 30
0.0
 10
15.2913965232
 20
14.1437770278
 30
0.0
  0
SPLINE
  5
3FB
100
AcDbEntity
  8
0
100
AcDbSpline
 62
7
  6
CONTINUOUS
 70
0
 71
3
 72
11
 73
7
 74
0
 42
0.0000001
 43
0.0000001
 44
0.0000000001
 40
0.0
 40
0.0
 40
0.0
 40
0.0
 40
0.2177082712
 40
0.4508450875
 40
0.7104043331
 40
1.0
 40
1.0
 40
1.0
 40
1.0
 10
65.7563091081
 20
97.108214604
 30
0.0
 10
65.7233310308
 20
97.1272441333
 30
0.0
 10
65.6475710181
 20
97.1547805571
 30
0.0
 10
65.5216588109
 20
97.157960428
 30
0.0
 10
65.3874972164
 20
97.1255195641
 30
0.0
 10
65.3001860498
 20
97.0840221111
 30
0.0
 10
65.2563245003
 20
97.0586987848
 30
0.0
  0
SPLINE
  5
3FC
100
AcDbEntity
  8
0
100
AcDbSpline
 62
7
  6
CONTINUOUS
 70
0
 71
3
 72
9
 73
5
 74
0
 42
0.0000001
 43
0.0000001
 44
0.0000000001
 40
0.0
 40
0.0
 40
0.0
 40
0.0
 40
0.2283838661
 40
1.0
 40
1.0
 40
1.0
 40
1.0
 10
15.7478473676
 20
41.5227331372
 30
0.0
 10
15.7488175314
 20
41.5141433809
 30
0.0
 10
15.7504053085
 20
41.4762363369
 30
0.0
 10
15.7428079829
 20
41.4383273934
 30
0.0
 10
15.7337631223
 20
41.4105574509
 30
0.0
  0
SPLINE
  5
3FD
100
AcDbEntity
  8
0
100
AcDbSpline
 62
7
  6
CONTINUOUS
 70
0
 71
3
 72
9
 73
5
 74
0
 42
0.0000001
 43
0.0000001
 44
0.0000000001
 40
0.0
 40
0.0
 40
0.0
 40
0.0
 40
0.2274574039
 40
1.0
 40
1.0
 40
1.0
 40
1.0
 10
15.7337631227
 20
46.4516578985
 30
0.0
 10
15.7361391046
 20
46.4473512967
 30
0.0
 10
15.7450180233
 20
46.4275459431
 30
0.0
 10
15.7478473676
 20
46.4054518992
 30
0.0
 10
15.7478473676
 20
46.388746409
 30
0.0
  0
SPLINE
  5
3FE
100
AcDbEntity
  8
0
100
AcDbSpline
 62
7
  6
CONTINUOUS
 70
0
 71
3
 72
11
 73
7
 74
0
 42
0.0000001
 43
0.0000001
 44
0.0000000001
 40
0.0
 40
0.0
 40
0.0
 40
0.0
 40
0.2177669599
 40
0.450898211
 40
0.7103709681
 40
1.0
 40
1.0
 40
1.0
 40
1.0
 10
40.0305304594
 20
13.1881710975
 30
0.0
 10
39.9726263681
 20
13.1547710128
 30
0.0
 10
39.8396502531
 20
13.1064002111
 30
0.0
 10
39.6186550528
 20
13.1008492588
 30
0.0
 10
39.3831883194
 20
13.1577537036
 30
0.0
 10
39.2299649612
 20
13.2306104759
 30
0.0
 10
39.152970122
 20
13.2750624614
 30
0.0
  0
SPLINE
  5
3FF
100
AcDbEntity
  8
0
100
AcDbSpline
 62
7
  6
CONTINUOUS
 70
0
 71
3
 72
11
 73
7
 74
0
 42
0.0000001
 43
0.0000001
 44
0.0000000001
 40
0.0
 40
0.0
 40
0.0
 40
0.0
 40
0.2177494859
 40
0.4508953479
 40
0.7104678964
 40
1.0
 40
1.0
 40
1.0
 40
1.0
 10
14.2662083657
 20
13.5516239487
 30
0.0
 10
14.3107224822
 20
13.5773355959
 30
0.0
 10
14.3940894667
 20
13.6472874135
 30
0.0
 10
14.4827623832
 20
13.7923844583
 30
0.0
 10
14.5353332662
 20
13.9711199688
 30
0.0
 10
14.5457645356
 20
14.1011839879
 30
0.0
 10
14.5457645356
 20
14.1695365696
 30
0.0
  0
SPLINE
  5
400
100
AcDbEntity
  8
0
100
AcDbSpline
 62
7
  6
CONTINUOUS
 70
0
 71
3
 72
11
 73
7
 74
0
 42
0.0000001
 43
0.0000001
 44
0.0000000001
 40
0.0
 40
0.0
 40
0.0
 40
0.0
 40
0.2176784435
 40
0.4512663628
 40
0.71135247
 40
1.0
 40
1.0
 40
1.0
 40
1.0
 10
66.4557777652
 20
23.6286483864
 30
0.0
 10
66.4656691686
 20
23.622940244
 30
0.0
 10
66.48421475
 20
23.6073777702
 30
0.0
 10
66.503870981
 20
23.5750427421
 30
0.0
 10
66.5155151775
 20
23.5353190004
 30
0.0
 10
66.5179027819
 20
23.5064402441
 30
0.0
 10
66.5179027819
 20
23.4912966451
 30
0.0
  0
SPLINE
  5
401
100
AcDbEntity
  8
0
100
AcDbSpline
 62
7
  6
CONTINUOUS
 70
0
 71
3
 72
11
 73
7
 74
0
 42
0.0000001
 43
0.0000001
 44
0.0000000001
 40
0.0
 40
0.0
 40
0.0
 40
0.0
 40
0.2177519614
 40
0.4509042819
 40
0.7104779717
 40
1.0
 40
1.0
 40
1.0
 40
1.0
 10
13.9416963936
 20
16.4815407295
 30
0.0
 10
13.9862111469
 20
16.5072313663
 30
0.0
 10
14.0884609578
 20
16.5444326666
 30
0.0
 10
14.2584199841
 20
16.5486863786
 30
0.0
 10
14.4394593093
 20
16.5048580643
 30
0.0
 10
14.5572877381
 20
16.4488731593
 30
0.0
 10
14.6164689505
 20
16.4147056434
 30
0.0
  0
SPLINE
  5
402
100
AcDbEntity
  8
0
100
AcDbSpline
 62
7
  6
CONTINUOUS
 70
0
 71
3
 72
11
 73
7
 74
0
 42
0.0000001
 43
0.0000001
 44
0.0000000001
 40
0.0
 40
0.0
 40
0.0
 40
0.0
 40
0.2287044278
 40
0.4800514108
 40
0.7418202438
 40
1.0
 40
1.0
 40
1.0
 40
1.0
 10
25.3644452963
 20
13.0710744237
 30
0.0
 10
25.2385070228
 20
13.1437832749
 30
0.0
 10
24.9935941023
 20
13.3307438816
 30
0.0
 10
24.6778660457
 20
13.684083506
 30
0.0
 10
24.4148366949
 20
14.1004804739
 30
0.0
 10
24.2849662233
 20
14.4065444912
 30
0.0
 10
24.2347959912
 20
14.5628520844
 30
0.0
  0
SPLINE
  5
403
100
AcDbEntity
  8
0
100
AcDbSpline
 62
7
  6
CONTINUOUS
 70
0
 71
3
 72
11
 73
7
 74
0
 42
0.0000001
 43
0.0000001
 44
0.0000000001
 40
0.0
 40
0.0
 40
0.0
 40
0.0
 40
0.2895311007
 40
0.5491032957
 40
0.7822495659
 40
1.0
 40
1.0
 40
1.0
 40
1.0
 10
13.5911664067
 20
15.8229398513
 30
0.0
 10
13.5319727874
 20
15.8571145302
 30
0.0
 10
13.4141213233
 20
15.9131100298
 30
0.0
 10
13.233051117
 20
15.9569473565
 30
0.0
 10
13.0630613329
 20
15.9527020969
 30
0.0
 10
12.9608002657
 20
15.9154811168
 30
0.0
 10
12.9162771361
 20
15.8897873819
 30
0.0
  0
SPLINE
  5
404
100
AcDbEntity
  8
0
100
AcDbSpline
 62
7
  6
CONTINUOUS
 70
0
 71
3
 72
11
 73
7
 74
0
 42
0.0000001
 43
0.0000001
 44
0.0000000001
 40
0.0
 40
0.0
 40
0.0
 40
0.0
 40
0.2177669599
 40
0.450898211
 40
0.7103709681
 40
1.0
 40
1.0
 40
1.0
 40
1.0
 10
40.0305304594
 20
71.1598427137
 30
0.0
 10
39.9726263681
 20
71.126442629
 30
0.0
 10
39.8396502531
 20
71.0780718273
 30
0.0
 10
39.6186550528
 20
71.072520875
 30
0.0
 10
39.3831883194
 20
71.1294253198
 30
0.0
 10
39.2299649612
 20
71.2022820921
 30
0.0
 10
39.152970122
 20
71.2467340776
 30
0.0
  0
SPLINE
  5
405
100
AcDbEntity
  8
0
100
AcDbSpline
 62
7
  6
CONTINUOUS
 70
0
 71
3
 72
12
 73
8
 74
0
 42
0.0000001
 43
0.0000001
 44
0.0000000001
 40
0.0
 40
0.0
 40
0.0
 40
0.0
 40
0.1127896582
 40
0.2341023635
 40
0.4925860853
 40
0.7552119789
 40
1.0
 40
1.0
 40
1.0
 40
1.0
 10
39.152970122
 20
13.2750624614
 30
0.0
 10
39.0754458456
 20
13.3198201107
 30
0.0
 10
38.9219097342
 20
13.425819185
 30
0.0
 10
38.6312054925
 20
13.68839463
 30
0.0
 10
38.315529499
 20
14.0945264887
 30
0.0
 10
38.0438092363
 20
14.6421440014
 30
0.0
 10
37.9434228748
 20
15.0370371223
 30
0.0
 10
37.9226429155
 20
15.2302014646
 30
0.0
  0
SPLINE
  5
406
100
AcDbEntity
  8
0
100
AcDbSpline
 62
7
  6
CONTINUOUS
 70
0
 71
3
 72
11
 73
7
 74
0
 42
0.0000001
 43
0.0000001
 44
0.0000000001
 40
0.0
 40
0.0
 40
0.0
 40
0.0
 40
0.2372446843
 40
0.5000016174
 40
0.7627576703
 40
1.0
 40
1.0
 40
1.0
 40
1.0
 10
67.2250054128
 20
25.2767401347
 30
0.0
 10
67.2250054133
 20
25.2187795249
 30
0.0
 10
67.2032601624
 20
25.0965474576
 30
0.0
 10
67.1274913927
 20
24.9247906511
 30
0.0
 10
67.0166311533
 20
24.7732944555
 30
0.0
 10
66.9216484321
 20
24.6933467342
 30
0.0
 10
66.8714534949
 20
24.6643668466
 30
0.0
  0
SPLINE
  5
407
100
AcDbEntity
  8
0
100
AcDbSpline
 62
7
  6
CONTINUOUS
 70
0
 71
3
 72
9
 73
5
 74
0
 42
0.0000001
 43
0.0000001
 44
0.0000000001
 40
0.0
 40
0.0
 40
0.0
 40
0.0
 40
0.2588882877
 40
1.0
 40
1.0
 40
1.0
 40
1.0
 10
66.8714534949
 20
24.6643668466
 30
0.0
 10
66.8663681529
 20
24.6614308405
 30
0.0
 10
66.8465168639
 20
24.6504590579
 30
0.0
 10
66.825805782
 20
24.6410085529
 30
0.0
 10
66.8100598474
 20
24.6351236727
 30
0.0
  0
SPLINE
  5
408
100
AcDbEntity
  8
0
100
AcDbSpline
 62
7
  6
CONTINUOUS
 70
0
 71
3
 72
11
 73
7
 74
0
 42
0.0000001
 43
0.0000001
 44
0.0000000001
 40
0.0
 40
0.0
 40
0.0
 40
0.0
 40
0.2370042602
 40
0.4994886132
 40
0.7622511709
 40
1.0
 40
1.0
 40
1.0
 40
1.0
 10
12.9918327321
 20
21.1107545847
 30
0.0
 10
12.9617607802
 20
21.0931078815
 30
0.0
 10
12.90440348
 20
21.0453896386
 30
0.0
 10
12.8376172157
 20
20.9542039554
 30
0.0
 10
12.7916708239
 20
20.8509155817
 30
0.0
 10
12.778231041
 20
20.7773147413
 30
0.0
 10
12.7779836652
 20
20.7423387802
 30
0.0
  0
SPLINE
  5
409
100
AcDbEntity
  8
0
100
AcDbSpline
 62
7
  6
CONTINUOUS
 70
0
 71
3
 72
11
 73
7
 74
0
 42
0.0000001
 43
0.0000001
 44
0.0000000001
 40
0.0
 40
0.0
 40
0.0
 40
0.0
 40
0.2372446848
 40
0.5000016179
 40
0.7627576706
 40
1.0
 40
1.0
 40
1.0
 40
1.0
 10
66.5179027819
 20
22.7297399253
 30
0.0
 10
66.5179027819
 20
22.6949635594
 30
0.0
 10
66.504855631
 20
22.6216243193
 30
0.0
 10
66.459394369
 20
22.5185702359
 30
0.0
 10
66.3928782255
 20
22.427672519
 30
0.0
 10
66.335888593
 20
22.3797038865
 30
0.0
 10
66.3057716307
 20
22.362315954
 30
0.0
  0
SPLINE
  5
40A
100
AcDbEntity
  8
0
100
AcDbSpline
 62
7
  6
CONTINUOUS
 70
0
 71
3
 72
9
 73
5
 74
0
 42
0.0000001
 43
0.0000001
 44
0.0000000001
 40
0.0
 40
0.0
 40
0.0
 40
0.0
 40
0.2632847929
 40
1.0
 40
1.0
 40
1.0
 40
1.0
 10
66.3057716307
 20
22.362315954
 30
0.0
 10
66.3013767419
 20
22.3597785789
 30
0.0
 10
66.2844336198
 20
22.3505948019
 30
0.0
 10
66.2664153898
 20
22.343294317
 30
0.0
 10
66.2527383907
 20
22.3394757216
 30
0.0
  0
SPLINE
  5
40B
100
AcDbEntity
  8
0
100
AcDbSpline
 62
7
  6
CONTINUOUS
 70
0
 71
3
 72
9
 73
5
 74
0
 42
0.0000001
 43
0.0000001
 44
0.0000000001
 40
0.0
 40
0.0
 40
0.0
 40
0.0
 40
0.2371750159
 40
1.0
 40
1.0
 40
1.0
 40
1.0
 10
66.2527383907
 20
22.3394757216
 30
0.0
 10
66.2453991103
 20
22.3374266069
 30
0.0
 10
66.2147738606
 20
22.3276494191
 30
0.0
 10
66.1855742949
 20
22.3136626469
 30
0.0
 10
66.1643496527
 20
22.3014086672
 30
0.0
  0
SPLINE
  5
40C
100
AcDbEntity
  8
0
100
AcDbSpline
 62
7
  6
CONTINUOUS
 70
0
 71
3
 72
9
 73
5
 74
0
 42
0.0000001
 43
0.0000001
 44
0.0000000001
 40
0.0
 40
0.0
 40
0.0
 40
0.0
 40
0.2394576709
 40
1.0
 40
1.0
 40
1.0
 40
1.0
 10
66.1643496527
 20
22.3014086672
 30
0.0
 10
66.1565128766
 20
22.2968841294
 30
0.0
 10
66.1243322037
 20
22.2770472317
 30
0.0
 10
66.0943477323
 20
22.2537359088
 30
0.0
 10
66.0728436862
 20
22.2346671656
 30
0.0
  0
SPLINE
  5
40D
100
AcDbEntity
  8
0
100
AcDbSpline
 62
7
  6
CONTINUOUS
 70
0
 71
3
 72
14
 73
10
 74
0
 42
0.0000001
 43
0.0000001
 44
0.0000000001
 40
0.0
 40
0.0
 40
0.0
 40
0.0
 40
0.2628647705
 40
0.3996215312
 40
0.5349524201
 40
0.6653203032
 40
0.7876373142
 40
0.8995676181
 40
1.0
 40
1.0
 40
1.0
 40
1.0
 10
39.0140486218
 20
15.5231885707
 30
0.0
 10
39.0547665498
 20
15.3285072105
 30
0.0
 10
39.156447331
 20
15.0395068275
 30
0.0
 10
39.3549632289
 20
14.6861858679
 30
0.0
 10
39.5337803906
 20
14.4387575472
 30
0.0
 10
39.7336781438
 20
14.2227101288
 30
0.0
 10
39.9470279209
 20
14.0462703495
 30
0.0
 10
40.1656370401
 20
13.9163165142
 30
0.0
 10
40.3181597743
 20
13.8612064039
 30
0.0
 10
40.3923049215
 20
13.8445586686
 30
0.0
  0
SPLINE
  5
40E
100
AcDbEntity
  8
0
100
AcDbSpline
 62
7
  6
CONTINUOUS
 70
0
 71
3
 72
9
 73
5
 74
0
 42
0.0000001
 43
0.0000001
 44
0.0000000001
 40
0.0
 40
0.0
 40
0.0
 40
0.0
 40
0.5219714135
 40
1.0
 40
1.0
 40
1.0
 40
1.0
 10
64.8626847964
 20
20.8048325537
 30
0.0
 10
64.8283294054
 20
20.7639043265
 30
0.0
 10
64.7750475728
 20
20.6746748905
 30
0.0
 10
64.750143188
 20
20.5725158385
 30
0.0
 10
64.7501431889
 20
20.5235783597
 30
0.0
  0
SPLINE
  5
40F
100
AcDbEntity
  8
0
100
AcDbSpline
 62
7
  6
CONTINUOUS
 70
0
 71
3
 72
11
 73
7
 74
0
 42
0.0000001
 43
0.0000001
 44
0.0000000001
 40
0.0
 40
0.0
 40
0.0
 40
0.0
 40
0.2897042895
 40
0.5490907647
 40
0.7822174449
 40
1.0
 40
1.0
 40
1.0
 40
1.0
 10
55.6992181654
 20
15.6062090132
 30
0.0
 10
55.6992181654
 20
15.504872267
 30
0.0
 10
55.7145822218
 20
15.3121514561
 30
0.0
 10
55.7926316436
 20
15.0473634329
 30
0.0
 10
55.9240410238
 20
14.8325035553
 30
0.0
 10
56.0474744824
 20
14.7287341761
 30
0.0
 10
56.1134477966
 20
14.6906453604
 30
0.0
  0
SPLINE
  5
410
100
AcDbEntity
  8
0
100
AcDbSpline
 62
7
  6
CONTINUOUS
 70
0
 71
3
 72
11
 73
7
 74
0
 42
0.0000001
 43
0.0000001
 44
0.0000000001
 40
0.0
 40
0.0
 40
0.0
 40
0.0
 40
0.2177669599
 40
0.450898211
 40
0.7103709681
 40
1.0
 40
1.0
 40
1.0
 40
1.0
 10
26.2420056337
 20
55.4423087505
 30
0.0
 10
26.1841015425
 20
55.4089086658
 30
0.0
 10
26.0511254274
 20
55.3605378641
 30
0.0
 10
25.8301302271
 20
55.3549869118
 30
0.0
 10
25.5946634937
 20
55.4118913566
 30
0.0
 10
25.4414401355
 20
55.4847481289
 30
0.0
 10
25.3644452963
 20
55.5292001144
 30
0.0
  0
SPLINE
  5
411
100
AcDbEntity
  8
0
100
AcDbSpline
 62
7
  6
CONTINUOUS
 70
0
 71
3
 72
13
 73
9
 74
0
 42
0.0000001
 43
0.0000001
 44
0.0000000001
 40
0.0
 40
0.0
 40
0.0
 40
0.0
 40
0.1141740902
 40
0.2375654463
 40
0.5000010843
 40
0.7624361292
 40
0.8858267911
 40
1.0
 40
1.0
 40
1.0
 40
1.0
 10
14.5457645356
 20
14.1695365696
 30
0.0
 10
14.5457645356
 20
14.244940498
 30
0.0
 10
14.5318709943
 20
14.401984302
 30
0.0
 10
14.456974081
 20
14.7244069471
 30
0.0
 10
14.2824623032
 20
15.1197921843
 30
0.0
 10
14.0273031934
 20
15.4686149527
 30
0.0
 10
13.7855250493
 20
15.6946864028
 30
0.0
 10
13.6564679895
 20
15.7852388178
 30
0.0
 10
13.5911664067
 20
15.8229398513
 30
0.0
  0
SPLINE
  5
412
100
AcDbEntity
  8
0
100
AcDbSpline
 62
7
  6
CONTINUOUS
 70
0
 71
3
 72
14
 73
10
 74
0
 42
0.0000001
 43
0.0000001
 44
0.0000000001
 40
0.0
 40
0.0
 40
0.0
 40
0.0
 40
0.2628647705
 40
0.3996215312
 40
0.5349524201
 40
0.6653203032
 40
0.7876373142
 40
0.8995676181
 40
1.0
 40
1.0
 40
1.0
 40
1.0
 10
25.2255237962
 20
57.7773262237
 30
0.0
 10
25.2662417241
 20
57.5826448635
 30
0.0
 10
25.3679225054
 20
57.2936444805
 30
0.0
 10
25.5664384032
 20
56.9403235208
 30
0.0
 10
25.7452555649
 20
56.6928952002
 30
0.0
 10
25.9451533181
 20
56.4768477817
 30
0.0
 10
26.1585030952
 20
56.3004080025
 30
0.0
 10
26.3771122145
 20
56.1704541671
 30
0.0
 10
26.5296349486
 20
56.1153440569
 30
0.0
 10
26.6037800958
 20
56.0986963216
 30
0.0
  0
SPLINE
  5
413
100
AcDbEntity
  8
0
100
AcDbSpline
 62
7
  6
CONTINUOUS
 70
0
 71
3
 72
15
 73
11
 74
0
 42
0.0000001
 43
0.0000001
 44
0.0000000001
 40
0.0
 40
0.0
 40
0.0
 40
0.0
 40
0.1178401609
 40
0.2460355903
 40
0.3807282138
 40
0.5175700165
 40
0.65185785
 40
0.7791932611
 40
0.8959639594
 40
1.0
 40
1.0
 40
1.0
 40
1.0
 10
52.9414949476
 20
86.9642680409
 30
0.0
 10
52.8424965779
 20
87.0214234833
 30
0.0
 10
52.6478250516
 20
87.1620752426
 30
0.0
 10
52.3854044881
 20
87.4236654703
 30
0.0
 10
52.1506871127
 20
87.7338181202
 30
0.0
 10
51.9553114065
 20
88.0768508112
 30
0.0
 10
51.8090057433
 20
88.4358763596
 30
0.0
 10
51.7190557207
 20
88.7932101642
 30
0.0
 10
51.6898832117
 20
89.1312103816
 30
0.0
 10
51.7138841598
 20
89.3462988186
 30
0.0
 10
51.7385136265
 20
89.4441692455
 30
0.0
  0
SPLINE
  5
414
100
AcDbEntity
  8
0
100
AcDbSpline
 62
7
  6
CONTINUOUS
 70
0
 71
3
 72
9
 73
5
 74
0
 42
0.0000001
 43
0.0000001
 44
0.0000000001
 40
0.0
 40
0.0
 40
0.0
 40
0.0
 40
0.2596037413
 40
1.0
 40
1.0
 40
1.0
 40
1.0
 10
51.7385136265
 20
89.4441692455
 30
0.0
 10
51.7429080404
 20
89.4616313845
 30
0.0
 10
51.7614730466
 20
89.5284604265
 30
0.0
 10
51.7868692159
 20
89.5934905572
 30
0.0
 10
51.8099696544
 20
89.6393569857
 30
0.0
  0
SPLINE
  5
415
100
AcDbEntity
  8
0
100
AcDbSpline
 62
7
  6
CONTINUOUS
 70
0
 71
3
 72
9
 73
5
 74
0
 42
0.0000001
 43
0.0000001
 44
0.0000000001
 40
0.0
 40
0.0
 40
0.0
 40
0.0
 40
0.5147607155
 40
1.0
 40
1.0
 40
1.0
 40
1.0
 10
51.8099696544
 20
89.6393569857
 30
0.0
 10
51.8393468723
 20
89.6976860973
 30
0.0
 10
51.9104885276
 20
89.8048752451
 30
0.0
 10
52.0106064636
 20
89.8865919311
 30
0.0
 10
52.0639346102
 20
89.9173525315
 30
0.0
  0
SPLINE
  5
416
100
AcDbEntity
  8
0
100
AcDbSpline
 62
7
  6
CONTINUOUS
 70
0
 71
3
 72
15
 73
11
 74
0
 42
0.0000001
 43
0.0000001
 44
0.0000000001
 40
0.0
 40
0.0
 40
0.0
 40
0.0
 40
0.118944603
 40
0.2485452309
 40
0.3846298596
 40
0.5224564636
 40
0.6569761688
 40
0.7835509542
 40
0.8985202944
 40
1.0
 40
1.0
 40
1.0
 40
1.0
 10
39.152970122
 20
71.2467340776
 30
0.0
 10
39.0504666581
 20
71.3059131413
 30
0.0
 10
38.8491646305
 20
71.4524174116
 30
0.0
 10
38.579285671
 20
71.7256512225
 30
0.0
 10
38.3398482993
 20
72.049601198
 30
0.0
 10
38.143534944
 20
72.4068482652
 30
0.0
 10
38.0007466939
 20
72.7786226479
 30
0.0
 10
37.9190689747
 20
73.1454753998
 30
0.0
 10
37.902783184
 20
73.4882358781
 30
0.0
 10
37.9393560424
 20
73.7032520866
 30
0.0
 10
37.9709954282
 20
73.799148505
 30
0.0
  0
SPLINE
  5
417
100
AcDbEntity
  8
0
100
AcDbSpline
 62
7
  6
CONTINUOUS
 70
0
 71
3
 72
9
 73
5
 74
0
 42
0.0000001
 43
0.0000001
 44
0.0000000001
 40
0.0
 40
0.0
 40
0.0
 40
0.0
 40
0.2593973285
 40
1.0
 40
1.0
 40
1.0
 40
1.0
 10
37.9709954282
 20
73.799148505
 30
0.0
 10
37.9764807401
 20
73.8157740413
 30
0.0
 10
37.9993059508
 20
73.8792871465
 30
0.0
 10
38.029219624
 20
73.9403585011
 30
0.0
 10
38.0556227226
 20
73.9828002156
 30
0.0
  0
SPLINE
  5
418
100
AcDbEntity
  8
0
100
AcDbSpline
 62
7
  6
CONTINUOUS
 70
0
 71
3
 72
9
 73
5
 74
0
 42
0.0000001
 43
0.0000001
 44
0.0000000001
 40
0.0
 40
0.0
 40
0.0
 40
0.0
 40
0.2582046445
 40
1.0
 40
1.0
 40
1.0
 40
1.0
 10
38.0556227226
 20
73.9828002156
 30
0.0
 10
38.0662334354
 20
73.9998564276
 30
0.0
 10
38.1099433293
 20
74.0642224304
 30
0.0
 10
38.164836932
 20
74.121207214
 30
0.0
 10
38.2105601525
 20
74.1564166241
 30
0.0
  0
SPLINE
  5
419
100
AcDbEntity
  8
0
100
AcDbSpline
 62
7
  6
CONTINUOUS
 70
0
 71
3
 72
13
 73
9
 74
0
 42
0.0000001
 43
0.0000001
 44
0.0000000001
 40
0.0
 40
0.0
 40
0.0
 40
0.0
 40
0.0888514558
 40
0.1854139825
 40
0.2943602537
 40
0.4171445198
 40
0.6976559338
 40
1.0
 40
1.0
 40
1.0
 40
1.0
 10
16.7562909033
 20
40.6241092649
 30
0.0
 10
16.7654634462
 20
40.6188137539
 30
0.0
 10
16.7825698901
 20
40.6038666734
 30
0.0
 10
16.7994525807
 20
40.5724762733
 30
0.0
 10
16.8082268893
 20
40.5339579624
 30
0.0
 10
16.8087175892
 20
40.4725367197
 30
0.0
 10
16.7874077958
 20
40.3898099715
 30
0.0
 10
16.7537801534
 20
40.3281653963
 30
0.0
 10
16.7326915062
 20
40.2989389353
 30
0.0
  0
SPLINE
  5
41A
100
AcDbEntity
  8
0
100
AcDbSpline
 62
7
  6
CONTINUOUS
 70
0
 71
3
 72
14
 73
10
 74
0
 42
0.0000001
 43
0.0000001
 44
0.0000000001
 40
0.0
 40
0.0
 40
0.0
 40
0.0
 40
0.2628647705
 40
0.3996215312
 40
0.5349524201
 40
0.6653203032
 40
0.7876373142
 40
0.8995676181
 40
1.0
 40
1.0
 40
1.0
 40
1.0
 10
52.8025734475
 20
89.2123941502
 30
0.0
 10
52.8432913755
 20
89.0177127899
 30
0.0
 10
52.9449721567
 20
88.7287124069
 30
0.0
 10
53.1434880546
 20
88.3753914473
 30
0.0
 10
53.3223052162
 20
88.1279631266
 30
0.0
 10
53.5222029694
 20
87.9119157082
 30
0.0
 10
53.7355527466
 20
87.735475929
 30
0.0
 10
53.9541618658
 20
87.6055220936
 30
0.0
 10
54.1066845999
 20
87.5504119833
 30
0.0
 10
54.1808297471
 20
87.533764248
 30
0.0
  0
SPLINE
  5
41B
100
AcDbEntity
  8
0
100
AcDbSpline
 62
7
  6
CONTINUOUS
 70
0
 71
3
 72
11
 73
7
 74
0
 42
0.0000001
 43
0.0000001
 44
0.0000000001
 40
0.0
 40
0.0
 40
0.0
 40
0.0
 40
0.2177669599
 40
0.450898211
 40
0.7103709681
 40
1.0
 40
1.0
 40
1.0
 40
1.0
 10
53.8190552851
 20
86.8773766769
 30
0.0
 10
53.7611511938
 20
86.8439765923
 30
0.0
 10
53.6281750787
 20
86.7956057905
 30
0.0
 10
53.4071798785
 20
86.7900548383
 30
0.0
 10
53.171713145
 20
86.846959283
 30
0.0
 10
53.0184897869
 20
86.9198160553
 30
0.0
 10
52.9414949476
 20
86.9642680409
 30
0.0
  0
SPLINE
  5
41C
100
AcDbEntity
  8
0
100
AcDbSpline
 62
7
  6
CONTINUOUS
 70
0
 71
3
 72
14
 73
10
 74
0
 42
0.0000001
 43
0.0000001
 44
0.0000000001
 40
0.0
 40
0.0
 40
0.0
 40
0.0
 40
0.2597048834
 40
0.3949562029
 40
0.5293236416
 40
0.6595793155
 40
0.7828337477
 40
0.8967590451
 40
1.0
 40
1.0
 40
1.0
 40
1.0
 10
39.0847590056
 20
73.5356846023
 30
0.0
 10
39.1235936607
 20
73.3500075833
 30
0.0
 10
39.2188065898
 20
73.0739899284
 30
0.0
 10
39.4040202387
 20
72.734098999
 30
0.0
 10
39.5711886949
 20
72.4937828552
 30
0.0
 10
39.7587546224
 20
72.2805997733
 30
0.0
 10
39.9602198437
 20
72.102057218
 30
0.0
 10
40.1684530168
 20
71.9645763939
 30
0.0
 10
40.3146885266
 20
71.9002019469
 30
0.0
 10
40.3866426995
 20
71.8776360927
 30
0.0
  0
SPLINE
  5
41D
100
AcDbEntity
  8
0
100
AcDbSpline
 62
7
  6
CONTINUOUS
 70
0
 71
3
 72
15
 73
11
 74
0
 42
0.0000001
 43
0.0000001
 44
0.0000000001
 40
0.0
 40
0.0
 40
0.0
 40
0.0
 40
0.1178401609
 40
0.2460355903
 40
0.3807282138
 40
0.5175700165
 40
0.65185785
 40
0.7791932611
 40
0.8959639594
 40
1.0
 40
1.0
 40
1.0
 40
1.0
 10
25.3644452963
 20
55.5292001144
 30
0.0
 10
25.2654469265
 20
55.5863555568
 30
0.0
 10
25.0707754002
 20
55.7270073162
 30
0.0
 10
24.8083548367
 20
55.9885975439
 30
0.0
 10
24.5736374614
 20
56.2987501937
 30
0.0
 10
24.3782617551
 20
56.6417828847
 30
0.0
 10
24.231956092
 20
57.0008084331
 30
0.0
 10
24.1420060694
 20
57.3581422378
 30
0.0
 10
24.1128335603
 20
57.6961424551
 30
0.0
 10
24.1368345085
 20
57.9112308921
 30
0.0
 10
24.1614639752
 20
58.0091013191
 30
0.0
  0
SPLINE
  5
41E
100
AcDbEntity
  8
0
100
AcDbSpline
 62
7
  6
CONTINUOUS
 70
0
 71
3
 72
9
 73
5
 74
0
 42
0.0000001
 43
0.0000001
 44
0.0000000001
 40
0.0
 40
0.0
 40
0.0
 40
0.0
 40
0.2596037413
 40
1.0
 40
1.0
 40
1.0
 40
1.0
 10
24.1614639752
 20
58.0091013191
 30
0.0
 10
24.1658583891
 20
58.026563458
 30
0.0
 10
24.1844233953
 20
58.0933925
 30
0.0
 10
24.2098195645
 20
58.1584226307
 30
0.0
 10
24.2329200031
 20
58.2042890592
 30
0.0
  0
SPLINE
  5
41F
100
AcDbEntity
  8
0
100
AcDbSpline
 62
7
  6
CONTINUOUS
 70
0
 71
3
 72
9
 73
5
 74
0
 42
0.0000001
 43
0.0000001
 44
0.0000000001
 40
0.0
 40
0.0
 40
0.0
 40
0.0
 40
0.5147607155
 40
1.0
 40
1.0
 40
1.0
 40
1.0
 10
24.2329200031
 20
58.2042890592
 30
0.0
 10
24.2622972209
 20
58.2626181708
 30
0.0
 10
24.3334388762
 20
58.3698073187
 30
0.0
 10
24.4335568122
 20
58.4515240047
 30
0.0
 10
24.4868849588
 20
58.482284605
 30
0.0
  0
SPLINE
  5
420
100
AcDbEntity
  8
0
100
AcDbSpline
 62
7
  6
CONTINUOUS
 70
0
 71
3
 72
11
 73
7
 74
0
 42
0.0000001
 43
0.0000001
 44
0.0000000001
 40
0.0
 40
0.0
 40
0.0
 40
0.0
 40
0.217651242
 40
0.4508386055
 40
0.7105828275
 40
1.0
 40
1.0
 40
1.0
 40
1.0
 10
67.1214429715
 20
44.5748826992
 30
0.0
 10
67.1379282427
 20
44.5653708734
 30
0.0
 10
67.1687774084
 20
44.5394332122
 30
0.0
 10
67.2016740119
 20
44.4857132118
 30
0.0
 10
67.221116112
 20
44.4194847906
 30
0.0
 10
67.2250054128
 20
44.3713088118
 30
0.0
 10
67.2250054128
 20
44.3460006415
 30
0.0
  0
ENDSEC
  0
SECTION
  2
OBJECTS
  0
DICTIONARY
  5
C
100
AcDbDictionary
280
0
281
1
  3
ACAD_GROUP
350
D
  3
ACAD_MLINESTYLE
350
17
  3
ACAD_LAYOUT
350
1A
  3
ACAD_PLOTSETTINGS
350
19
  3
ACAD_PLOTSTYLENAME
350
E
  0
DICTIONARY
  5
D
102
{ACAD_REACTORS
330
C
102
}
100
AcDbDictionary
280
0
281
1
  0
ACDBDICTIONARYWDFLT
  5
E
102
{ACAD_REACTORS
330
C
102
}
100
AcDbDictionary
281
1
  3
Normal
350
F
100
AcDbDictionaryWithDefault
340
F
  0
DICTIONARY
  5
17
102
{ACAD_REACTORS
330
C
102
}
100
AcDbDictionary
280
0
281
1
  3
Standard
350
18
  0
DICTIONARY
  5
19
102
{ACAD_REACTORS
330
C
102
}
100
AcDbDictionary
281
1
  0
DICTIONARY
  5
1A
102
{ACAD_REACTORS
330
C
102
}
100
AcDbDictionary
281
1
  3
Model
350
421
  3
Layout1
350
422
  0
ACDBPLACEHOLDER
  5
F
102
{ACAD_REACTORS
330
E
102
}
  0
MLINESTYLE
  5
18
102
{ACAD_REACTORS
330
17
102
}
100
AcDbMlineStyle
  2
STANDARD
 70
0
  3

 62
256
 51
90.0
 52
90.0
 71
2
 49
0.5
 62
256
  6
BYLAYER
 49
-0.5
 62
256
  6
BYLAYER
  0
LAYOUT
  5
421
102
{ACAD_REACTORS
330
1A
102
}
100
AcDbPlotSettings
  1

  2
none_device
  4

  6

 40
0.0
 41
0.0
 42
0.0
 43
0.0
 44
210.0
 45
297.0
 46
0.0
 47
0.0
 48
0.0
 49
0.0
140
0.0
141
0.0
142
1.0
143
1.0
 70
1024
 72
1
 73
0
 74
0
  7

 75
0
147
1.0
148
0.0
149
0.0
100
AcDbLayout
  1
Model
 70
0
 71
0
 10
0.0
 20
0.0
 11
210.0
 21
297.0
 12
0.0
 22
0.0
 32
0.0
 14
0.0
 24
0.0
 34
0.0
 15
0.0
 25
0.0
 35
0.0
146
0.0
 13
0.0
 23
0.0
 33
0.0
 16
1.0
 26
0.0
 36
0.0
 17
0.0
 27
1.0
 37
0.0
 76
0
330
210
345
0
346
0
  0
LAYOUT
  5
422
102
{ACAD_REACTORS
330
1A
102
}
100
AcDbPlotSettings
  1

  2
none_device
  4

  6

 40
0.0
 41
0.0
 42
0.0
 43
0.0
 44
210.0
 45
297.0
 46
0.0
 47
0.0
 48
0.0
 49
0.0
140
0.0
141
0.0
142
1.0
143
1.0
 70
0
 72
1
 73
0
 74
0
  7

 75
0
147
1.0
148
0.0
149
0.0
100
AcDbLayout
  1
Layout1
 70
0
 71
1
 10
0.0
 20
0.0
 11
210.0
 21
297.0
 12
0.0
 22
0.0
 32
0.0
 14
0.0
 24
0.0
 34
0.0
 15
0.0
 25
0.0
 35
0.0
146
0.0
 13
0.0
 23
0.0
 33
0.0
 16
1.0
 26
0.0
 36
0.0
 17
0.0
 27
1.0
 37
0.0
 76
0
330
211
345
0
346
0
  0
ENDSEC
  0
EOF
