999
DXF file: C:\Users\sesa63760\OneDrive - Schneider Electric\Documents\7-Dev\_Creo\CAD\MCADPP0000259_3D-CAD\drw0001_6.dxf
999
Pro/ENGINEER 2019471 by Parametric Technology Corporation
  0
SECTION
  2
HEADER
  9
$ACADVER
  1
AC1024
  9
$DWGCODEPAGE
  3
ANSI_1252
  9
$EXTMAX
 10
142.3334880534
 20
201.3002188184
 30
0.0
  9
$EXTMIN
 10
0.0
 20
0.0
 30
0.0
  9
$LIMMIN
 10
0.0
 20
0.0
  9
$LIMMAX
 10
142.3334880534
 20
201.3002188184
  9
$VIEWCTR
 10
71.1667440267
 20
100.6501094092
  9
$VIEWSIZE
 40
201.3002188184
  9
$CLAYER
  8
0
  9
$LTSCALE
 40
13.1217920415
  9
$CELTYPE
  6
BYLAYER
  9
$DIMSCALE
 40
1.0
  9
$DIMASZ
 40
1.6944462864
  9
$DIMEXO
 40
1.0
  9
$DIMDLI
 40
9.0659654105
  9
$DIMEXE
 40
1.0
  9
$DIMCEN
 40
2.1472023341
  9
$DIMLFAC
 40
1.0
  9
$DIMBLK
  1
_FILLED
  9
$DIMALT
 70
0
  9
$DIMALTF
 40
0.0393700787
  9
$DIMTXT
 40
2.3722248009
  9
$DIMTOL
 70
1
  9
$DIMLIM
 70
0
  9
$DIMTFAC
 40
1.0
  9
$DIMTP
 40
0.01
  9
$DIMTM
 40
0.01
  9
$DIMGAP
 40
0.625
  9
$DIMDSEP
 70
46
  9
$AUNITS
 70
0
  9
$PDMODE
 70
3
  9
$PDSIZE
 40
0.3125
  9
$HANDSEED
  5
2BB
  9
$TILEMODE
 70
1
  9
$MEASUREMENT
 70
1
  9
$INSUNITS
 70
4
  0
ENDSEC
  0
SECTION
  2
CLASSES
  0
CLASS
  1
ACDBDICTIONARYWDFLT
  2
AcDbDictionaryWithDefault
  3
AutoCAD 2000
 90
0
 91
1
280
0
281
0
  0
CLASS
  1
ACDBPLACEHOLDER
  2
AcDbPlaceHolder
  3
AutoCAD 2000
 90
0
 91
1
280
0
281
0
  0
CLASS
  1
LAYOUT
  2
AcDbLayout
  3
AutoCAD 2000
 90
0
 91
0
280
0
281
0
  0
ENDSEC
  0
SECTION
  2
TABLES
  0
TABLE
  2
VPORT
  5
8
100
AcDbSymbolTable
 70
2
  0
VPORT
  5
1F4
100
AcDbSymbolTableRecord
100
AcDbViewportTableRecord
  2
*ACTIVE
 70
0
 10
0.0
 20
0.0
 11
1.0
 21
1.0
 12
71.1667440267
 22
100.6501094092
 13
0.0
 23
0.0
 14
1.0
 24
1.0
 15
0.0
 25
0.0
 16
0.0
 26
0.0
 36
1.0
 17
0.0
 27
0.0
 37
0.0
 40
201.3002188184
 41
0.7070707071
 42
50.0
 43
0.0
 44
0.0
 50
0.0
 51
0.0
 71
0
 72
100
 73
1
 74
1
 75
0
 76
0
 77
0
 78
0
  0
ENDTAB
  0
TABLE
  2
LTYPE
  5
5
100
AcDbSymbolTable
 70
6
  0
LTYPE
  5
14
100
AcDbSymbolTableRecord
100
AcDbLinetypeTableRecord
  2
BYBLOCK
 70
0
  3

 72
65
 73
0
 40
0.0
  0
LTYPE
  5
15
100
AcDbSymbolTableRecord
100
AcDbLinetypeTableRecord
  2
BYLAYER
 70
0
  3

 72
65
 73
0
 40
0.0
  0
LTYPE
  5
16
100
AcDbSymbolTableRecord
100
AcDbLinetypeTableRecord
  2
CONTINUOUS
 70
64
  3
Solid line
 72
65
 73
0
 40
0.0
  0
LTYPE
  5
1F5
100
AcDbSymbolTableRecord
100
AcDbLinetypeTableRecord
  2
CENTER
 70
64
  3
____ _ ____ _ ____ _ ____ _ ____ _ ____ _ ____
 72
65
 73
4
 40
0.6
 49
0.375
 74
0
 49
-0.075
 74
0
 49
0.075
 74
0
 49
-0.075
 74
0
  0
LTYPE
  5
1F6
100
AcDbSymbolTableRecord
100
AcDbLinetypeTableRecord
  2
HIDDEN
 70
64
  3
- - - - - - - - - - - - - - - - - - - -
 72
65
 73
2
 40
0.2
 49
0.1
 74
0
 49
-0.1
 74
0
  0
LTYPE
  5
1F7
100
AcDbSymbolTableRecord
100
AcDbLinetypeTableRecord
  2
PHANTOM
 70
64
  3
_____ _ _ _____ _ _ _____ _ _ _____
 72
65
 73
6
 40
0.8
 49
0.45
 74
0
 49
-0.05
 74
0
 49
0.1
 74
0
 49
-0.05
 74
0
 49
0.1
 74
0
 49
-0.05
 74
0
  0
LTYPE
  5
1F8
100
AcDbSymbolTableRecord
100
AcDbLinetypeTableRecord
  2
DOT
 70
64
  3
. . . . . . . . . . . . . . . . . . . .
 72
65
 73
2
 40
0.2
 49
0.1
 74
0
 49
-0.1
 74
0
  0
LTYPE
  5
1F9
100
AcDbSymbolTableRecord
100
AcDbLinetypeTableRecord
  2
DASHED
 70
64
  3
- - - - - - - - - - - - - - - - - - - -
 72
65
 73
2
 40
0.2
 49
0.1
 74
0
 49
-0.1
 74
0
  0
ENDTAB
  0
TABLE
  2
LAYER
  5
2
100
AcDbSymbolTable
 70
36
  0
LAYER
  5
10
100
AcDbSymbolTableRecord
100
AcDbLayerTableRecord
  2
0
 70
0
 62
7
  6
CONTINUOUS
370
-3
390
F
  0
LAYER
  5
1FA
100
AcDbSymbolTableRecord
100
AcDbLayerTableRecord
  2
DEFAULT_1
 70
0
 62
7
  6
CENTER
370
-3
390
F
  0
LAYER
  5
1FB
100
AcDbSymbolTableRecord
100
AcDbLayerTableRecord
  2
DEFAULT_2
 70
0
 62
8
  6
HIDDEN
370
-3
390
F
  0
LAYER
  5
1FC
100
AcDbSymbolTableRecord
100
AcDbLayerTableRecord
  2
DEFAULT_3
 70
0
 62
7
  6
PHANTOM
370
-3
390
F
  0
LAYER
  5
1FD
100
AcDbSymbolTableRecord
100
AcDbLayerTableRecord
  2
00_COMPONENTS
 70
0
 62
7
  6
CONTINUOUS
370
-3
390
F
  0
LAYER
  5
1FE
100
AcDbSymbolTableRecord
100
AcDbLayerTableRecord
  2
01_1_DEFAULT_DATUMS
 70
0
 62
7
  6
CONTINUOUS
370
-3
390
F
  0
LAYER
  5
1FF
100
AcDbSymbolTableRecord
100
AcDbLayerTableRecord
  2
01_PLANES
 70
0
 62
7
  6
CONTINUOUS
370
-3
390
F
  0
LAYER
  5
200
100
AcDbSymbolTableRecord
100
AcDbLayerTableRecord
  2
02_COORD_SYS
 70
0
 62
7
  6
CONTINUOUS
370
-3
390
F
  0
LAYER
  5
201
100
AcDbSymbolTableRecord
100
AcDbLayerTableRecord
  2
03_AXES
 70
0
 62
7
  6
CONTINUOUS
370
-3
390
F
  0
LAYER
  5
202
100
AcDbSymbolTableRecord
100
AcDbLayerTableRecord
  2
04_POINTS
 70
0
 62
7
  6
CONTINUOUS
370
-3
390
F
  0
LAYER
  5
203
100
AcDbSymbolTableRecord
100
AcDbLayerTableRecord
  2
05_CURVES
 70
0
 62
7
  6
CONTINUOUS
370
-3
390
F
  0
LAYER
  5
204
100
AcDbSymbolTableRecord
100
AcDbLayerTableRecord
  2
06_SURFS
 70
0
 62
7
  6
CONTINUOUS
370
-3
390
F
  0
LAYER
  5
205
100
AcDbSymbolTableRecord
100
AcDbLayerTableRecord
  2
07_COSMETICS
 70
0
 62
7
  6
CONTINUOUS
370
-3
390
F
  0
LAYER
  5
206
100
AcDbSymbolTableRecord
100
AcDbLayerTableRecord
  2
10_NOTES
 70
0
 62
7
  6
CONTINUOUS
370
-3
390
F
  0
LAYER
  5
207
100
AcDbSymbolTableRecord
100
AcDbLayerTableRecord
  2
11_NOTES_PUB
 70
0
 62
7
  6
CONTINUOUS
370
-3
390
F
  0
LAYER
  5
208
100
AcDbSymbolTableRecord
100
AcDbLayerTableRecord
  2
13_REF_GTOL
 70
0
 62
7
  6
CONTINUOUS
370
-3
390
F
  0
LAYER
  5
209
100
AcDbSymbolTableRecord
100
AcDbLayerTableRecord
  2
16_MISC
 70
0
 62
7
  6
CONTINUOUS
370
-3
390
F
  0
LAYER
  5
20A
100
AcDbSymbolTableRecord
100
AcDbLayerTableRecord
  2
17_NO_PRINT
 70
0
 62
7
  6
CONTINUOUS
370
-3
390
F
  0
LAYER
  5
20B
100
AcDbSymbolTableRecord
100
AcDbLayerTableRecord
  2
18_DATUM_CAMS_JOINTS
 70
0
 62
7
  6
CONTINUOUS
370
-3
390
F
  0
LAYER
  5
20C
100
AcDbSymbolTableRecord
100
AcDbLayerTableRecord
  2
19_DATUM_FUNCTIONAL
 70
0
 62
7
  6
CONTINUOUS
370
-3
390
F
  0
LAYER
  5
20D
100
AcDbSymbolTableRecord
100
AcDbLayerTableRecord
  2
20_DATUM_KINEMATIC_SCHEME
 70
0
 62
7
  6
CONTINUOUS
370
-3
390
F
  0
LAYER
  5
20E
100
AcDbSymbolTableRecord
100
AcDbLayerTableRecord
  2
INTFCLR_3
 70
0
 62
7
  6
CONTINUOUS
370
-3
390
F
  0
LAYER
  5
20F
100
AcDbSymbolTableRecord
100
AcDbLayerTableRecord
  2
black
 70
0
 62
7
  6
CONTINUOUS
370
-3
390
F
  0
ENDTAB
  0
TABLE
  2
STYLE
  5
3
100
AcDbSymbolTable
 70
1
  0
STYLE
  5
11
100
AcDbSymbolTableRecord
100
AcDbTextStyleTableRecord
  2
STANDARD
 70
0
 40
0.0
 41
0.8
 50
0.0
 71
0
 42
0.2
  3
txt
  4

  0
STYLE
  5
210
100
AcDbSymbolTableRecord
100
AcDbTextStyleTableRecord
  2
TEXTSTYLE_1
 70
0
 40
0.0
 41
0.8
 50
0.0
 71
0
 42
0.2
  3
gdt
  4

  0
ENDTAB
  0
TABLE
  2
VIEW
  5
6
100
AcDbSymbolTable
 70
0
  0
ENDTAB
  0
TABLE
  2
UCS
  5
7
100
AcDbSymbolTable
 70
0
  0
ENDTAB
  0
TABLE
  2
APPID
  5
9
100
AcDbSymbolTable
 70
1
  0
APPID
  5
211
100
AcDbSymbolTableRecord
100
AcDbRegAppTableRecord
  2
ACAD
 70
0
  0
ENDTAB
  0
TABLE
  2
BLOCK_RECORD
  5
1
100
AcDbSymbolTable
 70
0
  0
BLOCK_RECORD
  5
212
100
AcDbSymbolTableRecord
100
AcDbBlockTableRecord
  2
*Model_Space
  0
BLOCK_RECORD
  5
213
100
AcDbSymbolTableRecord
100
AcDbBlockTableRecord
  2
*Paper_Space
  0
BLOCK_RECORD
  5
214
100
AcDbSymbolTableRecord
100
AcDbBlockTableRecord
  2
_FILLED
  0
ENDTAB
  0
TABLE
  2
DIMSTYLE
  5
A
100
AcDbSymbolTable
 70
1
100
AcDbDimStyleTable
 71
0
  0
DIMSTYLE
105
215
100
AcDbSymbolTableRecord
100
AcDbDimStyleTableRecord
  2
STANDARD
 70
0
  3

  4

 40
1.0
 41
1.6944462864
 42
1.0
 43
0.38
 44
1.0
 45
0.0
 46
0.0
 47
0.01
 48
0.01
140
2.3722248009
141
0.09
142
0.0
143
25.4
144
1.0
145
0.0
146
1.0
147
0.625
 71
1
 72
0
 73
0
 74
0
 75
0
 76
0
 77
1
 78
8
 79
2
170
0
171
1
172
0
173
0
174
0
175
0
176
0
177
0
178
0
270
2
179
2
271
2
272
2
273
2
274
2
275
0
280
0
281
0
282
0
283
1
284
8
285
0
286
0
287
3
288
0
340
11
278
46
341
214
342
214
343
214
344
214
  0
ENDTAB
  0
ENDSEC
  0
SECTION
  2
BLOCKS
  0
BLOCK
  5
20
100
AcDbEntity
  8
0
100
AcDbBlockBegin
  2
*Model_Space
 70
0
 10
0.0
 20
0.0
 30
0.0
  3
*Model_Space
  1

  0
ENDBLK
  5
21
100
AcDbEntity
  8
0
100
AcDbBlockEnd
  0
BLOCK
  5
1C
100
AcDbEntity
  8
0
100
AcDbBlockBegin
  2
*Paper_Space
 70
0
 10
0.0
 20
0.0
 30
0.0
  3
*Paper_Space
  1

  0
ENDBLK
  5
1D
100
AcDbEntity
  8
0
100
AcDbBlockEnd
  0
BLOCK
  5
216
100
AcDbEntity
  8
0
100
AcDbBlockBegin
  2
_FILLED
 70
64
 10
0.0
 20
0.0
  3
_FILLED
  1

  0
SOLID
  5
217
100
AcDbEntity
  8
0
  6
BYBLOCK
 62
0
100
AcDbTrace
 10
0.0
 20
0.0
 11
-1.0
 21
0.25
 12
-1.0
 22
-0.25
 13
-1.0
 23
-0.25
  0
ENDBLK
  5
218
100
AcDbEntity
  8
0
  6
BYBLOCK
 62
0
100
AcDbBlockEnd
  0
ENDSEC
  0
SECTION
  2
ENTITIES
  0
LINE
  5
219
100
AcDbEntity
  8
INTFCLR_3
100
AcDbLine
 62
7
  6
CONTINUOUS
 10
16.0986915103
 20
143.2004750226
 11
16.0986915103
 21
147.5997437957
  0
LINE
  5
21A
100
AcDbEntity
  8
INTFCLR_3
100
AcDbLine
 62
7
  6
CONTINUOUS
 10
17.3986915103
 20
147.9001094092
 11
17.3986915103
 21
142.9001094092
  0
LINE
  5
21B
100
AcDbEntity
  8
INTFCLR_3
100
AcDbLine
 62
7
  6
CONTINUOUS
 10
18.5986915103
 20
147.9001094092
 11
18.5986915103
 21
142.9001094092
  0
LINE
  5
21C
100
AcDbEntity
  8
INTFCLR_3
100
AcDbLine
 62
7
  6
CONTINUOUS
 10
22.1986915103
 20
130.2001094092
 11
22.1986915103
 21
126.1001094092
  0
LINE
  5
21D
100
AcDbEntity
  8
INTFCLR_3
100
AcDbLine
 62
7
  6
CONTINUOUS
 10
22.6986915103
 20
97.6001094092
 11
22.6986915103
 21
90.9001094092
  0
LINE
  5
21E
100
AcDbEntity
  8
INTFCLR_3
100
AcDbLine
 62
7
  6
CONTINUOUS
 10
25.0986915103
 20
132.4001094092
 11
25.0986915103
 21
97.6001094092
  0
LINE
  5
21F
100
AcDbEntity
  8
INTFCLR_3
100
AcDbLine
 62
7
  6
CONTINUOUS
 10
25.0986915103
 20
91.4001094092
 11
25.0986915103
 21
90.9001094092
  0
LINE
  5
220
100
AcDbEntity
  8
INTFCLR_3
100
AcDbLine
 62
7
  6
CONTINUOUS
 10
25.3736915103
 20
129.8501094092
 11
25.3736915103
 21
91.4001094092
  0
LINE
  5
221
100
AcDbEntity
  8
INTFCLR_3
100
AcDbLine
 62
7
  6
CONTINUOUS
 10
26.4986915103
 20
104.2001613511
 11
26.4986915103
 21
116.0000574673
  0
LINE
  5
222
100
AcDbEntity
  8
INTFCLR_3
100
AcDbLine
 62
7
  6
CONTINUOUS
 10
27.0986915103
 20
142.9001094092
 11
27.0986915103
 21
132.4001094092
  0
LINE
  5
223
100
AcDbEntity
  8
INTFCLR_3
100
AcDbLine
 62
7
  6
CONTINUOUS
 10
27.2736915103
 20
108.5501094092
 11
27.2736915103
 21
111.650174873
  0
LINE
  5
224
100
AcDbEntity
  8
INTFCLR_3
100
AcDbLine
 62
7
  6
CONTINUOUS
 10
28.0986915103
 20
132.4001094092
 11
28.0986915103
 21
97.6001094092
  0
LINE
  5
225
100
AcDbEntity
  8
INTFCLR_3
100
AcDbLine
 62
7
  6
CONTINUOUS
 10
28.0986915103
 20
90.9001094092
 11
28.0986915103
 21
80.9001094092
  0
LINE
  5
226
100
AcDbEntity
  8
INTFCLR_3
100
AcDbLine
 62
7
  6
CONTINUOUS
 10
63.0986915103
 20
53.4001094092
 11
37.5986915103
 21
53.4001094092
  0
LINE
  5
227
100
AcDbEntity
  8
INTFCLR_3
100
AcDbLine
 62
7
  6
CONTINUOUS
 10
29.3736915103
 20
117.0039127088
 11
29.3736915103
 21
103.1502479255
  0
LINE
  5
228
100
AcDbEntity
  8
INTFCLR_3
100
AcDbLine
 62
7
  6
CONTINUOUS
 10
29.7736915103
 20
116.0001094092
 11
29.7736915103
 21
104.2001094092
  0
LINE
  5
229
100
AcDbEntity
  8
INTFCLR_3
100
AcDbLine
 62
7
  6
CONTINUOUS
 10
29.9986915103
 20
130.9001094092
 11
29.9986915103
 21
86.9001094092
  0
LINE
  5
22A
100
AcDbEntity
  8
INTFCLR_3
100
AcDbLine
 62
7
  6
CONTINUOUS
 10
31.2986915103
 20
130.9001094092
 11
31.2986915103
 21
86.9001094092
  0
LINE
  5
22B
100
AcDbEntity
  8
INTFCLR_3
100
AcDbLine
 62
7
  6
CONTINUOUS
 10
31.8736915103
 20
117.6939127088
 11
31.8736915103
 21
104.6060711833
  0
LINE
  5
22C
100
AcDbEntity
  8
INTFCLR_3
100
AcDbLine
 62
7
  6
CONTINUOUS
 10
32.2986915103
 20
130.9001094092
 11
32.2986915103
 21
86.9001094092
  0
LINE
  5
22D
100
AcDbEntity
  8
INTFCLR_3
100
AcDbLine
 62
7
  6
CONTINUOUS
 10
32.9736915103
 20
113.1150737681
 11
32.9736915103
 21
111.4851549241
  0
LINE
  5
22E
100
AcDbEntity
  8
INTFCLR_3
100
AcDbLine
 62
7
  6
CONTINUOUS
 10
32.9736915103
 20
107.0851450503
 11
32.9736915103
 21
110.9150737681
  0
LINE
  5
22F
100
AcDbEntity
  8
INTFCLR_3
100
AcDbLine
 62
7
  6
CONTINUOUS
 10
32.9736915103
 20
114.1201422077
 11
32.9736915103
 21
115.6200675243
  0
LINE
  5
230
100
AcDbEntity
  8
INTFCLR_3
100
AcDbLine
 62
7
  6
CONTINUOUS
 10
33.5986915103
 20
130.9001094092
 11
33.5986915103
 21
86.9001094092
  0
LINE
  5
231
100
AcDbEntity
  8
INTFCLR_3
100
AcDbLine
 62
7
  6
CONTINUOUS
 10
63.0986915103
 20
61.2854285822
 11
37.5986915103
 21
61.2854285822
  0
LINE
  5
232
100
AcDbEntity
  8
INTFCLR_3
100
AcDbLine
 62
7
  6
CONTINUOUS
 10
34.5986915103
 20
130.9001094092
 11
34.5986915103
 21
86.9001094092
  0
LINE
  5
233
100
AcDbEntity
  8
INTFCLR_3
100
AcDbLine
 62
7
  6
CONTINUOUS
 10
35.8986915103
 20
130.9001094092
 11
35.8986915103
 21
86.9001094092
  0
LINE
  5
234
100
AcDbEntity
  8
INTFCLR_3
100
AcDbLine
 62
7
  6
CONTINUOUS
 10
36.0986915103
 20
144.8101094092
 11
36.0986915103
 21
132.4001094092
  0
LINE
  5
235
100
AcDbEntity
  8
INTFCLR_3
100
AcDbLine
 62
7
  6
CONTINUOUS
 10
36.8986915103
 20
130.9001094092
 11
36.8986915103
 21
86.9001094092
  0
LINE
  5
236
100
AcDbEntity
  8
INTFCLR_3
100
AcDbLine
 62
7
  6
CONTINUOUS
 10
37.5986915103
 20
80.9001094092
 11
37.5986915103
 21
53.4001094092
  0
LINE
  5
237
100
AcDbEntity
  8
INTFCLR_3
100
AcDbLine
 62
7
  6
CONTINUOUS
 10
38.1986915103
 20
130.9001094092
 11
38.1986915103
 21
86.9001094092
  0
LINE
  5
238
100
AcDbEntity
  8
INTFCLR_3
100
AcDbLine
 62
7
  6
CONTINUOUS
 10
63.0986915103
 20
65.9001094092
 11
37.5986915103
 21
65.9001094092
  0
LINE
  5
239
100
AcDbEntity
  8
INTFCLR_3
100
AcDbLine
 62
7
  6
CONTINUOUS
 10
63.0986915103
 20
65.9500817147
 11
37.5986915103
 21
65.9500817147
  0
LINE
  5
23A
100
AcDbEntity
  8
INTFCLR_3
100
AcDbLine
 62
7
  6
CONTINUOUS
 10
39.1986915103
 20
130.9001094092
 11
39.1986915103
 21
86.9001094092
  0
LINE
  5
23B
100
AcDbEntity
  8
INTFCLR_3
100
AcDbLine
 62
7
  6
CONTINUOUS
 10
40.4986915103
 20
130.9001094092
 11
40.4986915103
 21
86.9001094092
  0
LINE
  5
23C
100
AcDbEntity
  8
INTFCLR_3
100
AcDbLine
 62
7
  6
CONTINUOUS
 10
40.5986915103
 20
80.9000659011
 11
40.5986915103
 21
53.4001094092
  0
LINE
  5
23D
100
AcDbEntity
  8
INTFCLR_3
100
AcDbLine
 62
7
  6
CONTINUOUS
 10
41.4986915103
 20
130.9001094092
 11
41.4986915103
 21
86.9001094092
  0
LINE
  5
23E
100
AcDbEntity
  8
INTFCLR_3
100
AcDbLine
 62
7
  6
CONTINUOUS
 10
42.7986915103
 20
130.9001094092
 11
42.7986915103
 21
86.9001094092
  0
LINE
  5
23F
100
AcDbEntity
  8
INTFCLR_3
100
AcDbLine
 62
7
  6
CONTINUOUS
 10
40.5986915103
 20
67.9001094092
 11
37.5986915103
 21
67.9001094092
  0
LINE
  5
240
100
AcDbEntity
  8
INTFCLR_3
100
AcDbLine
 62
7
  6
CONTINUOUS
 10
52.5986915103
 20
69.6501094092
 11
37.5986915103
 21
69.6501094092
  0
LINE
  5
241
100
AcDbEntity
  8
INTFCLR_3
100
AcDbLine
 62
7
  6
CONTINUOUS
 10
52.5986915103
 20
71.1501094092
 11
37.5986915103
 21
71.1501094092
  0
LINE
  5
242
100
AcDbEntity
  8
INTFCLR_3
100
AcDbLine
 62
7
  6
CONTINUOUS
 10
43.7986915103
 20
130.9001094092
 11
43.7986915103
 21
86.9001094092
  0
LINE
  5
243
100
AcDbEntity
  8
INTFCLR_3
100
AcDbLine
 62
7
  6
CONTINUOUS
 10
45.0986915103
 20
130.9001094092
 11
45.0986915103
 21
86.9001094092
  0
LINE
  5
244
100
AcDbEntity
  8
INTFCLR_3
100
AcDbLine
 62
7
  6
CONTINUOUS
 10
45.8986915103
 20
85.9000744576
 11
45.8986915103
 21
80.9001094092
  0
LINE
  5
245
100
AcDbEntity
  8
INTFCLR_3
100
AcDbLine
 62
7
  6
CONTINUOUS
 10
46.0986915103
 20
130.9001094092
 11
46.0986915103
 21
86.9001094092
  0
LINE
  5
246
100
AcDbEntity
  8
INTFCLR_3
100
AcDbLine
 62
7
  6
CONTINUOUS
 10
47.3986915103
 20
132.4001094092
 11
47.3986915103
 21
86.9001094092
  0
LINE
  5
247
100
AcDbEntity
  8
INTFCLR_3
100
AcDbLine
 62
7
  6
CONTINUOUS
 10
48.3986915103
 20
130.9001094092
 11
48.3986915103
 21
86.9001094092
  0
LINE
  5
248
100
AcDbEntity
  8
INTFCLR_3
100
AcDbLine
 62
7
  6
CONTINUOUS
 10
52.5986915103
 20
72.6501094092
 11
37.5986915103
 21
72.6501094092
  0
LINE
  5
249
100
AcDbEntity
  8
INTFCLR_3
100
AcDbLine
 62
7
  6
CONTINUOUS
 10
52.0986915103
 20
74.3001094092
 11
37.5986915103
 21
74.3001094092
  0
LINE
  5
24A
100
AcDbEntity
  8
INTFCLR_3
100
AcDbLine
 62
7
  6
CONTINUOUS
 10
58.8986915103
 20
75.9001443608
 11
37.5986915103
 21
75.9001443608
  0
LINE
  5
24B
100
AcDbEntity
  8
INTFCLR_3
100
AcDbLine
 62
7
  6
CONTINUOUS
 10
56.6486915103
 20
76.4001094092
 11
37.5986915103
 21
76.4001094092
  0
LINE
  5
24C
100
AcDbEntity
  8
INTFCLR_3
100
AcDbLine
 62
7
  6
CONTINUOUS
 10
49.6986915103
 20
130.9001094092
 11
49.6986915103
 21
86.9001094092
  0
LINE
  5
24D
100
AcDbEntity
  8
INTFCLR_3
100
AcDbLine
 62
7
  6
CONTINUOUS
 10
52.0986915103
 20
76.4001094092
 11
52.0986915103
 21
74.3001094092
  0
LINE
  5
24E
100
AcDbEntity
  8
INTFCLR_3
100
AcDbLine
 62
7
  6
CONTINUOUS
 10
52.5986915103
 20
69.6501094092
 11
52.5986915103
 21
72.6501094092
  0
LINE
  5
24F
100
AcDbEntity
  8
INTFCLR_3
100
AcDbLine
 62
7
  6
CONTINUOUS
 10
63.0986915103
 20
78.3001094092
 11
58.8986915103
 21
78.3001094092
  0
LINE
  5
250
100
AcDbEntity
  8
INTFCLR_3
100
AcDbLine
 62
7
  6
CONTINUOUS
 10
63.0986915103
 20
78.3545249969
 11
55.0986915103
 21
78.3545249969
  0
LINE
  5
251
100
AcDbEntity
  8
INTFCLR_3
100
AcDbLine
 62
7
  6
CONTINUOUS
 10
63.0986915103
 20
80.9001094092
 11
28.0986915103
 21
80.9001094092
  0
LINE
  5
252
100
AcDbEntity
  8
INTFCLR_3
100
AcDbLine
 62
7
  6
CONTINUOUS
 10
55.0986915103
 20
85.4001094092
 11
55.0986915103
 21
76.4001094092
  0
LINE
  5
253
100
AcDbEntity
  8
INTFCLR_3
100
AcDbLine
 62
7
  6
CONTINUOUS
 10
56.6486915103
 20
85.4001094092
 11
56.6486915103
 21
76.4001094092
  0
LINE
  5
254
100
AcDbEntity
  8
INTFCLR_3
100
AcDbLine
 62
7
  6
CONTINUOUS
 10
115.7986915103
 20
83.4099913309
 11
63.0986915103
 21
82.4901094092
  0
LINE
  5
255
100
AcDbEntity
  8
INTFCLR_3
100
AcDbLine
 62
7
  6
CONTINUOUS
 10
128.6986915103
 20
86.7351616685
 11
115.7986915103
 21
86.5099913309
  0
LINE
  5
256
100
AcDbEntity
  8
INTFCLR_3
100
AcDbLine
 62
7
  6
CONTINUOUS
 10
63.0986915103
 20
83.4456938215
 11
55.0986915103
 21
83.4456938215
  0
LINE
  5
257
100
AcDbEntity
  8
INTFCLR_3
100
AcDbLine
 62
7
  6
CONTINUOUS
 10
63.0986915103
 20
83.5001094092
 11
58.8986915103
 21
83.5001094092
  0
LINE
  5
258
100
AcDbEntity
  8
INTFCLR_3
100
AcDbLine
 62
7
  6
CONTINUOUS
 10
56.6486915103
 20
85.4001094092
 11
28.0986915103
 21
85.4001094092
  0
LINE
  5
259
100
AcDbEntity
  8
INTFCLR_3
100
AcDbLine
 62
7
  6
CONTINUOUS
 10
58.8986915103
 20
85.9000744576
 11
45.8986915103
 21
85.9000744576
  0
LINE
  5
25A
100
AcDbEntity
  8
INTFCLR_3
100
AcDbLine
 62
7
  6
CONTINUOUS
 10
45.8986915103
 20
85.9001094092
 11
28.0986915103
 21
85.9001094092
  0
LINE
  5
25B
100
AcDbEntity
  8
INTFCLR_3
100
AcDbLine
 62
7
  6
CONTINUOUS
 10
115.7986915103
 20
86.5099913309
 11
63.0986915103
 21
86.5099913309
  0
LINE
  5
25C
100
AcDbEntity
  8
INTFCLR_3
100
AcDbLine
 62
7
  6
CONTINUOUS
 10
58.8986915103
 20
75.9001495078
 11
58.8986915103
 21
85.9000693106
  0
LINE
  5
25D
100
AcDbEntity
  8
INTFCLR_3
100
AcDbLine
 62
7
  6
CONTINUOUS
 10
63.0986915103
 20
132.4001094092
 11
63.0986915103
 21
53.4001094092
  0
LINE
  5
25E
100
AcDbEntity
  8
INTFCLR_3
100
AcDbLine
 62
7
  6
CONTINUOUS
 10
128.6986915103
 20
86.6801094092
 11
115.7986915103
 21
86.6801094092
  0
LINE
  5
25F
100
AcDbEntity
  8
INTFCLR_3
100
AcDbLine
 62
7
  6
CONTINUOUS
 10
49.6986915103
 20
86.9001094092
 11
29.9986915103
 21
86.9001094092
  0
LINE
  5
260
100
AcDbEntity
  8
INTFCLR_3
100
AcDbLine
 62
7
  6
CONTINUOUS
 10
28.0986915103
 20
90.9001094092
 11
22.6986915103
 21
90.9001094092
  0
LINE
  5
261
100
AcDbEntity
  8
INTFCLR_3
100
AcDbLine
 62
7
  6
CONTINUOUS
 10
25.3736915103
 20
91.4001094092
 11
25.0986915103
 21
91.4001094092
  0
LINE
  5
262
100
AcDbEntity
  8
INTFCLR_3
100
AcDbLine
 62
7
  6
CONTINUOUS
 10
64.8986915103
 20
130.2186902923
 11
64.8986915103
 21
94.8028626556
  0
LINE
  5
263
100
AcDbEntity
  8
INTFCLR_3
100
AcDbLine
 62
7
  6
CONTINUOUS
 10
115.7986915103
 20
91.6128783843
 11
128.6986915103
 21
91.6128783843
  0
LINE
  5
264
100
AcDbEntity
  8
INTFCLR_3
100
AcDbLine
 62
7
  6
CONTINUOUS
 10
128.6986915103
 20
91.6301094092
 11
115.7986915103
 21
91.6301094092
  0
LINE
  5
265
100
AcDbEntity
  8
INTFCLR_3
100
AcDbLine
 62
7
  6
CONTINUOUS
 10
115.7986915103
 20
92.3628626556
 11
113.0986915103
 21
92.3628626556
  0
LINE
  5
266
100
AcDbEntity
  8
INTFCLR_3
100
AcDbLine
 62
7
  6
CONTINUOUS
 10
25.3736915103
 20
93.5501094092
 11
22.6986915103
 21
93.5501094092
  0
LINE
  5
267
100
AcDbEntity
  8
INTFCLR_3
100
AcDbLine
 62
7
  6
CONTINUOUS
 10
107.0986915103
 20
94.8028626556
 11
64.8986915103
 21
94.8028626556
  0
LINE
  5
268
100
AcDbEntity
  8
INTFCLR_3
100
AcDbLine
 62
7
  6
CONTINUOUS
 10
128.6986915103
 20
95.4501094092
 11
115.7986915103
 21
95.4501094092
  0
LINE
  5
269
100
AcDbEntity
  8
INTFCLR_3
100
AcDbLine
 62
7
  6
CONTINUOUS
 10
70.8986915103
 20
130.1139599028
 11
70.8986915103
 21
100.8028626556
  0
LINE
  5
26A
100
AcDbEntity
  8
INTFCLR_3
100
AcDbLine
 62
7
  6
CONTINUOUS
 10
25.3736915103
 20
96.8501094092
 11
22.6986915103
 21
96.8501094092
  0
LINE
  5
26B
100
AcDbEntity
  8
INTFCLR_3
100
AcDbLine
 62
7
  6
CONTINUOUS
 10
128.6986915103
 20
97.2741135527
 11
115.7986915103
 21
97.2741135527
  0
LINE
  5
26C
100
AcDbEntity
  8
INTFCLR_3
100
AcDbLine
 62
7
  6
CONTINUOUS
 10
28.0986915103
 20
97.6001094092
 11
22.6986915103
 21
97.6001094092
  0
LINE
  5
26D
100
AcDbEntity
  8
INTFCLR_3
100
AcDbLine
 62
7
  6
CONTINUOUS
 10
113.0986915103
 20
100.8028626556
 11
70.8986915103
 21
100.8028626556
  0
LINE
  5
26E
100
AcDbEntity
  8
INTFCLR_3
100
AcDbLine
 62
7
  6
CONTINUOUS
 10
29.3736915103
 20
103.1501470424
 11
25.3736915103
 21
103.1501470424
  0
LINE
  5
26F
100
AcDbEntity
  8
INTFCLR_3
100
AcDbLine
 62
7
  6
CONTINUOUS
 10
29.7736915103
 20
104.2001094092
 11
26.4986915103
 21
104.2001094092
  0
LINE
  5
270
100
AcDbEntity
  8
INTFCLR_3
100
AcDbLine
 62
7
  6
CONTINUOUS
 10
31.8736915103
 20
104.6060711833
 11
25.3736915103
 21
104.6060711833
  0
LINE
  5
271
100
AcDbEntity
  8
INTFCLR_3
100
AcDbLine
 62
7
  6
CONTINUOUS
 10
29.3736915103
 20
105.049594634
 11
25.3736915103
 21
105.049594634
  0
LINE
  5
272
100
AcDbEntity
  8
INTFCLR_3
100
AcDbLine
 62
7
  6
CONTINUOUS
 10
31.8736915103
 20
105.8317422923
 11
25.3736915103
 21
105.8317422923
  0
LINE
  5
273
100
AcDbEntity
  8
INTFCLR_3
100
AcDbLine
 62
7
  6
CONTINUOUS
 10
82.3986915103
 20
129.9132266561
 11
82.3986915103
 21
123.1001094092
  0
LINE
  5
274
100
AcDbEntity
  8
INTFCLR_3
100
AcDbLine
 62
7
  6
CONTINUOUS
 10
29.3736915103
 20
106.275265743
 11
25.3736915103
 21
106.275265743
  0
LINE
  5
275
100
AcDbEntity
  8
INTFCLR_3
100
AcDbLine
 62
7
  6
CONTINUOUS
 10
26.4986915103
 20
106.6001454078
 11
25.3736915103
 21
106.6001454078
  0
LINE
  5
276
100
AcDbEntity
  8
INTFCLR_3
100
AcDbLine
 62
7
  6
CONTINUOUS
 10
31.8736915103
 20
106.7879007
 11
29.3736915103
 21
106.7879007
  0
LINE
  5
277
100
AcDbEntity
  8
INTFCLR_3
100
AcDbLine
 62
7
  6
CONTINUOUS
 10
70.8986915103
 20
106.8028626556
 11
64.8986915103
 21
106.8028626556
  0
LINE
  5
278
100
AcDbEntity
  8
INTFCLR_3
100
AcDbLine
 62
7
  6
CONTINUOUS
 10
32.9736915103
 20
107.0851549241
 11
31.8736915103
 21
107.0851549241
  0
LINE
  5
279
100
AcDbEntity
  8
INTFCLR_3
100
AcDbLine
 62
7
  6
CONTINUOUS
 10
32.9736915103
 20
107.9001094092
 11
31.8736915103
 21
107.9001094092
  0
LINE
  5
27A
100
AcDbEntity
  8
INTFCLR_3
100
AcDbLine
 62
7
  6
CONTINUOUS
 10
31.8736915103
 20
108.013571809
 11
29.3736915103
 21
108.013571809
  0
LINE
  5
27B
100
AcDbEntity
  8
INTFCLR_3
100
AcDbLine
 62
7
  6
CONTINUOUS
 10
32.9736915103
 20
108.400151294
 11
29.3736915103
 21
108.400151294
  0
LINE
  5
27C
100
AcDbEntity
  8
INTFCLR_3
100
AcDbLine
 62
7
  6
CONTINUOUS
 10
31.8736915103
 20
108.5501094092
 11
27.2736915103
 21
108.5501094092
  0
LINE
  5
27D
100
AcDbEntity
  8
INTFCLR_3
100
AcDbLine
 62
7
  6
CONTINUOUS
 10
32.9736915103
 20
108.7150638943
 11
31.8736915103
 21
108.7150638943
  0
LINE
  5
27E
100
AcDbEntity
  8
INTFCLR_3
100
AcDbLine
 62
7
  6
CONTINUOUS
 10
128.6986915103
 20
108.7742691228
 11
115.7986915103
 21
108.7742691228
  0
LINE
  5
27F
100
AcDbEntity
  8
INTFCLR_3
100
AcDbLine
 62
7
  6
CONTINUOUS
 10
32.9736915103
 20
109.1501094092
 11
29.3736915103
 21
109.1501094092
  0
LINE
  5
280
100
AcDbEntity
  8
INTFCLR_3
100
AcDbLine
 62
7
  6
CONTINUOUS
 10
32.9736915103
 20
109.2851549241
 11
31.8736915103
 21
109.2851549241
  0
LINE
  5
281
100
AcDbEntity
  8
INTFCLR_3
100
AcDbLine
 62
7
  6
CONTINUOUS
 10
32.9736915103
 20
109.350151294
 11
27.2736915103
 21
109.350151294
  0
LINE
  5
282
100
AcDbEntity
  8
INTFCLR_3
100
AcDbLine
 62
7
  6
CONTINUOUS
 10
32.9736915103
 20
109.9000675243
 11
29.3736915103
 21
109.9000675243
  0
LINE
  5
283
100
AcDbEntity
  8
INTFCLR_3
100
AcDbLine
 62
7
  6
CONTINUOUS
 10
32.9736915103
 20
110.1001094092
 11
25.3736915103
 21
110.1001094092
  0
LINE
  5
284
100
AcDbEntity
  8
INTFCLR_3
100
AcDbLine
 62
7
  6
CONTINUOUS
 10
32.9736915103
 20
110.8500675243
 11
27.2736915103
 21
110.8500675243
  0
LINE
  5
285
100
AcDbEntity
  8
INTFCLR_3
100
AcDbLine
 62
7
  6
CONTINUOUS
 10
32.9736915103
 20
110.9150638943
 11
31.8736915103
 21
110.9150638943
  0
LINE
  5
286
100
AcDbEntity
  8
INTFCLR_3
100
AcDbLine
 62
7
  6
CONTINUOUS
 10
32.9736915103
 20
111.4851549241
 11
31.8736915103
 21
111.4851549241
  0
LINE
  5
287
100
AcDbEntity
  8
INTFCLR_3
100
AcDbLine
 62
7
  6
CONTINUOUS
 10
31.8736915103
 20
111.6501094092
 11
27.2736915103
 21
111.6501094092
  0
LINE
  5
288
100
AcDbEntity
  8
INTFCLR_3
100
AcDbLine
 62
7
  6
CONTINUOUS
 10
128.6986915103
 20
111.6891285033
 11
115.7986915103
 21
111.6891285033
  0
LINE
  5
289
100
AcDbEntity
  8
INTFCLR_3
100
AcDbLine
 62
7
  6
CONTINUOUS
 10
32.9736915103
 20
112.3001094092
 11
31.8736915103
 21
112.3001094092
  0
LINE
  5
28A
100
AcDbEntity
  8
INTFCLR_3
100
AcDbLine
 62
7
  6
CONTINUOUS
 10
32.9736915103
 20
113.1150638943
 11
31.8736915103
 21
113.1150638943
  0
LINE
  5
28B
100
AcDbEntity
  8
INTFCLR_3
100
AcDbLine
 62
7
  6
CONTINUOUS
 10
26.4986915103
 20
113.6000734106
 11
25.3736915103
 21
113.6000734106
  0
LINE
  5
28C
100
AcDbEntity
  8
INTFCLR_3
100
AcDbLine
 62
7
  6
CONTINUOUS
 10
32.9736915103
 20
114.120151294
 11
29.3736915103
 21
114.120151294
  0
LINE
  5
28D
100
AcDbEntity
  8
INTFCLR_3
100
AcDbLine
 62
7
  6
CONTINUOUS
 10
31.8736915103
 20
114.2995885436
 11
29.3736915103
 21
114.2995885436
  0
LINE
  5
28E
100
AcDbEntity
  8
INTFCLR_3
100
AcDbLine
 62
7
  6
CONTINUOUS
 10
128.6986915103
 20
114.6799913309
 11
115.7986915103
 21
114.6799913309
  0
LINE
  5
28F
100
AcDbEntity
  8
INTFCLR_3
100
AcDbLine
 62
7
  6
CONTINUOUS
 10
32.9736915103
 20
114.8701094092
 11
29.3736915103
 21
114.8701094092
  0
LINE
  5
290
100
AcDbEntity
  8
INTFCLR_3
100
AcDbLine
 62
7
  6
CONTINUOUS
 10
32.9736915103
 20
115.6200675243
 11
29.3736915103
 21
115.6200675243
  0
LINE
  5
291
100
AcDbEntity
  8
INTFCLR_3
100
AcDbLine
 62
7
  6
CONTINUOUS
 10
29.7736915103
 20
116.0001094092
 11
26.4986915103
 21
116.0001094092
  0
LINE
  5
292
100
AcDbEntity
  8
INTFCLR_3
100
AcDbLine
 62
7
  6
CONTINUOUS
 10
29.3736915103
 20
117.0039127088
 11
25.3736915103
 21
117.0039127088
  0
LINE
  5
293
100
AcDbEntity
  8
INTFCLR_3
100
AcDbLine
 62
7
  6
CONTINUOUS
 10
31.8736915103
 20
117.6939127088
 11
25.3736915103
 21
117.6939127088
  0
LINE
  5
294
100
AcDbEntity
  8
INTFCLR_3
100
AcDbLine
 62
7
  6
CONTINUOUS
 10
128.6986915103
 20
118.4999913309
 11
122.6986915103
 21
118.4999913309
  0
LINE
  5
295
100
AcDbEntity
  8
INTFCLR_3
100
AcDbLine
 62
7
  6
CONTINUOUS
 10
128.6986915103
 20
118.7567525837
 11
122.6986915103
 21
118.7567525837
  0
LINE
  5
296
100
AcDbEntity
  8
INTFCLR_3
100
AcDbLine
 62
7
  6
CONTINUOUS
 10
128.6986915103
 20
123.1001094092
 11
82.3986915103
 21
123.1001094092
  0
LINE
  5
297
100
AcDbEntity
  8
INTFCLR_3
100
AcDbLine
 62
7
  6
CONTINUOUS
 10
128.6986915103
 20
124.8999913309
 11
115.7986915103
 21
124.8999913309
  0
LINE
  5
298
100
AcDbEntity
  8
INTFCLR_3
100
AcDbLine
 62
7
  6
CONTINUOUS
 10
128.6986915103
 20
125.9001094092
 11
110.6986915103
 21
125.9001094092
  0
LINE
  5
299
100
AcDbEntity
  8
INTFCLR_3
100
AcDbLine
 62
7
  6
CONTINUOUS
 10
25.3736915103
 20
126.1001094092
 11
22.1986915103
 21
126.1001094092
  0
LINE
  5
29A
100
AcDbEntity
  8
INTFCLR_3
100
AcDbLine
 62
7
  6
CONTINUOUS
 10
122.6986915103
 20
126.5001094092
 11
63.0986915103
 21
126.5001094092
  0
LINE
  5
29B
100
AcDbEntity
  8
INTFCLR_3
100
AcDbLine
 62
7
  6
CONTINUOUS
 10
82.3986915103
 20
128.5747378737
 11
63.0986915103
 21
128.5747378737
  0
LINE
  5
29C
100
AcDbEntity
  8
INTFCLR_3
100
AcDbLine
 62
7
  6
CONTINUOUS
 10
82.3986915103
 20
129.1201094092
 11
63.0986915103
 21
129.1201094092
  0
LINE
  5
29D
100
AcDbEntity
  8
INTFCLR_3
100
AcDbLine
 62
7
  6
CONTINUOUS
 10
82.3986915103
 20
129.2101094092
 11
63.0986915103
 21
129.2101094092
  0
LINE
  5
29E
100
AcDbEntity
  8
INTFCLR_3
100
AcDbLine
 62
7
  6
CONTINUOUS
 10
25.3736915103
 20
129.8501094092
 11
25.0986915103
 21
129.8501094092
  0
LINE
  5
29F
100
AcDbEntity
  8
INTFCLR_3
100
AcDbLine
 62
7
  6
CONTINUOUS
 10
63.0986915103
 20
130.2001094092
 11
47.3986915103
 21
130.2001094092
  0
LINE
  5
2A0
100
AcDbEntity
  8
INTFCLR_3
100
AcDbLine
 62
7
  6
CONTINUOUS
 10
25.0986915103
 20
130.2001094092
 11
22.1986915103
 21
130.2001094092
  0
LINE
  5
2A1
100
AcDbEntity
  8
INTFCLR_3
100
AcDbLine
 62
7
  6
CONTINUOUS
 10
124.6989830228
 20
129.1748723212
 11
63.0986915103
 21
130.2501094092
  0
LINE
  5
2A2
100
AcDbEntity
  8
INTFCLR_3
100
AcDbLine
 62
7
  6
CONTINUOUS
 10
107.0986915103
 20
94.8028626556
 11
107.0986915103
 21
83.258132266
  0
LINE
  5
2A3
100
AcDbEntity
  8
INTFCLR_3
100
AcDbLine
 62
7
  6
CONTINUOUS
 10
49.6986915103
 20
130.9001094092
 11
29.9986915103
 21
130.9001094092
  0
LINE
  5
2A4
100
AcDbEntity
  8
INTFCLR_3
100
AcDbLine
 62
7
  6
CONTINUOUS
 10
63.0986915103
 20
132.4001094092
 11
25.0986915103
 21
132.4001094092
  0
LINE
  5
2A5
100
AcDbEntity
  8
INTFCLR_3
100
AcDbLine
 62
7
  6
CONTINUOUS
 10
110.3986915103
 20
129.4244848381
 11
110.3986915103
 21
123.1001094092
  0
LINE
  5
2A6
100
AcDbEntity
  8
INTFCLR_3
100
AcDbLine
 62
7
  6
CONTINUOUS
 10
110.6986915103
 20
129.4192483186
 11
110.6986915103
 21
125.9001094092
  0
LINE
  5
2A7
100
AcDbEntity
  8
INTFCLR_3
100
AcDbLine
 62
7
  6
CONTINUOUS
 10
36.0986915103
 20
144.8101094092
 11
18.5986915103
 21
147.9001094092
  0
LINE
  5
2A8
100
AcDbEntity
  8
INTFCLR_3
100
AcDbLine
 62
7
  6
CONTINUOUS
 10
113.0986915103
 20
100.8028626556
 11
113.0986915103
 21
83.3628626556
  0
LINE
  5
2A9
100
AcDbEntity
  8
INTFCLR_3
100
AcDbLine
 62
7
  6
CONTINUOUS
 10
115.7986915103
 20
125.9001094092
 11
115.7986915103
 21
83.4099913309
  0
LINE
  5
2AA
100
AcDbEntity
  8
INTFCLR_3
100
AcDbLine
 62
7
  6
CONTINUOUS
 10
27.0986915103
 20
142.9001094092
 11
17.3986915103
 21
142.9001094092
  0
LINE
  5
2AB
100
AcDbEntity
  8
INTFCLR_3
100
AcDbLine
 62
7
  6
CONTINUOUS
 10
17.3986915103
 20
143.2000895272
 11
16.0986915103
 21
143.2000895272
  0
LINE
  5
2AC
100
AcDbEntity
  8
INTFCLR_3
100
AcDbLine
 62
7
  6
CONTINUOUS
 10
17.3986915103
 20
144.0347517026
 11
16.0986915103
 21
144.0347517026
  0
LINE
  5
2AD
100
AcDbEntity
  8
INTFCLR_3
100
AcDbLine
 62
7
  6
CONTINUOUS
 10
17.3986915103
 20
146.7654455919
 11
16.0986915103
 21
146.7654455919
  0
LINE
  5
2AE
100
AcDbEntity
  8
INTFCLR_3
100
AcDbLine
 62
7
  6
CONTINUOUS
 10
17.3986915103
 20
147.6001292912
 11
16.0986915103
 21
147.6001292912
  0
LINE
  5
2AF
100
AcDbEntity
  8
INTFCLR_3
100
AcDbLine
 62
7
  6
CONTINUOUS
 10
18.5986915103
 20
147.9001094092
 11
17.3986915103
 21
147.9001094092
  0
LINE
  5
2B0
100
AcDbEntity
  8
INTFCLR_3
100
AcDbLine
 62
7
  6
CONTINUOUS
 10
128.6986915103
 20
127.1051616685
 11
124.6989830228
 21
129.1748723212
  0
LINE
  5
2B1
100
AcDbEntity
  8
INTFCLR_3
100
AcDbLine
 62
7
  6
CONTINUOUS
 10
122.6986915103
 20
126.5001094092
 11
122.6986915103
 21
86.6304312789
  0
LINE
  5
2B2
100
AcDbEntity
  8
INTFCLR_3
100
AcDbLine
 62
7
  6
CONTINUOUS
 10
128.6986915103
 20
127.1051616685
 11
128.6986915103
 21
86.6801094092
  0
CIRCLE
  5
2B3
100
AcDbEntity
  8
INTFCLR_3
100
AcDbCircle
 62
7
  6
CONTINUOUS
 10
23.6486915103
 20
128.1501094092
 40
0.8499525305
  0
CIRCLE
  5
2B4
100
AcDbEntity
  8
INTFCLR_3
100
AcDbCircle
 62
7
  6
CONTINUOUS
 10
24.1486915103
 20
92.3501094092
 40
0.8249539267
  0
SPLINE
  5
2B5
100
AcDbEntity
  8
INTFCLR_3
100
AcDbSpline
 62
7
  6
CONTINUOUS
 70
0
 71
3
 72
15
 73
11
 74
0
 42
0.0000001
 43
0.0000001
 44
0.0000000001
 40
0.0
 40
0.0
 40
0.0
 40
0.0
 40
0.1271651494
 40
0.2516421134
 40
0.3743791938
 40
0.4987444213
 40
0.6230100771
 40
0.7463537061
 40
0.8721420081
 40
1.0
 40
1.0
 40
1.0
 40
1.0
 10
24.1486915103
 20
91.5251094092
 30
0.0
 10
24.0395621602
 20
91.5275001781
 30
0.0
 10
23.8210508908
 20
91.5680680919
 30
0.0
 10
23.5485289327
 20
91.7542764987
 30
0.0
 10
23.3672363734
 20
92.0260487859
 30
0.0
 10
23.3025054582
 20
92.3466464169
 30
0.0
 10
23.3647165608
 20
92.6682557011
 30
0.0
 10
23.5449164336
 20
92.9427869866
 30
0.0
 10
23.8186973009
 20
93.1314937162
 30
0.0
 10
24.0389643327
 20
93.1728588821
 30
0.0
 10
24.1486915103
 20
93.1751094092
 30
0.0
  0
SPLINE
  5
2B6
100
AcDbEntity
  8
INTFCLR_3
100
AcDbSpline
 62
7
  6
CONTINUOUS
 70
0
 71
3
 72
15
 73
11
 74
0
 42
0.0000001
 43
0.0000001
 44
0.0000000001
 40
0.0
 40
0.0
 40
0.0
 40
0.0
 40
0.1271651494
 40
0.2516421134
 40
0.3743791938
 40
0.4987444213
 40
0.6230100771
 40
0.7463537061
 40
0.8721420081
 40
1.0
 40
1.0
 40
1.0
 40
1.0
 10
24.1486915103
 20
93.1751094092
 30
0.0
 10
24.2578208604
 20
93.1727186403
 30
0.0
 10
24.4763321298
 20
93.1321507265
 30
0.0
 10
24.7488540878
 20
92.9459423197
 30
0.0
 10
24.9301466472
 20
92.6741700325
 30
0.0
 10
24.9948775624
 20
92.3535724015
 30
0.0
 10
24.9326664597
 20
92.0319631173
 30
0.0
 10
24.7524665869
 20
91.7574318318
 30
0.0
 10
24.4786857197
 20
91.5687251022
 30
0.0
 10
24.2584186879
 20
91.5273599363
 30
0.0
 10
24.1486915103
 20
91.5251094092
 30
0.0
  0
SPLINE
  5
2B7
100
AcDbEntity
  8
INTFCLR_3
100
AcDbSpline
 62
7
  6
CONTINUOUS
 70
0
 71
3
 72
15
 73
11
 74
0
 42
0.0000001
 43
0.0000001
 44
0.0000000001
 40
0.0
 40
0.0
 40
0.0
 40
0.0
 40
0.1271651494
 40
0.2516421134
 40
0.3743791938
 40
0.4987444213
 40
0.6230100771
 40
0.7463537061
 40
0.8721420081
 40
1.0
 40
1.0
 40
1.0
 40
1.0
 10
24.4986915103
 20
128.1501094092
 30
0.0
 10
24.4962282939
 20
128.2625457093
 30
0.0
 10
24.4544310493
 20
128.4876785323
 30
0.0
 10
24.2625799635
 20
128.7684587315
 30
0.0
 10
23.9825721525
 20
128.9552450048
 30
0.0
 10
23.6522594418
 20
129.0219374628
 30
0.0
 10
23.3209044217
 20
128.9578411753
 30
0.0
 10
23.0380540063
 20
128.7721807003
 30
0.0
 10
22.8436288909
 20
128.4901034431
 30
0.0
 10
22.8010102352
 20
128.2631616528
 30
0.0
 10
22.7986915103
 20
128.1501094092
 30
0.0
  0
SPLINE
  5
2B8
100
AcDbEntity
  8
INTFCLR_3
100
AcDbSpline
 62
7
  6
CONTINUOUS
 70
0
 71
3
 72
15
 73
11
 74
0
 42
0.0000001
 43
0.0000001
 44
0.0000000001
 40
0.0
 40
0.0
 40
0.0
 40
0.0
 40
0.1271651494
 40
0.2516421134
 40
0.3743791938
 40
0.4987444213
 40
0.6230100771
 40
0.7463537061
 40
0.8721420081
 40
1.0
 40
1.0
 40
1.0
 40
1.0
 10
22.7986915103
 20
128.1501094092
 30
0.0
 10
22.8011547267
 20
128.0376731091
 30
0.0
 10
22.8429519713
 20
127.8125402861
 30
0.0
 10
23.034803057
 20
127.5317600869
 30
0.0
 10
23.3148108681
 20
127.3449738136
 30
0.0
 10
23.6451235788
 20
127.2782813555
 30
0.0
 10
23.9764785989
 20
127.3423776431
 30
0.0
 10
24.2593290142
 20
127.5280381181
 30
0.0
 10
24.4537541297
 20
127.8101153753
 30
0.0
 10
24.4963727854
 20
128.0370571656
 30
0.0
 10
24.4986915103
 20
128.1501094092
 30
0.0
  0
ENDSEC
  0
SECTION
  2
OBJECTS
  0
DICTIONARY
  5
C
100
AcDbDictionary
280
0
281
1
  3
ACAD_GROUP
350
D
  3
ACAD_MLINESTYLE
350
17
  3
ACAD_LAYOUT
350
1A
  3
ACAD_PLOTSETTINGS
350
19
  3
ACAD_PLOTSTYLENAME
350
E
  0
DICTIONARY
  5
D
102
{ACAD_REACTORS
330
C
102
}
100
AcDbDictionary
280
0
281
1
  0
ACDBDICTIONARYWDFLT
  5
E
102
{ACAD_REACTORS
330
C
102
}
100
AcDbDictionary
281
1
  3
Normal
350
F
100
AcDbDictionaryWithDefault
340
F
  0
DICTIONARY
  5
17
102
{ACAD_REACTORS
330
C
102
}
100
AcDbDictionary
280
0
281
1
  3
Standard
350
18
  0
DICTIONARY
  5
19
102
{ACAD_REACTORS
330
C
102
}
100
AcDbDictionary
281
1
  0
DICTIONARY
  5
1A
102
{ACAD_REACTORS
330
C
102
}
100
AcDbDictionary
281
1
  3
Model
350
2B9
  3
Layout1
350
2BA
  0
ACDBPLACEHOLDER
  5
F
102
{ACAD_REACTORS
330
E
102
}
  0
MLINESTYLE
  5
18
102
{ACAD_REACTORS
330
17
102
}
100
AcDbMlineStyle
  2
STANDARD
 70
0
  3

 62
256
 51
90.0
 52
90.0
 71
2
 49
0.5
 62
256
  6
BYLAYER
 49
-0.5
 62
256
  6
BYLAYER
  0
LAYOUT
  5
2B9
102
{ACAD_REACTORS
330
1A
102
}
100
AcDbPlotSettings
  1

  2
none_device
  4

  6

 40
0.0
 41
0.0
 42
0.0
 43
0.0
 44
210.0
 45
297.0
 46
0.0
 47
0.0
 48
0.0
 49
0.0
140
0.0
141
0.0
142
1.0
143
1.0
 70
1024
 72
1
 73
0
 74
0
  7

 75
0
147
1.0
148
0.0
149
0.0
100
AcDbLayout
  1
Model
 70
0
 71
0
 10
0.0
 20
0.0
 11
210.0
 21
297.0
 12
0.0
 22
0.0
 32
0.0
 14
0.0
 24
0.0
 34
0.0
 15
0.0
 25
0.0
 35
0.0
146
0.0
 13
0.0
 23
0.0
 33
0.0
 16
1.0
 26
0.0
 36
0.0
 17
0.0
 27
1.0
 37
0.0
 76
0
330
212
345
0
346
0
  0
LAYOUT
  5
2BA
102
{ACAD_REACTORS
330
1A
102
}
100
AcDbPlotSettings
  1

  2
none_device
  4

  6

 40
0.0
 41
0.0
 42
0.0
 43
0.0
 44
210.0
 45
297.0
 46
0.0
 47
0.0
 48
0.0
 49
0.0
140
0.0
141
0.0
142
1.0
143
1.0
 70
0
 72
1
 73
0
 74
0
  7

 75
0
147
1.0
148
0.0
149
0.0
100
AcDbLayout
  1
Layout1
 70
0
 71
1
 10
0.0
 20
0.0
 11
210.0
 21
297.0
 12
0.0
 22
0.0
 32
0.0
 14
0.0
 24
0.0
 34
0.0
 15
0.0
 25
0.0
 35
0.0
146
0.0
 13
0.0
 23
0.0
 33
0.0
 16
1.0
 26
0.0
 36
0.0
 17
0.0
 27
1.0
 37
0.0
 76
0
330
213
345
0
346
0
  0
ENDSEC
  0
EOF
