999
DXF file: C:\Users\sesa63760\Dev\_Creo\CAD\MCADPE0010443_3D-CAD\drw0001_1.dxf
999
Pro/ENGINEER 2019471 by Parametric Technology Corporation
  0
SECTION
  2
HEADER
  9
$ACADVER
  1
AC1024
  9
$DWGCODEPAGE
  3
ANSI_1252
  9
$EXTMAX
 10
59.4913723434
 20
84.1377980285
 30
0.0
  9
$EXTMIN
 10
0.0
 20
0.0
 30
0.0
  9
$LIMMIN
 10
0.0
 20
0.0
  9
$LIMMAX
 10
59.4913723434
 20
84.1377980285
  9
$VIEWCTR
 10
29.7456861717
 20
42.0688990142
  9
$VIEWSIZE
 40
84.1377980285
  9
$CLAYER
  8
0
  9
$LTSCALE
 40
5.4845379456
  9
$CELTYPE
  6
BYLAYER
  9
$DIMSCALE
 40
1.0
  9
$DIMASZ
 40
0.7082306231
  9
$DIMEXO
 40
1.0
  9
$DIMDLI
 40
3.789317126
  9
$DIMEXE
 40
1.0
  9
$DIMCEN
 40
0.8974698456
  9
$DIMLFAC
 40
1.0
  9
$DIMBLK
  1
_FILLED
  9
$DIMALT
 70
0
  9
$DIMALTF
 40
0.0393700787
  9
$DIMTXT
 40
0.9915228724
  9
$DIMTOL
 70
1
  9
$DIMLIM
 70
0
  9
$DIMTFAC
 40
1.0
  9
$DIMTP
 40
0.01
  9
$DIMTM
 40
0.01
  9
$DIMGAP
 40
0.625
  9
$DIMDSEP
 70
46
  9
$AUNITS
 70
0
  9
$PDMODE
 70
3
  9
$PDSIZE
 40
0.3125
  9
$HANDSEED
  5
26A
  9
$TILEMODE
 70
1
  9
$MEASUREMENT
 70
1
  9
$INSUNITS
 70
4
  0
ENDSEC
  0
SECTION
  2
CLASSES
  0
CLASS
  1
ACDBDICTIONARYWDFLT
  2
AcDbDictionaryWithDefault
  3
AutoCAD 2000
 90
0
 91
1
280
0
281
0
  0
CLASS
  1
ACDBPLACEHOLDER
  2
AcDbPlaceHolder
  3
AutoCAD 2000
 90
0
 91
1
280
0
281
0
  0
CLASS
  1
LAYOUT
  2
AcDbLayout
  3
AutoCAD 2000
 90
0
 91
0
280
0
281
0
  0
ENDSEC
  0
SECTION
  2
TABLES
  0
TABLE
  2
VPORT
  5
8
100
AcDbSymbolTable
 70
2
  0
VPORT
  5
1F4
100
AcDbSymbolTableRecord
100
AcDbViewportTableRecord
  2
*ACTIVE
 70
0
 10
0.0
 20
0.0
 11
1.0
 21
1.0
 12
29.7456861717
 22
42.0688990142
 13
0.0
 23
0.0
 14
1.0
 24
1.0
 15
0.0
 25
0.0
 16
0.0
 26
0.0
 36
1.0
 17
0.0
 27
0.0
 37
0.0
 40
84.1377980285
 41
0.7070707071
 42
50.0
 43
0.0
 44
0.0
 50
0.0
 51
0.0
 71
0
 72
100
 73
1
 74
1
 75
0
 76
0
 77
0
 78
0
  0
ENDTAB
  0
TABLE
  2
LTYPE
  5
5
100
AcDbSymbolTable
 70
6
  0
LTYPE
  5
14
100
AcDbSymbolTableRecord
100
AcDbLinetypeTableRecord
  2
BYBLOCK
 70
0
  3

 72
65
 73
0
 40
0.0
  0
LTYPE
  5
15
100
AcDbSymbolTableRecord
100
AcDbLinetypeTableRecord
  2
BYLAYER
 70
0
  3

 72
65
 73
0
 40
0.0
  0
LTYPE
  5
16
100
AcDbSymbolTableRecord
100
AcDbLinetypeTableRecord
  2
CONTINUOUS
 70
64
  3
Solid line
 72
65
 73
0
 40
0.0
  0
LTYPE
  5
1F5
100
AcDbSymbolTableRecord
100
AcDbLinetypeTableRecord
  2
CENTER
 70
64
  3
____ _ ____ _ ____ _ ____ _ ____ _ ____ _ ____
 72
65
 73
4
 40
0.6
 49
0.375
 74
0
 49
-0.075
 74
0
 49
0.075
 74
0
 49
-0.075
 74
0
  0
LTYPE
  5
1F6
100
AcDbSymbolTableRecord
100
AcDbLinetypeTableRecord
  2
HIDDEN
 70
64
  3
- - - - - - - - - - - - - - - - - - - -
 72
65
 73
2
 40
0.2
 49
0.1
 74
0
 49
-0.1
 74
0
  0
LTYPE
  5
1F7
100
AcDbSymbolTableRecord
100
AcDbLinetypeTableRecord
  2
PHANTOM
 70
64
  3
_____ _ _ _____ _ _ _____ _ _ _____
 72
65
 73
6
 40
0.8
 49
0.45
 74
0
 49
-0.05
 74
0
 49
0.1
 74
0
 49
-0.05
 74
0
 49
0.1
 74
0
 49
-0.05
 74
0
  0
LTYPE
  5
1F8
100
AcDbSymbolTableRecord
100
AcDbLinetypeTableRecord
  2
DOT
 70
64
  3
. . . . . . . . . . . . . . . . . . . .
 72
65
 73
2
 40
0.2
 49
0.1
 74
0
 49
-0.1
 74
0
  0
LTYPE
  5
1F9
100
AcDbSymbolTableRecord
100
AcDbLinetypeTableRecord
  2
DASHED
 70
64
  3
- - - - - - - - - - - - - - - - - - - -
 72
65
 73
2
 40
0.2
 49
0.1
 74
0
 49
-0.1
 74
0
  0
ENDTAB
  0
TABLE
  2
LAYER
  5
2
100
AcDbSymbolTable
 70
36
  0
LAYER
  5
10
100
AcDbSymbolTableRecord
100
AcDbLayerTableRecord
  2
0
 70
0
 62
7
  6
CONTINUOUS
370
-3
390
F
  0
LAYER
  5
1FA
100
AcDbSymbolTableRecord
100
AcDbLayerTableRecord
  2
DEFAULT_1
 70
0
 62
7
  6
CENTER
370
-3
390
F
  0
LAYER
  5
1FB
100
AcDbSymbolTableRecord
100
AcDbLayerTableRecord
  2
DEFAULT_2
 70
0
 62
7
  6
HIDDEN
370
-3
390
F
  0
LAYER
  5
1FC
100
AcDbSymbolTableRecord
100
AcDbLayerTableRecord
  2
DEFAULT_3
 70
0
 62
7
  6
PHANTOM
370
-3
390
F
  0
LAYER
  5
1FD
100
AcDbSymbolTableRecord
100
AcDbLayerTableRecord
  2
00_COMPONENTS
 70
0
 62
7
  6
CONTINUOUS
370
-3
390
F
  0
LAYER
  5
1FE
100
AcDbSymbolTableRecord
100
AcDbLayerTableRecord
  2
01_1_DEFAULT_DATUMS
 70
0
 62
7
  6
CONTINUOUS
370
-3
390
F
  0
LAYER
  5
1FF
100
AcDbSymbolTableRecord
100
AcDbLayerTableRecord
  2
01_PLANES
 70
0
 62
7
  6
CONTINUOUS
370
-3
390
F
  0
LAYER
  5
200
100
AcDbSymbolTableRecord
100
AcDbLayerTableRecord
  2
02_COORD_SYS
 70
0
 62
7
  6
CONTINUOUS
370
-3
390
F
  0
LAYER
  5
201
100
AcDbSymbolTableRecord
100
AcDbLayerTableRecord
  2
03_AXES
 70
0
 62
7
  6
CONTINUOUS
370
-3
390
F
  0
LAYER
  5
202
100
AcDbSymbolTableRecord
100
AcDbLayerTableRecord
  2
04_POINTS
 70
0
 62
7
  6
CONTINUOUS
370
-3
390
F
  0
LAYER
  5
203
100
AcDbSymbolTableRecord
100
AcDbLayerTableRecord
  2
05_CURVES
 70
0
 62
7
  6
CONTINUOUS
370
-3
390
F
  0
LAYER
  5
204
100
AcDbSymbolTableRecord
100
AcDbLayerTableRecord
  2
06_SURFS
 70
0
 62
7
  6
CONTINUOUS
370
-3
390
F
  0
LAYER
  5
205
100
AcDbSymbolTableRecord
100
AcDbLayerTableRecord
  2
07_COSMETICS
 70
0
 62
7
  6
CONTINUOUS
370
-3
390
F
  0
LAYER
  5
206
100
AcDbSymbolTableRecord
100
AcDbLayerTableRecord
  2
10_NOTES
 70
0
 62
7
  6
CONTINUOUS
370
-3
390
F
  0
LAYER
  5
207
100
AcDbSymbolTableRecord
100
AcDbLayerTableRecord
  2
11_NOTES_PUB
 70
0
 62
7
  6
CONTINUOUS
370
-3
390
F
  0
LAYER
  5
208
100
AcDbSymbolTableRecord
100
AcDbLayerTableRecord
  2
13_REF_GTOL
 70
0
 62
7
  6
CONTINUOUS
370
-3
390
F
  0
LAYER
  5
209
100
AcDbSymbolTableRecord
100
AcDbLayerTableRecord
  2
16_MISC
 70
0
 62
7
  6
CONTINUOUS
370
-3
390
F
  0
LAYER
  5
20A
100
AcDbSymbolTableRecord
100
AcDbLayerTableRecord
  2
17_NO_PRINT
 70
0
 62
7
  6
CONTINUOUS
370
-3
390
F
  0
LAYER
  5
20B
100
AcDbSymbolTableRecord
100
AcDbLayerTableRecord
  2
18_DATUM_CAMS_JOINTS
 70
0
 62
7
  6
CONTINUOUS
370
-3
390
F
  0
LAYER
  5
20C
100
AcDbSymbolTableRecord
100
AcDbLayerTableRecord
  2
19_DATUM_FUNCTIONAL
 70
0
 62
7
  6
CONTINUOUS
370
-3
390
F
  0
LAYER
  5
20D
100
AcDbSymbolTableRecord
100
AcDbLayerTableRecord
  2
20_DATUM_KINEMATIC_SCHEME
 70
0
 62
7
  6
CONTINUOUS
370
-3
390
F
  0
ENDTAB
  0
TABLE
  2
STYLE
  5
3
100
AcDbSymbolTable
 70
1
  0
STYLE
  5
11
100
AcDbSymbolTableRecord
100
AcDbTextStyleTableRecord
  2
STANDARD
 70
0
 40
0.0
 41
1.0
 50
0.0
 71
0
 42
0.2
  3
ARIAL.TTF
  4

  0
STYLE
  5
20E
100
AcDbSymbolTableRecord
100
AcDbTextStyleTableRecord
  2
TEXTSTYLE_1
 70
0
 40
0.0
 41
0.8
 50
0.0
 71
0
 42
0.2
  3
gdt
  4

  0
ENDTAB
  0
TABLE
  2
VIEW
  5
6
100
AcDbSymbolTable
 70
0
  0
ENDTAB
  0
TABLE
  2
UCS
  5
7
100
AcDbSymbolTable
 70
0
  0
ENDTAB
  0
TABLE
  2
APPID
  5
9
100
AcDbSymbolTable
 70
1
  0
APPID
  5
20F
100
AcDbSymbolTableRecord
100
AcDbRegAppTableRecord
  2
ACAD
 70
0
  0
ENDTAB
  0
TABLE
  2
BLOCK_RECORD
  5
1
100
AcDbSymbolTable
 70
0
  0
BLOCK_RECORD
  5
210
100
AcDbSymbolTableRecord
100
AcDbBlockTableRecord
  2
*Model_Space
  0
BLOCK_RECORD
  5
211
100
AcDbSymbolTableRecord
100
AcDbBlockTableRecord
  2
*Paper_Space
  0
BLOCK_RECORD
  5
212
100
AcDbSymbolTableRecord
100
AcDbBlockTableRecord
  2
_FILLED
  0
ENDTAB
  0
TABLE
  2
DIMSTYLE
  5
A
100
AcDbSymbolTable
 70
1
100
AcDbDimStyleTable
 71
0
  0
DIMSTYLE
105
213
100
AcDbSymbolTableRecord
100
AcDbDimStyleTableRecord
  2
STANDARD
 70
0
  3

  4

 40
1.0
 41
0.7082306231
 42
1.0
 43
0.38
 44
1.0
 45
0.0
 46
0.0
 47
0.01
 48
0.01
140
0.9915228724
141
0.09
142
0.0
143
25.4
144
1.0
145
0.0
146
1.0
147
0.625
 71
1
 72
0
 73
0
 74
0
 75
0
 76
0
 77
1
 78
8
 79
2
170
0
171
1
172
0
173
0
174
0
175
0
176
0
177
0
178
0
270
2
179
2
271
2
272
2
273
2
274
2
275
0
280
0
281
0
282
0
283
1
284
8
285
0
286
0
287
3
288
0
340
11
278
46
341
212
342
212
343
212
344
212
  0
ENDTAB
  0
ENDSEC
  0
SECTION
  2
BLOCKS
  0
BLOCK
  5
20
100
AcDbEntity
  8
0
100
AcDbBlockBegin
  2
*Model_Space
 70
0
 10
0.0
 20
0.0
 30
0.0
  3
*Model_Space
  1

  0
ENDBLK
  5
21
100
AcDbEntity
  8
0
100
AcDbBlockEnd
  0
BLOCK
  5
1C
100
AcDbEntity
  8
0
100
AcDbBlockBegin
  2
*Paper_Space
 70
0
 10
0.0
 20
0.0
 30
0.0
  3
*Paper_Space
  1

  0
ENDBLK
  5
1D
100
AcDbEntity
  8
0
100
AcDbBlockEnd
  0
BLOCK
  5
214
100
AcDbEntity
  8
0
100
AcDbBlockBegin
  2
_FILLED
 70
64
 10
0.0
 20
0.0
  3
_FILLED
  1

  0
SOLID
  5
215
100
AcDbEntity
  8
0
  6
BYBLOCK
 62
0
100
AcDbTrace
 10
0.0
 20
0.0
 11
-1.0
 21
0.25
 12
-1.0
 22
-0.25
 13
-1.0
 23
-0.25
  0
ENDBLK
  5
216
100
AcDbEntity
  8
0
  6
BYBLOCK
 62
0
100
AcDbBlockEnd
  0
ENDSEC
  0
SECTION
  2
ENTITIES
  0
LINE
  5
217
100
AcDbEntity
  8
0
100
AcDbLine
 62
7
  6
BYLAYER
 10
15.9191774756
 20
7.3555101084
 11
17.3333969259
 21
6.5390285994
  0
LINE
  5
218
100
AcDbEntity
  8
0
100
AcDbLine
 62
7
  6
BYLAYER
 10
17.1262846052
 20
6.9968147472
 11
15.7120651549
 21
7.8132962562
  0
LINE
  5
219
100
AcDbEntity
  8
0
100
AcDbLine
 62
7
  6
BYLAYER
 10
17.6503765025
 20
6.5107167671
 11
24.29347013
 21
8.2906821967
  0
LINE
  5
21A
100
AcDbEntity
  8
0
100
AcDbLine
 62
7
  6
BYLAYER
 10
23.0622626196
 20
70.5859851907
 11
35.3094079833
 21
77.656835656
  0
LINE
  5
21B
100
AcDbEntity
  8
0
100
AcDbLine
 62
7
  6
BYLAYER
 10
16.2361570522
 20
64.5617296131
 11
22.8792506796
 21
70.4525021835
  0
LINE
  5
21C
100
AcDbEntity
  8
0
100
AcDbLine
 62
7
  6
BYLAYER
 10
36.7236274336
 20
76.840354147
 11
24.4764820699
 21
69.7695036817
  0
LINE
  5
21D
100
AcDbEntity
  8
0
100
AcDbLine
 62
7
  6
BYLAYER
 10
24.2934701299
 20
69.6360206744
 11
17.6503765025
 21
63.745248104
  0
LINE
  5
21E
100
AcDbEntity
  8
0
100
AcDbLine
 62
7
  6
BYLAYER
 10
40.4607112332
 20
27.8440711724
 11
35.9302578906
 21
26.6301713266
  0
LINE
  5
21F
100
AcDbEntity
  8
0
100
AcDbLine
 62
7
  6
BYLAYER
 10
35.8861175688
 20
27.8137549151
 11
39.046491783
 21
28.6605526815
  0
LINE
  5
220
100
AcDbEntity
  8
0
100
AcDbLine
 62
7
  6
BYLAYER
 10
36.1447984396
 20
27.9940596706
 11
40.0156533447
 21
29.0312252294
  0
LINE
  5
221
100
AcDbEntity
  8
0
100
AcDbLine
 62
7
  6
BYLAYER
 10
15.7120651549
 20
63.4704660494
 11
15.7120651549
 21
7.8132962562
  0
LINE
  5
222
100
AcDbEntity
  8
0
100
AcDbLine
 62
7
  6
BYLAYER
 10
17.1262846052
 20
62.6539845403
 11
17.1262846052
 21
6.9968147472
  0
LINE
  5
223
100
AcDbEntity
  8
0
100
AcDbLine
 62
7
  6
BYLAYER
 10
35.9302578906
 20
26.6301713266
 11
35.6767434289
 21
26.652940864
  0
LINE
  5
224
100
AcDbEntity
  8
0
100
AcDbLine
 62
7
  6
BYLAYER
 10
36.21808821
 20
22.1285965807
 11
35.5455894305
 21
22.5168551485
  0
LINE
  5
225
100
AcDbEntity
  8
0
100
AcDbLine
 62
7
  6
BYLAYER
 10
35.9302578906
 20
26.6301713266
 11
35.5463988863
 21
26.8517874124
  0
LINE
  5
226
100
AcDbEntity
  8
0
100
AcDbLine
 62
7
  6
BYLAYER
 10
40.3192786899
 20
26.1293824899
 11
41.7334981402
 21
25.3129009809
  0
LINE
  5
227
100
AcDbEntity
  8
0
100
AcDbLine
 62
7
  6
BYLAYER
 10
40.8192702064
 20
26.1789103745
 11
42.2334896567
 21
25.3624288654
  0
LINE
  5
228
100
AcDbEntity
  8
0
100
AcDbLine
 62
7
  6
BYLAYER
 10
40.4607112332
 20
56.1767050468
 11
41.2385254542
 21
56.6257736161
  0
LINE
  5
229
100
AcDbEntity
  8
0
100
AcDbLine
 62
7
  6
BYLAYER
 10
41.7561236558
 20
55.863154151
 11
41.8042085239
 21
55.8909157969
  0
LINE
  5
22A
100
AcDbEntity
  8
0
100
AcDbLine
 62
7
  6
BYLAYER
 10
44.4962183147
 20
30.0225994011
 11
44.3718582685
 21
30.0652113543
  0
LINE
  5
22B
100
AcDbEntity
  8
0
100
AcDbLine
 62
7
  6
BYLAYER
 10
42.9576388182
 20
30.8816928633
 11
43.0819988644
 21
30.8390809101
  0
LINE
  5
22C
100
AcDbEntity
  8
0
100
AcDbLine
 62
7
  6
BYLAYER
 10
39.0464917829
 20
28.6605526815
 11
40.4607112332
 21
27.8440711724
  0
LINE
  5
22D
100
AcDbEntity
  8
0
100
AcDbLine
 62
7
  6
BYLAYER
 10
39.9777062279
 20
29.0210575937
 11
41.2385254542
 21
28.2931397417
  0
LINE
  5
22E
100
AcDbEntity
  8
0
100
AcDbLine
 62
7
  6
BYLAYER
 10
41.484833727
 20
29.4967981827
 11
40.4607112332
 21
30.088062204
  0
LINE
  5
22F
100
AcDbEntity
  8
0
100
AcDbLine
 62
7
  6
BYLAYER
 10
40.4607112332
 20
30.4568391819
 11
41.8042085239
 21
29.681188207
  0
LINE
  5
230
100
AcDbEntity
  8
0
100
AcDbLine
 62
7
  6
BYLAYER
 10
44.3718582685
 20
30.0652113543
 11
42.9576388182
 21
30.8816928633
  0
LINE
  5
231
100
AcDbEntity
  8
0
100
AcDbLine
 62
7
  6
BYLAYER
 10
43.0820024855
 20
30.8390871856
 11
44.4962219358
 21
30.0226056765
  0
LINE
  5
232
100
AcDbEntity
  8
0
100
AcDbLine
 62
7
  6
BYLAYER
 10
35.5296974874
 20
27.19241413
 11
35.5374747523
 21
27.2371663375
  0
LINE
  5
233
100
AcDbEntity
  8
0
100
AcDbLine
 62
7
  6
BYLAYER
 10
40.4607112332
 20
29.6825183733
 11
40.4607112332
 21
56.1767050468
  0
LINE
  5
234
100
AcDbEntity
  8
0
100
AcDbLine
 62
7
  6
BYLAYER
 10
42.4406019774
 20
20.3730543025
 11
42.4406019774
 21
24.9046427176
  0
LINE
  5
235
100
AcDbEntity
  8
0
100
AcDbLine
 62
7
  6
BYLAYER
 10
15.7120651549
 20
63.4704660494
 11
17.1262846052
 21
62.6539845403
  0
LINE
  5
236
100
AcDbEntity
  8
0
100
AcDbLine
 62
7
  6
BYLAYER
 10
17.6503765025
 20
63.745248104
 11
16.2361570522
 21
64.5617296131
  0
LINE
  5
237
100
AcDbEntity
  8
0
100
AcDbLine
 62
7
  6
BYLAYER
 10
44.7033342565
 20
29.4770336785
 11
44.7033342565
 21
29.5648195287
  0
LINE
  5
238
100
AcDbEntity
  8
0
100
AcDbLine
 62
7
  6
BYLAYER
 10
44.7033342565
 20
59.8254950499
 11
44.7033342565
 21
60.0958743209
  0
LINE
  5
239
100
AcDbEntity
  8
0
100
AcDbLine
 62
7
  6
BYLAYER
 10
41.484833727
 20
29.4967981827
 11
41.2385254542
 21
28.2931397417
  0
LINE
  5
23A
100
AcDbEntity
  8
0
100
AcDbLine
 62
7
  6
BYLAYER
 10
41.2385254542
 20
56.6257736161
 11
41.4146187267
 21
55.9685753858
  0
LINE
  5
23B
100
AcDbEntity
  8
0
100
AcDbLine
 62
7
  6
BYLAYER
 10
39.046491783
 20
28.6605526815
 11
39.4052234579
 21
28.8676652742
  0
LINE
  5
23C
100
AcDbEntity
  8
0
100
AcDbLine
 62
7
  6
BYLAYER
 10
41.8042085239
 20
29.681188207
 11
41.484833727
 21
29.4967981827
  0
LINE
  5
23D
100
AcDbEntity
  8
0
100
AcDbLine
 62
7
  6
BYLAYER
 10
41.2385254542
 20
28.2931397417
 11
40.4607112332
 21
27.8440711724
  0
LINE
  5
23E
100
AcDbEntity
  8
0
100
AcDbLine
 62
7
  6
BYLAYER
 10
40.6904217801
 20
56.3093277012
 11
41.5061278975
 21
55.8383902088
  0
LINE
  5
23F
100
AcDbEntity
  8
0
100
AcDbLine
 62
7
  6
BYLAYER
 10
41.4146187267
 20
55.9685753858
 11
40.7574128579
 21
56.3480047872
  0
LINE
  5
240
100
AcDbEntity
  8
0
100
AcDbLine
 62
7
  6
BYLAYER
 10
41.4146187267
 20
55.9685753858
 11
41.506167973
 21
55.838459584
  0
LINE
  5
241
100
AcDbEntity
  8
0
100
AcDbLine
 62
7
  6
BYLAYER
 10
36.21808821
 20
23.7616014149
 11
43.9962304193
 21
28.2522871075
  0
LINE
  5
242
100
AcDbEntity
  8
0
100
AcDbLine
 62
7
  6
BYLAYER
 10
41.7334981402
 20
25.3129009809
 11
36.21808821
 21
22.1285965807
  0
LINE
  5
243
100
AcDbEntity
  8
0
100
AcDbLine
 62
7
  6
BYLAYER
 10
22.8792506796
 20
70.4525021835
 11
24.2934701299
 21
69.6360206744
  0
LINE
  5
244
100
AcDbEntity
  8
0
100
AcDbLine
 62
7
  6
BYLAYER
 10
44.6099968323
 20
60.6258306748
 11
38.0436342992
 21
76.5554784407
  0
LINE
  5
245
100
AcDbEntity
  8
0
100
AcDbLine
 62
7
  6
BYLAYER
 10
44.6144415674
 20
60.6136727321
 11
44.6099968323
 21
60.6258306748
  0
LINE
  5
246
100
AcDbEntity
  8
0
100
AcDbLine
 62
7
  6
BYLAYER
 10
24.4764820699
 20
69.7695036817
 11
23.0622626196
 21
70.5859851907
  0
LINE
  5
247
100
AcDbEntity
  8
0
100
AcDbLine
 62
7
  6
BYLAYER
 10
24.4764820699
 20
8.3685219136
 11
41.026394303
 21
17.9235611605
  0
LINE
  5
248
100
AcDbEntity
  8
0
100
AcDbLine
 62
7
  6
BYLAYER
 10
38.0436342992
 20
76.5554784407
 11
37.7235630197
 21
76.9393278223
  0
LINE
  5
249
100
AcDbEntity
  8
0
100
AcDbLine
 62
7
  6
BYLAYER
 10
35.3094079833
 20
77.656835656
 11
36.7236274336
 21
76.840354147
  0
LINE
  5
24A
100
AcDbEntity
  8
0
100
AcDbLine
 62
7
  6
BYLAYER
 10
36.3093910163
 20
77.7558914251
 11
37.7236104666
 21
76.9394099161
  0
SPLINE
  5
24B
100
AcDbEntity
  8
0
100
AcDbSpline
 62
7
  6
BYLAYER
 70
0
 71
3
 72
11
 73
7
 74
0
 42
0.0000001
 43
0.0000001
 44
0.0000000001
 40
0.0
 40
0.0
 40
0.0
 40
0.0
 40
0.2895411595
 40
0.5491183966
 40
0.7822559144
 40
1.0
 40
1.0
 40
1.0
 40
1.0
 10
42.4406019774
 20
24.9046427176
 30
0.0
 10
42.4406019774
 20
24.9552815695
 30
0.0
 10
42.432869936
 20
25.0516384218
 30
0.0
 10
42.3939168278
 20
25.1840495851
 30
0.0
 10
42.3282102633
 20
25.291530722
 30
0.0
 10
42.2664418616
 20
25.3433397287
 30
0.0
 10
42.233461681
 20
25.3623804083
 30
0.0
  0
SPLINE
  5
24C
100
AcDbEntity
  8
0
100
AcDbSpline
 62
7
  6
BYLAYER
 70
0
 71
3
 72
15
 73
11
 74
0
 42
0.0000001
 43
0.0000001
 44
0.0000000001
 40
0.0
 40
0.0
 40
0.0
 40
0.0
 40
0.1141229605
 40
0.2373462928
 40
0.366971064
 40
0.4999983279
 40
0.633025824
 40
0.762651271
 40
0.8858756957
 40
1.0
 40
1.0
 40
1.0
 40
1.0
 10
41.026394303
 20
17.9235611605
 30
0.0
 10
41.1231811857
 20
17.9794407597
 30
0.0
 10
41.3143954755
 20
18.1135333539
 30
0.0
 10
41.5775506921
 20
18.3596477427
 30
0.0
 10
41.8200081976
 20
18.6506870218
 30
0.0
 10
42.0327319788
 20
18.9755402085
 30
0.0
 10
42.2076998377
 20
19.322192425
 30
0.0
 10
42.3385177335
 20
19.6776887779
 30
0.0
 10
42.4200812328
 20
20.0286482295
 30
0.0
 10
42.4406019774
 20
20.2612932878
 30
0.0
 10
42.4406019774
 20
20.3730543025
 30
0.0
  0
SPLINE
  5
24D
100
AcDbEntity
  8
0
100
AcDbSpline
 62
7
  6
BYLAYER
 70
0
 71
3
 72
9
 73
5
 74
0
 42
0.0000001
 43
0.0000001
 44
0.0000000001
 40
0.0
 40
0.0
 40
0.0
 40
0.0
 40
0.2366979575
 40
1.0
 40
1.0
 40
1.0
 40
1.0
 10
24.29347013
 20
8.2906821967
 30
0.0
 10
24.3086518781
 20
8.2947500284
 30
0.0
 10
24.3721262105
 20
8.3144064608
 30
0.0
 10
24.4325875357
 20
8.3431795437
 30
0.0
 10
24.4764820699
 20
8.3685219136
 30
0.0
  0
SPLINE
  5
24E
100
AcDbEntity
  8
0
100
AcDbSpline
 62
7
  6
BYLAYER
 70
0
 71
3
 72
9
 73
5
 74
0
 42
0.0000001
 43
0.0000001
 44
0.0000000001
 40
0.0
 40
0.0
 40
0.0
 40
0.0
 40
0.525269797
 40
1.0
 40
1.0
 40
1.0
 40
1.0
 10
44.7033342565
 20
60.0958743209
 30
0.0
 10
44.7033342565
 20
60.188270241
 30
0.0
 10
44.6907579496
 20
60.3646080905
 30
0.0
 10
44.6451615809
 20
60.5360227594
 30
0.0
 10
44.6144415674
 20
60.6136727321
 30
0.0
  0
SPLINE
  5
24F
100
AcDbEntity
  8
0
100
AcDbSpline
 62
7
  6
BYLAYER
 70
0
 71
3
 72
12
 73
8
 74
0
 42
0.0000001
 43
0.0000001
 44
0.0000000001
 40
0.0
 40
0.0
 40
0.0
 40
0.0
 40
0.2601057259
 40
0.5214628152
 40
0.7715722165
 40
0.88916647
 40
1.0
 40
1.0
 40
1.0
 40
1.0
 10
43.9519886836
 20
57.9491952233
 30
0.0
 10
44.0667418718
 20
58.0857575671
 30
0.0
 10
44.2742641894
 20
58.3792082432
 30
0.0
 10
44.5110323956
 20
58.8544802379
 30
0.0
 10
44.6406585322
 20
59.2684767719
 30
0.0
 10
44.6938337747
 20
59.5927412871
 30
0.0
 10
44.7033342565
 20
59.7494878484
 30
0.0
 10
44.7033342565
 20
59.8254950499
 30
0.0
  0
SPLINE
  5
250
100
AcDbEntity
  8
0
100
AcDbSpline
 62
7
  6
BYLAYER
 70
0
 71
3
 72
9
 73
5
 74
0
 42
0.0000001
 43
0.0000001
 44
0.0000000001
 40
0.0
 40
0.0
 40
0.0
 40
0.0
 40
0.4869145385
 40
1.0
 40
1.0
 40
1.0
 40
1.0
 10
41.8042085239
 20
55.8909157969
 30
0.0
 10
42.1908411231
 20
56.1814026501
 30
0.0
 10
42.9463125162
 20
56.8303394298
 30
0.0
 10
43.624155387
 20
57.5590563166
 30
0.0
 10
43.9519886836
 20
57.9491952233
 30
0.0
  0
SPLINE
  5
251
100
AcDbEntity
  8
0
100
AcDbSpline
 62
7
  6
BYLAYER
 70
0
 71
3
 72
11
 73
7
 74
0
 42
0.0000001
 43
0.0000001
 44
0.0000000001
 40
0.0
 40
0.0
 40
0.0
 40
0.0
 40
0.2372518718
 40
0.4999985497
 40
0.7627460178
 40
1.0
 40
1.0
 40
1.0
 40
1.0
 10
40.1071593146
 20
29.0701450878
 30
0.0
 10
40.1573562979
 20
29.0991261566
 30
0.0
 10
40.2523495647
 20
29.1790646115
 30
0.0
 10
40.363177187
 20
29.3305805705
 30
0.0
 10
40.4389793149
 20
29.5023189755
 30
0.0
 10
40.4607112332
 20
29.6245554606
 30
0.0
 10
40.4607112332
 20
29.6825183733
 30
0.0
  0
SPLINE
  5
252
100
AcDbEntity
  8
0
100
AcDbSpline
 62
7
  6
BYLAYER
 70
0
 71
3
 72
9
 73
5
 74
0
 42
0.0000001
 43
0.0000001
 44
0.0000000001
 40
0.0
 40
0.0
 40
0.0
 40
0.0
 40
0.2366979575
 40
1.0
 40
1.0
 40
1.0
 40
1.0
 10
40.0156533447
 20
29.0312252294
 30
0.0
 10
40.0232442188
 20
29.0332591453
 30
0.0
 10
40.054981385
 20
29.0430873614
 30
0.0
 10
40.0852120476
 20
29.0574739029
 30
0.0
 10
40.1071593146
 20
29.0701450878
 30
0.0
  0
SPLINE
  5
253
100
AcDbEntity
  8
0
100
AcDbSpline
 62
7
  6
BYLAYER
 70
0
 71
3
 72
9
 73
5
 74
0
 42
0.0000001
 43
0.0000001
 44
0.0000000001
 40
0.0
 40
0.0
 40
0.0
 40
0.0
 40
0.2638121518
 40
1.0
 40
1.0
 40
1.0
 40
1.0
 10
36.0166900817
 20
27.9395718688
 30
0.0
 10
36.0273084218
 20
27.9457023338
 30
0.0
 10
36.0681821037
 20
27.9678071768
 30
0.0
 10
36.1117490278
 20
27.985204337
 30
0.0
 10
36.1447984396
 20
27.9940596706
 30
0.0
  0
SPLINE
  5
254
100
AcDbEntity
  8
0
100
AcDbSpline
 62
7
  6
BYLAYER
 70
0
 71
3
 72
11
 73
7
 74
0
 42
0.0000001
 43
0.0000001
 44
0.0000000001
 40
0.0
 40
0.0
 40
0.0
 40
0.0
 40
0.2514884364
 40
0.5139504715
 40
0.7690621876
 40
1.0
 40
1.0
 40
1.0
 40
1.0
 10
35.5374747523
 20
27.2371663375
 30
0.0
 10
35.551915802
 20
27.3087834788
 30
0.0
 10
35.5992405978
 20
27.4517310755
 30
0.0
 10
35.707558968
 20
27.6484450598
 30
0.0
 10
35.8466584535
 20
27.8172039002
 30
0.0
 10
35.9585896118
 20
27.9060277471
 30
0.0
 10
36.0166900817
 20
27.9395718688
 30
0.0
  0
SPLINE
  5
255
100
AcDbEntity
  8
0
100
AcDbSpline
 62
7
  6
BYLAYER
 70
0
 71
3
 72
11
 73
7
 74
0
 42
0.0000001
 43
0.0000001
 44
0.0000000001
 40
0.0
 40
0.0
 40
0.0
 40
0.0
 40
0.2897135494
 40
0.5490698984
 40
0.7821789797
 40
1.0
 40
1.0
 40
1.0
 40
1.0
 10
44.7033342565
 20
29.5648195287
 30
0.0
 10
44.7033342565
 20
29.6154896482
 30
0.0
 10
44.6956628909
 20
29.7118487569
 30
0.0
 10
44.6566196224
 20
29.8442301896
 30
0.0
 10
44.5909376508
 20
29.9516670883
 30
0.0
 10
44.529218939
 20
30.0035655469
 30
0.0
 10
44.4962181193
 20
30.0225990626
 30
0.0
  0
SPLINE
  5
256
100
AcDbEntity
  8
0
100
AcDbSpline
 62
7
  6
BYLAYER
 70
0
 71
3
 72
13
 73
9
 74
0
 42
0.0000001
 43
0.0000001
 44
0.0000000001
 40
0.0
 40
0.0
 40
0.0
 40
0.0
 40
0.114175582
 40
0.23756922
 40
0.49999856
 40
0.7624286893
 40
0.8858231943
 40
1.0
 40
1.0
 40
1.0
 40
1.0
 10
43.9962304193
 20
28.2522871075
 30
0.0
 10
44.0446026422
 20
28.2802146567
 30
0.0
 10
44.140200165
 20
28.347295098
 30
0.0
 10
44.3192925644
 20
28.5147568354
 30
0.0
 10
44.5082905686
 20
28.7731440022
 30
0.0
 10
44.6375599293
 20
29.0660156988
 30
0.0
 10
44.6930395902
 20
29.3048466269
 30
0.0
 10
44.7033342565
 20
29.4211777314
 30
0.0
 10
44.7033342565
 20
29.4770336785
 30
0.0
  0
SPLINE
  5
257
100
AcDbEntity
  8
0
100
AcDbSpline
 62
7
  6
BYLAYER
 70
0
 71
3
 72
12
 73
8
 74
0
 42
0.0000001
 43
0.0000001
 44
0.0000000001
 40
0.0
 40
0.0
 40
0.0
 40
0.0
 40
0.1011452401
 40
0.2056040486
 40
0.4337096713
 40
0.6982959923
 40
1.0
 40
1.0
 40
1.0
 40
1.0
 10
35.6766745231
 20
26.6528215099
 30
0.0
 10
35.6593330424
 20
26.6628325998
 30
0.0
 10
35.6262967718
 20
26.6873026424
 30
0.0
 10
35.5697772365
 20
26.7527161799
 30
0.0
 10
35.5218510004
 20
26.8637641663
 30
0.0
 10
35.5047883107
 20
27.0216384913
 30
0.0
 10
35.5177103633
 20
27.1339010694
 30
0.0
 10
35.5296974874
 20
27.19241413
 30
0.0
  0
SPLINE
  5
258
100
AcDbEntity
  8
0
100
AcDbSpline
 62
7
  6
BYLAYER
 70
0
 71
3
 72
17
 73
13
 74
0
 42
0.0000001
 43
0.0000001
 44
0.0000000001
 40
0.0
 40
0.0
 40
0.0
 40
0.0
 40
0.0428567916
 40
0.0874847188
 40
0.1353117925
 40
0.187277638
 40
0.3045377072
 40
0.4382000305
 40
0.5825388704
 40
0.729686241
 40
0.8713150959
 40
1.0
 40
1.0
 40
1.0
 40
1.0
 10
35.7181172752
 20
22.0791042964
 30
0.0
 10
35.693465123
 20
22.0933363044
 30
0.0
 10
35.6466973956
 20
22.129061776
 30
0.0
 10
35.5905096296
 20
22.2002110428
 30
0.0
 10
35.5484308905
 20
22.2871527928
 30
0.0
 10
35.5107470681
 20
22.4270081782
 30
0.0
 10
35.505969022
 20
22.6308750928
 30
0.0
 10
35.5587443811
 20
22.8896264639
 30
0.0
 10
35.6650759376
 20
23.15278897
 30
0.0
 10
35.8164348294
 20
23.3990336141
 30
0.0
 10
36.0003707083
 20
23.6082678337
 30
0.0
 10
36.1440669577
 20
23.7188654801
 30
0.0
 10
36.21808821
 20
23.7616014149
 30
0.0
  0
SPLINE
  5
259
100
AcDbEntity
  8
0
100
AcDbSpline
 62
7
  6
BYLAYER
 70
0
 71
3
 72
11
 73
7
 74
0
 42
0.0000001
 43
0.0000001
 44
0.0000000001
 40
0.0
 40
0.0
 40
0.0
 40
0.0
 40
0.2176746342
 40
0.4508340055
 40
0.7104853484
 40
1.0
 40
1.0
 40
1.0
 40
1.0
 10
41.5061336596
 20
55.8384001499
 30
0.0
 10
41.5226177844
 20
55.8288832406
 30
0.0
 10
41.5604986232
 20
55.8151224504
 30
0.0
 10
41.6234608307
 20
55.8135147981
 30
0.0
 10
41.6905388858
 20
55.8297609966
 30
0.0
 10
41.7341992954
 20
55.8504961912
 30
0.0
 10
41.7561236558
 20
55.863154151
 30
0.0
  0
SPLINE
  5
25A
100
AcDbEntity
  8
0
100
AcDbSpline
 62
7
  6
BYLAYER
 70
0
 71
3
 72
11
 73
7
 74
0
 42
0.0000001
 43
0.0000001
 44
0.0000000001
 40
0.0
 40
0.0
 40
0.0
 40
0.0
 40
0.2324415866
 40
0.4726467547
 40
0.7272082138
 40
1.0
 40
1.0
 40
1.0
 40
1.0
 10
17.3333990765
 20
6.5390323251
 30
0.0
 10
17.3552845994
 20
6.5263896903
 30
0.0
 10
17.4029227499
 20
6.5057633886
 30
0.0
 10
17.481182472
 20
6.4909723179
 30
0.0
 10
17.5651179062
 20
6.4922254886
 30
0.0
 10
17.6217249186
 20
6.5030397973
 30
0.0
 10
17.6503765025
 20
6.5107167671
 30
0.0
  0
SPLINE
  5
25B
100
AcDbEntity
  8
0
100
AcDbSpline
 62
7
  6
BYLAYER
 70
0
 71
3
 72
11
 73
7
 74
0
 42
0.0000001
 43
0.0000001
 44
0.0000000001
 40
0.0
 40
0.0
 40
0.0
 40
0.0
 40
0.2177795458
 40
0.4509094454
 40
0.7102955281
 40
1.0
 40
1.0
 40
1.0
 40
1.0
 10
15.9191796247
 20
7.3555138316
 30
0.0
 10
15.886198248
 20
7.3745662071
 30
0.0
 10
15.8244807723
 20
7.4264448684
 30
0.0
 10
15.758767821
 20
7.5338720169
 30
0.0
 10
15.7197495904
 20
7.6662682824
 30
0.0
 10
15.7120651549
 20
7.7626279334
 30
0.0
 10
15.7120651549
 20
7.8132962562
 30
0.0
  0
SPLINE
  5
25C
100
AcDbEntity
  8
0
100
AcDbSpline
 62
7
  6
BYLAYER
 70
0
 71
3
 72
11
 73
7
 74
0
 42
0.0000001
 43
0.0000001
 44
0.0000000001
 40
0.0
 40
0.0
 40
0.0
 40
0.0
 40
0.2895396729
 40
0.5491163863
 40
0.7822545095
 40
1.0
 40
1.0
 40
1.0
 40
1.0
 10
40.3192786899
 20
26.1293824899
 30
0.0
 10
40.3631313251
 20
26.1547006695
 30
0.0
 10
40.4504411328
 20
26.1961809572
 30
0.0
 10
40.5845835408
 20
26.228650785
 30
0.0
 10
40.710513425
 20
26.2254884422
 30
0.0
 10
40.7862631533
 20
26.1979019835
 30
0.0
 10
40.81924223
 20
26.1788619177
 30
0.0
  0
SPLINE
  5
25D
100
AcDbEntity
  8
0
100
AcDbSpline
 62
7
  6
BYLAYER
 70
0
 71
3
 72
11
 73
7
 74
0
 42
0.0000001
 43
0.0000001
 44
0.0000000001
 40
0.0
 40
0.0
 40
0.0
 40
0.0
 40
0.2309945978
 40
0.486058672
 40
0.7485046582
 40
1.0
 40
1.0
 40
1.0
 40
1.0
 10
15.7120651549
 20
63.4704660494
 30
0.0
 10
15.7120651549
 20
63.5660049421
 30
0.0
 10
15.7418508366
 20
63.7672504426
 30
0.0
 10
15.8505928566
 20
64.058952219
 30
0.0
 10
16.0154146484
 20
64.3329726553
 30
0.0
 10
16.1583305132
 20
64.4927168207
 30
0.0
 10
16.2361570522
 20
64.5617296131
 30
0.0
  0
SPLINE
  5
25E
100
AcDbEntity
  8
0
100
AcDbSpline
 62
7
  6
BYLAYER
 70
0
 71
3
 72
9
 73
5
 74
0
 42
0.0000001
 43
0.0000001
 44
0.0000000001
 40
0.0
 40
0.0
 40
0.0
 40
0.0
 40
0.26040366
 40
1.0
 40
1.0
 40
1.0
 40
1.0
 10
22.8792506796
 20
70.4525021835
 30
0.0
 10
22.8939755277
 20
70.4655594631
 30
0.0
 10
22.9516293741
 20
70.5144189726
 30
0.0
 10
23.0138553729
 20
70.5580374207
 30
0.0
 10
23.0622626196
 20
70.5859851907
 30
0.0
  0
SPLINE
  5
25F
100
AcDbEntity
  8
0
100
AcDbSpline
 62
7
  6
BYLAYER
 70
0
 71
3
 72
11
 73
7
 74
0
 42
0.0000001
 43
0.0000001
 44
0.0000000001
 40
0.0
 40
0.0
 40
0.0
 40
0.0
 40
0.2712933551
 40
0.5274248209
 40
0.7696424163
 40
1.0
 40
1.0
 40
1.0
 40
1.0
 10
40.4614395335
 20
30.5260346476
 30
0.0
 10
40.6760564977
 20
30.6098637295
 30
0.0
 10
41.1018395915
 20
30.7522263563
 30
0.0
 10
41.742980702
 20
30.88744387
 30
0.0
 10
42.3617484415
 20
30.9363025594
 30
0.0
 10
42.7640683479
 20
30.9100828588
 30
0.0
 10
42.9576388182
 20
30.8816928633
 30
0.0
  0
SPLINE
  5
260
100
AcDbEntity
  8
0
100
AcDbSpline
 62
7
  6
BYLAYER
 70
0
 71
3
 72
12
 73
8
 74
0
 42
0.0000001
 43
0.0000001
 44
0.0000000001
 40
0.0
 40
0.0
 40
0.0
 40
0.0
 40
0.2895323582
 40
0.5486668217
 40
0.7816398339
 40
0.891850619
 40
1.0
 40
1.0
 40
1.0
 40
1.0
 10
35.3094079833
 20
77.656835656
 30
0.0
 10
35.3971794431
 20
77.7075102294
 30
0.0
 10
35.5717923861
 20
77.7905466714
 30
0.0
 10
35.8399487448
 20
77.8554518844
 30
0.0
 10
36.0540981745
 20
77.8496851058
 30
0.0
 10
36.2069716401
 20
77.8073998381
 30
0.0
 10
36.2766045965
 20
77.7748182515
 30
0.0
 10
36.3093897554
 20
77.7558893284
 30
0.0
  0
SPLINE
  5
261
100
AcDbEntity
  8
0
100
AcDbSpline
 62
7
  6
BYLAYER
 70
0
 71
3
 72
12
 73
8
 74
0
 42
0.0000001
 43
0.0000001
 44
0.0000000001
 40
0.0
 40
0.0
 40
0.0
 40
0.0
 40
0.1081494009
 40
0.2183602049
 40
0.4513332517
 40
0.710467663
 40
1.0
 40
1.0
 40
1.0
 40
1.0
 10
37.7236092041
 20
76.9394078167
 30
0.0
 10
37.6908240391
 20
76.9583367434
 30
0.0
 10
37.6211910772
 20
76.990918353
 30
0.0
 10
37.4683175745
 20
77.0332035921
 30
0.0
 10
37.2541681491
 20
77.0389703719
 30
0.0
 10
36.986011798
 20
76.9740651679
 30
0.0
 10
36.8113988873
 20
76.8910287169
 30
0.0
 10
36.7236274336
 20
76.840354147
 30
0.0
  0
SPLINE
  5
262
100
AcDbEntity
  8
0
100
AcDbSpline
 62
7
  6
BYLAYER
 70
0
 71
3
 72
11
 73
7
 74
0
 42
0.0000001
 43
0.0000001
 44
0.0000000001
 40
0.0
 40
0.0
 40
0.0
 40
0.0
 40
0.2297868383
 40
0.4717766994
 40
0.7281096918
 40
1.0
 40
1.0
 40
1.0
 40
1.0
 10
44.3718582685
 20
30.0652113543
 30
0.0
 10
44.172951467
 20
30.0943840023
 30
0.0
 10
43.7590573315
 20
30.120436289
 30
0.0
 10
43.1223889816
 20
30.066501985
 30
0.0
 10
42.4625762721
 20
29.9215672112
 30
0.0
 10
42.0248081074
 20
29.7701710963
 30
0.0
 10
41.8042085239
 20
29.681188207
 30
0.0
  0
SPLINE
  5
263
100
AcDbEntity
  8
0
100
AcDbSpline
 62
7
  6
BYLAYER
 70
0
 71
3
 72
11
 73
7
 74
0
 42
0.0000001
 43
0.0000001
 44
0.0000000001
 40
0.0
 40
0.0
 40
0.0
 40
0.0
 40
0.2897044843
 40
0.5490906492
 40
0.78222051
 40
1.0
 40
1.0
 40
1.0
 40
1.0
 10
17.1262846052
 20
6.9968147472
 30
0.0
 10
17.1262846052
 20
6.9461464223
 30
0.0
 10
17.1339690609
 20
6.8497867563
 30
0.0
 10
17.1729872831
 20
6.7173904819
 30
0.0
 10
17.2387002312
 20
6.6099633259
 30
0.0
 10
17.3004177142
 20
6.5580847059
 30
0.0
 10
17.3333990765
 20
6.5390323251
 30
0.0
  0
SPLINE
  5
264
100
AcDbEntity
  8
0
100
AcDbSpline
 62
7
  6
BYLAYER
 70
0
 71
3
 72
11
 73
7
 74
0
 42
0.0000001
 43
0.0000001
 44
0.0000000001
 40
0.0
 40
0.0
 40
0.0
 40
0.0
 40
0.2177456295
 40
0.4508837762
 40
0.7104602913
 40
1.0
 40
1.0
 40
1.0
 40
1.0
 10
42.233461681
 20
25.3623804083
 30
0.0
 10
42.2004825725
 20
25.381420469
 30
0.0
 10
42.1247328269
 20
25.4090069668
 30
0.0
 10
41.9988029436
 20
25.412169247
 30
0.0
 10
41.8646605444
 20
25.3796994955
 30
0.0
 10
41.7773507816
 20
25.338219164
 30
0.0
 10
41.7334981402
 20
25.3129009809
 30
0.0
  0
SPLINE
  5
265
100
AcDbEntity
  8
0
100
AcDbSpline
 62
7
  6
BYLAYER
 70
0
 71
3
 72
11
 73
7
 74
0
 42
0.0000001
 43
0.0000001
 44
0.0000000001
 40
0.0
 40
0.0
 40
0.0
 40
0.0
 40
0.2514954632
 40
0.5139414856
 40
0.7690055167
 40
1.0
 40
1.0
 40
1.0
 40
1.0
 10
17.6503765025
 20
63.745248104
 30
0.0
 10
17.5725499259
 20
63.6762352784
 30
0.0
 10
17.4296340247
 20
63.5164910551
 30
0.0
 10
17.2648122351
 20
63.2424705618
 30
0.0
 10
17.1560702632
 20
62.950768821
 30
0.0
 10
17.1262846052
 20
62.7495233857
 30
0.0
 10
17.1262846052
 20
62.6539845403
 30
0.0
  0
SPLINE
  5
266
100
AcDbEntity
  8
0
100
AcDbSpline
 62
7
  6
BYLAYER
 70
0
 71
3
 72
11
 73
7
 74
0
 42
0.0000001
 43
0.0000001
 44
0.0000000001
 40
0.0
 40
0.0
 40
0.0
 40
0.0
 40
0.2895448512
 40
0.5491358493
 40
0.7822770651
 40
1.0
 40
1.0
 40
1.0
 40
1.0
 10
36.21808821
 20
22.1285965807
 30
0.0
 10
36.1742345331
 20
22.1032777997
 30
0.0
 10
36.0869215164
 20
22.0617960614
 30
0.0
 10
35.952772959
 20
22.0293239641
 30
0.0
 10
35.8268459863
 20
22.0324979937
 30
0.0
 10
35.7510934826
 20
22.060066703
 30
0.0
 10
35.7181172752
 20
22.0791042964
 30
0.0
  0
SPLINE
  5
267
100
AcDbEntity
  8
0
100
AcDbSpline
 62
7
  6
BYLAYER
 70
0
 71
3
 72
9
 73
5
 74
0
 42
0.0000001
 43
0.0000001
 44
0.0000000001
 40
0.0
 40
0.0
 40
0.0
 40
0.0
 40
0.2394577107
 40
1.0
 40
1.0
 40
1.0
 40
1.0
 10
24.4764820699
 20
69.7695036817
 30
0.0
 10
24.4608085147
 20
69.7604546044
 30
0.0
 10
24.3964471925
 20
69.7207807669
 30
0.0
 10
24.3364782212
 20
69.6741581596
 30
0.0
 10
24.2934701299
 20
69.6360206744
 30
0.0
  0
ENDSEC
  0
SECTION
  2
OBJECTS
  0
DICTIONARY
  5
C
100
AcDbDictionary
280
0
281
1
  3
ACAD_GROUP
350
D
  3
ACAD_MLINESTYLE
350
17
  3
ACAD_LAYOUT
350
1A
  3
ACAD_PLOTSETTINGS
350
19
  3
ACAD_PLOTSTYLENAME
350
E
  0
DICTIONARY
  5
D
102
{ACAD_REACTORS
330
C
102
}
100
AcDbDictionary
280
0
281
1
  0
ACDBDICTIONARYWDFLT
  5
E
102
{ACAD_REACTORS
330
C
102
}
100
AcDbDictionary
281
1
  3
Normal
350
F
100
AcDbDictionaryWithDefault
340
F
  0
DICTIONARY
  5
17
102
{ACAD_REACTORS
330
C
102
}
100
AcDbDictionary
280
0
281
1
  3
Standard
350
18
  0
DICTIONARY
  5
19
102
{ACAD_REACTORS
330
C
102
}
100
AcDbDictionary
281
1
  0
DICTIONARY
  5
1A
102
{ACAD_REACTORS
330
C
102
}
100
AcDbDictionary
281
1
  3
Model
350
268
  3
Layout1
350
269
  0
ACDBPLACEHOLDER
  5
F
102
{ACAD_REACTORS
330
E
102
}
  0
MLINESTYLE
  5
18
102
{ACAD_REACTORS
330
17
102
}
100
AcDbMlineStyle
  2
STANDARD
 70
0
  3

 62
256
 51
90.0
 52
90.0
 71
2
 49
0.5
 62
256
  6
BYLAYER
 49
-0.5
 62
256
  6
BYLAYER
  0
LAYOUT
  5
268
102
{ACAD_REACTORS
330
1A
102
}
100
AcDbPlotSettings
  1

  2
none_device
  4

  6

 40
0.0
 41
0.0
 42
0.0
 43
0.0
 44
210.0
 45
297.0
 46
0.0
 47
0.0
 48
0.0
 49
0.0
140
0.0
141
0.0
142
1.0
143
1.0
 70
1024
 72
1
 73
0
 74
0
  7

 75
0
147
1.0
148
0.0
149
0.0
100
AcDbLayout
  1
Model
 70
0
 71
0
 10
0.0
 20
0.0
 11
210.0
 21
297.0
 12
0.0
 22
0.0
 32
0.0
 14
0.0
 24
0.0
 34
0.0
 15
0.0
 25
0.0
 35
0.0
146
0.0
 13
0.0
 23
0.0
 33
0.0
 16
1.0
 26
0.0
 36
0.0
 17
0.0
 27
1.0
 37
0.0
 76
0
330
210
345
0
346
0
  0
LAYOUT
  5
269
102
{ACAD_REACTORS
330
1A
102
}
100
AcDbPlotSettings
  1

  2
none_device
  4

  6

 40
0.0
 41
0.0
 42
0.0
 43
0.0
 44
210.0
 45
297.0
 46
0.0
 47
0.0
 48
0.0
 49
0.0
140
0.0
141
0.0
142
1.0
143
1.0
 70
0
 72
1
 73
0
 74
0
  7

 75
0
147
1.0
148
0.0
149
0.0
100
AcDbLayout
  1
Layout1
 70
0
 71
1
 10
0.0
 20
0.0
 11
210.0
 21
297.0
 12
0.0
 22
0.0
 32
0.0
 14
0.0
 24
0.0
 34
0.0
 15
0.0
 25
0.0
 35
0.0
146
0.0
 13
0.0
 23
0.0
 33
0.0
 16
1.0
 26
0.0
 36
0.0
 17
0.0
 27
1.0
 37
0.0
 76
0
330
211
345
0
346
0
  0
ENDSEC
  0
EOF
