999
DXF file: C:\Users\sesa63760\Dev\_Creo\CAD\MCADFD0002484_3D-CAD\drw0001_2.dxf
999
Pro/ENGINEER 2019471 by Parametric Technology Corporation
  0
SECTION
  2
HEADER
  9
$ACADVER
  1
AC1024
  9
$DWGCODEPAGE
  3
ANSI_1252
  9
$EXTMAX
 10
108.4369601282
 20
153.3608436098
 30
0.0
  9
$EXTMIN
 10
0.0
 20
0.0
 30
0.0
  9
$LIMMIN
 10
0.0
 20
0.0
  9
$LIMMAX
 10
108.4369601282
 20
153.3608436098
  9
$VIEWCTR
 10
54.2184800641
 20
76.6804218049
  9
$VIEWSIZE
 40
153.3608436098
  9
$CLAYER
  8
0
  9
$LTSCALE
 40
9.9968549909
  9
$CELTYPE
  6
BYLAYER
  9
$DIMSCALE
 40
1.0
  9
$DIMASZ
 40
1.290916192
  9
$DIMEXO
 40
1.0
  9
$DIMDLI
 40
6.9069179937
  9
$DIMEXE
 40
1.0
  9
$DIMCEN
 40
1.6358489985
  9
$DIMLFAC
 40
1.0
  9
$DIMBLK
  1
_FILLED
  9
$DIMALT
 70
0
  9
$DIMALTF
 40
0.0393700787
  9
$DIMTXT
 40
1.8072826688
  9
$DIMTOL
 70
1
  9
$DIMLIM
 70
0
  9
$DIMTFAC
 40
1.0
  9
$DIMTP
 40
0.01
  9
$DIMTM
 40
0.01
  9
$DIMGAP
 40
0.625
  9
$DIMDSEP
 70
46
  9
$AUNITS
 70
0
  9
$PDMODE
 70
3
  9
$PDSIZE
 40
0.3125
  9
$HANDSEED
  5
3E7
  9
$TILEMODE
 70
1
  9
$MEASUREMENT
 70
1
  9
$INSUNITS
 70
4
  0
ENDSEC
  0
SECTION
  2
CLASSES
  0
CLASS
  1
ACDBDICTIONARYWDFLT
  2
AcDbDictionaryWithDefault
  3
AutoCAD 2000
 90
0
 91
1
280
0
281
0
  0
CLASS
  1
ACDBPLACEHOLDER
  2
AcDbPlaceHolder
  3
AutoCAD 2000
 90
0
 91
1
280
0
281
0
  0
CLASS
  1
LAYOUT
  2
AcDbLayout
  3
AutoCAD 2000
 90
0
 91
0
280
0
281
0
  0
ENDSEC
  0
SECTION
  2
TABLES
  0
TABLE
  2
VPORT
  5
8
100
AcDbSymbolTable
 70
2
  0
VPORT
  5
1F4
100
AcDbSymbolTableRecord
100
AcDbViewportTableRecord
  2
*ACTIVE
 70
0
 10
0.0
 20
0.0
 11
1.0
 21
1.0
 12
54.2184800641
 22
76.6804218049
 13
0.0
 23
0.0
 14
1.0
 24
1.0
 15
0.0
 25
0.0
 16
0.0
 26
0.0
 36
1.0
 17
0.0
 27
0.0
 37
0.0
 40
153.3608436098
 41
0.7070707071
 42
50.0
 43
0.0
 44
0.0
 50
0.0
 51
0.0
 71
0
 72
100
 73
1
 74
1
 75
0
 76
0
 77
0
 78
0
  0
ENDTAB
  0
TABLE
  2
LTYPE
  5
5
100
AcDbSymbolTable
 70
6
  0
LTYPE
  5
14
100
AcDbSymbolTableRecord
100
AcDbLinetypeTableRecord
  2
BYBLOCK
 70
0
  3

 72
65
 73
0
 40
0.0
  0
LTYPE
  5
15
100
AcDbSymbolTableRecord
100
AcDbLinetypeTableRecord
  2
BYLAYER
 70
0
  3

 72
65
 73
0
 40
0.0
  0
LTYPE
  5
16
100
AcDbSymbolTableRecord
100
AcDbLinetypeTableRecord
  2
CONTINUOUS
 70
64
  3
Solid line
 72
65
 73
0
 40
0.0
  0
LTYPE
  5
1F5
100
AcDbSymbolTableRecord
100
AcDbLinetypeTableRecord
  2
CENTER
 70
64
  3
____ _ ____ _ ____ _ ____ _ ____ _ ____ _ ____
 72
65
 73
4
 40
0.6
 49
0.375
 74
0
 49
-0.075
 74
0
 49
0.075
 74
0
 49
-0.075
 74
0
  0
LTYPE
  5
1F6
100
AcDbSymbolTableRecord
100
AcDbLinetypeTableRecord
  2
HIDDEN
 70
64
  3
- - - - - - - - - - - - - - - - - - - -
 72
65
 73
2
 40
0.2
 49
0.1
 74
0
 49
-0.1
 74
0
  0
LTYPE
  5
1F7
100
AcDbSymbolTableRecord
100
AcDbLinetypeTableRecord
  2
PHANTOM
 70
64
  3
_____ _ _ _____ _ _ _____ _ _ _____
 72
65
 73
6
 40
0.8
 49
0.45
 74
0
 49
-0.05
 74
0
 49
0.1
 74
0
 49
-0.05
 74
0
 49
0.1
 74
0
 49
-0.05
 74
0
  0
LTYPE
  5
1F8
100
AcDbSymbolTableRecord
100
AcDbLinetypeTableRecord
  2
DOT
 70
64
  3
. . . . . . . . . . . . . . . . . . . .
 72
65
 73
2
 40
0.2
 49
0.1
 74
0
 49
-0.1
 74
0
  0
LTYPE
  5
1F9
100
AcDbSymbolTableRecord
100
AcDbLinetypeTableRecord
  2
DASHED
 70
64
  3
- - - - - - - - - - - - - - - - - - - -
 72
65
 73
2
 40
0.2
 49
0.1
 74
0
 49
-0.1
 74
0
  0
ENDTAB
  0
TABLE
  2
LAYER
  5
2
100
AcDbSymbolTable
 70
36
  0
LAYER
  5
10
100
AcDbSymbolTableRecord
100
AcDbLayerTableRecord
  2
0
 70
0
 62
7
  6
CONTINUOUS
370
-3
390
F
  0
LAYER
  5
1FA
100
AcDbSymbolTableRecord
100
AcDbLayerTableRecord
  2
DEFAULT_1
 70
0
 62
7
  6
CENTER
370
-3
390
F
  0
LAYER
  5
1FB
100
AcDbSymbolTableRecord
100
AcDbLayerTableRecord
  2
DEFAULT_2
 70
0
 62
8
  6
HIDDEN
370
-3
390
F
  0
LAYER
  5
1FC
100
AcDbSymbolTableRecord
100
AcDbLayerTableRecord
  2
DEFAULT_3
 70
0
 62
7
  6
PHANTOM
370
-3
390
F
  0
LAYER
  5
1FD
100
AcDbSymbolTableRecord
100
AcDbLayerTableRecord
  2
00_COMPONENTS
 70
0
 62
7
  6
CONTINUOUS
370
-3
390
F
  0
LAYER
  5
1FE
100
AcDbSymbolTableRecord
100
AcDbLayerTableRecord
  2
01_1_DEFAULT_DATUMS
 70
0
 62
7
  6
CONTINUOUS
370
-3
390
F
  0
LAYER
  5
1FF
100
AcDbSymbolTableRecord
100
AcDbLayerTableRecord
  2
01_PLANES
 70
0
 62
7
  6
CONTINUOUS
370
-3
390
F
  0
LAYER
  5
200
100
AcDbSymbolTableRecord
100
AcDbLayerTableRecord
  2
02_COORD_SYS
 70
0
 62
7
  6
CONTINUOUS
370
-3
390
F
  0
LAYER
  5
201
100
AcDbSymbolTableRecord
100
AcDbLayerTableRecord
  2
03_AXES
 70
0
 62
7
  6
CONTINUOUS
370
-3
390
F
  0
LAYER
  5
202
100
AcDbSymbolTableRecord
100
AcDbLayerTableRecord
  2
04_POINTS
 70
0
 62
7
  6
CONTINUOUS
370
-3
390
F
  0
LAYER
  5
203
100
AcDbSymbolTableRecord
100
AcDbLayerTableRecord
  2
05_CURVES
 70
0
 62
7
  6
CONTINUOUS
370
-3
390
F
  0
LAYER
  5
204
100
AcDbSymbolTableRecord
100
AcDbLayerTableRecord
  2
06_SURFS
 70
0
 62
7
  6
CONTINUOUS
370
-3
390
F
  0
LAYER
  5
205
100
AcDbSymbolTableRecord
100
AcDbLayerTableRecord
  2
07_COSMETICS
 70
0
 62
7
  6
CONTINUOUS
370
-3
390
F
  0
LAYER
  5
206
100
AcDbSymbolTableRecord
100
AcDbLayerTableRecord
  2
10_NOTES
 70
0
 62
7
  6
CONTINUOUS
370
-3
390
F
  0
LAYER
  5
207
100
AcDbSymbolTableRecord
100
AcDbLayerTableRecord
  2
11_NOTES_PUB
 70
0
 62
7
  6
CONTINUOUS
370
-3
390
F
  0
LAYER
  5
208
100
AcDbSymbolTableRecord
100
AcDbLayerTableRecord
  2
13_REF_GTOL
 70
0
 62
7
  6
CONTINUOUS
370
-3
390
F
  0
LAYER
  5
209
100
AcDbSymbolTableRecord
100
AcDbLayerTableRecord
  2
16_MISC
 70
0
 62
7
  6
CONTINUOUS
370
-3
390
F
  0
LAYER
  5
20A
100
AcDbSymbolTableRecord
100
AcDbLayerTableRecord
  2
17_NO_PRINT
 70
0
 62
7
  6
CONTINUOUS
370
-3
390
F
  0
LAYER
  5
20B
100
AcDbSymbolTableRecord
100
AcDbLayerTableRecord
  2
18_DATUM_CAMS_JOINTS
 70
0
 62
7
  6
CONTINUOUS
370
-3
390
F
  0
LAYER
  5
20C
100
AcDbSymbolTableRecord
100
AcDbLayerTableRecord
  2
19_DATUM_FUNCTIONAL
 70
0
 62
7
  6
CONTINUOUS
370
-3
390
F
  0
LAYER
  5
20D
100
AcDbSymbolTableRecord
100
AcDbLayerTableRecord
  2
20_DATUM_KINEMATIC_SCHEME
 70
0
 62
7
  6
CONTINUOUS
370
-3
390
F
  0
ENDTAB
  0
TABLE
  2
STYLE
  5
3
100
AcDbSymbolTable
 70
1
  0
STYLE
  5
11
100
AcDbSymbolTableRecord
100
AcDbTextStyleTableRecord
  2
STANDARD
 70
0
 40
0.0
 41
0.8
 50
0.0
 71
0
 42
0.2
  3
txt
  4

  0
STYLE
  5
20E
100
AcDbSymbolTableRecord
100
AcDbTextStyleTableRecord
  2
TEXTSTYLE_1
 70
0
 40
0.0
 41
0.8
 50
0.0
 71
0
 42
0.2
  3
gdt
  4

  0
ENDTAB
  0
TABLE
  2
VIEW
  5
6
100
AcDbSymbolTable
 70
0
  0
ENDTAB
  0
TABLE
  2
UCS
  5
7
100
AcDbSymbolTable
 70
0
  0
ENDTAB
  0
TABLE
  2
APPID
  5
9
100
AcDbSymbolTable
 70
1
  0
APPID
  5
20F
100
AcDbSymbolTableRecord
100
AcDbRegAppTableRecord
  2
ACAD
 70
0
  0
ENDTAB
  0
TABLE
  2
BLOCK_RECORD
  5
1
100
AcDbSymbolTable
 70
0
  0
BLOCK_RECORD
  5
210
100
AcDbSymbolTableRecord
100
AcDbBlockTableRecord
  2
*Model_Space
  0
BLOCK_RECORD
  5
211
100
AcDbSymbolTableRecord
100
AcDbBlockTableRecord
  2
*Paper_Space
  0
BLOCK_RECORD
  5
212
100
AcDbSymbolTableRecord
100
AcDbBlockTableRecord
  2
_FILLED
  0
ENDTAB
  0
TABLE
  2
DIMSTYLE
  5
A
100
AcDbSymbolTable
 70
1
100
AcDbDimStyleTable
 71
0
  0
DIMSTYLE
105
213
100
AcDbSymbolTableRecord
100
AcDbDimStyleTableRecord
  2
STANDARD
 70
0
  3

  4

 40
1.0
 41
1.290916192
 42
1.0
 43
0.38
 44
1.0
 45
0.0
 46
0.0
 47
0.01
 48
0.01
140
1.8072826688
141
0.09
142
0.0
143
25.4
144
1.0
145
0.0
146
1.0
147
0.625
 71
1
 72
0
 73
0
 74
0
 75
0
 76
0
 77
1
 78
8
 79
2
170
0
171
1
172
0
173
0
174
0
175
0
176
0
177
0
178
0
270
2
179
2
271
2
272
2
273
2
274
2
275
0
280
0
281
0
282
0
283
1
284
8
285
0
286
0
287
3
288
0
340
11
278
46
341
212
342
212
343
212
344
212
  0
ENDTAB
  0
ENDSEC
  0
SECTION
  2
BLOCKS
  0
BLOCK
  5
20
100
AcDbEntity
  8
0
100
AcDbBlockBegin
  2
*Model_Space
 70
0
 10
0.0
 20
0.0
 30
0.0
  3
*Model_Space
  1

  0
ENDBLK
  5
21
100
AcDbEntity
  8
0
100
AcDbBlockEnd
  0
BLOCK
  5
1C
100
AcDbEntity
  8
0
100
AcDbBlockBegin
  2
*Paper_Space
 70
0
 10
0.0
 20
0.0
 30
0.0
  3
*Paper_Space
  1

  0
ENDBLK
  5
1D
100
AcDbEntity
  8
0
100
AcDbBlockEnd
  0
BLOCK
  5
214
100
AcDbEntity
  8
0
100
AcDbBlockBegin
  2
_FILLED
 70
64
 10
0.0
 20
0.0
  3
_FILLED
  1

  0
SOLID
  5
215
100
AcDbEntity
  8
0
  6
BYBLOCK
 62
0
100
AcDbTrace
 10
0.0
 20
0.0
 11
-1.0
 21
0.25
 12
-1.0
 22
-0.25
 13
-1.0
 23
-0.25
  0
ENDBLK
  5
216
100
AcDbEntity
  8
0
  6
BYBLOCK
 62
0
100
AcDbBlockEnd
  0
ENDSEC
  0
SECTION
  2
ENTITIES
  0
LINE
  5
217
100
AcDbEntity
  8
0
100
AcDbLine
 62
7
  6
CONTINUOUS
 10
12.1699938824
 20
40.6298880999
 11
11.8919002817
 21
41.6881290017
  0
LINE
  5
218
100
AcDbEntity
  8
0
100
AcDbLine
 62
7
  6
CONTINUOUS
 10
11.9395503552
 20
64.6994481818
 11
11.9351703308
 21
65.8157668884
  0
LINE
  5
219
100
AcDbEntity
  8
0
100
AcDbLine
 62
7
  6
CONTINUOUS
 10
12.0090737554
 20
64.4348879563
 11
12.004693731
 21
65.5512066629
  0
LINE
  5
21A
100
AcDbEntity
  8
0
100
AcDbLine
 62
7
  6
CONTINUOUS
 10
12.0785971556
 20
64.1703277308
 11
12.0742171312
 21
65.2866464374
  0
LINE
  5
21B
100
AcDbEntity
  8
0
100
AcDbLine
 62
7
  6
CONTINUOUS
 10
12.1481205557
 20
63.9057675054
 11
12.1437405314
 21
65.022086212
  0
LINE
  5
21C
100
AcDbEntity
  8
0
100
AcDbLine
 62
7
  6
CONTINUOUS
 10
11.8893855304
 20
88.2829229626
 11
11.8919002817
 21
41.6881290017
  0
LINE
  5
21D
100
AcDbEntity
  8
0
100
AcDbLine
 62
7
  6
CONTINUOUS
 10
11.91126965
 20
64.8070659006
 11
11.9114369403
 21
61.7074122251
  0
LINE
  5
21E
100
AcDbEntity
  8
0
100
AcDbLine
 62
7
  6
CONTINUOUS
 10
11.9154877805
 20
66.6904120413
 11
11.9155309522
 21
65.8905014153
  0
LINE
  5
21F
100
AcDbEntity
  8
0
100
AcDbLine
 62
7
  6
CONTINUOUS
 10
11.9351703308
 20
65.8157668884
 11
11.9351271591
 21
66.6156775143
  0
LINE
  5
220
100
AcDbEntity
  8
0
100
AcDbLine
 62
7
  6
CONTINUOUS
 10
11.9397176455
 20
61.5997945063
 11
11.9395503552
 21
64.6994481818
  0
LINE
  5
221
100
AcDbEntity
  8
0
100
AcDbLine
 62
7
  6
CONTINUOUS
 10
11.9589089306
 20
88.0183627371
 11
11.9614236819
 21
41.4235687763
  0
LINE
  5
222
100
AcDbEntity
  8
0
100
AcDbLine
 62
7
  6
CONTINUOUS
 10
11.9807930502
 20
64.5425056751
 11
11.9809603405
 21
61.4428519996
  0
LINE
  5
223
100
AcDbEntity
  8
0
100
AcDbLine
 62
7
  6
CONTINUOUS
 10
11.9850111807
 20
66.4258518158
 11
11.9850543524
 21
65.6259411899
  0
LINE
  5
224
100
AcDbEntity
  8
0
100
AcDbLine
 62
7
  6
CONTINUOUS
 10
12.004693731
 20
65.5512066629
 11
12.0046505593
 21
66.3511172888
  0
LINE
  5
225
100
AcDbEntity
  8
0
100
AcDbLine
 62
7
  6
CONTINUOUS
 10
12.0092410457
 20
61.3352342808
 11
12.0090737554
 21
64.4348879563
  0
LINE
  5
226
100
AcDbEntity
  8
0
100
AcDbLine
 62
7
  6
CONTINUOUS
 10
12.0284323308
 20
87.7538025117
 11
12.0309470821
 21
41.1590085508
  0
LINE
  5
227
100
AcDbEntity
  8
0
100
AcDbLine
 62
7
  6
CONTINUOUS
 10
12.0503164504
 20
64.2779454497
 11
12.0504837407
 21
61.1782917742
  0
LINE
  5
228
100
AcDbEntity
  8
0
100
AcDbLine
 62
7
  6
CONTINUOUS
 10
12.0545345809
 20
66.1612915903
 11
12.0545777526
 21
65.3613809644
  0
LINE
  5
229
100
AcDbEntity
  8
0
100
AcDbLine
 62
7
  6
CONTINUOUS
 10
12.0742171312
 20
65.2866464374
 11
12.0741739595
 21
66.0865570634
  0
LINE
  5
22A
100
AcDbEntity
  8
0
100
AcDbLine
 62
7
  6
CONTINUOUS
 10
12.0787644459
 20
61.0706740553
 11
12.0785971556
 21
64.1703277308
  0
LINE
  5
22B
100
AcDbEntity
  8
0
100
AcDbLine
 62
7
  6
CONTINUOUS
 10
12.097955731
 20
87.4892422862
 11
12.1004704823
 21
40.8944483253
  0
LINE
  5
22C
100
AcDbEntity
  8
0
100
AcDbLine
 62
7
  6
CONTINUOUS
 10
12.1198398506
 20
64.0133852242
 11
12.1200071409
 21
60.9137315487
  0
LINE
  5
22D
100
AcDbEntity
  8
0
100
AcDbLine
 62
7
  6
CONTINUOUS
 10
12.1240579811
 20
65.8967313649
 11
12.1241011528
 21
65.096820739
  0
LINE
  5
22E
100
AcDbEntity
  8
0
100
AcDbLine
 62
7
  6
CONTINUOUS
 10
12.1437405314
 20
65.022086212
 11
12.1436973597
 21
65.8219968379
  0
LINE
  5
22F
100
AcDbEntity
  8
0
100
AcDbLine
 62
7
  6
CONTINUOUS
 10
12.1482878461
 20
60.8061138299
 11
12.1481205557
 21
63.9057675054
  0
LINE
  5
230
100
AcDbEntity
  8
0
100
AcDbLine
 62
7
  6
CONTINUOUS
 10
12.1674791311
 20
87.2246820607
 11
12.1699938824
 21
40.6298880999
  0
LINE
  5
231
100
AcDbEntity
  8
0
100
AcDbLine
 62
7
  6
CONTINUOUS
 10
11.9155309522
 20
65.8905014153
 11
11.91126965
 21
64.8070659006
  0
LINE
  5
232
100
AcDbEntity
  8
0
100
AcDbLine
 62
7
  6
CONTINUOUS
 10
11.9850543524
 20
65.6259411899
 11
11.9807930502
 21
64.5425056751
  0
LINE
  5
233
100
AcDbEntity
  8
0
100
AcDbLine
 62
7
  6
CONTINUOUS
 10
12.0545777526
 20
65.3613809644
 11
12.0503164504
 21
64.2779454497
  0
LINE
  5
234
100
AcDbEntity
  8
0
100
AcDbLine
 62
7
  6
CONTINUOUS
 10
12.1241011528
 20
65.096820739
 11
12.1198398506
 21
64.0133852242
  0
LINE
  5
235
100
AcDbEntity
  8
0
100
AcDbLine
 62
7
  6
CONTINUOUS
 10
21.8111903283
 20
38.9311642822
 11
12.1699938824
 21
40.6298880999
  0
LINE
  5
236
100
AcDbEntity
  8
0
100
AcDbLine
 62
7
  6
CONTINUOUS
 10
12.1436973597
 20
65.8219968379
 11
12.1240579811
 21
65.8967313649
  0
LINE
  5
237
100
AcDbEntity
  8
0
100
AcDbLine
 62
7
  6
CONTINUOUS
 10
12.0741739595
 20
66.0865570634
 11
12.0545345809
 21
66.1612915903
  0
LINE
  5
238
100
AcDbEntity
  8
0
100
AcDbLine
 62
7
  6
CONTINUOUS
 10
12.0046505593
 20
66.3511172888
 11
11.9850111807
 21
66.4258518158
  0
LINE
  5
239
100
AcDbEntity
  8
0
100
AcDbLine
 62
7
  6
CONTINUOUS
 10
11.9351271591
 20
66.6156775143
 11
11.9154877805
 21
66.6904120413
  0
LINE
  5
23A
100
AcDbEntity
  8
0
100
AcDbLine
 62
7
  6
CONTINUOUS
 10
14.8240786026
 20
89.1510691874
 11
14.8240708907
 21
89.1508578725
  0
LINE
  5
23B
100
AcDbEntity
  8
0
100
AcDbLine
 62
7
  6
CONTINUOUS
 10
14.8936020028
 20
88.8865089619
 11
14.8935942908
 21
88.8862976471
  0
LINE
  5
23C
100
AcDbEntity
  8
0
100
AcDbLine
 62
7
  6
CONTINUOUS
 10
14.963125403
 20
88.6219487365
 11
14.963117691
 21
88.6217374216
  0
LINE
  5
23D
100
AcDbEntity
  8
0
100
AcDbLine
 62
7
  6
CONTINUOUS
 10
15.0326488032
 20
88.357388511
 11
15.0326410912
 21
88.3571771961
  0
LINE
  5
23E
100
AcDbEntity
  8
0
100
AcDbLine
 62
7
  6
CONTINUOUS
 10
35.0696553016
 20
43.6321330683
 11
37.6438753069
 21
41.8301904061
  0
LINE
  5
23F
100
AcDbEntity
  8
0
100
AcDbLine
 62
7
  6
CONTINUOUS
 10
37.5743519067
 20
42.0947506315
 11
35.0696436492
 21
43.8480353766
  0
LINE
  5
240
100
AcDbEntity
  8
0
100
AcDbLine
 62
7
  6
CONTINUOUS
 10
37.5048285065
 20
42.359310857
 11
35.0696319968
 21
44.0639376848
  0
LINE
  5
241
100
AcDbEntity
  8
0
100
AcDbLine
 62
7
  6
CONTINUOUS
 10
37.4353051064
 20
42.6238710824
 11
35.0696203444
 21
44.2798399931
  0
LINE
  5
242
100
AcDbEntity
  8
0
100
AcDbLine
 62
7
  6
CONTINUOUS
 10
12.1674791311
 20
87.2246820607
 11
11.8893855304
 21
88.2829229626
  0
LINE
  5
243
100
AcDbEntity
  8
0
100
AcDbLine
 62
7
  6
CONTINUOUS
 10
21.8111903283
 20
38.9311642822
 11
27.06997066
 21
38.9317567886
  0
LINE
  5
244
100
AcDbEntity
  8
0
100
AcDbLine
 62
7
  6
CONTINUOUS
 10
73.5696118851
 20
38.9369958993
 11
92.9694622026
 21
38.9391816788
  0
LINE
  5
245
100
AcDbEntity
  8
0
100
AcDbLine
 62
7
  6
CONTINUOUS
 10
73.5307426409
 20
38.9758546245
 11
73.059403266
 21
38.9758015188
  0
LINE
  5
246
100
AcDbEntity
  8
0
100
AcDbLine
 62
7
  6
CONTINUOUS
 10
98.0395709977
 20
39.0533527719
 11
96.3075335539
 21
39.0531576234
  0
LINE
  5
247
100
AcDbEntity
  8
0
100
AcDbLine
 62
7
  6
CONTINUOUS
 10
96.2967198353
 20
39.3177244637
 11
96.2380101537
 21
39.3177178489
  0
LINE
  5
248
100
AcDbEntity
  8
0
100
AcDbLine
 62
7
  6
CONTINUOUS
 10
96.2271964351
 20
39.5822846891
 11
96.1684867535
 21
39.5822780743
  0
LINE
  5
249
100
AcDbEntity
  8
0
100
AcDbLine
 62
7
  6
CONTINUOUS
 10
96.1576730349
 20
39.8468449146
 11
96.0989633534
 21
39.8468382998
  0
LINE
  5
24A
100
AcDbEntity
  8
0
100
AcDbLine
 62
7
  6
CONTINUOUS
 10
96.0571431474
 20
41.1856205809
 11
92.9693409759
 21
41.1853414634
  0
LINE
  5
24B
100
AcDbEntity
  8
0
100
AcDbLine
 62
7
  6
CONTINUOUS
 10
37.3657817062
 20
42.8884313079
 11
35.1605926308
 21
44.432053945
  0
LINE
  5
24C
100
AcDbEntity
  8
0
100
AcDbLine
 62
7
  6
CONTINUOUS
 10
12.8893238502
 20
89.2829239141
 11
13.1674174509
 21
88.2246830122
  0
LINE
  5
24D
100
AcDbEntity
  8
0
100
AcDbLine
 62
7
  6
CONTINUOUS
 10
22.0240076265
 20
89.1514577748
 11
22.0240153384
 21
89.1516690897
  0
LINE
  5
24E
100
AcDbEntity
  8
0
100
AcDbLine
 62
7
  6
CONTINUOUS
 10
22.0935310267
 20
88.8868975493
 11
22.0935387386
 21
88.8871088642
  0
LINE
  5
24F
100
AcDbEntity
  8
0
100
AcDbLine
 62
7
  6
CONTINUOUS
 10
22.1630544268
 20
88.6223373239
 11
22.1630621388
 21
88.6225486387
  0
LINE
  5
250
100
AcDbEntity
  8
0
100
AcDbLine
 62
7
  6
CONTINUOUS
 10
22.232577827
 20
88.3577770984
 11
22.232585539
 21
88.3579884133
  0
LINE
  5
251
100
AcDbEntity
  8
0
100
AcDbLine
 62
7
  6
CONTINUOUS
 10
66.4037144133
 20
111.6174791673
 11
66.3945835457
 21
111.6147487395
  0
LINE
  5
252
100
AcDbEntity
  8
0
100
AcDbLine
 62
7
  6
CONTINUOUS
 10
66.1294836634
 20
112.6610206059
 11
66.1203499385
 21
112.6583010509
  0
LINE
  5
253
100
AcDbEntity
  8
0
100
AcDbLine
 62
7
  6
CONTINUOUS
 10
37.6697870598
 20
40.8194389966
 11
27.06997066
 21
38.9317567886
  0
LINE
  5
254
100
AcDbEntity
  8
0
100
AcDbLine
 62
7
  6
CONTINUOUS
 10
35.0696121299
 20
44.4320436943
 11
71.0693343686
 21
44.43609978
  0
LINE
  5
255
100
AcDbEntity
  8
0
100
AcDbLine
 62
7
  6
CONTINUOUS
 10
92.9691536209
 20
44.6567650825
 11
96.0117944934
 21
44.6571413249
  0
LINE
  5
256
100
AcDbEntity
  8
0
100
AcDbLine
 62
7
  6
CONTINUOUS
 10
92.9691393402
 20
44.9213665679
 11
95.9422710933
 21
44.9217015504
  0
LINE
  5
257
100
AcDbEntity
  8
0
100
AcDbLine
 62
7
  6
CONTINUOUS
 10
95.9179182638
 20
45.0143723638
 11
92.9691343386
 21
45.0140401246
  0
LINE
  5
258
100
AcDbEntity
  8
0
100
AcDbLine
 62
7
  6
CONTINUOUS
 10
92.9691250613
 20
45.1859346249
 11
95.8727476931
 21
45.1862617758
  0
LINE
  5
259
100
AcDbEntity
  8
0
100
AcDbLine
 62
7
  6
CONTINUOUS
 10
95.8483948636
 20
45.2789325893
 11
92.9691200597
 21
45.2786081816
  0
LINE
  5
25A
100
AcDbEntity
  8
0
100
AcDbLine
 62
7
  6
CONTINUOUS
 10
92.9691107824
 20
45.4505026819
 11
95.8032242929
 21
45.4508220013
  0
LINE
  5
25B
100
AcDbEntity
  8
0
100
AcDbLine
 62
7
  6
CONTINUOUS
 10
96.0569650642
 20
44.4852519129
 11
92.9691628927
 21
44.4849727954
  0
LINE
  5
25C
100
AcDbEntity
  8
0
100
AcDbLine
 62
7
  6
CONTINUOUS
 10
95.987441664
 20
44.7498121383
 11
92.9691486167
 21
44.7494864128
  0
LINE
  5
25D
100
AcDbEntity
  8
0
100
AcDbLine
 62
7
  6
CONTINUOUS
 10
29.7884271591
 20
103.4832416313
 11
29.7891934567
 21
89.284828021
  0
LINE
  5
25E
100
AcDbEntity
  8
0
100
AcDbLine
 62
7
  6
CONTINUOUS
 10
29.8579505593
 20
103.2186814059
 11
29.8587168569
 21
89.0202677955
  0
LINE
  5
25F
100
AcDbEntity
  8
0
100
AcDbLine
 62
7
  6
CONTINUOUS
 10
29.9274739595
 20
102.9541211804
 11
29.9282402571
 21
88.75570757
  0
LINE
  5
260
100
AcDbEntity
  8
0
100
AcDbLine
 62
7
  6
CONTINUOUS
 10
29.9969973597
 20
102.689560955
 11
29.9977636573
 21
88.4911473446
  0
LINE
  5
261
100
AcDbEntity
  8
0
100
AcDbLine
 62
7
  6
CONTINUOUS
 10
30.0665207599
 20
102.4250007295
 11
30.0672870575
 21
88.2265871191
  0
LINE
  5
262
100
AcDbEntity
  8
0
100
AcDbLine
 62
7
  6
CONTINUOUS
 10
37.6438753069
 20
41.8301904061
 11
37.3657817062
 21
42.8884313079
  0
LINE
  5
263
100
AcDbEntity
  8
0
100
AcDbLine
 62
7
  6
CONTINUOUS
 10
35.0696553016
 20
43.6321330683
 11
35.0696121299
 21
44.4320436943
  0
LINE
  5
264
100
AcDbEntity
  8
0
100
AcDbLine
 62
7
  6
CONTINUOUS
 10
66.1203499385
 20
112.6583010509
 11
64.4582630642
 21
111.1173391576
  0
LINE
  5
265
100
AcDbEntity
  8
0
100
AcDbLine
 62
7
  6
CONTINUOUS
 10
30.0672870575
 20
88.2265871191
 11
29.7891934567
 21
89.284828021
  0
LINE
  5
266
100
AcDbEntity
  8
0
100
AcDbLine
 62
7
  6
CONTINUOUS
 10
37.6438753069
 20
41.8301904061
 11
37.6697870598
 21
40.8194389966
  0
LINE
  5
267
100
AcDbEntity
  8
0
100
AcDbLine
 62
7
  6
CONTINUOUS
 10
65.1906514817
 20
108.0961795552
 11
67.2420092135
 21
110.15494743
  0
LINE
  5
268
100
AcDbEntity
  8
0
100
AcDbLine
 62
7
  6
CONTINUOUS
 10
64.6341510498
 20
108.7117177289
 11
64.2657201124
 21
108.3428174515
  0
LINE
  5
269
100
AcDbEntity
  8
0
100
AcDbLine
 62
7
  6
CONTINUOUS
 10
64.2782893147
 20
108.2949873542
 11
63.9799557692
 21
107.9962737649
  0
LINE
  5
26A
100
AcDbEntity
  8
0
100
AcDbLine
 62
7
  6
CONTINUOUS
 10
64.0168778009
 20
107.8557728542
 11
64.3152113465
 21
108.1544864435
  0
LINE
  5
26B
100
AcDbEntity
  8
0
100
AcDbLine
 62
7
  6
CONTINUOUS
 10
64.3285661239
 20
108.1036669652
 11
64.6969970612
 21
108.4725672426
  0
LINE
  5
26C
100
AcDbEntity
  8
0
100
AcDbLine
 62
7
  6
CONTINUOUS
 10
64.7036744499
 20
108.4471575034
 11
64.3352435126
 21
108.078257226
  0
LINE
  5
26D
100
AcDbEntity
  8
0
100
AcDbLine
 62
7
  6
CONTINUOUS
 10
64.3478127149
 20
108.0304271288
 11
64.0494791693
 21
107.7317135394
  0
LINE
  5
26E
100
AcDbEntity
  8
0
100
AcDbLine
 62
7
  6
CONTINUOUS
 10
64.0864012011
 20
107.5912126287
 11
64.3847347466
 21
107.8899262181
  0
LINE
  5
26F
100
AcDbEntity
  8
0
100
AcDbLine
 62
7
  6
CONTINUOUS
 10
64.3980895241
 20
107.8391067397
 11
64.7750183664
 21
108.2165157475
  0
LINE
  5
270
100
AcDbEntity
  8
0
100
AcDbLine
 62
7
  6
CONTINUOUS
 10
64.7910661705
 20
108.2004883605
 11
64.4047669128
 21
107.8136970006
  0
LINE
  5
271
100
AcDbEntity
  8
0
100
AcDbLine
 62
7
  6
CONTINUOUS
 10
64.4173361151
 20
107.7658669033
 11
64.1190025695
 21
107.467153314
  0
LINE
  5
272
100
AcDbEntity
  8
0
100
AcDbLine
 62
7
  6
CONTINUOUS
 10
64.1559246013
 20
107.3266524033
 11
64.4542581468
 21
107.6253659926
  0
LINE
  5
273
100
AcDbEntity
  8
0
100
AcDbLine
 62
7
  6
CONTINUOUS
 10
64.4676129243
 20
107.5745465143
 11
64.9853979574
 21
108.0929911479
  0
LINE
  5
274
100
AcDbEntity
  8
0
100
AcDbLine
 62
7
  6
CONTINUOUS
 10
65.0179578997
 20
108.0934969339
 11
64.474290313
 21
107.5491367751
  0
LINE
  5
275
100
AcDbEntity
  8
0
100
AcDbLine
 62
7
  6
CONTINUOUS
 10
64.4868595153
 20
107.5013066778
 11
64.1885259697
 21
107.2025930885
  0
LINE
  5
276
100
AcDbEntity
  8
0
100
AcDbLine
 62
7
  6
CONTINUOUS
 10
64.2254480014
 20
107.0620921778
 11
64.523781547
 21
107.3608057672
  0
LINE
  5
277
100
AcDbEntity
  8
0
100
AcDbLine
 62
7
  6
CONTINUOUS
 10
64.5371363244
 20
107.3099862888
 11
67.5183468631
 21
110.2949945582
  0
LINE
  5
278
100
AcDbEntity
  8
0
100
AcDbLine
 62
7
  6
CONTINUOUS
 10
66.3945835457
 20
111.6147487395
 11
64.7332745022
 21
110.0708269353
  0
LINE
  5
279
100
AcDbEntity
  8
0
100
AcDbLine
 62
7
  6
CONTINUOUS
 10
12.1200071409
 20
60.9137315487
 11
12.1482757204
 21
60.9137347337
  0
LINE
  5
27A
100
AcDbEntity
  8
0
100
AcDbLine
 62
7
  6
CONTINUOUS
 10
12.0504837407
 20
61.1782917742
 11
12.0787523202
 21
61.1782949592
  0
LINE
  5
27B
100
AcDbEntity
  8
0
100
AcDbLine
 62
7
  6
CONTINUOUS
 10
11.9809603405
 20
61.4428519996
 11
12.0092289201
 21
61.4428551846
  0
LINE
  5
27C
100
AcDbEntity
  8
0
100
AcDbLine
 62
7
  6
CONTINUOUS
 10
30.0665207599
 20
102.4250007295
 11
29.7884271591
 21
103.4832416313
  0
LINE
  5
27D
100
AcDbEntity
  8
0
100
AcDbLine
 62
7
  6
CONTINUOUS
 10
31.7883037987
 20
105.4832435343
 11
32.0663973994
 21
104.4250026324
  0
LINE
  5
27E
100
AcDbEntity
  8
0
100
AcDbLine
 62
7
  6
CONTINUOUS
 10
11.9114369403
 20
61.7074122251
 11
11.9397055199
 21
61.7074154101
  0
LINE
  5
27F
100
AcDbEntity
  8
0
100
AcDbLine
 62
7
  6
CONTINUOUS
 10
12.1198398506
 20
64.0133852242
 11
12.1481084301
 21
64.0133884092
  0
LINE
  5
280
100
AcDbEntity
  8
0
100
AcDbLine
 62
7
  6
CONTINUOUS
 10
12.0503164504
 20
64.2779454497
 11
12.0785850299
 21
64.2779486347
  0
LINE
  5
281
100
AcDbEntity
  8
0
100
AcDbLine
 62
7
  6
CONTINUOUS
 10
11.9807930502
 20
64.5425056751
 11
12.0090616297
 21
64.5425088602
  0
LINE
  5
282
100
AcDbEntity
  8
0
100
AcDbLine
 62
7
  6
CONTINUOUS
 10
11.91126965
 20
64.8070659006
 11
11.9395382295
 21
64.8070690856
  0
LINE
  5
283
100
AcDbEntity
  8
0
100
AcDbLine
 62
7
  6
CONTINUOUS
 10
12.1241011528
 20
65.096820739
 11
12.1437321108
 21
65.0968229508
  0
LINE
  5
284
100
AcDbEntity
  8
0
100
AcDbLine
 62
7
  6
CONTINUOUS
 10
12.0545777526
 20
65.3613809644
 11
12.0742087106
 21
65.3613831762
  0
LINE
  5
285
100
AcDbEntity
  8
0
100
AcDbLine
 62
7
  6
CONTINUOUS
 10
73.059403266
 20
38.9758015188
 11
71.059310768
 21
40.9753527455
  0
LINE
  5
286
100
AcDbEntity
  8
0
100
AcDbLine
 62
7
  6
CONTINUOUS
 10
71.0534189544
 20
40.9977731036
 11
69.5533495808
 21
42.4974365237
  0
LINE
  5
287
100
AcDbEntity
  8
0
100
AcDbLine
 62
7
  6
CONTINUOUS
 10
69.5160298842
 20
42.7298017606
 11
69.4838261806
 21
42.7619967491
  0
LINE
  5
288
100
AcDbEntity
  8
0
100
AcDbLine
 62
7
  6
CONTINUOUS
 10
69.446506484
 20
42.9943619861
 11
69.4143027805
 21
43.0265569746
  0
LINE
  5
289
100
AcDbEntity
  8
0
100
AcDbLine
 62
7
  6
CONTINUOUS
 10
73.5696118851
 20
38.9369958993
 11
72.0695425115
 21
40.4366593193
  0
LINE
  5
28A
100
AcDbEntity
  8
0
100
AcDbLine
 62
7
  6
CONTINUOUS
 10
69.3769830838
 20
43.2589222115
 11
69.3447793803
 21
43.2911172001
  0
LINE
  5
28B
100
AcDbEntity
  8
0
100
AcDbLine
 62
7
  6
CONTINUOUS
 10
70.264546045
 20
107.2195774904
 11
68.2710540499
 21
105.1046126681
  0
LINE
  5
28C
100
AcDbEntity
  8
0
100
AcDbLine
 62
7
  6
CONTINUOUS
 10
67.5192088927
 20
104.4895338569
 11
67.5677630089
 21
104.5398161675
  0
LINE
  5
28D
100
AcDbEntity
  8
0
100
AcDbLine
 62
7
  6
CONTINUOUS
 10
68.0802657238
 20
105.0059108776
 11
67.6000680463
 21
104.5086214486
  0
LINE
  5
28E
100
AcDbEntity
  8
0
100
AcDbLine
 62
7
  6
CONTINUOUS
 10
11.9850543524
 20
65.6259411899
 11
12.0046853104
 21
65.6259434017
  0
LINE
  5
28F
100
AcDbEntity
  8
0
100
AcDbLine
 62
7
  6
CONTINUOUS
 10
11.9155309522
 20
65.8905014153
 11
11.9351619102
 21
65.8905036271
  0
LINE
  5
290
100
AcDbEntity
  8
0
100
AcDbLine
 62
7
  6
CONTINUOUS
 10
70.2565807797
 20
104.7068072004
 11
71.7487723812
 21
106.4170979547
  0
LINE
  5
291
100
AcDbEntity
  8
0
100
AcDbLine
 62
7
  6
CONTINUOUS
 10
72.0695425115
 20
40.4366593193
 11
71.0694153156
 21
42.9362673563
  0
LINE
  5
292
100
AcDbEntity
  8
0
100
AcDbLine
 62
7
  6
CONTINUOUS
 10
69.5533495808
 20
42.4974365237
 11
69.5160347615
 21
42.6394321249
  0
LINE
  5
293
100
AcDbEntity
  8
0
100
AcDbLine
 62
7
  6
CONTINUOUS
 10
69.4838261806
 20
42.7619967491
 11
69.4465113613
 21
42.9039923504
  0
LINE
  5
294
100
AcDbEntity
  8
0
100
AcDbLine
 62
7
  6
CONTINUOUS
 10
69.4143027805
 20
43.0265569746
 11
69.3769879612
 21
43.1685525758
  0
LINE
  5
295
100
AcDbEntity
  8
0
100
AcDbLine
 62
7
  6
CONTINUOUS
 10
69.3447793803
 20
43.2911172001
 11
69.307464561
 21
43.4331128013
  0
LINE
  5
296
100
AcDbEntity
  8
0
100
AcDbLine
 62
7
  6
CONTINUOUS
 10
69.5533142856
 20
43.151408104
 11
69.5159994663
 21
43.2934037052
  0
LINE
  5
297
100
AcDbEntity
  8
0
100
AcDbLine
 62
7
  6
CONTINUOUS
 10
69.4837908854
 20
43.4159683294
 11
69.4464760661
 21
43.5579639307
  0
LINE
  5
298
100
AcDbEntity
  8
0
100
AcDbLine
 62
7
  6
CONTINUOUS
 10
69.4142674852
 20
43.6805285549
 11
69.3769526659
 21
43.8225241561
  0
LINE
  5
299
100
AcDbEntity
  8
0
100
AcDbLine
 62
7
  6
CONTINUOUS
 10
69.344744085
 20
43.9450887804
 11
69.3074292657
 21
44.0870843816
  0
LINE
  5
29A
100
AcDbEntity
  8
0
100
AcDbLine
 62
7
  6
CONTINUOUS
 10
71.059310768
 20
40.9753527455
 11
71.0534189544
 21
40.9977731036
  0
LINE
  5
29B
100
AcDbEntity
  8
0
100
AcDbLine
 62
7
  6
CONTINUOUS
 10
54.9596669067
 20
104.4275820152
 11
54.681573306
 21
105.4858229171
  0
LINE
  5
29C
100
AcDbEntity
  8
0
100
AcDbLine
 62
7
  6
CONTINUOUS
 10
71.0532732499
 20
43.6974714661
 11
71.0159584306
 21
43.8394670674
  0
LINE
  5
29D
100
AcDbEntity
  8
0
100
AcDbLine
 62
7
  6
CONTINUOUS
 10
70.9837498497
 20
43.9620316916
 11
70.9464350304
 21
44.1040272928
  0
LINE
  5
29E
100
AcDbEntity
  8
0
100
AcDbLine
 62
7
  6
CONTINUOUS
 10
70.9142264495
 20
44.2265919171
 11
70.8769116302
 21
44.3685875183
  0
LINE
  5
29F
100
AcDbEntity
  8
0
100
AcDbLine
 62
7
  6
CONTINUOUS
 10
64.7332745022
 20
110.0708269353
 11
64.7604648264
 21
108.2310507715
  0
LINE
  5
2A0
100
AcDbEntity
  8
0
100
AcDbLine
 62
7
  6
CONTINUOUS
 10
64.4582630642
 20
111.1173391576
 11
64.4850066505
 21
109.279262984
  0
LINE
  5
2A1
100
AcDbEntity
  8
0
100
AcDbLine
 62
7
  6
CONTINUOUS
 10
91.9668094625
 20
88.2335613332
 11
75.0669398559
 21
88.2316572263
  0
LINE
  5
2A2
100
AcDbEntity
  8
0
100
AcDbLine
 62
7
  6
CONTINUOUS
 10
30.0672870575
 20
88.2265871191
 11
13.1674174509
 21
88.2246830122
  0
LINE
  5
2A3
100
AcDbEntity
  8
0
100
AcDbLine
 62
7
  6
CONTINUOUS
 10
68.2710540499
 20
105.1046126681
 11
68.275296094
 21
104.8175836675
  0
LINE
  5
2A4
100
AcDbEntity
  8
0
100
AcDbLine
 62
7
  6
CONTINUOUS
 10
68.3661820811
 20
103.22922658
 11
68.3661173235
 21
104.4290925189
  0
LINE
  5
2A5
100
AcDbEntity
  8
0
100
AcDbLine
 62
7
  6
CONTINUOUS
 10
69.307464561
 20
43.4331128013
 11
69.3074292657
 21
44.0870843816
  0
LINE
  5
2A6
100
AcDbEntity
  8
0
100
AcDbLine
 62
7
  6
CONTINUOUS
 10
69.3447793803
 20
43.2911172001
 11
69.344744085
 21
43.9450887804
  0
LINE
  5
2A7
100
AcDbEntity
  8
0
100
AcDbLine
 62
7
  6
CONTINUOUS
 10
69.3769879612
 20
43.1685525758
 11
69.3769526659
 21
43.8225241561
  0
LINE
  5
2A8
100
AcDbEntity
  8
0
100
AcDbLine
 62
7
  6
CONTINUOUS
 10
69.4143027805
 20
43.0265569746
 11
69.4142674852
 21
43.6805285549
  0
LINE
  5
2A9
100
AcDbEntity
  8
0
100
AcDbLine
 62
7
  6
CONTINUOUS
 10
69.4465113613
 20
42.9039923504
 11
69.4464760661
 21
43.5579639307
  0
LINE
  5
2AA
100
AcDbEntity
  8
0
100
AcDbLine
 62
7
  6
CONTINUOUS
 10
69.4838261806
 20
42.7619967491
 11
69.4837908854
 21
43.4159683294
  0
LINE
  5
2AB
100
AcDbEntity
  8
0
100
AcDbLine
 62
7
  6
CONTINUOUS
 10
69.5160347615
 20
42.6394321249
 11
69.5159994663
 21
43.2934037052
  0
LINE
  5
2AC
100
AcDbEntity
  8
0
100
AcDbLine
 62
7
  6
CONTINUOUS
 10
69.5533495808
 20
42.4974365237
 11
69.5533142856
 21
43.151408104
  0
LINE
  5
2AD
100
AcDbEntity
  8
0
100
AcDbLine
 62
7
  6
CONTINUOUS
 10
91.8972860623
 20
88.4981215586
 11
75.066925577
 21
88.4962252833
  0
LINE
  5
2AE
100
AcDbEntity
  8
0
100
AcDbLine
 62
7
  6
CONTINUOUS
 10
29.9977636573
 20
88.4911473446
 11
13.0978940507
 21
88.4892432377
  0
LINE
  5
2AF
100
AcDbEntity
  8
0
100
AcDbLine
 62
7
  6
CONTINUOUS
 10
91.8277626621
 20
88.7626817841
 11
75.0669112981
 21
88.7607933403
  0
LINE
  5
2B0
100
AcDbEntity
  8
0
100
AcDbLine
 62
7
  6
CONTINUOUS
 10
29.9282402571
 20
88.75570757
 11
13.0283706506
 21
88.7538034631
  0
LINE
  5
2B1
100
AcDbEntity
  8
0
100
AcDbLine
 62
7
  6
CONTINUOUS
 10
91.7582392619
 20
89.0272420095
 11
75.0668970192
 21
89.0253613974
  0
LINE
  5
2B2
100
AcDbEntity
  8
0
100
AcDbLine
 62
7
  6
CONTINUOUS
 10
29.8587168569
 20
89.0202677955
 11
12.9588472504
 21
89.0183636886
  0
LINE
  5
2B3
100
AcDbEntity
  8
0
100
AcDbLine
 62
7
  6
CONTINUOUS
 10
12.8893238502
 20
89.2829239141
 11
29.7891934567
 21
89.284828021
  0
LINE
  5
2B4
100
AcDbEntity
  8
0
100
AcDbLine
 62
7
  6
CONTINUOUS
 10
75.0668827403
 20
89.2899294544
 11
91.6887158617
 21
89.291802235
  0
LINE
  5
2B5
100
AcDbEntity
  8
0
100
AcDbLine
 62
7
  6
CONTINUOUS
 10
70.8447102969
 20
44.3568645521
 11
70.8447060219
 21
44.4360744711
  0
LINE
  5
2B6
100
AcDbEntity
  8
0
100
AcDbLine
 62
7
  6
CONTINUOUS
 10
70.8608070048
 20
44.4360762852
 11
70.8608106473
 21
44.3685866493
  0
LINE
  5
2B7
100
AcDbEntity
  8
0
100
AcDbLine
 62
7
  6
CONTINUOUS
 10
70.8710210267
 20
44.3685872004
 11
70.8710173842
 21
44.4360774356
  0
LINE
  5
2B8
100
AcDbEntity
  8
0
100
AcDbLine
 62
7
  6
CONTINUOUS
 10
70.9142336971
 20
44.0923043266
 11
70.9142264495
 21
44.2265919171
  0
LINE
  5
2B9
100
AcDbEntity
  8
0
100
AcDbLine
 62
7
  6
CONTINUOUS
 10
70.9303161261
 20
44.4360841168
 11
70.9303340475
 21
44.1040264239
  0
LINE
  5
2BA
100
AcDbEntity
  8
0
100
AcDbLine
 62
7
  6
CONTINUOUS
 10
70.9405444269
 20
44.1040269749
 11
70.9405265055
 21
44.4360852672
  0
LINE
  5
2BB
100
AcDbEntity
  8
0
100
AcDbLine
 62
7
  6
CONTINUOUS
 10
70.9837570973
 20
43.8277441011
 11
70.9837498497
 21
43.9620316916
  0
LINE
  5
2BC
100
AcDbEntity
  8
0
100
AcDbLine
 62
7
  6
CONTINUOUS
 10
70.9998252472
 20
44.4360960285
 11
70.9998574477
 21
43.8394661984
  0
LINE
  5
2BD
100
AcDbEntity
  8
0
100
AcDbLine
 62
7
  6
CONTINUOUS
 10
71.0100678271
 20
43.8394667495
 11
71.0100356268
 21
44.4360930988
  0
LINE
  5
2BE
100
AcDbEntity
  8
0
100
AcDbLine
 62
7
  6
CONTINUOUS
 10
71.0534189544
 20
40.9977731036
 11
71.0532732499
 21
43.6974714661
  0
LINE
  5
2BF
100
AcDbEntity
  8
0
100
AcDbLine
 62
7
  6
CONTINUOUS
 10
71.059310768
 20
40.9753527455
 11
71.0592049361
 21
42.9362668053
  0
LINE
  5
2C0
100
AcDbEntity
  8
0
100
AcDbLine
 62
7
  6
CONTINUOUS
 10
71.0693343686
 20
44.43609978
 11
71.0694153156
 21
42.9362673563
  0
LINE
  5
2C1
100
AcDbEntity
  8
0
100
AcDbLine
 62
7
  6
CONTINUOUS
 10
72.6879882311
 20
105.4878516983
 11
72.6880529886
 21
104.2879857594
  0
LINE
  5
2C2
100
AcDbEntity
  8
0
100
AcDbLine
 62
7
  6
CONTINUOUS
 10
72.7575116313
 20
105.2232914729
 11
72.7575763888
 21
104.023425534
  0
LINE
  5
2C3
100
AcDbEntity
  8
0
100
AcDbLine
 62
7
  6
CONTINUOUS
 10
72.8270350315
 20
104.9587312474
 11
72.827099789
 21
103.7588653085
  0
LINE
  5
2C4
100
AcDbEntity
  8
0
100
AcDbLine
 62
7
  6
CONTINUOUS
 10
72.8965584316
 20
104.6941710219
 11
72.8966231892
 21
103.494305083
  0
LINE
  5
2C5
100
AcDbEntity
  8
0
100
AcDbLine
 62
7
  6
CONTINUOUS
 10
72.9660818318
 20
104.4296107965
 11
72.9661465894
 21
103.2297448576
  0
LINE
  5
2C6
100
AcDbEntity
  8
0
100
AcDbLine
 62
7
  6
CONTINUOUS
 10
63.9799557691
 20
107.9962737649
 11
64.0168778009
 21
107.8557728542
  0
LINE
  5
2C7
100
AcDbEntity
  8
0
100
AcDbLine
 62
7
  6
CONTINUOUS
 10
64.0494791693
 20
107.7317135394
 11
64.0864012011
 21
107.5912126287
  0
LINE
  5
2C8
100
AcDbEntity
  8
0
100
AcDbLine
 62
7
  6
CONTINUOUS
 10
64.1190025695
 20
107.467153314
 11
64.1559246013
 21
107.3266524033
  0
LINE
  5
2C9
100
AcDbEntity
  8
0
100
AcDbLine
 62
7
  6
CONTINUOUS
 10
64.1885259697
 20
107.2025930885
 11
64.2254480014
 21
107.0620921778
  0
LINE
  5
2CA
100
AcDbEntity
  8
0
100
AcDbLine
 62
7
  6
CONTINUOUS
 10
64.2657201124
 20
108.3428174515
 11
64.2782893147
 21
108.2949873542
  0
LINE
  5
2CB
100
AcDbEntity
  8
0
100
AcDbLine
 62
7
  6
CONTINUOUS
 10
64.3152113465
 20
108.1544864435
 11
64.3285661239
 21
108.1036669652
  0
LINE
  5
2CC
100
AcDbEntity
  8
0
100
AcDbLine
 62
7
  6
CONTINUOUS
 10
64.3352435126
 20
108.078257226
 11
64.3478127149
 21
108.0304271288
  0
LINE
  5
2CD
100
AcDbEntity
  8
0
100
AcDbLine
 62
7
  6
CONTINUOUS
 10
64.3847347467
 20
107.8899262181
 11
64.3980895241
 21
107.8391067397
  0
LINE
  5
2CE
100
AcDbEntity
  8
0
100
AcDbLine
 62
7
  6
CONTINUOUS
 10
64.4047669128
 20
107.8136970006
 11
64.4173361151
 21
107.7658669033
  0
LINE
  5
2CF
100
AcDbEntity
  8
0
100
AcDbLine
 62
7
  6
CONTINUOUS
 10
64.4542581468
 20
107.6253659926
 11
64.4676129243
 21
107.5745465143
  0
LINE
  5
2D0
100
AcDbEntity
  8
0
100
AcDbLine
 62
7
  6
CONTINUOUS
 10
64.474290313
 20
107.5491367751
 11
64.4868595153
 21
107.5013066778
  0
LINE
  5
2D1
100
AcDbEntity
  8
0
100
AcDbLine
 62
7
  6
CONTINUOUS
 10
64.523781547
 20
107.3608057671
 11
64.5371363245
 21
107.3099862888
  0
LINE
  5
2D2
100
AcDbEntity
  8
0
100
AcDbLine
 62
7
  6
CONTINUOUS
 10
64.7604648264
 20
108.2310507715
 11
64.4850066505
 21
109.279262984
  0
LINE
  5
2D3
100
AcDbEntity
  8
0
100
AcDbLine
 62
7
  6
CONTINUOUS
 10
64.7332745022
 20
110.0708269353
 11
64.4582630642
 21
111.1173391576
  0
LINE
  5
2D4
100
AcDbEntity
  8
0
100
AcDbLine
 62
7
  6
CONTINUOUS
 10
67.1567724913
 20
104.4894930213
 11
67.172680388
 21
104.4289580544
  0
LINE
  5
2D5
100
AcDbEntity
  8
0
100
AcDbLine
 62
7
  6
CONTINUOUS
 10
75.0669398559
 20
88.2316572263
 11
75.0661735583
 21
102.4300708366
  0
LINE
  5
2D6
100
AcDbEntity
  8
0
100
AcDbLine
 62
7
  6
CONTINUOUS
 10
66.3945835457
 20
111.6147487395
 11
66.1203499385
 21
112.6583010509
  0
LINE
  5
2D7
100
AcDbEntity
  8
0
100
AcDbLine
 62
7
  6
CONTINUOUS
 10
66.4037144133
 20
111.6174791673
 11
66.1295621556
 21
112.6607219161
  0
LINE
  5
2D8
100
AcDbEntity
  8
0
100
AcDbLine
 62
7
  6
CONTINUOUS
 10
68.3661173235
 20
104.4290925189
 11
68.1858123778
 21
105.1152142702
  0
LINE
  5
2D9
100
AcDbEntity
  8
0
100
AcDbLine
 62
7
  6
CONTINUOUS
 10
68.275296094
 20
104.8175836675
 11
68.1946712936
 21
105.1243885028
  0
LINE
  5
2DA
100
AcDbEntity
  8
0
100
AcDbLine
 62
7
  6
CONTINUOUS
 10
68.2710540499
 20
105.1046126681
 11
68.2506287978
 21
105.1823377113
  0
LINE
  5
2DB
100
AcDbEntity
  8
0
100
AcDbLine
 62
7
  6
CONTINUOUS
 10
67.2360742538
 20
112.6382483834
 11
67.4049726
 21
111.9955326297
  0
LINE
  5
2DC
100
AcDbEntity
  8
0
100
AcDbLine
 62
7
  6
CONTINUOUS
 10
70.264546045
 20
107.2195774904
 11
70.2545564144
 21
107.2575914383
  0
LINE
  5
2DD
100
AcDbEntity
  8
0
100
AcDbLine
 62
7
  6
CONTINUOUS
 10
69.6705778471
 20
111.8572894328
 11
69.6191124497
 21
112.053132805
  0
LINE
  5
2DE
100
AcDbEntity
  8
0
100
AcDbLine
 62
7
  6
CONTINUOUS
 10
71.8236494179
 20
110.0737094519
 11
71.8907216807
 21
109.7011202881
  0
LINE
  5
2DF
100
AcDbEntity
  8
0
100
AcDbLine
 62
7
  6
CONTINUOUS
 10
75.0005054992
 20
102.9381617496
 11
75.0661735583
 21
102.4300708366
  0
LINE
  5
2E0
100
AcDbEntity
  8
0
100
AcDbLine
 62
7
  6
CONTINUOUS
 10
72.9661465894
 20
103.2297448576
 11
68.3661820811
 21
103.22922658
  0
LINE
  5
2E1
100
AcDbEntity
  8
0
100
AcDbLine
 62
7
  6
CONTINUOUS
 10
72.8966231892
 20
103.494305083
 11
68.3661678022
 21
103.493794637
  0
LINE
  5
2E2
100
AcDbEntity
  8
0
100
AcDbLine
 62
7
  6
CONTINUOUS
 10
72.9661465894
 20
103.2297448576
 11
72.6880529886
 21
104.2879857594
  0
LINE
  5
2E3
100
AcDbEntity
  8
0
100
AcDbLine
 62
7
  6
CONTINUOUS
 10
70.3748605597
 20
113.866542815
 11
70.5437589059
 21
113.2238270613
  0
LINE
  5
2E4
100
AcDbEntity
  8
0
100
AcDbLine
 62
7
  6
CONTINUOUS
 10
72.9660818318
 20
104.4296107965
 11
72.6879882311
 21
105.4878516983
  0
LINE
  5
2E5
100
AcDbEntity
  8
0
100
AcDbLine
 62
7
  6
CONTINUOUS
 10
73.0660810603
 20
104.4296220634
 11
72.7879874595
 21
105.4878629652
  0
LINE
  5
2E6
100
AcDbEntity
  8
0
100
AcDbLine
 62
7
  6
CONTINUOUS
 10
72.9826214181
 20
110.8552988666
 11
72.8137230719
 21
111.4980146204
  0
LINE
  5
2E7
100
AcDbEntity
  8
0
100
AcDbLine
 62
7
  6
CONTINUOUS
 10
82.6235554856
 20
89.1587081488
 11
82.6235477737
 21
89.1584968339
  0
LINE
  5
2E8
100
AcDbEntity
  8
0
100
AcDbLine
 62
7
  6
CONTINUOUS
 10
82.6930788858
 20
88.8941479233
 11
82.6930711739
 21
88.8939366085
  0
LINE
  5
2E9
100
AcDbEntity
  8
0
100
AcDbLine
 62
7
  6
CONTINUOUS
 10
82.762602286
 20
88.6295876979
 11
82.7625945741
 21
88.629376383
  0
LINE
  5
2EA
100
AcDbEntity
  8
0
100
AcDbLine
 62
7
  6
CONTINUOUS
 10
82.8321256862
 20
88.3650274724
 11
82.8321179742
 21
88.3648161575
  0
LINE
  5
2EB
100
AcDbEntity
  8
0
100
AcDbLine
 62
7
  6
CONTINUOUS
 10
68.4187585947
 20
104.6782584796
 11
70.2565807797
 21
104.7068072004
  0
LINE
  5
2EC
100
AcDbEntity
  8
0
100
AcDbLine
 62
7
  6
CONTINUOUS
 10
72.827099789
 20
103.7588653085
 11
68.3661535233
 21
103.7583626941
  0
LINE
  5
2ED
100
AcDbEntity
  8
0
100
AcDbLine
 62
7
  6
CONTINUOUS
 10
72.7575763888
 20
104.023425534
 11
68.3661392443
 21
104.0229307511
  0
LINE
  5
2EE
100
AcDbEntity
  8
0
100
AcDbLine
 62
7
  6
CONTINUOUS
 10
72.6880529886
 20
104.2879857594
 11
68.3661249654
 21
104.2874988081
  0
LINE
  5
2EF
100
AcDbEntity
  8
0
100
AcDbLine
 62
7
  6
CONTINUOUS
 10
73.0660810603
 20
104.4296220634
 11
72.9660818318
 21
104.4296107965
  0
LINE
  5
2F0
100
AcDbEntity
  8
0
100
AcDbLine
 62
7
  6
CONTINUOUS
 10
68.3661173235
 20
104.4290925189
 11
67.172680388
 21
104.4289580544
  0
LINE
  5
2F1
100
AcDbEntity
  8
0
100
AcDbLine
 62
7
  6
CONTINUOUS
 10
54.9596669067
 20
104.4275820152
 11
32.0663973994
 21
104.4250026324
  0
LINE
  5
2F2
100
AcDbEntity
  8
0
100
AcDbLine
 62
7
  6
CONTINUOUS
 10
67.5192088927
 20
104.489533857
 11
67.1567724913
 21
104.4894930213
  0
LINE
  5
2F3
100
AcDbEntity
  8
0
100
AcDbLine
 62
7
  6
CONTINUOUS
 10
72.9965576601
 20
104.6941822889
 11
72.8965584316
 21
104.6941710219
  0
LINE
  5
2F4
100
AcDbEntity
  8
0
100
AcDbLine
 62
7
  6
CONTINUOUS
 10
68.2965939233
 20
104.6936527443
 11
67.7786835011
 21
104.6935943914
  0
LINE
  5
2F5
100
AcDbEntity
  8
0
100
AcDbLine
 62
7
  6
CONTINUOUS
 10
54.8901435065
 20
104.6921422407
 11
31.9968739993
 21
104.6895628579
  0
LINE
  5
2F6
100
AcDbEntity
  8
0
100
AcDbLine
 62
7
  6
CONTINUOUS
 10
72.9270342599
 20
104.9587425143
 11
72.8270350315
 21
104.9587312474
  0
LINE
  5
2F7
100
AcDbEntity
  8
0
100
AcDbLine
 62
7
  6
CONTINUOUS
 10
68.2270705232
 20
104.9582129698
 11
68.0341861995
 21
104.9581912375
  0
LINE
  5
2F8
100
AcDbEntity
  8
0
100
AcDbLine
 62
7
  6
CONTINUOUS
 10
54.8206201063
 20
104.9567024661
 11
31.9273505991
 21
104.9541230834
  0
LINE
  5
2F9
100
AcDbEntity
  8
0
100
AcDbLine
 62
7
  6
CONTINUOUS
 10
72.8575108597
 20
105.2233027398
 11
72.7575116313
 21
105.2232914729
  0
LINE
  5
2FA
100
AcDbEntity
  8
0
100
AcDbLine
 62
7
  6
CONTINUOUS
 10
54.7510967061
 20
105.2212626916
 11
31.8578271989
 21
105.2186833088
  0
LINE
  5
2FB
100
AcDbEntity
  8
0
100
AcDbLine
 62
7
  6
CONTINUOUS
 10
72.7879874595
 20
105.4878629652
 11
72.6879882311
 21
105.4878516983
  0
LINE
  5
2FC
100
AcDbEntity
  8
0
100
AcDbLine
 62
7
  6
CONTINUOUS
 10
54.681573306
 20
105.4858229171
 11
31.7883037987
 21
105.4832435343
  0
LINE
  5
2FD
100
AcDbEntity
  8
0
100
AcDbLine
 62
7
  6
CONTINUOUS
 10
64.7604648264
 20
108.2310507715
 11
64.9039273271
 21
108.0917255836
  0
LINE
  5
2FE
100
AcDbEntity
  8
0
100
AcDbLine
 62
7
  6
CONTINUOUS
 10
68.275296094
 20
104.8175836675
 11
68.4187585947
 21
104.6782584796
  0
LINE
  5
2FF
100
AcDbEntity
  8
0
100
AcDbLine
 62
7
  6
CONTINUOUS
 10
70.2492871926
 20
107.922160414
 11
70.3849076749
 21
107.6906041789
  0
LINE
  5
300
100
AcDbEntity
  8
0
100
AcDbLine
 62
7
  6
CONTINUOUS
 10
93.0236012674
 20
44.6119626016
 11
93.0452045838
 21
44.5297546219
  0
LINE
  5
301
100
AcDbEntity
  8
0
100
AcDbLine
 62
7
  6
CONTINUOUS
 10
95.0451891526
 20
44.52997996
 11
95.0406720955
 21
44.5471689012
  0
LINE
  5
302
100
AcDbEntity
  8
0
100
AcDbLine
 62
7
  6
CONTINUOUS
 10
95.0281028933
 20
44.5949989985
 11
95.0235858362
 21
44.6121879397
  0
LINE
  5
303
100
AcDbEntity
  8
0
100
AcDbLine
 62
7
  6
CONTINUOUS
 10
94.9756657524
 20
44.7945401855
 11
94.9711486954
 21
44.8117291267
  0
LINE
  5
304
100
AcDbEntity
  8
0
100
AcDbLine
 62
7
  6
CONTINUOUS
 10
94.9585794931
 20
44.8595592239
 11
94.954062436
 21
44.8767481651
  0
LINE
  5
305
100
AcDbEntity
  8
0
100
AcDbLine
 62
7
  6
CONTINUOUS
 10
94.9061423523
 20
45.0591004109
 11
94.9016252952
 21
45.0762893521
  0
LINE
  5
306
100
AcDbEntity
  8
0
100
AcDbLine
 62
7
  6
CONTINUOUS
 10
94.8890560929
 20
45.1241194494
 11
94.8845390358
 21
45.1413083906
  0
LINE
  5
307
100
AcDbEntity
  8
0
100
AcDbLine
 62
7
  6
CONTINUOUS
 10
94.8366189521
 20
45.3236606364
 11
94.832101895
 21
45.3408495776
  0
LINE
  5
308
100
AcDbEntity
  8
0
100
AcDbLine
 62
7
  6
CONTINUOUS
 10
94.8195326927
 20
45.3886796748
 11
94.8150156356
 21
45.4058686161
  0
LINE
  5
309
100
AcDbEntity
  8
0
100
AcDbLine
 62
7
  6
CONTINUOUS
 10
89.8234845095
 20
89.1590967362
 11
89.8234922214
 21
89.1593080511
  0
LINE
  5
30A
100
AcDbEntity
  8
0
100
AcDbLine
 62
7
  6
CONTINUOUS
 10
89.8930079097
 20
88.8945365107
 11
89.8930156216
 21
88.8947478256
  0
LINE
  5
30B
100
AcDbEntity
  8
0
100
AcDbLine
 62
7
  6
CONTINUOUS
 10
89.9625313099
 20
88.6299762853
 11
89.9625390218
 21
88.6301876002
  0
LINE
  5
30C
100
AcDbEntity
  8
0
100
AcDbLine
 62
7
  6
CONTINUOUS
 10
90.03205471
 20
88.3654160598
 11
90.032062422
 21
88.3656273747
  0
LINE
  5
30D
100
AcDbEntity
  8
0
100
AcDbLine
 62
7
  6
CONTINUOUS
 10
64.9039273271
 20
108.0917255836
 11
65.1906514817
 21
108.0961795552
  0
LINE
  5
30E
100
AcDbEntity
  8
0
100
AcDbLine
 62
7
  6
CONTINUOUS
 10
64.4846134256
 20
107.5659293716
 11
64.4676129243
 21
107.5745465143
  0
LINE
  5
30F
100
AcDbEntity
  8
0
100
AcDbLine
 62
7
  6
CONTINUOUS
 10
64.4150900254
 20
107.8304895971
 11
64.3980895241
 21
107.8391067397
  0
LINE
  5
310
100
AcDbEntity
  8
0
100
AcDbLine
 62
7
  6
CONTINUOUS
 10
64.3455666252
 20
108.0950498225
 11
64.3285661239
 21
108.1036669652
  0
LINE
  5
311
100
AcDbEntity
  8
0
100
AcDbLine
 62
7
  6
CONTINUOUS
 10
64.4838361148
 20
107.5644010099
 11
64.4676129243
 21
107.5745465143
  0
LINE
  5
312
100
AcDbEntity
  8
0
100
AcDbLine
 62
7
  6
CONTINUOUS
 10
64.4143127146
 20
107.8289612354
 11
64.3980895241
 21
107.8391067397
  0
LINE
  5
313
100
AcDbEntity
  8
0
100
AcDbLine
 62
7
  6
CONTINUOUS
 10
64.3447893144
 20
108.0935214608
 11
64.3285661239
 21
108.1036669652
  0
LINE
  5
314
100
AcDbEntity
  8
0
100
AcDbLine
 62
7
  6
CONTINUOUS
 10
67.9439936889
 20
110.1609715946
 11
70.2492871926
 21
107.922160414
  0
LINE
  5
315
100
AcDbEntity
  8
0
100
AcDbLine
 62
7
  6
CONTINUOUS
 10
97.8110646131
 20
45.4211535286
 11
97.840523681
 21
45.3090517381
  0
LINE
  5
316
100
AcDbEntity
  8
0
100
AcDbLine
 62
7
  6
CONTINUOUS
 10
97.8805880133
 20
45.1565933031
 11
97.9100470812
 21
45.0444915127
  0
LINE
  5
317
100
AcDbEntity
  8
0
100
AcDbLine
 62
7
  6
CONTINUOUS
 10
97.9501114135
 20
44.8920330777
 11
97.9795704814
 21
44.7799312872
  0
LINE
  5
318
100
AcDbEntity
  8
0
100
AcDbLine
 62
7
  6
CONTINUOUS
 10
98.0196348137
 20
44.6274728522
 11
98.0490938816
 21
44.5153710618
  0
LINE
  5
319
100
AcDbEntity
  8
0
100
AcDbLine
 62
7
  6
CONTINUOUS
 10
92.9694622026
 20
38.9391816788
 11
92.9668557115
 21
87.2337857198
  0
LINE
  5
31A
100
AcDbEntity
  8
0
100
AcDbLine
 62
7
  6
CONTINUOUS
 10
92.9874698123
 20
44.6568020037
 11
92.9874648108
 21
44.7494741312
  0
LINE
  5
31B
100
AcDbEntity
  8
0
100
AcDbLine
 62
7
  6
CONTINUOUS
 10
93.0571662942
 20
41.1852825737
 11
93.0569882109
 21
44.4849139057
  0
LINE
  5
31C
100
AcDbEntity
  8
0
100
AcDbLine
 62
7
  6
CONTINUOUS
 10
70.2658766313
 20
44.4360092545
 11
69.3074292657
 21
44.0870843816
  0
LINE
  5
31D
100
AcDbEntity
  8
0
100
AcDbLine
 62
7
  6
CONTINUOUS
 10
69.344744085
 20
43.9450887804
 11
70.6933656236
 21
44.4360574196
  0
LINE
  5
31E
100
AcDbEntity
  8
0
100
AcDbLine
 62
7
  6
CONTINUOUS
 10
70.8769116302
 20
44.3685875183
 11
69.3769526659
 21
43.8225241561
  0
LINE
  5
31F
100
AcDbEntity
  8
0
100
AcDbLine
 62
7
  6
CONTINUOUS
 10
69.4142674852
 20
43.6805285549
 11
70.9142264495
 21
44.2265919171
  0
LINE
  5
320
100
AcDbEntity
  8
0
100
AcDbLine
 62
7
  6
CONTINUOUS
 10
70.9464350304
 20
44.1040272928
 11
69.4464760661
 21
43.5579639307
  0
LINE
  5
321
100
AcDbEntity
  8
0
100
AcDbLine
 62
7
  6
CONTINUOUS
 10
69.4837908854
 20
43.4159683294
 11
70.9837498497
 21
43.9620316916
  0
LINE
  5
322
100
AcDbEntity
  8
0
100
AcDbLine
 62
7
  6
CONTINUOUS
 10
71.0159584306
 20
43.8394670674
 11
69.5159994663
 21
43.2934037052
  0
LINE
  5
323
100
AcDbEntity
  8
0
100
AcDbLine
 62
7
  6
CONTINUOUS
 10
69.5533142856
 20
43.151408104
 11
71.0532732499
 21
43.6974714661
  0
LINE
  5
324
100
AcDbEntity
  8
0
100
AcDbLine
 62
7
  6
CONTINUOUS
 10
72.9826214181
 20
110.8552988666
 11
70.5437589059
 21
113.2238270613
  0
LINE
  5
325
100
AcDbEntity
  8
0
100
AcDbLine
 62
7
  6
CONTINUOUS
 10
72.8137230719
 20
111.4980146204
 11
70.3748605597
 21
113.866542815
  0
LINE
  5
326
100
AcDbEntity
  8
0
100
AcDbLine
 62
7
  6
CONTINUOUS
 10
94.8150156356
 20
45.4058686161
 11
94.8150200757
 21
45.3236007723
  0
LINE
  5
327
100
AcDbEntity
  8
0
100
AcDbLine
 62
7
  6
CONTINUOUS
 10
94.819536205
 20
45.323601016
 11
94.8195326927
 21
45.3886796748
  0
LINE
  5
328
100
AcDbEntity
  8
0
100
AcDbLine
 62
7
  6
CONTINUOUS
 10
94.8845390358
 20
45.1413083906
 11
94.8845434759
 21
45.0590405468
  0
LINE
  5
329
100
AcDbEntity
  8
0
100
AcDbLine
 62
7
  6
CONTINUOUS
 10
94.8890596052
 20
45.0590407905
 11
94.8890560929
 21
45.1241194494
  0
LINE
  5
32A
100
AcDbEntity
  8
0
100
AcDbLine
 62
7
  6
CONTINUOUS
 10
94.954062436
 20
44.8767481651
 11
94.954066876
 21
44.7944803213
  0
LINE
  5
32B
100
AcDbEntity
  8
0
100
AcDbLine
 62
7
  6
CONTINUOUS
 10
94.9585830054
 20
44.7944805651
 11
94.9585794931
 21
44.8595592239
  0
LINE
  5
32C
100
AcDbEntity
  8
0
100
AcDbLine
 62
7
  6
CONTINUOUS
 10
95.0235858362
 20
44.6121879397
 11
95.0235902762
 21
44.5299200959
  0
LINE
  5
32D
100
AcDbEntity
  8
0
100
AcDbLine
 62
7
  6
CONTINUOUS
 10
95.0281064056
 20
44.5299203396
 11
95.0281028933
 21
44.5949989985
  0
LINE
  5
32E
100
AcDbEntity
  8
0
100
AcDbLine
 62
7
  6
CONTINUOUS
 10
95.8483998652
 20
45.1862604618
 11
95.8483948636
 21
45.2789325893
  0
LINE
  5
32F
100
AcDbEntity
  8
0
100
AcDbLine
 62
7
  6
CONTINUOUS
 10
95.9179232654
 20
44.9217002363
 11
95.9179182638
 21
45.0143723638
  0
LINE
  5
330
100
AcDbEntity
  8
0
100
AcDbLine
 62
7
  6
CONTINUOUS
 10
95.9874466656
 20
44.6571400108
 11
95.987441664
 21
44.7498121383
  0
LINE
  5
331
100
AcDbEntity
  8
0
100
AcDbLine
 62
7
  6
CONTINUOUS
 10
96.0571431474
 20
41.1856205809
 11
96.0569650642
 21
44.4852519129
  0
LINE
  5
332
100
AcDbEntity
  8
0
100
AcDbLine
 62
7
  6
CONTINUOUS
 10
96.0881616951
 20
39.8879422896
 11
96.0880916585
 21
41.1856222512
  0
LINE
  5
333
100
AcDbEntity
  8
0
100
AcDbLine
 62
7
  6
CONTINUOUS
 10
96.0902204477
 20
39.8801080348
 11
96.0901499828
 21
41.1857226259
  0
LINE
  5
334
100
AcDbEntity
  8
0
100
AcDbLine
 62
7
  6
CONTINUOUS
 10
96.0989633534
 20
39.8468382998
 11
96.0988910914
 21
41.1857496503
  0
LINE
  5
335
100
AcDbEntity
  8
0
100
AcDbLine
 62
7
  6
CONTINUOUS
 10
96.1576850953
 20
39.6233820642
 11
96.1576007635
 21
41.1859311591
  0
LINE
  5
336
100
AcDbEntity
  8
0
100
AcDbLine
 62
7
  6
CONTINUOUS
 10
96.1597438479
 20
39.6155478093
 11
96.1596590929
 21
41.1859375227
  0
LINE
  5
337
100
AcDbEntity
  8
0
100
AcDbLine
 62
7
  6
CONTINUOUS
 10
96.1684867535
 20
39.5822780743
 11
96.1684002015
 21
41.185964547
  0
LINE
  5
338
100
AcDbEntity
  8
0
100
AcDbLine
 62
7
  6
CONTINUOUS
 10
96.2272084955
 20
39.3588218387
 11
96.2271098736
 21
41.1861460558
  0
LINE
  5
339
100
AcDbEntity
  8
0
100
AcDbLine
 62
7
  6
CONTINUOUS
 10
96.229267248
 20
39.3509875838
 11
96.229168203
 21
41.1861524194
  0
LINE
  5
33A
100
AcDbEntity
  8
0
100
AcDbLine
 62
7
  6
CONTINUOUS
 10
96.2380101537
 20
39.3177178489
 11
96.2379093116
 21
41.1861794437
  0
LINE
  5
33B
100
AcDbEntity
  8
0
100
AcDbLine
 62
7
  6
CONTINUOUS
 10
96.2967318957
 20
39.0942616132
 11
96.2966189837
 21
41.1863609526
  0
LINE
  5
33C
100
AcDbEntity
  8
0
100
AcDbLine
 62
7
  6
CONTINUOUS
 10
96.2987906482
 20
39.0864273584
 11
96.2986773131
 21
41.1863673162
  0
LINE
  5
33D
100
AcDbEntity
  8
0
100
AcDbLine
 62
7
  6
CONTINUOUS
 10
96.3075335539
 20
39.0531576234
 11
96.3074184217
 21
41.1863943405
  0
LINE
  5
33E
100
AcDbEntity
  8
0
100
AcDbLine
 62
7
  6
CONTINUOUS
 10
93.0236038207
 20
44.6120213001
 11
93.0236012674
 21
44.6119626016
  0
LINE
  5
33F
100
AcDbEntity
  8
0
100
AcDbLine
 62
7
  6
CONTINUOUS
 10
94.8366163987
 20
45.3236019378
 11
94.8366189521
 21
45.3236606364
  0
LINE
  5
340
100
AcDbEntity
  8
0
100
AcDbLine
 62
7
  6
CONTINUOUS
 10
94.9061397989
 20
45.0590417124
 11
94.9061423523
 21
45.0591004109
  0
LINE
  5
341
100
AcDbEntity
  8
0
100
AcDbLine
 62
7
  6
CONTINUOUS
 10
94.9756631991
 20
44.7944814869
 11
94.9756657524
 21
44.7945401855
  0
LINE
  5
342
100
AcDbEntity
  8
0
100
AcDbLine
 62
7
  6
CONTINUOUS
 10
95.0451865992
 20
44.5299212614
 11
95.0451891526
 21
44.52997996
  0
LINE
  5
343
100
AcDbEntity
  8
0
100
AcDbLine
 62
7
  6
CONTINUOUS
 10
91.9668094625
 20
88.2335613332
 11
91.6887158617
 21
89.291802235
  0
LINE
  5
344
100
AcDbEntity
  8
0
100
AcDbLine
 62
7
  6
CONTINUOUS
 10
92.6559322199
 20
88.5460731634
 11
92.9340258206
 21
87.4878322616
  0
LINE
  5
345
100
AcDbEntity
  8
0
100
AcDbLine
 62
7
  6
CONTINUOUS
 10
92.9339413136
 20
87.4878102367
 11
92.9668557115
 21
87.2337857198
  0
LINE
  5
346
100
AcDbEntity
  8
0
100
AcDbLine
 62
7
  6
CONTINUOUS
 10
97.8405391093
 20
45.3089343413
 11
97.8405471724
 21
45.1595362218
  0
LINE
  5
347
100
AcDbEntity
  8
0
100
AcDbLine
 62
7
  6
CONTINUOUS
 10
97.9100625095
 20
45.0443741159
 11
97.9100705726
 21
44.8949759963
  0
LINE
  5
348
100
AcDbEntity
  8
0
100
AcDbLine
 62
7
  6
CONTINUOUS
 10
97.9795859097
 20
44.7798138904
 11
97.9795939728
 21
44.6304157709
  0
LINE
  5
349
100
AcDbEntity
  8
0
100
AcDbLine
 62
7
  6
CONTINUOUS
 10
98.0395709977
 20
39.0533527719
 11
98.0394542986
 21
41.2156218023
  0
LINE
  5
34A
100
AcDbEntity
  8
0
100
AcDbLine
 62
7
  6
CONTINUOUS
 10
98.0491093098
 20
44.515253665
 11
98.0492873931
 21
41.215622333
  0
LINE
  5
34B
100
AcDbEntity
  8
0
100
AcDbLine
 62
7
  6
CONTINUOUS
 10
97.840523681
 20
45.3090517381
 11
97.8405227614
 21
45.3089343409
  0
LINE
  5
34C
100
AcDbEntity
  8
0
100
AcDbLine
 62
7
  6
CONTINUOUS
 10
97.9100470812
 20
45.0444915127
 11
97.9100461615
 21
45.0443741155
  0
LINE
  5
34D
100
AcDbEntity
  8
0
100
AcDbLine
 62
7
  6
CONTINUOUS
 10
97.9795704814
 20
44.7799312872
 11
97.9795695617
 21
44.77981389
  0
LINE
  5
34E
100
AcDbEntity
  8
0
100
AcDbLine
 62
7
  6
CONTINUOUS
 10
98.0490938816
 20
44.5153710618
 11
98.0490929619
 21
44.5152536646
  0
LINE
  5
34F
100
AcDbEntity
  8
0
100
AcDbLine
 62
7
  6
CONTINUOUS
 10
96.4257982473
 20
45.3648509791
 11
96.4258049489
 21
45.3649448967
  0
LINE
  5
350
100
AcDbEntity
  8
0
100
AcDbLine
 62
7
  6
CONTINUOUS
 10
96.4953216475
 20
45.1002907536
 11
96.4953283491
 21
45.1003846712
  0
LINE
  5
351
100
AcDbEntity
  8
0
100
AcDbLine
 62
7
  6
CONTINUOUS
 10
96.5648450477
 20
44.8357305281
 11
96.5648517493
 21
44.8358244458
  0
LINE
  5
352
100
AcDbEntity
  8
0
100
AcDbLine
 62
7
  6
CONTINUOUS
 10
96.6343684479
 20
44.5711703027
 11
96.6343751495
 21
44.5712642203
  0
ARC
  5
353
100
AcDbEntity
  8
0
100
AcDbCircle
 62
7
  6
CONTINUOUS
 10
31.8636670785
 20
103.2111766473
 40
2.0093313129
100
AcDbArc
 50
120.0714913409
 51
134.9674287377
  0
ARC
  5
354
100
AcDbEntity
  8
0
100
AcDbCircle
 62
7
  6
CONTINUOUS
 10
31.9331904784
 20
102.946616422
 40
2.0093313127
100
AcDbArc
 50
120.0714913369
 51
134.9674274137
  0
ARC
  5
355
100
AcDbEntity
  8
0
100
AcDbCircle
 62
7
  6
CONTINUOUS
 10
32.0027138787
 20
102.6820561965
 40
2.0093313128
100
AcDbArc
 50
120.0714913389
 51
134.967428086
  0
ARC
  5
356
100
AcDbEntity
  8
0
100
AcDbCircle
 62
7
  6
CONTINUOUS
 10
31.934776708
 20
102.9484292458
 40
2.0091711575
100
AcDbArc
 50
135.0359655442
 51
149.9326952928
  0
ARC
  5
357
100
AcDbEntity
  8
0
100
AcDbCircle
 62
7
  6
CONTINUOUS
 10
31.8652533076
 20
103.2129894715
 40
2.0091711573
100
AcDbArc
 50
135.0359668683
 51
149.9326952968
  0
ARC
  5
358
100
AcDbEntity
  8
0
100
AcDbCircle
 62
7
  6
CONTINUOUS
 10
32.0043001081
 20
102.6838690205
 40
2.0091711574
100
AcDbArc
 50
135.0359662166
 51
149.9326952949
  0
ARC
  5
359
100
AcDbEntity
  8
0
100
AcDbCircle
 62
7
  6
CONTINUOUS
 10
31.7884501277
 20
103.483198987
 40
2.0000220214
100
AcDbArc
 50
90.0041919225
 51
179.9987783443
  0
ARC
  5
35A
100
AcDbEntity
  8
0
100
AcDbCircle
 62
7
  6
CONTINUOUS
 10
32.0665437178
 20
102.4249580744
 40
2.0000220215
100
AcDbArc
 50
90.0041916201
 51
179.9987780341
  0
ARC
  5
35B
100
AcDbEntity
  8
0
100
AcDbCircle
 62
7
  6
CONTINUOUS
 10
31.857632748
 20
103.218766118
 40
1.9996821905
100
AcDbArc
 50
90.0041919267
 51
180.0024272097
  0
ARC
  5
35C
100
AcDbEntity
  8
0
100
AcDbCircle
 62
7
  6
CONTINUOUS
 10
31.9271561482
 20
102.9542058926
 40
1.9996821905
100
AcDbArc
 50
90.0041919235
 51
180.0024272097
  0
ARC
  5
35D
100
AcDbEntity
  8
0
100
AcDbCircle
 62
7
  6
CONTINUOUS
 10
31.9966795484
 20
102.6896456671
 40
1.9996821905
100
AcDbArc
 50
90.0041919262
 51
180.0024272097
  0
ARC
  5
35E
100
AcDbEntity
  8
0
100
AcDbCircle
 62
7
  6
CONTINUOUS
 10
12.9610525045
 20
88.0160945675
 40
1.0030596822
100
AcDbArc
 50
126.0626059416
 51
143.9412174155
  0
ARC
  5
35F
100
AcDbEntity
  8
0
100
AcDbCircle
 62
7
  6
CONTINUOUS
 10
13.1000993044
 20
87.4869741169
 40
1.0030596816
100
AcDbArc
 50
126.0626059439
 51
143.9412174178
  0
ARC
  5
360
100
AcDbEntity
  8
0
100
AcDbCircle
 62
7
  6
CONTINUOUS
 10
13.0305759037
 20
87.7515343428
 40
1.003059681
100
AcDbArc
 50
126.0626059462
 51
143.9412174202
  0
ARC
  5
361
100
AcDbEntity
  8
0
100
AcDbCircle
 62
7
  6
CONTINUOUS
 10
13.1675610605
 20
87.2245938677
 40
1.0000908907
100
AcDbArc
 50
90.0082274889
 51
179.9949473227
  0
ARC
  5
362
100
AcDbEntity
  8
0
100
AcDbCircle
 62
7
  6
CONTINUOUS
 10
12.8894647161
 20
88.2828362136
 40
1.000088091
100
AcDbArc
 50
90.8692346154
 51
179.9950300418
  0
ARC
  5
363
100
AcDbEntity
  8
0
100
AcDbCircle
 62
7
  6
CONTINUOUS
 10
12.9587722031
 20
88.0183933809
 40
0.999863273
100
AcDbArc
 50
90.8666294515
 51
180.0017559962
  0
ARC
  5
364
100
AcDbEntity
  8
0
100
AcDbCircle
 62
7
  6
CONTINUOUS
 10
13.0282956033
 20
87.7538331554
 40
0.999863273
100
AcDbArc
 50
90.8666294516
 51
180.0017559962
  0
ARC
  5
365
100
AcDbEntity
  8
0
100
AcDbCircle
 62
7
  6
CONTINUOUS
 10
13.0978190035
 20
87.4892729299
 40
0.999863273
100
AcDbArc
 50
90.0082274919
 51
180.0017559962
  0
ARC
  5
366
100
AcDbEntity
  8
0
100
AcDbCircle
 62
7
  6
CONTINUOUS
 10
12.9589637221
 20
88.0328716882
 40
0.9854920073
100
AcDbArc
 50
90.0067715796
 51
90.8806898846
  0
ARC
  5
367
100
AcDbEntity
  8
0
100
AcDbCircle
 62
7
  6
CONTINUOUS
 10
12.8894403219
 20
88.2974319139
 40
0.9854920071
100
AcDbArc
 50
90.0067715795
 51
90.8806898847
  0
ARC
  5
368
100
AcDbEntity
  8
0
100
AcDbCircle
 62
7
  6
CONTINUOUS
 10
13.0284871223
 20
87.7683114628
 40
0.9854920072
100
AcDbArc
 50
90.0067715796
 51
90.8806898847
  0
ARC
  5
369
100
AcDbEntity
  8
0
100
AcDbCircle
 62
7
  6
CONTINUOUS
 10
60.7886689464
 20
101.4854312811
 40
7.300672215
100
AcDbArc
 50
63.8497118621
 51
146.7735993747
  0
ARC
  5
36A
100
AcDbEntity
  8
0
100
AcDbCircle
 62
7
  6
CONTINUOUS
 10
61.0666807145
 20
100.4275197254
 40
7.3003762543
100
AcDbArc
 50
33.2379856694
 51
146.7754096752
  0
ARC
  5
36B
100
AcDbEntity
  8
0
100
AcDbCircle
 62
7
  6
CONTINUOUS
 10
60.8578432909
 20
101.2212988232
 40
7.3001414232
100
AcDbArc
 50
63.8483815428
 51
146.7749066987
  0
ARC
  5
36C
100
AcDbEntity
  8
0
100
AcDbCircle
 62
7
  6
CONTINUOUS
 10
60.9273666911
 20
100.9567385978
 40
7.3001414232
100
AcDbArc
 50
63.8483815428
 51
146.7749066987
  0
ARC
  5
36D
100
AcDbEntity
  8
0
100
AcDbCircle
 62
7
  6
CONTINUOUS
 10
60.9968900913
 20
100.6921783723
 40
7.3001414232
100
AcDbArc
 50
63.8483815428
 51
146.7749066987
  0
ARC
  5
36E
100
AcDbEntity
  8
0
100
AcDbCircle
 62
7
  6
CONTINUOUS
 10
60.9235889927
 20
101.0418308176
 40
7.2730867605
100
AcDbArc
 50
63.3265917709
 51
63.5026619474
  0
ARC
  5
36F
100
AcDbEntity
  8
0
100
AcDbCircle
 62
7
  6
CONTINUOUS
 10
60.8540655942
 20
101.3063910465
 40
7.2730867567
100
AcDbArc
 50
63.3265917709
 51
63.5026619474
  0
ARC
  5
370
100
AcDbEntity
  8
0
100
AcDbCircle
 62
7
  6
CONTINUOUS
 10
60.993112405
 20
100.7772706165
 40
7.2730867333
100
AcDbArc
 50
63.3265917707
 51
63.5026619478
  0
ARC
  5
371
100
AcDbEntity
  8
0
100
AcDbCircle
 62
7
  6
CONTINUOUS
 10
60.9276628455
 20
101.0500356855
 40
7.2639261974
100
AcDbArc
 50
63.5025457011
 51
64.2240748585
  0
ARC
  5
372
100
AcDbEntity
  8
0
100
AcDbCircle
 62
7
  6
CONTINUOUS
 10
60.9971862457
 20
100.7854754602
 40
7.2639261973
100
AcDbArc
 50
63.5025457011
 51
64.2240748585
  0
ARC
  5
373
100
AcDbEntity
  8
0
100
AcDbCircle
 62
7
  6
CONTINUOUS
 10
60.8581394455
 20
101.3145959114
 40
7.263926197
100
AcDbArc
 50
63.5025457011
 51
64.2240748585
  0
ARC
  5
374
100
AcDbEntity
  8
0
100
AcDbCircle
 62
7
  6
CONTINUOUS
 10
68.8110640716
 20
100.5300009921
 40
11.5514288709
100
AcDbArc
 50
85.9887556876
 51
96.9916366769
  0
ARC
  5
375
100
AcDbEntity
  8
0
100
AcDbCircle
 62
7
  6
CONTINUOUS
 10
68.5890612327
 20
101.3752835505
 40
11.5506442549
100
AcDbArc
 50
91.4170634307
 51
102.2946152648
  0
ARC
  5
376
100
AcDbEntity
  8
0
100
AcDbCircle
 62
7
  6
CONTINUOUS
 10
68.8731530559
 20
100.348587595
 40
11.5362924927
100
AcDbArc
 50
86.0366478994
 51
102.3602830822
  0
ARC
  5
377
100
AcDbEntity
  8
0
100
AcDbCircle
 62
7
  6
CONTINUOUS
 10
72.852210208
 20
103.2161157447
 40
2.0089942453
100
AcDbArc
 50
45.0421559312
 51
59.9397572136
  0
ARC
  5
378
100
AcDbEntity
  8
0
100
AcDbCircle
 62
7
  6
CONTINUOUS
 10
72.9217336082
 20
102.9515555193
 40
2.0089942453
100
AcDbArc
 50
45.0421559173
 51
59.9397572136
  0
ARC
  5
379
100
AcDbEntity
  8
0
100
AcDbCircle
 62
7
  6
CONTINUOUS
 10
72.9912570085
 20
102.6869952939
 40
2.0089942452
100
AcDbArc
 50
45.0421565966
 51
59.9397572157
  0
ARC
  5
37A
100
AcDbEntity
  8
0
100
AcDbCircle
 62
7
  6
CONTINUOUS
 10
72.8506203899
 20
103.2179285075
 40
2.0088362701
100
AcDbArc
 50
30.0748612706
 51
44.9735359486
  0
ARC
  5
37B
100
AcDbEntity
  8
0
100
AcDbCircle
 62
7
  6
CONTINUOUS
 10
72.9201437901
 20
102.9533682821
 40
2.0088362701
100
AcDbArc
 50
30.0748612705
 51
44.9735359346
  0
ARC
  5
37C
100
AcDbEntity
  8
0
100
AcDbCircle
 62
7
  6
CONTINUOUS
 10
72.9896671902
 20
102.6888080565
 40
2.0088362702
100
AcDbArc
 50
30.0748612726
 51
44.973536614
  0
ARC
  5
37D
100
AcDbEntity
  8
0
100
AcDbCircle
 62
7
  6
CONTINUOUS
 10
72.9967640618
 20
102.6942219001
 40
1.999966324
100
AcDbArc
 50
22.5202297488
 51
90.0059130905
  0
ARC
  5
37E
100
AcDbEntity
  8
0
100
AcDbCircle
 62
7
  6
CONTINUOUS
 10
73.0662901784
 20
102.4296846146
 40
1.9999436186
100
AcDbArc
 50
14.7289648455
 51
90.0059909817
  0
ARC
  5
37F
100
AcDbEntity
  8
0
100
AcDbCircle
 62
7
  6
CONTINUOUS
 10
72.8577618888
 20
103.2233701071
 40
1.9999133692
100
AcDbArc
 50
22.5199848909
 51
86.1912967185
  0
ARC
  5
380
100
AcDbEntity
  8
0
100
AcDbCircle
 62
7
  6
CONTINUOUS
 10
72.927285289
 20
102.9588098816
 40
1.9999133692
100
AcDbArc
 50
22.5199848909
 51
86.1912967185
  0
ARC
  5
381
100
AcDbEntity
  8
0
100
AcDbCircle
 62
7
  6
CONTINUOUS
 10
72.7882829024
 20
103.4879979427
 40
1.9998394051
100
AcDbArc
 50
14.7275868098
 51
86.1924377065
  0
ARC
  5
382
100
AcDbEntity
  8
0
100
AcDbCircle
 62
7
  6
CONTINUOUS
 10
72.858045018
 20
103.2240464716
 40
1.9992077814
100
AcDbArc
 50
59.9706358481
 51
86.1982003401
  0
ARC
  5
383
100
AcDbEntity
  8
0
100
AcDbCircle
 62
7
  6
CONTINUOUS
 10
72.9275684182
 20
102.9594862462
 40
1.9992077814
100
AcDbArc
 50
59.9706358482
 51
86.1982003401
  0
ARC
  5
384
100
AcDbEntity
  8
0
100
AcDbCircle
 62
7
  6
CONTINUOUS
 10
72.859490841
 20
103.2241088938
 40
1.9980357619
100
AcDbArc
 50
14.7212529596
 51
22.5194041192
  0
ARC
  5
385
100
AcDbEntity
  8
0
100
AcDbCircle
 62
7
  6
CONTINUOUS
 10
72.9290142412
 20
102.9595486684
 40
1.9980357619
100
AcDbArc
 50
14.7212529595
 51
22.5194041192
  0
ARC
  5
386
100
AcDbEntity
  8
0
100
AcDbCircle
 62
7
  6
CONTINUOUS
 10
72.9985376414
 20
102.6949884429
 40
1.9980357619
100
AcDbArc
 50
14.7212529596
 51
22.5194041192
  0
ARC
  5
387
100
AcDbEntity
  8
0
100
AcDbCircle
 62
7
  6
CONTINUOUS
 10
72.7880542794
 20
103.4964515179
 40
1.9914114484
100
AcDbArc
 50
86.1697231404
 51
90.0019225046
  0
ARC
  5
388
100
AcDbEntity
  8
0
100
AcDbCircle
 62
7
  6
CONTINUOUS
 10
72.8575776796
 20
103.2318912925
 40
1.9914114484
100
AcDbArc
 50
86.1697231404
 51
90.0019225047
  0
ARC
  5
389
100
AcDbEntity
  8
0
100
AcDbCircle
 62
7
  6
CONTINUOUS
 10
72.9271010798
 20
102.967331067
 40
1.9914114485
100
AcDbArc
 50
86.1697231404
 51
90.0019225046
  0
ARC
  5
38A
100
AcDbEntity
  8
0
100
AcDbCircle
 62
7
  6
CONTINUOUS
 10
91.7563028118
 20
88.0251338453
 40
1.0028908323
100
AcDbArc
 50
36.066880175
 51
53.9479981076
  0
ARC
  5
38B
100
AcDbEntity
  8
0
100
AcDbCircle
 62
7
  6
CONTINUOUS
 10
91.8258262119
 20
87.7605736198
 40
1.0028908323
100
AcDbArc
 50
36.0668801751
 51
53.9479981076
  0
ARC
  5
38C
100
AcDbEntity
  8
0
100
AcDbCircle
 62
7
  6
CONTINUOUS
 10
91.8953496126
 20
87.4960133948
 40
1.0028908317
100
AcDbArc
 50
36.0668801727
 51
53.9479981053
  0
ARC
  5
38D
100
AcDbEntity
  8
0
100
AcDbCircle
 62
7
  6
CONTINUOUS
 10
91.755981569
 20
88.0264769358
 40
1.0024251889
100
AcDbArc
 50
14.7386664384
 51
30.2376094277
  0
ARC
  5
38E
100
AcDbEntity
  8
0
100
AcDbCircle
 62
7
  6
CONTINUOUS
 10
91.8255049691
 20
87.7619167103
 40
1.0024251889
100
AcDbArc
 50
14.7386664384
 51
30.2376094276
  0
ARC
  5
38F
100
AcDbEntity
  8
0
100
AcDbCircle
 62
7
  6
CONTINUOUS
 10
91.8950283693
 20
87.4973564848
 40
1.0024251889
100
AcDbArc
 50
14.7386664384
 51
30.2376094276
  0
ARC
  5
390
100
AcDbEntity
  8
0
100
AcDbCircle
 62
7
  6
CONTINUOUS
 10
91.6884259586
 20
88.291747086
 40
1.000055191
100
AcDbArc
 50
81.5989649388
 51
89.983390689
  0
ARC
  5
391
100
AcDbEntity
  8
0
100
AcDbCircle
 62
7
  6
CONTINUOUS
 10
91.7579492502
 20
88.0271880969
 40
1.0000539547
100
AcDbArc
 50
81.5985980171
 51
89.9833844477
  0
ARC
  5
392
100
AcDbEntity
  8
0
100
AcDbCircle
 62
7
  6
CONTINUOUS
 10
91.8274726504
 20
87.7626278714
 40
1.0000539547
100
AcDbArc
 50
81.5985980172
 51
89.9833844477
  0
ARC
  5
393
100
AcDbEntity
  8
0
100
AcDbCircle
 62
7
  6
CONTINUOUS
 10
91.8973946933
 20
87.4981144014
 40
1.0000071631
100
AcDbArc
 50
53.9787785857
 51
90.0062240542
  0
ARC
  5
394
100
AcDbEntity
  8
0
100
AcDbCircle
 62
7
  6
CONTINUOUS
 10
91.966975469
 20
87.2336990693
 40
0.9998587764
100
AcDbArc
 50
14.7239684091
 51
90.0095127833
  0
ARC
  5
395
100
AcDbEntity
  8
0
100
AcDbCircle
 62
7
  6
CONTINUOUS
 10
91.6890066356
 20
88.2920106243
 40
0.9997164647
100
AcDbArc
 50
14.721869632
 51
81.6296811268
  0
ARC
  5
396
100
AcDbEntity
  8
0
100
AcDbCircle
 62
7
  6
CONTINUOUS
 10
91.7589447546
 20
88.0283785576
 40
0.9987311479
100
AcDbArc
 50
53.9678869041
 51
81.645117423
  0
ARC
  5
397
100
AcDbEntity
  8
0
100
AcDbCircle
 62
7
  6
CONTINUOUS
 10
91.8284681548
 20
87.7638183322
 40
0.9987311479
100
AcDbArc
 50
53.9678869041
 51
81.6451174231
  0
ARC
  5
398
100
AcDbEntity
  8
0
100
AcDbCircle
 62
7
  6
CONTINUOUS
 10
91.7605783126
 20
88.0284633498
 40
0.997474654
100
AcDbArc
 50
14.6954941972
 51
36.0568724152
  0
ARC
  5
399
100
AcDbEntity
  8
0
100
AcDbCircle
 62
7
  6
CONTINUOUS
 10
91.8301017128
 20
87.7639031243
 40
0.997474654
100
AcDbArc
 50
14.6954941972
 51
36.0568724153
  0
ARC
  5
39A
100
AcDbEntity
  8
0
100
AcDbCircle
 62
7
  6
CONTINUOUS
 10
91.899625113
 20
87.4993428988
 40
0.997474654
100
AcDbArc
 50
14.6954941972
 51
36.0568724154
  0
ARC
  5
39B
100
AcDbEntity
  8
0
100
AcDbCircle
 62
7
  6
CONTINUOUS
 10
60.3754933522
 20
108.5537780451
 40
11.5722460084
100
AcDbArc
 50
349.359953453
 51
5.6899971858
  0
ARC
  5
39C
100
AcDbEntity
  8
0
100
AcDbCircle
 62
7
  6
CONTINUOUS
 10
65.2130636031
 20
122.4324322211
 40
10.0009304137
100
AcDbArc
 50
281.6704502992
 51
301.0731276945
  0
ARC
  5
39D
100
AcDbEntity
  8
0
100
AcDbCircle
 62
7
  6
CONTINUOUS
 10
65.3819619493
 20
121.7897164674
 40
10.0009304137
100
AcDbArc
 50
281.6704502992
 51
301.0731276945
  0
ARC
  5
39E
100
AcDbEntity
  8
0
100
AcDbCircle
 62
7
  6
CONTINUOUS
 10
81.6925444746
 20
105.9458268095
 40
9.9982836292
100
AcDbArc
 50
150.5915993444
 51
168.1093420201
  0
ARC
  5
39F
100
AcDbEntity
  8
0
100
AcDbCircle
 62
7
  6
CONTINUOUS
 10
69.5032650625
 20
109.4643895189
 40
2.3990620779
100
AcDbArc
 50
14.713363194
 51
45.8445417671
  0
ARC
  5
3A0
100
AcDbEntity
  8
0
100
AcDbCircle
 62
7
  6
CONTINUOUS
 10
69.452217511
 20
109.6598875665
 40
2.3986850216
100
AcDbArc
 50
14.7167611181
 51
45.8418125707
  0
ARC
  5
3A1
100
AcDbEntity
  8
0
100
AcDbCircle
 62
7
  6
CONTINUOUS
 10
69.5054550369
 20
109.4682578055
 40
2.3947187675
100
AcDbArc
 50
45.8176620971
 51
86.0474833123
  0
LINE
  5
3A2
100
AcDbEntity
  8
0
100
AcDbLine
 62
7
  6
CONTINUOUS
 10
96.0902204477
 20
39.8801080348
 11
96.0999166883
 21
39.8799198215
  0
SPLINE
  5
3A3
100
AcDbEntity
  8
0
100
AcDbSpline
 62
7
  6
CONTINUOUS
 70
0
 71
3
 72
28
 73
24
 74
0
 42
0.0000001
 43
0.0000001
 44
0.0000000001
 40
0.0
 40
0.0
 40
0.0
 40
0.0
 40
0.1943068305
 40
0.3812976586
 40
0.469780405
 40
0.5537884389
 40
0.6324954929
 40
0.7051538626
 40
0.7710567063
 40
0.8295812423
 40
0.8801518587
 40
0.9023052608
 40
0.9222963367
 40
0.9400730679
 40
0.9555977885
 40
0.96883657
 40
0.9797560132
 40
0.9883276784
 40
0.9945409102
 40
0.9967635114
 40
0.9984000057
 40
0.9994613121
 40
1.0
 40
1.0
 40
1.0
 40
1.0
 10
95.8032242929
 20
45.4508220013
 30
0.0
 10
95.9333344897
 20
45.4508366608
 30
0.0
 10
96.1886561843
 20
45.4504960537
 30
0.0
 10
96.5032244465
 20
45.4491371386
 30
0.0
 10
96.7439320487
 20
45.4474755521
 30
0.0
 10
96.912130797
 20
45.4460011331
 30
0.0
 10
97.0697305371
 20
45.4442891493
 30
0.0
 10
97.2152033444
 20
45.4423588639
 30
0.0
 10
97.3471573863
 20
45.440229044
 30
0.0
 10
97.4643157395
 20
45.4379239656
 30
0.0
 10
97.5521761005
 20
45.4357957501
 30
0.0
 10
97.6142329522
 20
45.4339855995
 30
0.0
 10
97.6543351753
 20
45.4326594813
 30
0.0
 10
97.6899948863
 20
45.4313077598
 30
0.0
 10
97.7211293298
 20
45.4299353586
 30
0.0
 10
97.7476640963
 20
45.428547251
 30
0.0
 10
97.7695409509
 20
45.4271526546
 30
0.0
 10
97.7866864931
 20
45.4257573918
 30
0.0
 10
97.7980327981
 20
45.4245168405
 30
0.0
 10
97.8046671704
 20
45.4234636624
 30
0.0
 10
97.8079380833
 20
45.4227495336
 30
0.0
 10
97.8099120175
 20
45.422125193
 30
0.0
 10
97.8109729349
 20
45.4215023956
 30
0.0
 10
97.8110646131
 20
45.4211535286
 30
0.0
  0
SPLINE
  5
3A4
100
AcDbEntity
  8
0
100
AcDbSpline
 62
7
  6
CONTINUOUS
 70
0
 71
3
 72
30
 73
26
 74
0
 42
0.0000001
 43
0.0000001
 44
0.0000000001
 40
0.0
 40
0.0
 40
0.0
 40
0.0
 40
0.1093194819
 40
0.2568058358
 40
0.340047058
 40
0.4266749582
 40
0.5143571829
 40
0.6007274985
 40
0.6834602762
 40
0.7603256363
 40
0.8292452878
 40
0.8601412942
 40
0.888370109
 40
0.9137487773
 40
0.9361079189
 40
0.9552856661
 40
0.9711625956
 40
0.9778308324
 40
0.9836350796
 40
0.9885634681
 40
0.9926100295
 40
0.9957717784
 40
0.9980473335
 40
0.9994410067
 40
1.0
 40
1.0
 40
1.0
 40
1.0
 10
92.9644588222
 20
45.3161887453
 30
0.0
 10
93.0326767933
 20
45.3143751512
 30
0.0
 10
93.1929713456
 20
45.3117895678
 30
0.0
 10
93.4052350131
 20
45.3098867631
 30
0.0
 10
93.6033405381
 20
45.3089330458
 30
0.0
 10
93.7641152326
 20
45.3085697386
 30
0.0
 10
93.9268437089
 20
45.3086000816
 30
0.0
 10
94.0871401096
 20
45.3090227719
 30
0.0
 10
94.2406826405
 20
45.3098249563
 30
0.0
 10
94.3833290916
 20
45.3109836555
 30
0.0
 10
94.4936141961
 20
45.3122581964
 30
0.0
 10
94.5735362927
 20
45.3134587856
 30
0.0
 10
94.6262789454
 20
45.3143928329
 30
0.0
 10
94.6736903361
 20
45.3153857644
 30
0.0
 10
94.7154492839
 20
45.3164286966
 30
0.0
 10
94.7512728165
 20
45.3175150269
 30
0.0
 10
94.7773012129
 20
45.3184937241
 30
0.0
 10
94.794977443
 20
45.3193161195
 30
0.0
 10
94.8058282139
 20
45.3199025141
 30
0.0
 10
94.8150234479
 20
45.3204910172
 30
0.0
 10
94.8226101811
 20
45.3210852674
 30
0.0
 10
94.8284163244
 20
45.3216626578
 30
0.0
 10
94.8328393509
 20
45.3222560449
 30
0.0
 10
94.83507011
 20
45.3227526752
 30
0.0
 10
94.8366257444
 20
45.3232529909
 30
0.0
 10
94.8366265921
 20
45.3236019384
 30
0.0
  0
SPLINE
  5
3A5
100
AcDbEntity
  8
0
100
AcDbSpline
 62
7
  6
CONTINUOUS
 70
0
 71
3
 72
28
 73
24
 74
0
 42
0.0000001
 43
0.0000001
 44
0.0000000001
 40
0.0
 40
0.0
 40
0.0
 40
0.0
 40
0.1951742025
 40
0.3827830433
 40
0.4714422123
 40
0.5555609044
 40
0.6343288368
 40
0.7069717566
 40
0.7728119018
 40
0.831203876
 40
0.8816057419
 40
0.9036542675
 40
0.9235232889
 40
0.9411717168
 40
0.9565616256
 40
0.9696553889
 40
0.980416517
 40
0.9888221166
 40
0.9948643729
 40
0.9969998675
 40
0.9985488365
 40
0.9995248107
 40
1.0
 40
1.0
 40
1.0
 40
1.0
 10
94.832101895
 20
45.3408495776
 30
0.0
 10
94.9358425195
 20
45.340861266
 30
0.0
 10
95.1393026447
 20
45.341177811
 30
0.0
 10
95.3898854266
 20
45.3423156786
 30
0.0
 10
95.5814364038
 20
45.3436818169
 30
0.0
 10
95.7151347893
 20
45.3448864747
 30
0.0
 10
95.8403178094
 20
45.3462768267
 30
0.0
 10
95.9557824126
 20
45.3478409144
 30
0.0
 10
96.0604131555
 20
45.3495596445
 30
0.0
 10
96.1532176826
 20
45.3514176969
 30
0.0
 10
96.2227434835
 20
45.3531286335
 30
0.0
 10
96.2717924154
 20
45.3545823168
 30
0.0
 10
96.3034356824
 20
45.355646488
 30
0.0
 10
96.3315365545
 20
45.3567299338
 30
0.0
 10
96.3560330874
 20
45.3578294027
 30
0.0
 10
96.3768622168
 20
45.3589395383
 30
0.0
 10
96.3939775145
 20
45.3600570916
 30
0.0
 10
96.4073219684
 20
45.3611667331
 30
0.0
 10
96.4161024896
 20
45.3621677462
 30
0.0
 10
96.421180676
 20
45.3629953806
 30
0.0
 10
96.4236363908
 20
45.3635886066
 30
0.0
 10
96.4250733501
 20
45.3640345166
 30
0.0
 10
96.4258166559
 20
45.364598404
 30
0.0
 10
96.4258171882
 20
45.3648509801
 30
0.0
  0
SPLINE
  5
3A6
100
AcDbEntity
  8
0
100
AcDbSpline
 62
7
  6
CONTINUOUS
 70
0
 71
3
 72
28
 73
24
 74
0
 42
0.0000001
 43
0.0000001
 44
0.0000000001
 40
0.0
 40
0.0
 40
0.0
 40
0.0
 40
0.0004750018
 40
0.0014501855
 40
0.0029981152
 40
0.0051325835
 40
0.0111737809
 40
0.0195811977
 40
0.0303448107
 40
0.0434364541
 40
0.0588236285
 40
0.0764732715
 40
0.0963479001
 40
0.1183957121
 40
0.1687909971
 40
0.2271913143
 40
0.2930248634
 40
0.3656729395
 40
0.4444321396
 40
0.5285581488
 40
0.6172272939
 40
0.8048071601
 40
1.0
 40
1.0
 40
1.0
 40
1.0
 10
97.8405390127
 20
45.3089343418
 30
0.0
 10
97.8405385207
 20
45.3086187459
 30
0.0
 10
97.8396110518
 20
45.307913288
 30
0.0
 10
97.8378157947
 20
45.3073557731
 30
0.0
 10
97.8347484067
 20
45.3066139908
 30
0.0
 10
97.8284026556
 20
45.3055792562
 30
0.0
 10
97.8174272671
 20
45.3043279351
 30
0.0
 10
97.8007444284
 20
45.3029415752
 30
0.0
 10
97.7793488104
 20
45.3015454514
 30
0.0
 10
97.7533139669
 20
45.3001576411
 30
0.0
 10
97.7226957098
 20
45.2987832594
 30
0.0
 10
97.6875668856
 20
45.2974289139
 30
0.0
 10
97.6480087123
 20
45.2960990172
 30
0.0
 10
97.5866986576
 20
45.2942813778
 30
0.0
 10
97.4997906835
 20
45.2921420017
 30
0.0
 10
97.3837881545
 20
45.2898208828
 30
0.0
 10
97.2529951002
 20
45.2876711757
 30
0.0
 10
97.1086710208
 20
45.2857172737
 30
0.0
 10
96.9521897018
 20
45.2839781086
 30
0.0
 10
96.7850609453
 20
45.2824731375
 30
0.0
 10
96.5456298773
 20
45.2807651657
 30
0.0
 10
96.2324014942
 20
45.2793426002
 30
0.0
 10
95.9780830874
 20
45.2789472012
 30
0.0
 10
95.8483948636
 20
45.2789325893
 30
0.0
  0
SPLINE
  5
3A7
100
AcDbEntity
  8
0
100
AcDbSpline
 62
7
  6
CONTINUOUS
 70
0
 71
3
 72
28
 73
24
 74
0
 42
0.0000001
 43
0.0000001
 44
0.0000000001
 40
0.0
 40
0.0
 40
0.0
 40
0.0
 40
0.0005387739
 40
0.0016007301
 40
0.0032381618
 40
0.0054617384
 40
0.0116760912
 40
0.020246224
 40
0.0311629961
 40
0.0444037053
 40
0.0599312256
 40
0.077707074
 40
0.0976924838
 40
0.119846072
 40
0.1704234478
 40
0.2289396116
 40
0.2948489919
 40
0.3675023414
 40
0.4462179486
 40
0.5302190711
 40
0.6186918168
 40
0.8057113304
 40
1.0
 40
1.0
 40
1.0
 40
1.0
 10
96.4258049489
 20
45.3649448967
 30
0.0
 10
96.4257315946
 20
45.3652240348
 30
0.0
 10
96.4248818827
 20
45.365721898
 30
0.0
 10
96.4233020414
 20
45.3662212037
 30
0.0
 10
96.4206837246
 20
45.3667923205
 30
0.0
 10
96.4153746375
 20
45.367634679
 30
0.0
 10
96.4062972466
 20
45.3686270793
 30
0.0
 10
96.3925825345
 20
45.3697437563
 30
0.0
 10
96.3750823133
 20
45.3708601571
 30
0.0
 10
96.3538533989
 20
45.3719705436
 30
0.0
 10
96.3289437889
 20
45.3730684385
 30
0.0
 10
96.3004180374
 20
45.3741497678
 30
0.0
 10
96.2683396874
 20
45.3752109251
 30
0.0
 10
96.2186935232
 20
45.3766586676
 30
0.0
 10
96.148406007
 20
45.3783606102
 30
0.0
 10
96.0546767379
 20
45.3802058677
 30
0.0
 10
95.9491171915
 20
45.3819086832
 30
0.0
 10
95.8327335996
 20
45.3834538757
 30
0.0
 10
95.706655644
 20
45.3848224995
 30
0.0
 10
95.5721011704
 20
45.3860027001
 30
0.0
 10
95.3795288371
 20
45.3873317506
 30
0.0
 10
95.1278740223
 20
45.3884186898
 30
0.0
 10
94.9236110904
 20
45.3886914014
 30
0.0
 10
94.8195326927
 20
45.3886796748
 30
0.0
  0
SPLINE
  5
3A8
100
AcDbEntity
  8
0
100
AcDbSpline
 62
7
  6
CONTINUOUS
 70
0
 71
3
 72
30
 73
26
 74
0
 42
0.0000001
 43
0.0000001
 44
0.0000000001
 40
0.0
 40
0.0
 40
0.0
 40
0.0
 40
0.0006220182
 40
0.0020745828
 40
0.0043942178
 40
0.007584085
 40
0.0116423809
 40
0.0165658507
 40
0.0223491595
 40
0.0289811203
 40
0.044740334
 40
0.0637416029
 40
0.0858710512
 40
0.1109733272
 40
0.1388835165
 40
0.1694267523
 40
0.237571173
 40
0.3136269282
 40
0.3955900348
 40
0.4813097365
 40
0.5685365055
 40
0.6549781196
 40
0.7383693481
 40
0.8873687697
 40
1.0
 40
1.0
 40
1.0
 40
1.0
 10
94.8150156356
 20
45.4058686161
 30
0.0
 10
94.8149177652
 20
45.4062410463
 30
0.0
 10
94.8133789603
 20
45.4066496942
 30
0.0
 10
94.8109777073
 20
45.4072185927
 30
0.0
 10
94.806560162
 20
45.4077657987
 30
0.0
 10
94.8007265379
 20
45.4083531102
 30
0.0
 10
94.793189879
 20
45.4089323811
 30
0.0
 10
94.7840759979
 20
45.4095147966
 30
0.0
 10
94.7733545686
 20
45.4100916586
 30
0.0
 10
94.7559323778
 20
45.4109013084
 30
0.0
 10
94.7303243418
 20
45.4118644997
 30
0.0
 10
94.69512165
 20
45.4129342263
 30
0.0
 10
94.6541311332
 20
45.4139610864
 30
0.0
 10
94.6076229557
 20
45.414938904
 30
0.0
 10
94.5559039059
 20
45.4158593137
 30
0.0
 10
94.4775393599
 20
45.4170432844
 30
0.0
 10
94.3693672842
 20
45.4183028166
 30
0.0
 10
94.2293600212
 20
45.4194526495
 30
0.0
 10
94.0784697885
 20
45.4202559562
 30
0.0
 10
93.9206623658
 20
45.4206901503
 30
0.0
 10
93.760081821
 20
45.4207421803
 30
0.0
 10
93.6009431473
 20
45.4204107446
 30
0.0
 10
93.4035641305
 20
45.4195052717
 30
0.0
 10
93.1899779628
 20
45.4176686564
 30
0.0
 10
93.0280239307
 20
45.4151530205
 30
0.0
 10
92.9583184346
 20
45.4134193043
 30
0.0
  0
SPLINE
  5
3A9
100
AcDbEntity
  8
0
100
AcDbSpline
 62
7
  6
CONTINUOUS
 70
0
 71
3
 72
9
 73
5
 74
0
 42
0.0000001
 43
0.0000001
 44
0.0000000001
 40
0.0
 40
0.0
 40
0.0
 40
0.0
 40
0.4999899884
 40
1.0
 40
1.0
 40
1.0
 40
1.0
 10
71.123241617
 20
111.3807502193
 30
0.0
 10
70.9231948402
 20
111.5750278503
 30
0.0
 10
70.451140876
 20
111.8958095769
 30
0.0
 10
69.8972997279
 20
112.0336244096
 30
0.0
 10
69.6191124497
 20
112.053132805
 30
0.0
  0
LINE
  5
3AA
100
AcDbEntity
  8
0
100
AcDbLine
 62
7
  6
CONTINUOUS
 10
96.1597438479
 20
39.6155478093
 11
96.1694400885
 21
39.6153595961
  0
SPLINE
  5
3AB
100
AcDbEntity
  8
0
100
AcDbSpline
 62
7
  6
CONTINUOUS
 70
0
 71
3
 72
28
 73
24
 74
0
 42
0.0000001
 43
0.0000001
 44
0.0000000001
 40
0.0
 40
0.0
 40
0.0
 40
0.0
 40
0.1943068305
 40
0.3812976586
 40
0.469780405
 40
0.5537884389
 40
0.6324954929
 40
0.7051538626
 40
0.7710567063
 40
0.8295812423
 40
0.8801518587
 40
0.9023052608
 40
0.9222963367
 40
0.9400730679
 40
0.9555977885
 40
0.96883657
 40
0.9797560132
 40
0.9883276784
 40
0.9945409102
 40
0.9967635114
 40
0.9984000057
 40
0.9994613121
 40
1.0
 40
1.0
 40
1.0
 40
1.0
 10
95.8727476931
 20
45.1862617758
 30
0.0
 10
96.0028578899
 20
45.1862764353
 30
0.0
 10
96.2581795845
 20
45.1859358282
 30
0.0
 10
96.5727478466
 20
45.1845769132
 30
0.0
 10
96.8134554489
 20
45.1829153267
 30
0.0
 10
96.9816541972
 20
45.1814409076
 30
0.0
 10
97.1392539373
 20
45.1797289238
 30
0.0
 10
97.2847267445
 20
45.1777986384
 30
0.0
 10
97.4166807865
 20
45.1756688186
 30
0.0
 10
97.5338391397
 20
45.1733637402
 30
0.0
 10
97.6216995007
 20
45.1712355246
 30
0.0
 10
97.6837563524
 20
45.1694253741
 30
0.0
 10
97.7238585755
 20
45.1680992559
 30
0.0
 10
97.7595182865
 20
45.1667475343
 30
0.0
 10
97.79065273
 20
45.1653751332
 30
0.0
 10
97.8171874965
 20
45.1639870255
 30
0.0
 10
97.8390643511
 20
45.1625924291
 30
0.0
 10
97.8562098933
 20
45.1611971663
 30
0.0
 10
97.8675561983
 20
45.159956615
 30
0.0
 10
97.8741905706
 20
45.1589034369
 30
0.0
 10
97.8774614835
 20
45.1581893081
 30
0.0
 10
97.8794354177
 20
45.1575649675
 30
0.0
 10
97.8804963351
 20
45.1569421701
 30
0.0
 10
97.8805880133
 20
45.1565933031
 30
0.0
  0
SPLINE
  5
3AC
100
AcDbEntity
  8
0
100
AcDbSpline
 62
7
  6
CONTINUOUS
 70
0
 71
3
 72
32
 73
28
 74
0
 42
0.0000001
 43
0.0000001
 44
0.0000000001
 40
0.0
 40
0.0
 40
0.0
 40
0.0
 40
0.0317949864
 40
0.0783781279
 40
0.1382467476
 40
0.2094774621
 40
0.289782653
 40
0.37657052
 40
0.4670430288
 40
0.5582878638
 40
0.6473648331
 40
0.7314027774
 40
0.807696731
 40
0.8421589784
 40
0.8737900064
 40
0.902326926
 40
0.9275503969
 40
0.9492502709
 40
0.9672487992
 40
0.9748183441
 40
0.9814132531
 40
0.9870176576
 40
0.9916199653
 40
0.995215512
 40
0.9978017234
 40
0.9993814952
 40
1.0
 40
1.0
 40
1.0
 40
1.0
 10
92.9411569367
 20
45.0550152934
 30
0.0
 10
92.9619577998
 20
45.0538722158
 30
0.0
 10
93.0132859698
 20
45.0520696433
 30
0.0
 10
93.1038383784
 20
45.0498886019
 30
0.0
 10
93.2202428125
 20
45.0479706587
 30
0.0
 10
93.3587468008
 20
45.0463551227
 30
0.0
 10
93.5148934181
 20
45.0451259232
 30
0.0
 10
93.6836500603
 20
45.0443224081
 30
0.0
 10
93.8595760141
 20
45.0439753176
 30
0.0
 10
94.0370020781
 20
45.0440965011
 30
0.0
 10
94.2102112622
 20
45.0446819027
 30
0.0
 10
94.3736222961
 20
45.0457114776
 30
0.0
 10
94.5012468843
 20
45.0469442441
 30
0.0
 10
94.594531974
 20
45.0481556786
 30
0.0
 10
94.6565268258
 20
45.0491178273
 30
0.0
 10
94.7124661286
 20
45.0501572641
 30
0.0
 10
94.7618961035
 20
45.0512624509
 30
0.0
 10
94.8044170308
 20
45.0524237531
 30
0.0
 10
94.835371125
 20
45.053478034
 30
0.0
 10
94.8564235199
 20
45.0543682499
 30
0.0
 10
94.8693660467
 20
45.055004364
 30
0.0
 10
94.880340312
 20
45.0556452534
 30
0.0
 10
94.8894049037
 20
45.056289654
 30
0.0
 10
94.8963291358
 20
45.0569275224
 30
0.0
 10
94.9016361291
 20
45.057557197
 30
0.0
 10
94.9042504478
 20
45.0581310856
 30
0.0
 10
94.9061490079
 20
45.0586364664
 30
0.0
 10
94.9061499923
 20
45.0590417129
 30
0.0
  0
SPLINE
  5
3AD
100
AcDbEntity
  8
0
100
AcDbSpline
 62
7
  6
CONTINUOUS
 70
0
 71
3
 72
28
 73
24
 74
0
 42
0.0000001
 43
0.0000001
 44
0.0000000001
 40
0.0
 40
0.0
 40
0.0
 40
0.0
 40
0.1951742025
 40
0.3827830433
 40
0.4714422123
 40
0.5555609044
 40
0.6343288368
 40
0.7069717566
 40
0.7728119018
 40
0.831203876
 40
0.8816057419
 40
0.9036542675
 40
0.9235232889
 40
0.9411717168
 40
0.9565616256
 40
0.9696553889
 40
0.980416517
 40
0.9888221166
 40
0.9948643729
 40
0.9969998675
 40
0.9985488365
 40
0.9995248107
 40
1.0
 40
1.0
 40
1.0
 40
1.0
 10
94.9016252952
 20
45.0762893521
 30
0.0
 10
95.0053659196
 20
45.0763010406
 30
0.0
 10
95.2088260448
 20
45.0766175855
 30
0.0
 10
95.4594088268
 20
45.0777554532
 30
0.0
 10
95.650959804
 20
45.0791215915
 30
0.0
 10
95.7846581895
 20
45.0803262492
 30
0.0
 10
95.9098412096
 20
45.0817166012
 30
0.0
 10
96.0253058128
 20
45.083280689
 30
0.0
 10
96.1299365556
 20
45.0849994191
 30
0.0
 10
96.2227410828
 20
45.0868574714
 30
0.0
 10
96.2922668837
 20
45.088568408
 30
0.0
 10
96.3413158156
 20
45.0900220914
 30
0.0
 10
96.3729590826
 20
45.0910862626
 30
0.0
 10
96.4010599547
 20
45.0921697084
 30
0.0
 10
96.4255564876
 20
45.0932691772
 30
0.0
 10
96.4463856169
 20
45.0943793128
 30
0.0
 10
96.4635009147
 20
45.0954968661
 30
0.0
 10
96.4768453686
 20
45.0966065077
 30
0.0
 10
96.4856258898
 20
45.0976075208
 30
0.0
 10
96.4907040762
 20
45.0984351552
 30
0.0
 10
96.493159791
 20
45.0990283812
 30
0.0
 10
96.4945967502
 20
45.0994742911
 30
0.0
 10
96.495340056
 20
45.1000381786
 30
0.0
 10
96.4953405884
 20
45.1002907546
 30
0.0
  0
SPLINE
  5
3AE
100
AcDbEntity
  8
0
100
AcDbSpline
 62
7
  6
CONTINUOUS
 70
0
 71
3
 72
28
 73
24
 74
0
 42
0.0000001
 43
0.0000001
 44
0.0000000001
 40
0.0
 40
0.0
 40
0.0
 40
0.0
 40
0.0004750018
 40
0.0014501855
 40
0.0029981152
 40
0.0051325835
 40
0.0111737809
 40
0.0195811977
 40
0.0303448107
 40
0.0434364541
 40
0.0588236285
 40
0.0764732715
 40
0.0963479001
 40
0.1183957121
 40
0.1687909971
 40
0.2271913143
 40
0.2930248634
 40
0.3656729395
 40
0.4444321396
 40
0.5285581488
 40
0.6172272939
 40
0.8048071601
 40
1.0
 40
1.0
 40
1.0
 40
1.0
 10
97.9100624129
 20
45.0443741164
 30
0.0
 10
97.9100619208
 20
45.0440585204
 30
0.0
 10
97.909134452
 20
45.0433530625
 30
0.0
 10
97.9073391949
 20
45.0427955477
 30
0.0
 10
97.9042718069
 20
45.0420537653
 30
0.0
 10
97.8979260558
 20
45.0410190308
 30
0.0
 10
97.8869506673
 20
45.0397677096
 30
0.0
 10
97.8702678286
 20
45.0383813498
 30
0.0
 10
97.8488722106
 20
45.036985226
 30
0.0
 10
97.8228373671
 20
45.0355974156
 30
0.0
 10
97.79221911
 20
45.0342230339
 30
0.0
 10
97.7570902858
 20
45.0328686885
 30
0.0
 10
97.7175321125
 20
45.0315387918
 30
0.0
 10
97.6562220578
 20
45.0297211523
 30
0.0
 10
97.5693140837
 20
45.0275817763
 30
0.0
 10
97.4533115546
 20
45.0252606573
 30
0.0
 10
97.3225185004
 20
45.0231109502
 30
0.0
 10
97.178194421
 20
45.0211570482
 30
0.0
 10
97.021713102
 20
45.0194178831
 30
0.0
 10
96.8545843455
 20
45.0179129121
 30
0.0
 10
96.6151532775
 20
45.0162049403
 30
0.0
 10
96.3019248944
 20
45.0147823748
 30
0.0
 10
96.0476064875
 20
45.0143869758
 30
0.0
 10
95.9179182638
 20
45.0143723638
 30
0.0
  0
SPLINE
  5
3AF
100
AcDbEntity
  8
0
100
AcDbSpline
 62
7
  6
CONTINUOUS
 70
0
 71
3
 72
28
 73
24
 74
0
 42
0.0000001
 43
0.0000001
 44
0.0000000001
 40
0.0
 40
0.0
 40
0.0
 40
0.0
 40
0.0005387739
 40
0.0016007301
 40
0.0032381618
 40
0.0054617384
 40
0.0116760912
 40
0.020246224
 40
0.0311629961
 40
0.0444037053
 40
0.0599312256
 40
0.077707074
 40
0.0976924838
 40
0.119846072
 40
0.1704234478
 40
0.2289396116
 40
0.2948489919
 40
0.3675023414
 40
0.4462179486
 40
0.5302190711
 40
0.6186918168
 40
0.8057113304
 40
1.0
 40
1.0
 40
1.0
 40
1.0
 10
96.4953283491
 20
45.1003846712
 30
0.0
 10
96.4952549948
 20
45.1006638093
 30
0.0
 10
96.4944052829
 20
45.1011616726
 30
0.0
 10
96.4928254416
 20
45.1016609782
 30
0.0
 10
96.4902071248
 20
45.102232095
 30
0.0
 10
96.4848980377
 20
45.1030744535
 30
0.0
 10
96.4758206468
 20
45.1040668538
 30
0.0
 10
96.4621059346
 20
45.1051835309
 30
0.0
 10
96.4446057135
 20
45.1062999316
 30
0.0
 10
96.4233767991
 20
45.1074103181
 30
0.0
 10
96.3984671891
 20
45.1085082131
 30
0.0
 10
96.3699414376
 20
45.1095895423
 30
0.0
 10
96.3378630876
 20
45.1106506996
 30
0.0
 10
96.2882169234
 20
45.1120984421
 30
0.0
 10
96.2179294072
 20
45.1138003848
 30
0.0
 10
96.1242001381
 20
45.1156456422
 30
0.0
 10
96.0186405917
 20
45.1173484577
 30
0.0
 10
95.9022569997
 20
45.1188936503
 30
0.0
 10
95.7761790442
 20
45.1202622741
 30
0.0
 10
95.6416245706
 20
45.1214424747
 30
0.0
 10
95.4490522373
 20
45.1227715251
 30
0.0
 10
95.1973974225
 20
45.1238584644
 30
0.0
 10
94.9931344905
 20
45.1241311759
 30
0.0
 10
94.8890560929
 20
45.1241194494
 30
0.0
  0
SPLINE
  5
3B0
100
AcDbEntity
  8
0
100
AcDbSpline
 62
7
  6
CONTINUOUS
 70
0
 71
3
 72
31
 73
27
 74
0
 42
0.0000001
 43
0.0000001
 44
0.0000000001
 40
0.0
 40
0.0
 40
0.0
 40
0.0
 40
0.0006661484
 40
0.0022510037
 40
0.0047899519
 40
0.0082851327
 40
0.0127338507
 40
0.0181318845
 40
0.0244702458
 40
0.0317344777
 40
0.0489807191
 40
0.0697494796
 40
0.093887614
 40
0.1212034805
 40
0.1515003176
 40
0.1845478069
 40
0.2578755475
 40
0.3389857697
 40
0.4254396552
 40
0.5146313588
 40
0.603879757
 40
0.6905019171
 40
0.7718882503
 40
0.9094013339
 40
0.9613915227
 40
1.0
 40
1.0
 40
1.0
 40
1.0
 10
94.8845390358
 20
45.1413083906
 30
0.0
 10
94.8844297237
 20
45.1417243606
 30
0.0
 10
94.8826549915
 20
45.1421321912
 30
0.0
 10
94.8799409865
 20
45.1427630486
 30
0.0
 10
94.874881771
 20
45.1433352415
 30
0.0
 10
94.8682172887
 20
45.1439684238
 30
0.0
 10
94.8595961317
 20
45.1445847608
 30
0.0
 10
94.8491749741
 20
45.1452063369
 30
0.0
 10
94.8369191155
 20
45.1458201768
 30
0.0
 10
94.8170217752
 20
45.1466804535
 30
0.0
 10
94.7878040698
 20
45.1477002099
 30
0.0
 10
94.7476914089
 20
45.1488263722
 30
0.0
 10
94.7010734658
 20
45.1499003497
 30
0.0
 10
94.6483013962
 20
45.1509141979
 30
0.0
 10
94.5897748985
 20
45.1518572257
 30
0.0
 10
94.5015417315
 20
45.1530522643
 30
0.0
 10
94.3804992402
 20
45.1542856734
 30
0.0
 10
94.22497281
 20
45.1553469537
 30
0.0
 10
94.0592016096
 20
45.1559973449
 30
0.0
 10
93.8881749402
 20
45.1562168973
 30
0.0
 10
93.7170396809
 20
45.1559966521
 30
0.0
 10
93.5509448037
 20
45.1553495767
 30
0.0
 10
93.3536922718
 20
45.1539930735
 30
0.0
 10
93.1788019096
 20
45.1520504882
 30
0.0
 10
93.0315533032
 20
45.1490780435
 30
0.0
 10
92.973080993
 20
45.1473861589
 30
0.0
 10
92.9481735934
 20
45.146391714
 30
0.0
  0
LINE
  5
3B1
100
AcDbEntity
  8
0
100
AcDbLine
 62
7
  6
CONTINUOUS
 10
96.229267248
 20
39.3509875838
 11
96.2389634887
 21
39.3507993706
  0
SPLINE
  5
3B2
100
AcDbEntity
  8
0
100
AcDbSpline
 62
7
  6
CONTINUOUS
 70
0
 71
3
 72
28
 73
24
 74
0
 42
0.0000001
 43
0.0000001
 44
0.0000000001
 40
0.0
 40
0.0
 40
0.0
 40
0.0
 40
0.1943068305
 40
0.3812976586
 40
0.469780405
 40
0.5537884389
 40
0.6324954929
 40
0.7051538626
 40
0.7710567063
 40
0.8295812423
 40
0.8801518587
 40
0.9023052608
 40
0.9222963367
 40
0.9400730679
 40
0.9555977885
 40
0.96883657
 40
0.9797560132
 40
0.9883276784
 40
0.9945409102
 40
0.9967635114
 40
0.9984000057
 40
0.9994613121
 40
1.0
 40
1.0
 40
1.0
 40
1.0
 10
95.9422710933
 20
44.9217015504
 30
0.0
 10
96.0723812901
 20
44.9217162099
 30
0.0
 10
96.3277029847
 20
44.9213756028
 30
0.0
 10
96.6422712468
 20
44.9200166877
 30
0.0
 10
96.8829788491
 20
44.9183551012
 30
0.0
 10
97.0511775974
 20
44.9168806821
 30
0.0
 10
97.2087773375
 20
44.9151686984
 30
0.0
 10
97.3542501447
 20
44.913238413
 30
0.0
 10
97.4862041867
 20
44.9111085931
 30
0.0
 10
97.6033625398
 20
44.9088035147
 30
0.0
 10
97.6912229009
 20
44.9066752992
 30
0.0
 10
97.7532797526
 20
44.9048651486
 30
0.0
 10
97.7933819756
 20
44.9035390304
 30
0.0
 10
97.8290416867
 20
44.9021873088
 30
0.0
 10
97.8601761301
 20
44.9008149077
 30
0.0
 10
97.8867108967
 20
44.8994268
 30
0.0
 10
97.9085877512
 20
44.8980322037
 30
0.0
 10
97.9257332935
 20
44.8966369409
 30
0.0
 10
97.9370795985
 20
44.8953963896
 30
0.0
 10
97.9437139708
 20
44.8943432114
 30
0.0
 10
97.9469848837
 20
44.8936290827
 30
0.0
 10
97.9489588179
 20
44.893004742
 30
0.0
 10
97.9500197353
 20
44.8923819447
 30
0.0
 10
97.9501114135
 20
44.8920330777
 30
0.0
  0
SPLINE
  5
3B3
100
AcDbEntity
  8
0
100
AcDbSpline
 62
7
  6
CONTINUOUS
 70
0
 71
3
 72
45
 73
41
 74
0
 42
0.0000001
 43
0.0000001
 44
0.0000000001
 40
0.0
 40
0.0
 40
0.0
 40
0.0
 40
0.0002699641
 40
0.0008019568
 40
0.0027349333
 40
0.0058468567
 40
0.0101376797
 40
0.0156025593
 40
0.0222325713
 40
0.030009136
 40
0.038911487
 40
0.0600097785
 40
0.0853392123
 40
0.1146436566
 40
0.1476497526
 40
0.1840393899
 40
0.2234598984
 40
0.2655410478
 40
0.3098706625
 40
0.4035676629
 40
0.5009575586
 40
0.5983098086
 40
0.6918959759
 40
0.736144562
 40
0.7781285343
 40
0.8174366472
 40
0.8537000773
 40
0.8865664441
 40
0.9157191513
 40
0.9408863498
 40
0.961812986
 40
0.9706264622
 40
0.9783125399
 40
0.9848507752
 40
0.990222599
 40
0.9944191539
 40
0.9974363351
 40
0.9992754528
 40
0.9997628733
 40
1.0
 40
1.0
 40
1.0
 40
1.0
 10
92.9756811836
 20
44.7943148474
 30
0.0
 10
92.9757269497
 20
44.7941406917
 30
0.0
 10
92.9762562925
 20
44.7938299485
 30
0.0
 10
92.9779278426
 20
44.7933055405
 30
0.0
 10
92.9816816592
 20
44.7926992282
 30
0.0
 10
92.9878269638
 20
44.7920152109
 30
0.0
 10
92.9964019093
 20
44.791320198
 30
0.0
 10
93.0073017956
 20
44.7906220692
 30
0.0
 10
93.0205410331
 20
44.7899291298
 30
0.0
 10
93.0360724016
 20
44.7892435245
 30
0.0
 10
93.0612525693
 20
44.7882885177
 30
0.0
 10
93.0981413707
 20
44.787164828
 30
0.0
 10
93.1486408611
 20
44.7859390191
 30
0.0
 10
93.2070863596
 20
44.7847869022
 30
0.0
 10
93.2729118489
 20
44.7837226491
 30
0.0
 10
93.3454870038
 20
44.7827575354
 30
0.0
 10
93.4241170468
 20
44.7819012304
 30
0.0
 10
93.5080445415
 20
44.7811634541
 30
0.0
 10
93.6281753432
 20
44.7803309743
 30
0.0
 10
93.7851992582
 20
44.7796487569
 30
0.0
 10
93.9775910563
 20
44.7793868099
 30
0.0
 10
94.1699088819
 20
44.7796804767
 30
0.0
 10
94.3267795979
 20
44.7803886666
 30
0.0
 10
94.4467174627
 20
44.7812411894
 30
0.0
 10
94.5304509931
 20
44.7819928245
 30
0.0
 10
94.6088569118
 20
44.7828621422
 30
0.0
 10
94.6811795334
 20
44.7838391953
 30
0.0
 10
94.7467262195
 20
44.784914288
 30
0.0
 10
94.8048688449
 20
44.7860759259
 30
0.0
 10
94.8550441356
 20
44.7873098954
 30
0.0
 10
94.8916506104
 20
44.7884396298
 30
0.0
 10
94.9165963461
 20
44.789399521
 30
0.0
 10
94.9319464765
 20
44.7900870418
 30
0.0
 10
94.9450020262
 20
44.7907832885
 30
0.0
 10
94.9557145019
 20
44.7914786386
 30
0.0
 10
94.9641025865
 20
44.7921844006
 30
0.0
 10
94.9700544937
 20
44.7928434816
 30
0.0
 10
94.9736561308
 20
44.7934892566
 30
0.0
 10
94.9752071586
 20
44.7939708836
 30
0.0
 10
94.9756730083
 20
44.7943233221
 30
0.0
 10
94.9756733925
 20
44.7944814874
 30
0.0
  0
SPLINE
  5
3B4
100
AcDbEntity
  8
0
100
AcDbSpline
 62
7
  6
CONTINUOUS
 70
0
 71
3
 72
28
 73
24
 74
0
 42
0.0000001
 43
0.0000001
 44
0.0000000001
 40
0.0
 40
0.0
 40
0.0
 40
0.0
 40
0.1951742025
 40
0.3827830433
 40
0.4714422123
 40
0.5555609044
 40
0.6343288368
 40
0.7069717566
 40
0.7728119018
 40
0.831203876
 40
0.8816057419
 40
0.9036542675
 40
0.9235232889
 40
0.9411717168
 40
0.9565616256
 40
0.9696553889
 40
0.980416517
 40
0.9888221166
 40
0.9948643729
 40
0.9969998675
 40
0.9985488365
 40
0.9995248107
 40
1.0
 40
1.0
 40
1.0
 40
1.0
 10
94.9711486954
 20
44.8117291267
 30
0.0
 10
95.0748893198
 20
44.8117408151
 30
0.0
 10
95.278349445
 20
44.81205736
 30
0.0
 10
95.5289322269
 20
44.8131952277
 30
0.0
 10
95.7204832042
 20
44.814561366
 30
0.0
 10
95.8541815897
 20
44.8157660238
 30
0.0
 10
95.9793646098
 20
44.8171563757
 30
0.0
 10
96.094829213
 20
44.8187204635
 30
0.0
 10
96.1994599558
 20
44.8204391936
 30
0.0
 10
96.292264483
 20
44.8222972459
 30
0.0
 10
96.3617902839
 20
44.8240081826
 30
0.0
 10
96.4108392158
 20
44.8254618659
 30
0.0
 10
96.4424824828
 20
44.8265260371
 30
0.0
 10
96.4705833549
 20
44.8276094829
 30
0.0
 10
96.4950798878
 20
44.8287089518
 30
0.0
 10
96.5159090171
 20
44.8298190874
 30
0.0
 10
96.5330243149
 20
44.8309366407
 30
0.0
 10
96.5463687687
 20
44.8320462822
 30
0.0
 10
96.55514929
 20
44.8330472953
 30
0.0
 10
96.5602274764
 20
44.8338749297
 30
0.0
 10
96.5626831912
 20
44.8344681557
 30
0.0
 10
96.5641201504
 20
44.8349140656
 30
0.0
 10
96.5648634562
 20
44.8354779531
 30
0.0
 10
96.5648639886
 20
44.8357305292
 30
0.0
  0
SPLINE
  5
3B5
100
AcDbEntity
  8
0
100
AcDbSpline
 62
7
  6
CONTINUOUS
 70
0
 71
3
 72
28
 73
24
 74
0
 42
0.0000001
 43
0.0000001
 44
0.0000000001
 40
0.0
 40
0.0
 40
0.0
 40
0.0
 40
0.0004750018
 40
0.0014501855
 40
0.0029981152
 40
0.0051325835
 40
0.0111737809
 40
0.0195811977
 40
0.0303448107
 40
0.0434364541
 40
0.0588236285
 40
0.0764732715
 40
0.0963479001
 40
0.1183957121
 40
0.1687909971
 40
0.2271913143
 40
0.2930248634
 40
0.3656729395
 40
0.4444321396
 40
0.5285581488
 40
0.6172272939
 40
0.8048071601
 40
1.0
 40
1.0
 40
1.0
 40
1.0
 10
97.9795858131
 20
44.7798138909
 30
0.0
 10
97.979585321
 20
44.779498295
 30
0.0
 10
97.9786578522
 20
44.7787928371
 30
0.0
 10
97.976862595
 20
44.7782353222
 30
0.0
 10
97.9737952071
 20
44.7774935399
 30
0.0
 10
97.967449456
 20
44.7764588053
 30
0.0
 10
97.9564740675
 20
44.7752074841
 30
0.0
 10
97.9397912288
 20
44.7738211243
 30
0.0
 10
97.9183956108
 20
44.7724250005
 30
0.0
 10
97.8923607673
 20
44.7710371901
 30
0.0
 10
97.8617425102
 20
44.7696628084
 30
0.0
 10
97.826613686
 20
44.768308463
 30
0.0
 10
97.7870555127
 20
44.7669785663
 30
0.0
 10
97.725745458
 20
44.7651609268
 30
0.0
 10
97.6388374839
 20
44.7630215508
 30
0.0
 10
97.5228349548
 20
44.7607004319
 30
0.0
 10
97.3920419006
 20
44.7585507248
 30
0.0
 10
97.2477178212
 20
44.7565968228
 30
0.0
 10
97.0912365021
 20
44.7548576577
 30
0.0
 10
96.9241077457
 20
44.7533526866
 30
0.0
 10
96.6846766777
 20
44.7516447148
 30
0.0
 10
96.3714482946
 20
44.7502221493
 30
0.0
 10
96.1171298877
 20
44.7498267503
 30
0.0
 10
95.987441664
 20
44.7498121383
 30
0.0
  0
SPLINE
  5
3B6
100
AcDbEntity
  8
0
100
AcDbSpline
 62
7
  6
CONTINUOUS
 70
0
 71
3
 72
28
 73
24
 74
0
 42
0.0000001
 43
0.0000001
 44
0.0000000001
 40
0.0
 40
0.0
 40
0.0
 40
0.0
 40
0.0005387739
 40
0.0016007301
 40
0.0032381618
 40
0.0054617384
 40
0.0116760912
 40
0.020246224
 40
0.0311629961
 40
0.0444037053
 40
0.0599312256
 40
0.077707074
 40
0.0976924838
 40
0.119846072
 40
0.1704234478
 40
0.2289396116
 40
0.2948489919
 40
0.3675023414
 40
0.4462179486
 40
0.5302190711
 40
0.6186918168
 40
0.8057113304
 40
1.0
 40
1.0
 40
1.0
 40
1.0
 10
96.5648517493
 20
44.8358244458
 30
0.0
 10
96.564778395
 20
44.8361035838
 30
0.0
 10
96.5639286831
 20
44.8366014471
 30
0.0
 10
96.5623488417
 20
44.8371007528
 30
0.0
 10
96.559730525
 20
44.8376718696
 30
0.0
 10
96.5544214378
 20
44.8385142281
 30
0.0
 10
96.545344047
 20
44.8395066284
 30
0.0
 10
96.5316293348
 20
44.8406233054
 30
0.0
 10
96.5141291137
 20
44.8417397062
 30
0.0
 10
96.4929001993
 20
44.8428500927
 30
0.0
 10
96.4679905893
 20
44.8439479876
 30
0.0
 10
96.4394648378
 20
44.8450293168
 30
0.0
 10
96.4073864878
 20
44.8460904741
 30
0.0
 10
96.3577403235
 20
44.8475382166
 30
0.0
 10
96.2874528074
 20
44.8492401593
 30
0.0
 10
96.1937235382
 20
44.8510854168
 30
0.0
 10
96.0881639918
 20
44.8527882322
 30
0.0
 10
95.9717803999
 20
44.8543334248
 30
0.0
 10
95.8457024444
 20
44.8557020486
 30
0.0
 10
95.7111479708
 20
44.8568822492
 30
0.0
 10
95.5185756374
 20
44.8582112997
 30
0.0
 10
95.2669208227
 20
44.8592982389
 30
0.0
 10
95.0626578907
 20
44.8595709504
 30
0.0
 10
94.9585794931
 20
44.8595592239
 30
0.0
  0
SPLINE
  5
3B7
100
AcDbEntity
  8
0
100
AcDbSpline
 62
7
  6
CONTINUOUS
 70
0
 71
3
 72
37
 73
33
 74
0
 42
0.0000001
 43
0.0000001
 44
0.0000000001
 40
0.0
 40
0.0
 40
0.0
 40
0.0
 40
0.0002627721
 40
0.0007766153
 40
0.0026392837
 40
0.0056357683
 40
0.0097664311
 40
0.0150268515
 40
0.0214093371
 40
0.0288970442
 40
0.0374704166
 40
0.0577952315
 40
0.0822112455
 40
0.1104816553
 40
0.1423503588
 40
0.1775261589
 40
0.2156779147
 40
0.2564632673
 40
0.2994990256
 40
0.3907233501
 40
0.4859899812
 40
0.5817925182
 40
0.6746043084
 40
0.7610050568
 40
0.8378126755
 40
0.9022034465
 40
0.9289832055
 40
0.9518097061
 40
0.9704696348
 40
0.9848034898
 40
0.9946684845
 40
1.0
 40
1.0
 40
1.0
 40
1.0
 10
94.954062436
 20
44.8767481651
 30
0.0
 10
94.9540179382
 20
44.8769174944
 30
0.0
 10
94.9535106433
 20
44.8772228984
 30
0.0
 10
94.9518990341
 20
44.8777368293
 30
0.0
 10
94.9482907312
 20
44.8783319327
 30
0.0
 10
94.9423795744
 20
44.8790024457
 30
0.0
 10
94.9341353386
 20
44.8796843104
 30
0.0
 10
94.9236548542
 20
44.8803693801
 30
0.0
 10
94.9109240597
 20
44.8810497507
 30
0.0
 10
94.8959863758
 20
44.8817232505
 30
0.0
 10
94.871761078
 20
44.8826621844
 30
0.0
 10
94.8362561745
 20
44.8837686495
 30
0.0
 10
94.7876253954
 20
44.884978189
 30
0.0
 10
94.7312998365
 20
44.8861182578
 30
0.0
 10
94.6678025974
 20
44.887175723
 30
0.0
 10
94.5977195146
 20
44.8881391122
 30
0.0
 10
94.5216937582
 20
44.8889997601
 30
0.0
 10
94.4404296914
 20
44.8897478888
 30
0.0
 10
94.3238044018
 20
44.8906037493
 30
0.0
 10
94.1708779594
 20
44.8913306282
 30
0.0
 10
93.9827929598
 20
44.8916680904
 30
0.0
 10
93.793650041
 20
44.8914716384
 30
0.0
 10
93.6104155965
 20
44.8907491149
 30
0.0
 10
93.4398396638
 20
44.8895318475
 30
0.0
 10
93.2882051828
 20
44.8878664427
 30
0.0
 10
93.1762980291
 20
44.8860883732
 30
0.0
 10
93.1003641247
 20
44.8844138264
 30
0.0
 10
93.0548936387
 20
44.8831852969
 30
0.0
 10
93.0177320327
 20
44.8818758385
 30
0.0
 10
92.9891842456
 20
44.8806347445
 30
0.0
 10
92.9695934671
 20
44.8792170091
 30
0.0
 10
92.959455808
 20
44.8783363617
 30
0.0
 10
92.9560016506
 20
44.8775073193
 30
0.0
  0
LINE
  5
3B8
100
AcDbEntity
  8
0
100
AcDbLine
 62
7
  6
CONTINUOUS
 10
96.2987906482
 20
39.0864273584
 11
96.3084868889
 21
39.0862391452
  0
SPLINE
  5
3B9
100
AcDbEntity
  8
0
100
AcDbSpline
 62
7
  6
CONTINUOUS
 70
0
 71
3
 72
28
 73
24
 74
0
 42
0.0000001
 43
0.0000001
 44
0.0000000001
 40
0.0
 40
0.0
 40
0.0
 40
0.0
 40
0.1951928593
 40
0.3827727439
 40
0.4714418901
 40
0.5555679008
 40
0.6343271005
 40
0.7069751741
 40
0.7728087189
 40
0.8312090307
 40
0.88160431
 40
0.9036521181
 40
0.9235267442
 40
0.941176385
 40
0.9565635561
 40
0.9696551962
 40
0.9804188071
 40
0.9888262226
 40
0.9948674184
 40
0.9970018859
 40
0.998549815
 40
0.9995249983
 40
1.0
 40
1.0
 40
1.0
 40
1.0
 10
96.0571431474
 20
41.1856205809
 30
0.0
 10
96.1868313841
 20
41.1856351928
 30
0.0
 10
96.441149816
 20
41.186030592
 30
0.0
 10
96.754378225
 20
41.1874531577
 30
0.0
 10
96.993809307
 20
41.1891611298
 30
0.0
 10
97.1609380649
 20
41.1906661011
 30
0.0
 10
97.3174193831
 20
41.1924052663
 30
0.0
 10
97.4617434577
 20
41.1943591684
 30
0.0
 10
97.5925365038
 20
41.1965088756
 30
0.0
 10
97.7085390227
 20
41.1988299946
 30
0.0
 10
97.7954469869
 20
41.2009693705
 30
0.0
 10
97.8567570335
 20
41.20278701
 30
0.0
 10
97.8963152011
 20
41.2041169067
 30
0.0
 10
97.9314440199
 20
41.205471252
 30
0.0
 10
97.9620622712
 20
41.2068456337
 30
0.0
 10
97.9880971089
 20
41.208233444
 30
0.0
 10
98.0094927224
 20
41.2096295675
 30
0.0
 10
98.0261755579
 20
41.211015927
 30
0.0
 10
98.037150944
 20
41.212267248
 30
0.0
 10
98.0434966932
 20
41.2133019825
 30
0.0
 10
98.0465640798
 20
41.2140437648
 30
0.0
 10
98.0483593364
 20
41.2146012796
 30
0.0
 10
98.0492868045
 20
41.2153067376
 30
0.0
 10
98.0492872965
 20
41.2156223334
 30
0.0
  0
SPLINE
  5
3BA
100
AcDbEntity
  8
0
100
AcDbSpline
 62
7
  6
CONTINUOUS
 70
0
 71
3
 72
28
 73
24
 74
0
 42
0.0000001
 43
0.0000001
 44
0.0000000001
 40
0.0
 40
0.0
 40
0.0
 40
0.0
 40
0.1943068305
 40
0.3812976586
 40
0.469780405
 40
0.5537884389
 40
0.6324954929
 40
0.7051538626
 40
0.7710567063
 40
0.8295812423
 40
0.8801518587
 40
0.9023052608
 40
0.9222963367
 40
0.9400730679
 40
0.9555977885
 40
0.96883657
 40
0.9797560132
 40
0.9883276784
 40
0.9945409102
 40
0.9967635114
 40
0.9984000057
 40
0.9994613121
 40
1.0
 40
1.0
 40
1.0
 40
1.0
 10
96.0117944934
 20
44.6571413249
 30
0.0
 10
96.1419046903
 20
44.6571559844
 30
0.0
 10
96.3972263848
 20
44.6568153773
 30
0.0
 10
96.711794647
 20
44.6554564623
 30
0.0
 10
96.9525022493
 20
44.6537948758
 30
0.0
 10
97.1207009975
 20
44.6523204567
 30
0.0
 10
97.2783007377
 20
44.6506084729
 30
0.0
 10
97.4237735449
 20
44.6486781875
 30
0.0
 10
97.5557275868
 20
44.6465483677
 30
0.0
 10
97.67288594
 20
44.6442432893
 30
0.0
 10
97.760746301
 20
44.6421150737
 30
0.0
 10
97.8228031528
 20
44.6403049232
 30
0.0
 10
97.8629053758
 20
44.638978805
 30
0.0
 10
97.8985650869
 20
44.6376270834
 30
0.0
 10
97.9296995303
 20
44.6362546823
 30
0.0
 10
97.9562342969
 20
44.6348665746
 30
0.0
 10
97.9781111514
 20
44.6334719782
 30
0.0
 10
97.9952566937
 20
44.6320767154
 30
0.0
 10
98.0066029986
 20
44.6308361641
 30
0.0
 10
98.013237371
 20
44.629782986
 30
0.0
 10
98.0165082838
 20
44.6290688572
 30
0.0
 10
98.0184822181
 20
44.6284445166
 30
0.0
 10
98.0195431354
 20
44.6278217192
 30
0.0
 10
98.0196348137
 20
44.6274728522
 30
0.0
  0
SPLINE
  5
3BB
100
AcDbEntity
  8
0
100
AcDbSpline
 62
7
  6
CONTINUOUS
 70
0
 71
3
 72
45
 73
41
 74
0
 42
0.0000001
 43
0.0000001
 44
0.0000000001
 40
0.0
 40
0.0
 40
0.0
 40
0.0
 40
0.0002699641
 40
0.0008019568
 40
0.0027349333
 40
0.0058468567
 40
0.0101376797
 40
0.0156025593
 40
0.0222325713
 40
0.030009136
 40
0.038911487
 40
0.0600097785
 40
0.0853392123
 40
0.1146436566
 40
0.1476497526
 40
0.1840393899
 40
0.2234598984
 40
0.2655410478
 40
0.3098706625
 40
0.4035676629
 40
0.5009575586
 40
0.5983098086
 40
0.6918959759
 40
0.736144562
 40
0.7781285343
 40
0.8174366472
 40
0.8537000773
 40
0.8865664441
 40
0.9157191513
 40
0.9408863498
 40
0.961812986
 40
0.9706264622
 40
0.9783125399
 40
0.9848507752
 40
0.990222599
 40
0.9944191539
 40
0.9974363351
 40
0.9992754528
 40
0.9997628733
 40
1.0
 40
1.0
 40
1.0
 40
1.0
 10
93.0452045838
 20
44.5297546219
 30
0.0
 10
93.0452503499
 20
44.5295804663
 30
0.0
 10
93.0457796927
 20
44.529269723
 30
0.0
 10
93.0474512428
 20
44.528745315
 30
0.0
 10
93.0512050594
 20
44.5281390027
 30
0.0
 10
93.057350364
 20
44.5274549854
 30
0.0
 10
93.0659253095
 20
44.5267599726
 30
0.0
 10
93.0768251957
 20
44.5260618437
 30
0.0
 10
93.0900644333
 20
44.5253689043
 30
0.0
 10
93.1055958017
 20
44.5246832991
 30
0.0
 10
93.1307759695
 20
44.5237282922
 30
0.0
 10
93.1676647709
 20
44.5226046025
 30
0.0
 10
93.2181642613
 20
44.5213787936
 30
0.0
 10
93.2766097598
 20
44.5202266767
 30
0.0
 10
93.3424352491
 20
44.5191624237
 30
0.0
 10
93.415010404
 20
44.51819731
 30
0.0
 10
93.493640447
 20
44.517341005
 30
0.0
 10
93.5775679417
 20
44.5166032286
 30
0.0
 10
93.6976987433
 20
44.5157707488
 30
0.0
 10
93.8547226584
 20
44.5150885314
 30
0.0
 10
94.0471144565
 20
44.5148265844
 30
0.0
 10
94.2394322821
 20
44.5151202512
 30
0.0
 10
94.3963029981
 20
44.5158284411
 30
0.0
 10
94.5162408629
 20
44.5166809639
 30
0.0
 10
94.5999743933
 20
44.517432599
 30
0.0
 10
94.6783803119
 20
44.5183019167
 30
0.0
 10
94.7507029336
 20
44.5192789698
 30
0.0
 10
94.8162496196
 20
44.5203540625
 30
0.0
 10
94.874392245
 20
44.5215157004
 30
0.0
 10
94.9245675358
 20
44.52274967
 30
0.0
 10
94.9611740105
 20
44.5238794044
 30
0.0
 10
94.9861197463
 20
44.5248392956
 30
0.0
 10
95.0014698767
 20
44.5255268163
 30
0.0
 10
95.0145254263
 20
44.5262230631
 30
0.0
 10
95.0252379021
 20
44.5269184131
 30
0.0
 10
95.0336259867
 20
44.5276241751
 30
0.0
 10
95.0395778939
 20
44.5282832562
 30
0.0
 10
95.043179531
 20
44.5289290311
 30
0.0
 10
95.0447305587
 20
44.5294106582
 30
0.0
 10
95.0451964085
 20
44.5297630967
 30
0.0
 10
95.0451967927
 20
44.529921262
 30
0.0
  0
SPLINE
  5
3BC
100
AcDbEntity
  8
0
100
AcDbSpline
 62
7
  6
CONTINUOUS
 70
0
 71
3
 72
28
 73
24
 74
0
 42
0.0000001
 43
0.0000001
 44
0.0000000001
 40
0.0
 40
0.0
 40
0.0
 40
0.0
 40
0.1951742025
 40
0.3827830433
 40
0.4714422123
 40
0.5555609044
 40
0.6343288368
 40
0.7069717566
 40
0.7728119018
 40
0.831203876
 40
0.8816057419
 40
0.9036542675
 40
0.9235232889
 40
0.9411717168
 40
0.9565616256
 40
0.9696553889
 40
0.980416517
 40
0.9888221166
 40
0.9948643729
 40
0.9969998675
 40
0.9985488365
 40
0.9995248107
 40
1.0
 40
1.0
 40
1.0
 40
1.0
 10
95.0406720955
 20
44.5471689012
 30
0.0
 10
95.14441272
 20
44.5471805897
 30
0.0
 10
95.3478728452
 20
44.5474971346
 30
0.0
 10
95.5984556271
 20
44.5486350023
 30
0.0
 10
95.7900066043
 20
44.5500011405
 30
0.0
 10
95.9237049899
 20
44.5512057983
 30
0.0
 10
96.0488880099
 20
44.5525961503
 30
0.0
 10
96.1643526132
 20
44.554160238
 30
0.0
 10
96.268983356
 20
44.5558789681
 30
0.0
 10
96.3617878832
 20
44.5577370205
 30
0.0
 10
96.4313136841
 20
44.5594479571
 30
0.0
 10
96.480362616
 20
44.5609016405
 30
0.0
 10
96.5120058829
 20
44.5619658117
 30
0.0
 10
96.540106755
 20
44.5630492575
 30
0.0
 10
96.5646032879
 20
44.5641487263
 30
0.0
 10
96.5854324173
 20
44.5652588619
 30
0.0
 10
96.602547715
 20
44.5663764152
 30
0.0
 10
96.6158921689
 20
44.5674860568
 30
0.0
 10
96.6246726902
 20
44.5684870698
 30
0.0
 10
96.6297508766
 20
44.5693147042
 30
0.0
 10
96.6322065913
 20
44.5699079302
 30
0.0
 10
96.6336435506
 20
44.5703538402
 30
0.0
 10
96.6343868564
 20
44.5709177277
 30
0.0
 10
96.6343873888
 20
44.5711703037
 30
0.0
  0
SPLINE
  5
3BD
100
AcDbEntity
  8
0
100
AcDbSpline
 62
7
  6
CONTINUOUS
 70
0
 71
3
 72
28
 73
24
 74
0
 42
0.0000001
 43
0.0000001
 44
0.0000000001
 40
0.0
 40
0.0
 40
0.0
 40
0.0
 40
0.0004750018
 40
0.0014501855
 40
0.0029981152
 40
0.0051325835
 40
0.0111737809
 40
0.0195811977
 40
0.0303448107
 40
0.0434364541
 40
0.0588236285
 40
0.0764732715
 40
0.0963479001
 40
0.1183957121
 40
0.1687909971
 40
0.2271913143
 40
0.2930248634
 40
0.3656729395
 40
0.4444321396
 40
0.5285581488
 40
0.6172272939
 40
0.8048071601
 40
1.0
 40
1.0
 40
1.0
 40
1.0
 10
98.0491092133
 20
44.5152536654
 30
0.0
 10
98.0491087212
 20
44.5149380695
 30
0.0
 10
98.0481812524
 20
44.5142326116
 30
0.0
 10
98.0463859952
 20
44.5136750968
 30
0.0
 10
98.0433186073
 20
44.5129333144
 30
0.0
 10
98.0369728562
 20
44.5118985798
 30
0.0
 10
98.0259974677
 20
44.5106472587
 30
0.0
 10
98.0093146289
 20
44.5092608988
 30
0.0
 10
97.987919011
 20
44.5078647751
 30
0.0
 10
97.9618841674
 20
44.5064769647
 30
0.0
 10
97.9312659103
 20
44.505102583
 30
0.0
 10
97.8961370861
 20
44.5037482375
 30
0.0
 10
97.8565789128
 20
44.5024183408
 30
0.0
 10
97.7952688581
 20
44.5006007014
 30
0.0
 10
97.708360884
 20
44.4984613254
 30
0.0
 10
97.592358355
 20
44.4961402064
 30
0.0
 10
97.4615653008
 20
44.4939904993
 30
0.0
 10
97.3172412214
 20
44.4920365973
 30
0.0
 10
97.1607599023
 20
44.4902974322
 30
0.0
 10
96.9936311459
 20
44.4887924611
 30
0.0
 10
96.7542000779
 20
44.4870844893
 30
0.0
 10
96.4409716948
 20
44.4856619238
 30
0.0
 10
96.1866532879
 20
44.4852665248
 30
0.0
 10
96.0569650642
 20
44.4852519129
 30
0.0
  0
SPLINE
  5
3BE
100
AcDbEntity
  8
0
100
AcDbSpline
 62
7
  6
CONTINUOUS
 70
0
 71
3
 72
28
 73
24
 74
0
 42
0.0000001
 43
0.0000001
 44
0.0000000001
 40
0.0
 40
0.0
 40
0.0
 40
0.0
 40
0.0005387739
 40
0.0016007301
 40
0.0032381618
 40
0.0054617384
 40
0.0116760912
 40
0.020246224
 40
0.0311629961
 40
0.0444037053
 40
0.0599312256
 40
0.077707074
 40
0.0976924838
 40
0.119846072
 40
0.1704234478
 40
0.2289396116
 40
0.2948489919
 40
0.3675023414
 40
0.4462179486
 40
0.5302190711
 40
0.6186918168
 40
0.8057113304
 40
1.0
 40
1.0
 40
1.0
 40
1.0
 10
96.6343751495
 20
44.5712642203
 30
0.0
 10
96.6343017952
 20
44.5715433584
 30
0.0
 10
96.6334520832
 20
44.5720412217
 30
0.0
 10
96.6318722419
 20
44.5725405273
 30
0.0
 10
96.6292539252
 20
44.5731116441
 30
0.0
 10
96.623944838
 20
44.5739540026
 30
0.0
 10
96.6148674472
 20
44.5749464029
 30
0.0
 10
96.601152735
 20
44.57606308
 30
0.0
 10
96.5836525139
 20
44.5771794807
 30
0.0
 10
96.5624235994
 20
44.5782898672
 30
0.0
 10
96.5375139895
 20
44.5793877622
 30
0.0
 10
96.5089882379
 20
44.5804690914
 30
0.0
 10
96.476909888
 20
44.5815302487
 30
0.0
 10
96.4272637237
 20
44.5829779912
 30
0.0
 10
96.3569762076
 20
44.5846799338
 30
0.0
 10
96.2632469384
 20
44.5865251913
 30
0.0
 10
96.157687392
 20
44.5882280068
 30
0.0
 10
96.0413038001
 20
44.5897731994
 30
0.0
 10
95.9152258446
 20
44.5911418231
 30
0.0
 10
95.780671371
 20
44.5923220238
 30
0.0
 10
95.5880990376
 20
44.5936510742
 30
0.0
 10
95.3364442228
 20
44.5947380134
 30
0.0
 10
95.1321812909
 20
44.595010725
 30
0.0
 10
95.0281028933
 20
44.5949989985
 30
0.0
  0
SPLINE
  5
3BF
100
AcDbEntity
  8
0
100
AcDbSpline
 62
7
  6
CONTINUOUS
 70
0
 71
3
 72
45
 73
41
 74
0
 42
0.0000001
 43
0.0000001
 44
0.0000000001
 40
0.0
 40
0.0
 40
0.0
 40
0.0
 40
0.0002699641
 40
0.0008019568
 40
0.0027349333
 40
0.0058468567
 40
0.0101376797
 40
0.0156025593
 40
0.0222325713
 40
0.030009136
 40
0.038911487
 40
0.0600097785
 40
0.0853392123
 40
0.1146436566
 40
0.1476497526
 40
0.1840393899
 40
0.2234598984
 40
0.2655410478
 40
0.3098706625
 40
0.4035676629
 40
0.5009575586
 40
0.5983098086
 40
0.6918959759
 40
0.736144562
 40
0.7781285343
 40
0.8174366472
 40
0.8537000773
 40
0.8865664441
 40
0.9157191513
 40
0.9408863498
 40
0.961812986
 40
0.9706264622
 40
0.9783125399
 40
0.9848507752
 40
0.990222599
 40
0.9944191539
 40
0.9974363351
 40
0.9992754528
 40
0.9997628733
 40
1.0
 40
1.0
 40
1.0
 40
1.0
 10
95.0235858362
 20
44.6121879397
 30
0.0
 10
95.0235400701
 20
44.6123620953
 30
0.0
 10
95.0230107273
 20
44.6126728386
 30
0.0
 10
95.0213391772
 20
44.6131972466
 30
0.0
 10
95.0175853606
 20
44.6138035589
 30
0.0
 10
95.011440056
 20
44.6144875762
 30
0.0
 10
95.0028651105
 20
44.615182589
 30
0.0
 10
94.9919652242
 20
44.6158807179
 30
0.0
 10
94.9787259867
 20
44.6165736573
 30
0.0
 10
94.9631946182
 20
44.6172592625
 30
0.0
 10
94.9380144505
 20
44.6182142693
 30
0.0
 10
94.9011256491
 20
44.619337959
 30
0.0
 10
94.8506261587
 20
44.620563768
 30
0.0
 10
94.7921806602
 20
44.6217158849
 30
0.0
 10
94.7263551709
 20
44.6227801379
 30
0.0
 10
94.653780016
 20
44.6237452516
 30
0.0
 10
94.575149973
 20
44.6246015566
 30
0.0
 10
94.4912224783
 20
44.625339333
 30
0.0
 10
94.3710916766
 20
44.6261718128
 30
0.0
 10
94.2140677616
 20
44.6268540302
 30
0.0
 10
94.0216759635
 20
44.6271159772
 30
0.0
 10
93.8293581379
 20
44.6268223104
 30
0.0
 10
93.6724874219
 20
44.6261141204
 30
0.0
 10
93.5525495571
 20
44.6252615976
 30
0.0
 10
93.4688160267
 20
44.6245099626
 30
0.0
 10
93.390410108
 20
44.6236406449
 30
0.0
 10
93.3180874864
 20
44.6226635917
 30
0.0
 10
93.2525408003
 20
44.6215884991
 30
0.0
 10
93.1943981749
 20
44.6204268612
 30
0.0
 10
93.1442228842
 20
44.6191928916
 30
0.0
 10
93.1076164094
 20
44.6180631572
 30
0.0
 10
93.0826706737
 20
44.617103266
 30
0.0
 10
93.0673205433
 20
44.6164157453
 30
0.0
 10
93.0542649936
 20
44.6157194985
 30
0.0
 10
93.0435525179
 20
44.6150241485
 30
0.0
 10
93.0351644333
 20
44.6143183865
 30
0.0
 10
93.0292125261
 20
44.6136593054
 30
0.0
 10
93.0256108889
 20
44.6130135305
 30
0.0
 10
93.0240598612
 20
44.6125319034
 30
0.0
 10
93.0235940115
 20
44.6121794649
 30
0.0
 10
93.0235936273
 20
44.6120212996
 30
0.0
  0
SPLINE
  5
3C0
100
AcDbEntity
  8
0
100
AcDbSpline
 62
7
  6
CONTINUOUS
 70
0
 71
3
 72
29
 73
25
 74
0
 42
0.0000001
 43
0.0000001
 44
0.0000000001
 40
0.0
 40
0.0
 40
0.0
 40
0.0
 40
0.0003088868
 40
0.0011938386
 40
0.0026637709
 40
0.0047202152
 40
0.0073637372
 40
0.0105929387
 40
0.0187968611
 40
0.0293084862
 40
0.0421040093
 40
0.0571595355
 40
0.0744502644
 40
0.0939380563
 40
0.1155743009
 40
0.1650965399
 40
0.2226164464
 40
0.2876341544
 40
0.3595895979
 40
0.4378880858
 40
0.5218296794
 40
0.6106932448
 40
0.8001892136
 40
1.0
 40
1.0
 40
1.0
 40
1.0
 10
11.9259828997
 20
58.0536492233
 30
0.0
 10
11.9263202623
 20
58.053645564
 30
0.0
 10
11.9262599577
 20
58.055630851
 30
0.0
 10
11.9268171731
 20
58.0578685891
 30
0.0
 10
11.9269642919
 20
58.0630505779
 30
0.0
 10
11.9273467731
 20
58.0696179027
 30
0.0
 10
11.9276365863
 20
58.0783366161
 30
0.0
 10
11.9281108214
 20
58.0936746482
 30
0.0
 10
11.928651537
 20
58.1176576601
 30
0.0
 10
11.9292766757
 20
58.1520615186
 30
0.0
 10
11.9298926918
 20
58.1939618881
 30
0.0
 10
11.930504718
 20
58.2432632997
 30
0.0
 10
11.9311071015
 20
58.2998763576
 30
0.0
 10
11.9316992197
 20
58.363677213
 30
0.0
 10
11.9325094455
 20
58.4626826184
 30
0.0
 10
11.9334650267
 20
58.6032287565
 30
0.0
 10
11.9345050178
 20
58.7911588014
 30
0.0
 10
11.9354729953
 20
59.0035922348
 30
0.0
 10
11.9363600553
 20
59.2387216621
 30
0.0
 10
11.9371565497
 20
59.4945211874
 30
0.0
 10
11.937856677
 20
59.7687890022
 30
0.0
 10
11.9386692515
 20
60.1645126523
 30
0.0
 10
11.9393848268
 20
60.6867951642
 30
0.0
 10
11.939639372
 20
61.1120165779
 30
0.0
 10
11.9396922591
 20
61.3302604896
 30
0.0
  0
LINE
  5
3C1
100
AcDbEntity
  8
0
100
AcDbLine
 62
7
  6
CONTINUOUS
 10
11.9396922591
 20
61.3302604896
 11
11.9397176455
 21
61.5997945063
  0
SPLINE
  5
3C2
100
AcDbEntity
  8
0
100
AcDbSpline
 62
7
  6
CONTINUOUS
 70
0
 71
3
 72
46
 73
42
 74
0
 42
0.0000001
 43
0.0000001
 44
0.0000000001
 40
0.0
 40
0.0
 40
0.0
 40
0.0
 40
0.0002699615
 40
0.000801946
 40
0.0016221082
 40
0.0027357453
 40
0.0058476341
 40
0.010138427
 40
0.0156032914
 40
0.022233287
 40
0.0300098214
 40
0.0389121363
 40
0.0600103702
 40
0.085339729
 40
0.1146441107
 40
0.1476502424
 40
0.1840399555
 40
0.2234605681
 40
0.2655418345
 40
0.3098715376
 40
0.4035685686
 40
0.5009583987
 40
0.5983105569
 40
0.6918966448
 40
0.7361452086
 40
0.7781291795
 40
0.8174372893
 40
0.8537006758
 40
0.8865669964
 40
0.91571957
 40
0.940886642
 40
0.9618131955
 40
0.9706266272
 40
0.9783126681
 40
0.9848508822
 40
0.9902226911
 40
0.9944192191
 40
0.9974363701
 40
0.9992754627
 40
0.9997628757
 40
1.0
 40
1.0
 40
1.0
 40
1.0
 10
82.6235477737
 20
89.1584968339
 30
0.0
 10
82.6237125303
 20
89.157869879
 30
0.0
 10
82.6256202902
 20
89.1567514088
 30
0.0
 10
82.6291677005
 20
89.1556295912
 30
0.0
 10
82.6350459983
 20
89.1543464167
 30
0.0
 10
82.6469637302
 20
89.1524537739
 30
0.0
 10
82.6673375824
 20
89.1502236867
 30
0.0
 10
82.6981159789
 20
89.1477139442
 30
0.0
 10
82.7373905469
 20
89.1452036615
 30
0.0
 10
82.7850391457
 20
89.1427080282
 30
0.0
 10
82.8409561644
 20
89.1402402076
 30
0.0
 10
82.9316027548
 20
89.1368020265
 30
0.0
 10
83.0644032289
 20
89.1327568337
 30
0.0
 10
83.246200646
 20
89.1283438778
 30
0.0
 10
83.4566045207
 20
89.1241962604
 30
0.0
 10
83.6935765556
 20
89.1203649475
 30
0.0
 10
83.9548478689
 20
89.1168905222
 30
0.0
 10
84.2379169743
 20
89.1138078102
 30
0.0
 10
84.5400569578
 20
89.1111518112
 30
0.0
 10
84.9725287798
 20
89.1081548803
 30
0.0
 10
85.5378154856
 20
89.1056989016
 30
0.0
 10
86.2304262463
 20
89.1047558996
 30
0.0
 10
86.9227704414
 20
89.105813107
 30
0.0
 10
87.4875050373
 20
89.1083625974
 30
0.0
 10
87.9192814724
 20
89.1114316898
 30
0.0
 10
88.220722375
 20
89.1141375846
 30
0.0
 10
88.5029838078
 20
89.1172671334
 30
0.0
 10
88.7633452449
 20
89.1207845437
 30
0.0
 10
88.9993129801
 20
89.124654865
 30
0.0
 10
89.2086258746
 20
89.1288367652
 30
0.0
 10
89.3892562524
 20
89.1332790594
 30
0.0
 10
89.5210390651
 20
89.137346097
 30
0.0
 10
89.6108433967
 20
89.140801707
 30
0.0
 10
89.6661036673
 20
89.1432767799
 30
0.0
 10
89.713103511
 20
89.1457832605
 30
0.0
 10
89.7516683075
 20
89.148286503
 30
0.0
 10
89.7818652617
 20
89.1508272378
 30
0.0
 10
89.8032919576
 20
89.1531999209
 30
0.0
 10
89.816257694
 20
89.1555247087
 30
0.0
 10
89.8218413293
 20
89.1572585654
 30
0.0
 10
89.8235183456
 20
89.1585273482
 30
0.0
 10
89.8235197262
 20
89.1590967381
 30
0.0
  0
SPLINE
  5
3C3
100
AcDbEntity
  8
0
100
AcDbSpline
 62
7
  6
CONTINUOUS
 70
0
 71
3
 72
46
 73
42
 74
0
 42
0.0000001
 43
0.0000001
 44
0.0000000001
 40
0.0
 40
0.0
 40
0.0
 40
0.0
 40
0.0002699615
 40
0.000801946
 40
0.0016221082
 40
0.0027357453
 40
0.0058476341
 40
0.010138427
 40
0.0156032914
 40
0.022233287
 40
0.0300098214
 40
0.0389121363
 40
0.0600103702
 40
0.085339729
 40
0.1146441107
 40
0.1476502424
 40
0.1840399555
 40
0.2234605681
 40
0.2655418345
 40
0.3098715376
 40
0.4035685686
 40
0.5009583987
 40
0.5983105569
 40
0.6918966448
 40
0.7361452086
 40
0.7781291795
 40
0.8174372893
 40
0.8537006758
 40
0.8865669964
 40
0.91571957
 40
0.940886642
 40
0.9618131955
 40
0.9706266272
 40
0.9783126681
 40
0.9848508822
 40
0.9902226911
 40
0.9944192191
 40
0.9974363701
 40
0.9992754627
 40
0.9997628757
 40
1.0
 40
1.0
 40
1.0
 40
1.0
 10
14.8240708907
 20
89.1508578725
 30
0.0
 10
14.8242356472
 20
89.1502309176
 30
0.0
 10
14.8261434072
 20
89.1491124474
 30
0.0
 10
14.8296908175
 20
89.1479906298
 30
0.0
 10
14.8355691153
 20
89.1467074553
 30
0.0
 10
14.8474868472
 20
89.1448148125
 30
0.0
 10
14.8678606994
 20
89.1425847252
 30
0.0
 10
14.8986390959
 20
89.1400749828
 30
0.0
 10
14.9379136639
 20
89.1375647
 30
0.0
 10
14.9855622627
 20
89.1350690668
 30
0.0
 10
15.0414792814
 20
89.1326012462
 30
0.0
 10
15.1321258717
 20
89.1291630651
 30
0.0
 10
15.2649263459
 20
89.1251178723
 30
0.0
 10
15.446723763
 20
89.1207049164
 30
0.0
 10
15.6571276377
 20
89.116557299
 30
0.0
 10
15.8940996726
 20
89.1127259861
 30
0.0
 10
16.1553709859
 20
89.1092515607
 30
0.0
 10
16.4384400913
 20
89.1061688488
 30
0.0
 10
16.7405800748
 20
89.1035128498
 30
0.0
 10
17.1730518968
 20
89.1005159189
 30
0.0
 10
17.7383386026
 20
89.0980599401
 30
0.0
 10
18.4309493633
 20
89.0971169382
 30
0.0
 10
19.1232935584
 20
89.0981741456
 30
0.0
 10
19.6880281543
 20
89.100723636
 30
0.0
 10
20.1198045894
 20
89.1037927284
 30
0.0
 10
20.421245492
 20
89.1064986232
 30
0.0
 10
20.7035069248
 20
89.1096281719
 30
0.0
 10
20.9638683619
 20
89.1131455823
 30
0.0
 10
21.1998360971
 20
89.1170159035
 30
0.0
 10
21.4091489916
 20
89.1211978038
 30
0.0
 10
21.5897793693
 20
89.1256400979
 30
0.0
 10
21.721562182
 20
89.1297071356
 30
0.0
 10
21.8113665137
 20
89.1331627456
 30
0.0
 10
21.8666267843
 20
89.1356378185
 30
0.0
 10
21.913626628
 20
89.1381442991
 30
0.0
 10
21.9521914245
 20
89.1406475416
 30
0.0
 10
21.9823883787
 20
89.1431882763
 30
0.0
 10
22.0038150746
 20
89.1455609595
 30
0.0
 10
22.016780811
 20
89.1478857473
 30
0.0
 10
22.0223644463
 20
89.149619604
 30
0.0
 10
22.0240414626
 20
89.1508883868
 30
0.0
 10
22.0240428432
 20
89.1514577767
 30
0.0
  0
LINE
  5
3C4
100
AcDbEntity
  8
0
100
AcDbLine
 62
7
  6
CONTINUOUS
 10
11.9114369403
 20
61.7074122251
 11
11.9115360229
 21
61.3286313123
  0
SPLINE
  5
3C5
100
AcDbEntity
  8
0
100
AcDbSpline
 62
7
  6
CONTINUOUS
 70
0
 71
3
 72
29
 73
25
 74
0
 42
0.0000001
 43
0.0000001
 44
0.0000000001
 40
0.0
 40
0.0
 40
0.0
 40
0.0
 40
0.199844824
 40
0.3893278042
 40
0.4781942572
 40
0.5621406065
 40
0.6404305065
 40
0.7123806409
 40
0.777398061
 40
0.8349083366
 40
0.8844344095
 40
0.9060718313
 40
0.9255555349
 40
0.9428401198
 40
0.9578956898
 40
0.9706944264
 40
0.9812085534
 40
0.9894103859
 40
0.9926361273
 40
0.9952767454
 40
0.997332189
 40
0.9988026406
 40
0.9996891332
 40
1.0
 40
1.0
 40
1.0
 40
1.0
 10
11.9115360229
 20
61.3286313123
 30
0.0
 10
11.9116383541
 20
61.1104585823
 30
0.0
 10
11.9119893432
 20
60.6854253128
 30
0.0
 10
11.9128229795
 20
60.1633760748
 30
0.0
 10
11.9137251427
 20
59.7678548692
 30
0.0
 10
11.9144868431
 20
59.4937243808
 30
0.0
 10
11.9153411233
 20
59.2380619867
 30
0.0
 10
11.9162811474
 20
59.0030649574
 30
0.0
 10
11.9172964995
 20
58.7907538113
 30
0.0
 10
11.9183790948
 20
58.6029239307
 30
0.0
 10
11.9193659152
 20
58.4624528137
 30
0.0
 10
11.9201981386
 20
58.3634957282
 30
0.0
 10
11.9208045108
 20
58.2997365596
 30
0.0
 10
11.9214197254
 20
58.2431628748
 30
0.0
 10
11.9220426681
 20
58.1938891998
 30
0.0
 10
11.9226678541
 20
58.1520035548
 30
0.0
 10
11.9233004974
 20
58.117612746
 30
0.0
 10
11.9238462211
 20
58.0936455803
 30
0.0
 10
11.9243241602
 20
58.0783237342
 30
0.0
 10
11.9246156869
 20
58.069619113
 30
0.0
 10
11.9250003659
 20
58.0630547052
 30
0.0
 10
11.9251466711
 20
58.05788311
 30
0.0
 10
11.9257084221
 20
58.055627594
 30
0.0
 10
11.925643543
 20
58.0536529043
 30
0.0
 10
11.9259828997
 20
58.0536492233
 30
0.0
  0
SPLINE
  5
3C6
100
AcDbEntity
  8
0
100
AcDbSpline
 62
7
  6
CONTINUOUS
 70
0
 71
3
 72
46
 73
42
 74
0
 42
0.0000001
 43
0.0000001
 44
0.0000000001
 40
0.0
 40
0.0
 40
0.0
 40
0.0
 40
0.0002699615
 40
0.000801946
 40
0.0016221082
 40
0.0027357453
 40
0.0058476341
 40
0.010138427
 40
0.0156032914
 40
0.022233287
 40
0.0300098214
 40
0.0389121363
 40
0.0600103702
 40
0.085339729
 40
0.1146441107
 40
0.1476502424
 40
0.1840399555
 40
0.2234605681
 40
0.2655418345
 40
0.3098715376
 40
0.4035685686
 40
0.5009583987
 40
0.5983105569
 40
0.6918966448
 40
0.7361452086
 40
0.7781291795
 40
0.8174372893
 40
0.8537006758
 40
0.8865669964
 40
0.91571957
 40
0.940886642
 40
0.9618131955
 40
0.9706266272
 40
0.9783126681
 40
0.9848508822
 40
0.9902226911
 40
0.9944192191
 40
0.9974363701
 40
0.9992754627
 40
0.9997628757
 40
1.0
 40
1.0
 40
1.0
 40
1.0
 10
22.0240153384
 20
89.1516690897
 30
0.0
 10
22.0238505818
 20
89.1522960446
 30
0.0
 10
22.0219428219
 20
89.1534145148
 30
0.0
 10
22.0183954116
 20
89.1545363324
 30
0.0
 10
22.0125171138
 20
89.1558195069
 30
0.0
 10
22.0005993819
 20
89.1577121497
 30
0.0
 10
21.9802255297
 20
89.1599422369
 30
0.0
 10
21.9494471332
 20
89.1624519794
 30
0.0
 10
21.9101725652
 20
89.1649622621
 30
0.0
 10
21.8625239664
 20
89.1674578954
 30
0.0
 10
21.8066069477
 20
89.1699257159
 30
0.0
 10
21.7159603573
 20
89.1733638971
 30
0.0
 10
21.5831598832
 20
89.1774090899
 30
0.0
 10
21.4013624661
 20
89.1818220458
 30
0.0
 10
21.1909585914
 20
89.1859696632
 30
0.0
 10
20.9539865565
 20
89.1898009761
 30
0.0
 10
20.6927152432
 20
89.1932754014
 30
0.0
 10
20.4096461378
 20
89.1963581134
 30
0.0
 10
20.1075061543
 20
89.1990141124
 30
0.0
 10
19.6750343323
 20
89.2020110433
 30
0.0
 10
19.1097476265
 20
89.204467022
 30
0.0
 10
18.4171368658
 20
89.205410024
 30
0.0
 10
17.7247926707
 20
89.2043528166
 30
0.0
 10
17.1600580748
 20
89.2018033262
 30
0.0
 10
16.7282816397
 20
89.1987342338
 30
0.0
 10
16.4268407371
 20
89.1960283389
 30
0.0
 10
16.1445793043
 20
89.1928987902
 30
0.0
 10
15.8842178672
 20
89.1893813799
 30
0.0
 10
15.648250132
 20
89.1855110586
 30
0.0
 10
15.4389372375
 20
89.1813291584
 30
0.0
 10
15.2583068597
 20
89.1768868642
 30
0.0
 10
15.126524047
 20
89.1728198266
 30
0.0
 10
15.0367197154
 20
89.1693642166
 30
0.0
 10
14.9814594448
 20
89.1668891437
 30
0.0
 10
14.9344596011
 20
89.164382663
 30
0.0
 10
14.8958948046
 20
89.1618794206
 30
0.0
 10
14.8656978504
 20
89.1593386858
 30
0.0
 10
14.8442711545
 20
89.1569660027
 30
0.0
 10
14.8313054181
 20
89.1546412149
 30
0.0
 10
14.8257217828
 20
89.1529073582
 30
0.0
 10
14.8240447665
 20
89.1516385754
 30
0.0
 10
14.8240433859
 20
89.1510691855
 30
0.0
  0
SPLINE
  5
3C7
100
AcDbEntity
  8
0
100
AcDbSpline
 62
7
  6
CONTINUOUS
 70
0
 71
3
 72
46
 73
42
 74
0
 42
0.0000001
 43
0.0000001
 44
0.0000000001
 40
0.0
 40
0.0
 40
0.0
 40
0.0
 40
0.0002699615
 40
0.000801946
 40
0.0016221082
 40
0.0027357453
 40
0.0058476341
 40
0.010138427
 40
0.0156032914
 40
0.022233287
 40
0.0300098214
 40
0.0389121363
 40
0.0600103702
 40
0.085339729
 40
0.1146441107
 40
0.1476502424
 40
0.1840399555
 40
0.2234605681
 40
0.2655418345
 40
0.3098715376
 40
0.4035685686
 40
0.5009583987
 40
0.5983105569
 40
0.6918966448
 40
0.7361452086
 40
0.7781291795
 40
0.8174372893
 40
0.8537006758
 40
0.8865669964
 40
0.91571957
 40
0.940886642
 40
0.9618131955
 40
0.9706266272
 40
0.9783126681
 40
0.9848508822
 40
0.9902226911
 40
0.9944192191
 40
0.9974363701
 40
0.9992754627
 40
0.9997628757
 40
1.0
 40
1.0
 40
1.0
 40
1.0
 10
89.8234922214
 20
89.1593080511
 30
0.0
 10
89.8233274649
 20
89.159935006
 30
0.0
 10
89.8214197049
 20
89.1610534762
 30
0.0
 10
89.8178722946
 20
89.1621752938
 30
0.0
 10
89.8119939968
 20
89.1634584683
 30
0.0
 10
89.8000762649
 20
89.1653511111
 30
0.0
 10
89.7797024127
 20
89.1675811983
 30
0.0
 10
89.7489240162
 20
89.1700909408
 30
0.0
 10
89.7096494482
 20
89.1726012235
 30
0.0
 10
89.6620008494
 20
89.1750968568
 30
0.0
 10
89.6060838307
 20
89.1775646774
 30
0.0
 10
89.5154372404
 20
89.1810028585
 30
0.0
 10
89.3826367662
 20
89.1850480513
 30
0.0
 10
89.2008393491
 20
89.1894610072
 30
0.0
 10
88.9904354744
 20
89.1936086246
 30
0.0
 10
88.7534634395
 20
89.1974399375
 30
0.0
 10
88.4921921262
 20
89.2009143628
 30
0.0
 10
88.2091230208
 20
89.2039970748
 30
0.0
 10
87.9069830373
 20
89.2066530738
 30
0.0
 10
87.4745112153
 20
89.2096500047
 30
0.0
 10
86.9092245095
 20
89.2121059834
 30
0.0
 10
86.2166137488
 20
89.2130489854
 30
0.0
 10
85.5242695537
 20
89.211991778
 30
0.0
 10
84.9595349578
 20
89.2094422876
 30
0.0
 10
84.5277585227
 20
89.2063731952
 30
0.0
 10
84.2263176201
 20
89.2036673003
 30
0.0
 10
83.9440561873
 20
89.2005377516
 30
0.0
 10
83.6836947502
 20
89.1970203413
 30
0.0
 10
83.447727015
 20
89.19315002
 30
0.0
 10
83.2384141205
 20
89.1889681198
 30
0.0
 10
83.0577837428
 20
89.1845258256
 30
0.0
 10
82.9260009301
 20
89.180458788
 30
0.0
 10
82.8361965984
 20
89.177003178
 30
0.0
 10
82.7809363278
 20
89.1745281051
 30
0.0
 10
82.7339364841
 20
89.1720216245
 30
0.0
 10
82.6953716876
 20
89.169518382
 30
0.0
 10
82.6651747334
 20
89.1669776472
 30
0.0
 10
82.6437480375
 20
89.1646049641
 30
0.0
 10
82.6307823011
 20
89.1622801763
 30
0.0
 10
82.6251986658
 20
89.1605463196
 30
0.0
 10
82.6235216495
 20
89.1592775368
 30
0.0
 10
82.6235202689
 20
89.1587081469
 30
0.0
  0
SPLINE
  5
3C8
100
AcDbEntity
  8
0
100
AcDbSpline
 62
7
  6
CONTINUOUS
 70
0
 71
3
 72
29
 73
25
 74
0
 42
0.0000001
 43
0.0000001
 44
0.0000000001
 40
0.0
 40
0.0
 40
0.0
 40
0.0
 40
0.0003088868
 40
0.0011938386
 40
0.0026637709
 40
0.0047202152
 40
0.0073637372
 40
0.0105929387
 40
0.0187968611
 40
0.0293084862
 40
0.0421040093
 40
0.0571595355
 40
0.0744502644
 40
0.0939380563
 40
0.1155743009
 40
0.1650965399
 40
0.2226164464
 40
0.2876341544
 40
0.3595895979
 40
0.4378880858
 40
0.5218296794
 40
0.6106932448
 40
0.8001892136
 40
1.0
 40
1.0
 40
1.0
 40
1.0
 10
11.9955062999
 20
57.7890889979
 30
0.0
 10
11.9958436625
 20
57.7890853385
 30
0.0
 10
11.9957833579
 20
57.7910706255
 30
0.0
 10
11.9963405733
 20
57.7933083636
 30
0.0
 10
11.9964876921
 20
57.7984903524
 30
0.0
 10
11.9968701733
 20
57.8050576773
 30
0.0
 10
11.9971599865
 20
57.8137763907
 30
0.0
 10
11.9976342216
 20
57.8291144227
 30
0.0
 10
11.9981749371
 20
57.8530974347
 30
0.0
 10
11.9988000759
 20
57.8875012931
 30
0.0
 10
11.999416092
 20
57.9294016627
 30
0.0
 10
12.0000281182
 20
57.9787030743
 30
0.0
 10
12.0006305016
 20
58.0353161321
 30
0.0
 10
12.0012226199
 20
58.0991169876
 30
0.0
 10
12.0020328457
 20
58.198122393
 30
0.0
 10
12.0029884269
 20
58.3386685311
 30
0.0
 10
12.004028418
 20
58.5265985759
 30
0.0
 10
12.0049963955
 20
58.7390320093
 30
0.0
 10
12.0058834554
 20
58.9741614367
 30
0.0
 10
12.0066799499
 20
59.2299609619
 30
0.0
 10
12.0073800772
 20
59.5042287768
 30
0.0
 10
12.0081926517
 20
59.8999524268
 30
0.0
 10
12.008908227
 20
60.4222349387
 30
0.0
 10
12.0091627722
 20
60.8474563525
 30
0.0
 10
12.0092156593
 20
61.0657002642
 30
0.0
  0
LINE
  5
3C9
100
AcDbEntity
  8
0
100
AcDbLine
 62
7
  6
CONTINUOUS
 10
12.0092156593
 20
61.0657002642
 11
12.0092410457
 21
61.3352342808
  0
SPLINE
  5
3CA
100
AcDbEntity
  8
0
100
AcDbSpline
 62
7
  6
CONTINUOUS
 70
0
 71
3
 72
9
 73
5
 74
0
 42
0.0000001
 43
0.0000001
 44
0.0000000001
 40
0.0
 40
0.0
 40
0.0
 40
0.0
 40
0.499824966
 40
1.0
 40
1.0
 40
1.0
 40
1.0
 10
92.5669542743
 20
88.6155864349
 30
0.0
 10
92.4894646949
 20
88.7220406953
 30
0.0
 10
92.2900001838
 20
88.9060516875
 30
0.0
 10
92.0344112435
 20
88.9972873624
 30
0.0
 10
91.9040583222
 20
89.0165111531
 30
0.0
  0
SPLINE
  5
3CB
100
AcDbEntity
  8
0
100
AcDbSpline
 62
7
  6
CONTINUOUS
 70
0
 71
3
 72
46
 73
42
 74
0
 42
0.0000001
 43
0.0000001
 44
0.0000000001
 40
0.0
 40
0.0
 40
0.0
 40
0.0
 40
0.0002699615
 40
0.000801946
 40
0.0016221082
 40
0.0027357453
 40
0.0058476341
 40
0.010138427
 40
0.0156032914
 40
0.022233287
 40
0.0300098214
 40
0.0389121363
 40
0.0600103702
 40
0.085339729
 40
0.1146441107
 40
0.1476502424
 40
0.1840399555
 40
0.2234605681
 40
0.2655418345
 40
0.3098715376
 40
0.4035685686
 40
0.5009583987
 40
0.5983105569
 40
0.6918966448
 40
0.7361452086
 40
0.7781291795
 40
0.8174372893
 40
0.8537006758
 40
0.8865669964
 40
0.91571957
 40
0.940886642
 40
0.9618131955
 40
0.9706266272
 40
0.9783126681
 40
0.9848508822
 40
0.9902226911
 40
0.9944192191
 40
0.9974363701
 40
0.9992754627
 40
0.9997628757
 40
1.0
 40
1.0
 40
1.0
 40
1.0
 10
82.6930711739
 20
88.8939366085
 30
0.0
 10
82.6932359304
 20
88.8933096535
 30
0.0
 10
82.6951436904
 20
88.8921911833
 30
0.0
 10
82.6986911007
 20
88.8910693657
 30
0.0
 10
82.7045693985
 20
88.8897861912
 30
0.0
 10
82.7164871304
 20
88.8878935485
 30
0.0
 10
82.7368609826
 20
88.8856634612
 30
0.0
 10
82.7676393791
 20
88.8831537187
 30
0.0
 10
82.8069139471
 20
88.880643436
 30
0.0
 10
82.8545625459
 20
88.8781478027
 30
0.0
 10
82.9104795646
 20
88.8756799822
 30
0.0
 10
83.0011261549
 20
88.872241801
 30
0.0
 10
83.1339266291
 20
88.8681966083
 30
0.0
 10
83.3157240462
 20
88.8637836523
 30
0.0
 10
83.5261279209
 20
88.8596360349
 30
0.0
 10
83.7630999558
 20
88.8558047221
 30
0.0
 10
84.0243712691
 20
88.8523302967
 30
0.0
 10
84.3074403745
 20
88.8492475848
 30
0.0
 10
84.609580358
 20
88.8465915858
 30
0.0
 10
85.04205218
 20
88.8435946549
 30
0.0
 10
85.6073388858
 20
88.8411386761
 30
0.0
 10
86.2999496465
 20
88.8401956741
 30
0.0
 10
86.9922938416
 20
88.8412528815
 30
0.0
 10
87.5570284375
 20
88.8438023719
 30
0.0
 10
87.9888048726
 20
88.8468714643
 30
0.0
 10
88.2902457752
 20
88.8495773592
 30
0.0
 10
88.572507208
 20
88.8527069079
 30
0.0
 10
88.8328686451
 20
88.8562243182
 30
0.0
 10
89.0688363803
 20
88.8600946395
 30
0.0
 10
89.2781492748
 20
88.8642765397
 30
0.0
 10
89.4587796525
 20
88.8687188339
 30
0.0
 10
89.5905624652
 20
88.8727858715
 30
0.0
 10
89.6803667969
 20
88.8762414815
 30
0.0
 10
89.7356270675
 20
88.8787165544
 30
0.0
 10
89.7826269112
 20
88.8812230351
 30
0.0
 10
89.8211917077
 20
88.8837262775
 30
0.0
 10
89.8513886619
 20
88.8862670123
 30
0.0
 10
89.8728153578
 20
88.8886396954
 30
0.0
 10
89.8857810942
 20
88.8909644833
 30
0.0
 10
89.8913647295
 20
88.8926983399
 30
0.0
 10
89.8930417458
 20
88.8939671227
 30
0.0
 10
89.8930431264
 20
88.8945365126
 30
0.0
  0
SPLINE
  5
3CC
100
AcDbEntity
  8
0
100
AcDbSpline
 62
7
  6
CONTINUOUS
 70
0
 71
3
 72
46
 73
42
 74
0
 42
0.0000001
 43
0.0000001
 44
0.0000000001
 40
0.0
 40
0.0
 40
0.0
 40
0.0
 40
0.0002699615
 40
0.000801946
 40
0.0016221082
 40
0.0027357453
 40
0.0058476341
 40
0.010138427
 40
0.0156032914
 40
0.022233287
 40
0.0300098214
 40
0.0389121363
 40
0.0600103702
 40
0.085339729
 40
0.1146441107
 40
0.1476502424
 40
0.1840399555
 40
0.2234605681
 40
0.2655418345
 40
0.3098715376
 40
0.4035685686
 40
0.5009583987
 40
0.5983105569
 40
0.6918966448
 40
0.7361452086
 40
0.7781291795
 40
0.8174372893
 40
0.8537006758
 40
0.8865669964
 40
0.91571957
 40
0.940886642
 40
0.9618131955
 40
0.9706266272
 40
0.9783126681
 40
0.9848508822
 40
0.9902226911
 40
0.9944192191
 40
0.9974363701
 40
0.9992754627
 40
0.9997628757
 40
1.0
 40
1.0
 40
1.0
 40
1.0
 10
14.8935942908
 20
88.8862976471
 30
0.0
 10
14.8937590474
 20
88.8856706921
 30
0.0
 10
14.8956668074
 20
88.8845522219
 30
0.0
 10
14.8992142177
 20
88.8834304043
 30
0.0
 10
14.9050925155
 20
88.8821472298
 30
0.0
 10
14.9170102473
 20
88.880254587
 30
0.0
 10
14.9373840996
 20
88.8780244998
 30
0.0
 10
14.968162496
 20
88.8755147573
 30
0.0
 10
15.0074370641
 20
88.8730044746
 30
0.0
 10
15.0550856628
 20
88.8705088413
 30
0.0
 10
15.1110026815
 20
88.8680410208
 30
0.0
 10
15.2016492719
 20
88.8646028396
 30
0.0
 10
15.3344497461
 20
88.8605576469
 30
0.0
 10
15.5162471632
 20
88.8561446909
 30
0.0
 10
15.7266510379
 20
88.8519970735
 30
0.0
 10
15.9636230728
 20
88.8481657606
 30
0.0
 10
16.2248943861
 20
88.8446913353
 30
0.0
 10
16.5079634915
 20
88.8416086233
 30
0.0
 10
16.810103475
 20
88.8389526243
 30
0.0
 10
17.242575297
 20
88.8359556934
 30
0.0
 10
17.8078620028
 20
88.8334997147
 30
0.0
 10
18.5004727635
 20
88.8325567127
 30
0.0
 10
19.1928169586
 20
88.8336139201
 30
0.0
 10
19.7575515545
 20
88.8361634105
 30
0.0
 10
20.1893279895
 20
88.8392325029
 30
0.0
 10
20.4907688921
 20
88.8419383978
 30
0.0
 10
20.773030325
 20
88.8450679465
 30
0.0
 10
21.0333917621
 20
88.8485853568
 30
0.0
 10
21.2693594973
 20
88.8524556781
 30
0.0
 10
21.4786723918
 20
88.8566375783
 30
0.0
 10
21.6593027695
 20
88.8610798725
 30
0.0
 10
21.7910855822
 20
88.8651469101
 30
0.0
 10
21.8808899139
 20
88.8686025201
 30
0.0
 10
21.9361501845
 20
88.871077593
 30
0.0
 10
21.9831500281
 20
88.8735840737
 30
0.0
 10
22.0217148247
 20
88.8760873161
 30
0.0
 10
22.0519117789
 20
88.8786280509
 30
0.0
 10
22.0733384748
 20
88.881000734
 30
0.0
 10
22.0863042112
 20
88.8833255219
 30
0.0
 10
22.0918878465
 20
88.8850593785
 30
0.0
 10
22.0935648628
 20
88.8863281613
 30
0.0
 10
22.0935662434
 20
88.8868975512
 30
0.0
  0
LINE
  5
3CD
100
AcDbEntity
  8
0
100
AcDbLine
 62
7
  6
CONTINUOUS
 10
11.9809603405
 20
61.4428519996
 11
11.9810594231
 21
61.0640710868
  0
SPLINE
  5
3CE
100
AcDbEntity
  8
0
100
AcDbSpline
 62
7
  6
CONTINUOUS
 70
0
 71
3
 72
29
 73
25
 74
0
 42
0.0000001
 43
0.0000001
 44
0.0000000001
 40
0.0
 40
0.0
 40
0.0
 40
0.0
 40
0.199844824
 40
0.3893278042
 40
0.4781942572
 40
0.5621406065
 40
0.6404305065
 40
0.7123806409
 40
0.777398061
 40
0.8349083366
 40
0.8844344095
 40
0.9060718313
 40
0.9255555349
 40
0.9428401198
 40
0.9578956898
 40
0.9706944264
 40
0.9812085534
 40
0.9894103859
 40
0.9926361273
 40
0.9952767454
 40
0.997332189
 40
0.9988026406
 40
0.9996891332
 40
1.0
 40
1.0
 40
1.0
 40
1.0
 10
11.9810594231
 20
61.0640710868
 30
0.0
 10
11.9811617542
 20
60.8458983569
 30
0.0
 10
11.9815127433
 20
60.4208650874
 30
0.0
 10
11.9823463797
 20
59.8988158493
 30
0.0
 10
11.9832485429
 20
59.5032946437
 30
0.0
 10
11.9840102433
 20
59.2291641553
 30
0.0
 10
11.9848645235
 20
58.9735017612
 30
0.0
 10
11.9858045476
 20
58.738504732
 30
0.0
 10
11.9868198997
 20
58.5261935859
 30
0.0
 10
11.987902495
 20
58.3383637053
 30
0.0
 10
11.9888893154
 20
58.1978925882
 30
0.0
 10
11.9897215388
 20
58.0989355028
 30
0.0
 10
11.990327911
 20
58.0351763341
 30
0.0
 10
11.9909431256
 20
57.9786026493
 30
0.0
 10
11.9915660682
 20
57.9293289743
 30
0.0
 10
11.9921912543
 20
57.8874433293
 30
0.0
 10
11.9928238976
 20
57.8530525206
 30
0.0
 10
11.9933696213
 20
57.8290853548
 30
0.0
 10
11.9938475604
 20
57.8137635088
 30
0.0
 10
11.9941390871
 20
57.8050588876
 30
0.0
 10
11.9945237661
 20
57.7984944797
 30
0.0
 10
11.9946700713
 20
57.7933228845
 30
0.0
 10
11.9952318223
 20
57.7910673686
 30
0.0
 10
11.9951669432
 20
57.7890926788
 30
0.0
 10
11.9955062999
 20
57.7890889979
 30
0.0
  0
SPLINE
  5
3CF
100
AcDbEntity
  8
0
100
AcDbSpline
 62
7
  6
CONTINUOUS
 70
0
 71
3
 72
46
 73
42
 74
0
 42
0.0000001
 43
0.0000001
 44
0.0000000001
 40
0.0
 40
0.0
 40
0.0
 40
0.0
 40
0.0002699615
 40
0.000801946
 40
0.0016221082
 40
0.0027357453
 40
0.0058476341
 40
0.010138427
 40
0.0156032914
 40
0.022233287
 40
0.0300098214
 40
0.0389121363
 40
0.0600103702
 40
0.085339729
 40
0.1146441107
 40
0.1476502424
 40
0.1840399555
 40
0.2234605681
 40
0.2655418345
 40
0.3098715376
 40
0.4035685686
 40
0.5009583987
 40
0.5983105569
 40
0.6918966448
 40
0.7361452086
 40
0.7781291795
 40
0.8174372893
 40
0.8537006758
 40
0.8865669964
 40
0.91571957
 40
0.940886642
 40
0.9618131955
 40
0.9706266272
 40
0.9783126681
 40
0.9848508822
 40
0.9902226911
 40
0.9944192191
 40
0.9974363701
 40
0.9992754627
 40
0.9997628757
 40
1.0
 40
1.0
 40
1.0
 40
1.0
 10
22.0935387386
 20
88.8871088642
 30
0.0
 10
22.093373982
 20
88.8877358191
 30
0.0
 10
22.0914662221
 20
88.8888542893
 30
0.0
 10
22.0879188118
 20
88.8899761069
 30
0.0
 10
22.0820405139
 20
88.8912592814
 30
0.0
 10
22.0701227821
 20
88.8931519242
 30
0.0
 10
22.0497489299
 20
88.8953820115
 30
0.0
 10
22.0189705334
 20
88.897891754
 30
0.0
 10
21.9796959654
 20
88.9004020367
 30
0.0
 10
21.9320473666
 20
88.9028976699
 30
0.0
 10
21.8761303479
 20
88.9053654905
 30
0.0
 10
21.7854837575
 20
88.9088036717
 30
0.0
 10
21.6526832833
 20
88.9128488644
 30
0.0
 10
21.4708858663
 20
88.9172618203
 30
0.0
 10
21.2604819915
 20
88.9214094377
 30
0.0
 10
21.0235099566
 20
88.9252407506
 30
0.0
 10
20.7622386434
 20
88.928715176
 30
0.0
 10
20.479169538
 20
88.9317978879
 30
0.0
 10
20.1770295544
 20
88.9344538869
 30
0.0
 10
19.7445577324
 20
88.9374508178
 30
0.0
 10
19.1792710267
 20
88.9399067966
 30
0.0
 10
18.486660266
 20
88.9408497986
 30
0.0
 10
17.7943160708
 20
88.9397925911
 30
0.0
 10
17.229581475
 20
88.9372431008
 30
0.0
 10
16.7978050399
 20
88.9341740083
 30
0.0
 10
16.4963641373
 20
88.9314681135
 30
0.0
 10
16.2141027045
 20
88.9283385648
 30
0.0
 10
15.9537412674
 20
88.9248211545
 30
0.0
 10
15.7177735322
 20
88.9209508332
 30
0.0
 10
15.5084606377
 20
88.9167689329
 30
0.0
 10
15.3278302599
 20
88.9123266388
 30
0.0
 10
15.1960474472
 20
88.9082596011
 30
0.0
 10
15.1062431156
 20
88.9048039911
 30
0.0
 10
15.050982845
 20
88.9023289182
 30
0.0
 10
15.0039830013
 20
88.8998224376
 30
0.0
 10
14.9654182048
 20
88.8973191951
 30
0.0
 10
14.9352212506
 20
88.8947784604
 30
0.0
 10
14.9137945547
 20
88.8924057772
 30
0.0
 10
14.9008288183
 20
88.8900809894
 30
0.0
 10
14.8952451829
 20
88.8883471328
 30
0.0
 10
14.8935681667
 20
88.8870783499
 30
0.0
 10
14.8935667861
 20
88.8865089601
 30
0.0
  0
SPLINE
  5
3D0
100
AcDbEntity
  8
0
100
AcDbSpline
 62
7
  6
CONTINUOUS
 70
0
 71
3
 72
46
 73
42
 74
0
 42
0.0000001
 43
0.0000001
 44
0.0000000001
 40
0.0
 40
0.0
 40
0.0
 40
0.0
 40
0.0002699615
 40
0.000801946
 40
0.0016221082
 40
0.0027357453
 40
0.0058476341
 40
0.010138427
 40
0.0156032914
 40
0.022233287
 40
0.0300098214
 40
0.0389121363
 40
0.0600103702
 40
0.085339729
 40
0.1146441107
 40
0.1476502424
 40
0.1840399555
 40
0.2234605681
 40
0.2655418345
 40
0.3098715376
 40
0.4035685686
 40
0.5009583987
 40
0.5983105569
 40
0.6918966448
 40
0.7361452086
 40
0.7781291795
 40
0.8174372893
 40
0.8537006758
 40
0.8865669964
 40
0.91571957
 40
0.940886642
 40
0.9618131955
 40
0.9706266272
 40
0.9783126681
 40
0.9848508822
 40
0.9902226911
 40
0.9944192191
 40
0.9974363701
 40
0.9992754627
 40
0.9997628757
 40
1.0
 40
1.0
 40
1.0
 40
1.0
 10
89.8930156216
 20
88.8947478256
 30
0.0
 10
89.892850865
 20
88.8953747805
 30
0.0
 10
89.8909431051
 20
88.8964932507
 30
0.0
 10
89.8873956948
 20
88.8976150684
 30
0.0
 10
89.881517397
 20
88.8988982429
 30
0.0
 10
89.8695996651
 20
88.9007908856
 30
0.0
 10
89.8492258129
 20
88.9030209729
 30
0.0
 10
89.8184474164
 20
88.9055307154
 30
0.0
 10
89.7791728484
 20
88.9080409981
 30
0.0
 10
89.7315242496
 20
88.9105366313
 30
0.0
 10
89.6756072309
 20
88.9130044519
 30
0.0
 10
89.5849606405
 20
88.9164426331
 30
0.0
 10
89.4521601664
 20
88.9204878258
 30
0.0
 10
89.2703627493
 20
88.9249007817
 30
0.0
 10
89.0599588746
 20
88.9290483991
 30
0.0
 10
88.8229868397
 20
88.932879712
 30
0.0
 10
88.5617155264
 20
88.9363541374
 30
0.0
 10
88.278646421
 20
88.9394368493
 30
0.0
 10
87.9765064375
 20
88.9420928483
 30
0.0
 10
87.5440346155
 20
88.9450897792
 30
0.0
 10
86.9787479097
 20
88.947545758
 30
0.0
 10
86.286137149
 20
88.94848876
 30
0.0
 10
85.5937929539
 20
88.9474315525
 30
0.0
 10
85.029058358
 20
88.9448820622
 30
0.0
 10
84.5972819229
 20
88.9418129697
 30
0.0
 10
84.2958410203
 20
88.9391070749
 30
0.0
 10
84.0135795875
 20
88.9359775262
 30
0.0
 10
83.7532181504
 20
88.9324601159
 30
0.0
 10
83.5172504152
 20
88.9285897946
 30
0.0
 10
83.3079375207
 20
88.9244078943
 30
0.0
 10
83.1273071429
 20
88.9199656002
 30
0.0
 10
82.9955243302
 20
88.9158985626
 30
0.0
 10
82.9057199986
 20
88.9124429526
 30
0.0
 10
82.850459728
 20
88.9099678796
 30
0.0
 10
82.8034598843
 20
88.907461399
 30
0.0
 10
82.7648950878
 20
88.9049581565
 30
0.0
 10
82.7346981336
 20
88.9024174218
 30
0.0
 10
82.7132714377
 20
88.9000447386
 30
0.0
 10
82.7003057013
 20
88.8977199508
 30
0.0
 10
82.694722066
 20
88.8959860942
 30
0.0
 10
82.6930450497
 20
88.8947173113
 30
0.0
 10
82.6930436691
 20
88.8941479215
 30
0.0
  0
SPLINE
  5
3D1
100
AcDbEntity
  8
0
100
AcDbSpline
 62
7
  6
CONTINUOUS
 70
0
 71
3
 72
29
 73
25
 74
0
 42
0.0000001
 43
0.0000001
 44
0.0000000001
 40
0.0
 40
0.0
 40
0.0
 40
0.0
 40
0.0003088868
 40
0.0011938386
 40
0.0026637709
 40
0.0047202152
 40
0.0073637372
 40
0.0105929387
 40
0.0187968611
 40
0.0293084862
 40
0.0421040093
 40
0.0571595355
 40
0.0744502644
 40
0.0939380563
 40
0.1155743009
 40
0.1650965399
 40
0.2226164464
 40
0.2876341544
 40
0.3595895979
 40
0.4378880858
 40
0.5218296794
 40
0.6106932448
 40
0.8001892136
 40
1.0
 40
1.0
 40
1.0
 40
1.0
 10
12.0650297
 20
57.5245287724
 30
0.0
 10
12.0653670627
 20
57.5245251131
 30
0.0
 10
12.065306758
 20
57.5265104001
 30
0.0
 10
12.0658639734
 20
57.5287481382
 30
0.0
 10
12.0660110923
 20
57.533930127
 30
0.0
 10
12.0663935735
 20
57.5404974518
 30
0.0
 10
12.0666833866
 20
57.5492161652
 30
0.0
 10
12.0671576218
 20
57.5645541972
 30
0.0
 10
12.0676983373
 20
57.5885372092
 30
0.0
 10
12.0683234761
 20
57.6229410677
 30
0.0
 10
12.0689394922
 20
57.6648414372
 30
0.0
 10
12.0695515184
 20
57.7141428488
 30
0.0
 10
12.0701539018
 20
57.7707559067
 30
0.0
 10
12.07074602
 20
57.8345567621
 30
0.0
 10
12.0715562458
 20
57.9335621675
 30
0.0
 10
12.0725118271
 20
58.0741083056
 30
0.0
 10
12.0735518182
 20
58.2620383504
 30
0.0
 10
12.0745197957
 20
58.4744717839
 30
0.0
 10
12.0754068556
 20
58.7096012112
 30
0.0
 10
12.0762033501
 20
58.9654007365
 30
0.0
 10
12.0769034774
 20
59.2396685513
 30
0.0
 10
12.0777160519
 20
59.6353922014
 30
0.0
 10
12.0784316272
 20
60.1576747133
 30
0.0
 10
12.0786861724
 20
60.582896127
 30
0.0
 10
12.0787390595
 20
60.8011400387
 30
0.0
  0
LINE
  5
3D2
100
AcDbEntity
  8
0
100
AcDbLine
 62
7
  6
CONTINUOUS
 10
12.0787390595
 20
60.8011400387
 11
12.0787644459
 21
61.0706740553
  0
SPLINE
  5
3D3
100
AcDbEntity
  8
0
100
AcDbSpline
 62
7
  6
CONTINUOUS
 70
0
 71
3
 72
9
 73
5
 74
0
 42
0.0000001
 43
0.0000001
 44
0.0000000001
 40
0.0
 40
0.0
 40
0.0
 40
0.0
 40
0.499824966
 40
1.0
 40
1.0
 40
1.0
 40
1.0
 10
92.6364776745
 20
88.3510262094
 30
0.0
 10
92.558988095
 20
88.4574804699
 30
0.0
 10
92.3595235839
 20
88.6414914621
 30
0.0
 10
92.1039346437
 20
88.732727137
 30
0.0
 10
91.9735817224
 20
88.7519509277
 30
0.0
  0
SPLINE
  5
3D4
100
AcDbEntity
  8
0
100
AcDbSpline
 62
7
  6
CONTINUOUS
 70
0
 71
3
 72
46
 73
42
 74
0
 42
0.0000001
 43
0.0000001
 44
0.0000000001
 40
0.0
 40
0.0
 40
0.0
 40
0.0
 40
0.0002699615
 40
0.000801946
 40
0.0016221082
 40
0.0027357453
 40
0.0058476341
 40
0.010138427
 40
0.0156032914
 40
0.022233287
 40
0.0300098214
 40
0.0389121363
 40
0.0600103702
 40
0.085339729
 40
0.1146441107
 40
0.1476502424
 40
0.1840399555
 40
0.2234605681
 40
0.2655418345
 40
0.3098715376
 40
0.4035685686
 40
0.5009583987
 40
0.5983105569
 40
0.6918966448
 40
0.7361452086
 40
0.7781291795
 40
0.8174372893
 40
0.8537006758
 40
0.8865669964
 40
0.91571957
 40
0.940886642
 40
0.9618131955
 40
0.9706266272
 40
0.9783126681
 40
0.9848508822
 40
0.9902226911
 40
0.9944192191
 40
0.9974363701
 40
0.9992754627
 40
0.9997628757
 40
1.0
 40
1.0
 40
1.0
 40
1.0
 10
82.7625945741
 20
88.629376383
 30
0.0
 10
82.7627593306
 20
88.6287494281
 30
0.0
 10
82.7646670906
 20
88.6276309579
 30
0.0
 10
82.7682145009
 20
88.6265091403
 30
0.0
 10
82.7740927987
 20
88.6252259658
 30
0.0
 10
82.7860105305
 20
88.623333323
 30
0.0
 10
82.8063843828
 20
88.6211032357
 30
0.0
 10
82.8371627792
 20
88.6185934933
 30
0.0
 10
82.8764373473
 20
88.6160832105
 30
0.0
 10
82.924085946
 20
88.6135875773
 30
0.0
 10
82.9800029647
 20
88.6111197567
 30
0.0
 10
83.0706495551
 20
88.6076815755
 30
0.0
 10
83.2034500293
 20
88.6036363828
 30
0.0
 10
83.3852474464
 20
88.5992234269
 30
0.0
 10
83.5956513211
 20
88.5950758095
 30
0.0
 10
83.832623356
 20
88.5912444966
 30
0.0
 10
84.0938946693
 20
88.5877700712
 30
0.0
 10
84.3769637747
 20
88.5846873593
 30
0.0
 10
84.6791037582
 20
88.5820313603
 30
0.0
 10
85.1115755802
 20
88.5790344294
 30
0.0
 10
85.676862286
 20
88.5765784506
 30
0.0
 10
86.3694730467
 20
88.5756354486
 30
0.0
 10
87.0618172418
 20
88.5766926561
 30
0.0
 10
87.6265518377
 20
88.5792421465
 30
0.0
 10
88.0583282727
 20
88.5823112389
 30
0.0
 10
88.3597691754
 20
88.5850171337
 30
0.0
 10
88.6420306082
 20
88.5881466824
 30
0.0
 10
88.9023920453
 20
88.5916640927
 30
0.0
 10
89.1383597805
 20
88.595534414
 30
0.0
 10
89.347672675
 20
88.5997163143
 30
0.0
 10
89.5283030527
 20
88.6041586084
 30
0.0
 10
89.6600858654
 20
88.6082256461
 30
0.0
 10
89.7498901971
 20
88.6116812561
 30
0.0
 10
89.8051504677
 20
88.614156329
 30
0.0
 10
89.8521503113
 20
88.6166628096
 30
0.0
 10
89.8907151079
 20
88.6191660521
 30
0.0
 10
89.9209120621
 20
88.6217067868
 30
0.0
 10
89.942338758
 20
88.62407947
 30
0.0
 10
89.9553044944
 20
88.6264042578
 30
0.0
 10
89.9608881297
 20
88.6281381144
 30
0.0
 10
89.962565146
 20
88.6294068973
 30
0.0
 10
89.9625665266
 20
88.6299762872
 30
0.0
  0
SPLINE
  5
3D5
100
AcDbEntity
  8
0
100
AcDbSpline
 62
7
  6
CONTINUOUS
 70
0
 71
3
 72
46
 73
42
 74
0
 42
0.0000001
 43
0.0000001
 44
0.0000000001
 40
0.0
 40
0.0
 40
0.0
 40
0.0
 40
0.0002699615
 40
0.000801946
 40
0.0016221082
 40
0.0027357453
 40
0.0058476341
 40
0.010138427
 40
0.0156032914
 40
0.022233287
 40
0.0300098214
 40
0.0389121363
 40
0.0600103702
 40
0.085339729
 40
0.1146441107
 40
0.1476502424
 40
0.1840399555
 40
0.2234605681
 40
0.2655418345
 40
0.3098715376
 40
0.4035685686
 40
0.5009583987
 40
0.5983105569
 40
0.6918966448
 40
0.7361452086
 40
0.7781291795
 40
0.8174372893
 40
0.8537006758
 40
0.8865669964
 40
0.91571957
 40
0.940886642
 40
0.9618131955
 40
0.9706266272
 40
0.9783126681
 40
0.9848508822
 40
0.9902226911
 40
0.9944192191
 40
0.9974363701
 40
0.9992754627
 40
0.9997628757
 40
1.0
 40
1.0
 40
1.0
 40
1.0
 10
14.963117691
 20
88.6217374216
 30
0.0
 10
14.9632824476
 20
88.6211104667
 30
0.0
 10
14.9651902076
 20
88.6199919965
 30
0.0
 10
14.9687376179
 20
88.6188701788
 30
0.0
 10
14.9746159157
 20
88.6175870043
 30
0.0
 10
14.9865336475
 20
88.6156943616
 30
0.0
 10
15.0069074998
 20
88.6134642743
 30
0.0
 10
15.0376858962
 20
88.6109545318
 30
0.0
 10
15.0769604642
 20
88.6084442491
 30
0.0
 10
15.124609063
 20
88.6059486159
 30
0.0
 10
15.1805260817
 20
88.6034807953
 30
0.0
 10
15.2711726721
 20
88.6000426141
 30
0.0
 10
15.4039731463
 20
88.5959974214
 30
0.0
 10
15.5857705634
 20
88.5915844655
 30
0.0
 10
15.7961744381
 20
88.5874368481
 30
0.0
 10
16.033146473
 20
88.5836055352
 30
0.0
 10
16.2944177863
 20
88.5801311098
 30
0.0
 10
16.5774868916
 20
88.5770483979
 30
0.0
 10
16.8796268752
 20
88.5743923989
 30
0.0
 10
17.3120986972
 20
88.571395468
 30
0.0
 10
17.8773854029
 20
88.5689394892
 30
0.0
 10
18.5699961637
 20
88.5679964872
 30
0.0
 10
19.2623403588
 20
88.5690536947
 30
0.0
 10
19.8270749546
 20
88.571603185
 30
0.0
 10
20.2588513897
 20
88.5746722775
 30
0.0
 10
20.5602922923
 20
88.5773781723
 30
0.0
 10
20.8425537252
 20
88.580507721
 30
0.0
 10
21.1029151623
 20
88.5840251313
 30
0.0
 10
21.3388828975
 20
88.5878954526
 30
0.0
 10
21.5481957919
 20
88.5920773529
 30
0.0
 10
21.7288261697
 20
88.596519647
 30
0.0
 10
21.8606089824
 20
88.6005866846
 30
0.0
 10
21.950413314
 20
88.6040422947
 30
0.0
 10
22.0056735847
 20
88.6065173676
 30
0.0
 10
22.0526734283
 20
88.6090238482
 30
0.0
 10
22.0912382248
 20
88.6115270907
 30
0.0
 10
22.1214351791
 20
88.6140678254
 30
0.0
 10
22.142861875
 20
88.6164405086
 30
0.0
 10
22.1558276113
 20
88.6187652964
 30
0.0
 10
22.1614112467
 20
88.620499153
 30
0.0
 10
22.163088263
 20
88.6217679359
 30
0.0
 10
22.1630896435
 20
88.6223373257
 30
0.0
  0
LINE
  5
3D6
100
AcDbEntity
  8
0
100
AcDbLine
 62
7
  6
CONTINUOUS
 10
12.0504837407
 20
61.1782917742
 11
12.0505828232
 21
60.7995108614
  0
SPLINE
  5
3D7
100
AcDbEntity
  8
0
100
AcDbSpline
 62
7
  6
CONTINUOUS
 70
0
 71
3
 72
29
 73
25
 74
0
 42
0.0000001
 43
0.0000001
 44
0.0000000001
 40
0.0
 40
0.0
 40
0.0
 40
0.0
 40
0.199844824
 40
0.3893278042
 40
0.4781942572
 40
0.5621406065
 40
0.6404305065
 40
0.7123806409
 40
0.777398061
 40
0.8349083366
 40
0.8844344095
 40
0.9060718313
 40
0.9255555349
 40
0.9428401198
 40
0.9578956898
 40
0.9706944264
 40
0.9812085534
 40
0.9894103859
 40
0.9926361273
 40
0.9952767454
 40
0.997332189
 40
0.9988026406
 40
0.9996891332
 40
1.0
 40
1.0
 40
1.0
 40
1.0
 10
12.0505828232
 20
60.7995108614
 30
0.0
 10
12.0506851544
 20
60.5813381314
 30
0.0
 10
12.0510361435
 20
60.1563048619
 30
0.0
 10
12.0518697799
 20
59.6342556238
 30
0.0
 10
12.0527719431
 20
59.2387344182
 30
0.0
 10
12.0535336435
 20
58.9646039299
 30
0.0
 10
12.0543879237
 20
58.7089415358
 30
0.0
 10
12.0553279478
 20
58.4739445065
 30
0.0
 10
12.0563432998
 20
58.2616333604
 30
0.0
 10
12.0574258952
 20
58.0738034798
 30
0.0
 10
12.0584127155
 20
57.9333323628
 30
0.0
 10
12.059244939
 20
57.8343752773
 30
0.0
 10
12.0598513112
 20
57.7706161087
 30
0.0
 10
12.0604665258
 20
57.7140424239
 30
0.0
 10
12.0610894684
 20
57.6647687488
 30
0.0
 10
12.0617146545
 20
57.6228831039
 30
0.0
 10
12.0623472978
 20
57.5884922951
 30
0.0
 10
12.0628930214
 20
57.5645251293
 30
0.0
 10
12.0633709605
 20
57.5492032833
 30
0.0
 10
12.0636624873
 20
57.5404986621
 30
0.0
 10
12.0640471663
 20
57.5339342543
 30
0.0
 10
12.0641934715
 20
57.5287626591
 30
0.0
 10
12.0647552225
 20
57.5265071431
 30
0.0
 10
12.0646903433
 20
57.5245324533
 30
0.0
 10
12.0650297
 20
57.5245287724
 30
0.0
  0
SPLINE
  5
3D8
100
AcDbEntity
  8
0
100
AcDbSpline
 62
7
  6
CONTINUOUS
 70
0
 71
3
 72
46
 73
42
 74
0
 42
0.0000001
 43
0.0000001
 44
0.0000000001
 40
0.0
 40
0.0
 40
0.0
 40
0.0
 40
0.0002699615
 40
0.000801946
 40
0.0016221082
 40
0.0027357453
 40
0.0058476341
 40
0.010138427
 40
0.0156032914
 40
0.022233287
 40
0.0300098214
 40
0.0389121363
 40
0.0600103702
 40
0.085339729
 40
0.1146441107
 40
0.1476502424
 40
0.1840399555
 40
0.2234605681
 40
0.2655418345
 40
0.3098715376
 40
0.4035685686
 40
0.5009583987
 40
0.5983105569
 40
0.6918966448
 40
0.7361452086
 40
0.7781291795
 40
0.8174372893
 40
0.8537006758
 40
0.8865669964
 40
0.91571957
 40
0.940886642
 40
0.9618131955
 40
0.9706266272
 40
0.9783126681
 40
0.9848508822
 40
0.9902226911
 40
0.9944192191
 40
0.9974363701
 40
0.9992754627
 40
0.9997628757
 40
1.0
 40
1.0
 40
1.0
 40
1.0
 10
22.1630621388
 20
88.6225486387
 30
0.0
 10
22.1628973822
 20
88.6231755937
 30
0.0
 10
22.1609896222
 20
88.6242940639
 30
0.0
 10
22.1574422119
 20
88.6254158815
 30
0.0
 10
22.1515639141
 20
88.626699056
 30
0.0
 10
22.1396461823
 20
88.6285916987
 30
0.0
 10
22.11927233
 20
88.630821786
 30
0.0
 10
22.0884939336
 20
88.6333315285
 30
0.0
 10
22.0492193656
 20
88.6358418112
 30
0.0
 10
22.0015707668
 20
88.6383374445
 30
0.0
 10
21.9456537481
 20
88.640805265
 30
0.0
 10
21.8550071577
 20
88.6442434462
 30
0.0
 10
21.7222066835
 20
88.6482886389
 30
0.0
 10
21.5404092664
 20
88.6527015949
 30
0.0
 10
21.3300053917
 20
88.6568492123
 30
0.0
 10
21.0930333568
 20
88.6606805252
 30
0.0
 10
20.8317620436
 20
88.6641549505
 30
0.0
 10
20.5486929382
 20
88.6672376625
 30
0.0
 10
20.2465529546
 20
88.6698936614
 30
0.0
 10
19.8140811326
 20
88.6728905924
 30
0.0
 10
19.2487944269
 20
88.6753465711
 30
0.0
 10
18.5561836662
 20
88.6762895731
 30
0.0
 10
17.863839471
 20
88.6752323657
 30
0.0
 10
17.2991048752
 20
88.6726828753
 30
0.0
 10
16.8673284401
 20
88.6696137829
 30
0.0
 10
16.5658875375
 20
88.666907888
 30
0.0
 10
16.2836261047
 20
88.6637783393
 30
0.0
 10
16.0232646675
 20
88.660260929
 30
0.0
 10
15.7872969323
 20
88.6563906077
 30
0.0
 10
15.5779840379
 20
88.6522087075
 30
0.0
 10
15.3973536601
 20
88.6477664133
 30
0.0
 10
15.2655708474
 20
88.6436993757
 30
0.0
 10
15.1757665158
 20
88.6402437657
 30
0.0
 10
15.1205062452
 20
88.6377686928
 30
0.0
 10
15.0735064015
 20
88.6352622121
 30
0.0
 10
15.034941605
 20
88.6327589697
 30
0.0
 10
15.0047446508
 20
88.6302182349
 30
0.0
 10
14.9833179548
 20
88.6278455518
 30
0.0
 10
14.9703522185
 20
88.6255207639
 30
0.0
 10
14.9647685831
 20
88.6237869073
 30
0.0
 10
14.9630915668
 20
88.6225181245
 30
0.0
 10
14.9630901863
 20
88.6219487346
 30
0.0
  0
SPLINE
  5
3D9
100
AcDbEntity
  8
0
100
AcDbSpline
 62
7
  6
CONTINUOUS
 70
0
 71
3
 72
46
 73
42
 74
0
 42
0.0000001
 43
0.0000001
 44
0.0000000001
 40
0.0
 40
0.0
 40
0.0
 40
0.0
 40
0.0002699615
 40
0.000801946
 40
0.0016221082
 40
0.0027357453
 40
0.0058476341
 40
0.010138427
 40
0.0156032914
 40
0.022233287
 40
0.0300098214
 40
0.0389121363
 40
0.0600103702
 40
0.085339729
 40
0.1146441107
 40
0.1476502424
 40
0.1840399555
 40
0.2234605681
 40
0.2655418345
 40
0.3098715376
 40
0.4035685686
 40
0.5009583987
 40
0.5983105569
 40
0.6918966448
 40
0.7361452086
 40
0.7781291795
 40
0.8174372893
 40
0.8537006758
 40
0.8865669964
 40
0.91571957
 40
0.940886642
 40
0.9618131955
 40
0.9706266272
 40
0.9783126681
 40
0.9848508822
 40
0.9902226911
 40
0.9944192191
 40
0.9974363701
 40
0.9992754627
 40
0.9997628757
 40
1.0
 40
1.0
 40
1.0
 40
1.0
 10
89.9625390218
 20
88.6301876002
 30
0.0
 10
89.9623742652
 20
88.6308145551
 30
0.0
 10
89.9604665053
 20
88.6319330253
 30
0.0
 10
89.956919095
 20
88.6330548429
 30
0.0
 10
89.9510407971
 20
88.6343380174
 30
0.0
 10
89.9391230653
 20
88.6362306602
 30
0.0
 10
89.9187492131
 20
88.6384607474
 30
0.0
 10
89.8879708166
 20
88.6409704899
 30
0.0
 10
89.8486962486
 20
88.6434807726
 30
0.0
 10
89.8010476498
 20
88.6459764059
 30
0.0
 10
89.7451306311
 20
88.6484442264
 30
0.0
 10
89.6544840407
 20
88.6518824076
 30
0.0
 10
89.5216835665
 20
88.6559276004
 30
0.0
 10
89.3398861495
 20
88.6603405563
 30
0.0
 10
89.1294822747
 20
88.6644881737
 30
0.0
 10
88.8925102398
 20
88.6683194866
 30
0.0
 10
88.6312389266
 20
88.6717939119
 30
0.0
 10
88.3481698212
 20
88.6748766239
 30
0.0
 10
88.0460298376
 20
88.6775326229
 30
0.0
 10
87.6135580156
 20
88.6805295538
 30
0.0
 10
87.0482713099
 20
88.6829855325
 30
0.0
 10
86.3556605492
 20
88.6839285345
 30
0.0
 10
85.663316354
 20
88.6828713271
 30
0.0
 10
85.0985817582
 20
88.6803218367
 30
0.0
 10
84.6668053231
 20
88.6772527443
 30
0.0
 10
84.3653644205
 20
88.6745468494
 30
0.0
 10
84.0831029877
 20
88.6714173007
 30
0.0
 10
83.8227415506
 20
88.6678998904
 30
0.0
 10
83.5867738154
 20
88.6640295691
 30
0.0
 10
83.3774609209
 20
88.6598476689
 30
0.0
 10
83.1968305431
 20
88.6554053747
 30
0.0
 10
83.0650477304
 20
88.6513383371
 30
0.0
 10
82.9752433988
 20
88.6478827271
 30
0.0
 10
82.9199831282
 20
88.6454076542
 30
0.0
 10
82.8729832845
 20
88.6429011735
 30
0.0
 10
82.834418488
 20
88.6403979311
 30
0.0
 10
82.8042215338
 20
88.6378571963
 30
0.0
 10
82.7827948379
 20
88.6354845132
 30
0.0
 10
82.7698291015
 20
88.6331597253
 30
0.0
 10
82.7642454662
 20
88.6314258687
 30
0.0
 10
82.7625684499
 20
88.6301570859
 30
0.0
 10
82.7625670693
 20
88.629587696
 30
0.0
  0
SPLINE
  5
3DA
100
AcDbEntity
  8
0
100
AcDbSpline
 62
7
  6
CONTINUOUS
 70
0
 71
3
 72
29
 73
25
 74
0
 42
0.0000001
 43
0.0000001
 44
0.0000000001
 40
0.0
 40
0.0
 40
0.0
 40
0.0
 40
0.0003135905
 40
0.0012158434
 40
0.0027150667
 40
0.0048127129
 40
0.007509144
 40
0.0108023084
 40
0.0191663295
 40
0.0298794875
 40
0.0429162394
 40
0.0582509589
 40
0.075854165
 40
0.0956786152
 40
0.1176719035
 40
0.1679553271
 40
0.2262552714
 40
0.2920013659
 40
0.3645885623
 40
0.443328404
 40
0.5274520425
 40
0.6161783985
 40
0.8041610457
 40
1.0
 40
1.0
 40
1.0
 40
1.0
 10
12.1345531002
 20
57.2599685469
 30
0.0
 10
12.1349237729
 20
57.2599645263
 30
0.0
 10
12.1348220202
 20
57.2621644587
 30
0.0
 10
12.1354439484
 20
57.2646237765
 30
0.0
 10
12.1355775233
 20
57.2703505659
 30
0.0
 10
12.1359884557
 20
57.277598346
 30
0.0
 10
12.1362891083
 20
57.2872239645
 30
0.0
 10
12.1367885353
 20
57.3041504904
 30
0.0
 10
12.137354548
 20
57.3306105903
 30
0.0
 10
12.1380101197
 20
57.3685571769
 30
0.0
 10
12.1386546631
 20
57.414758031
 30
0.0
 10
12.1392942392
 20
57.4690996511
 30
0.0
 10
12.1399224692
 20
57.5314671567
 30
0.0
 10
12.1405389066
 20
57.6017056747
 30
0.0
 10
12.1413800306
 20
57.710575016
 30
0.0
 10
12.1423674276
 20
57.8649261919
 30
0.0
 10
12.1434345556
 20
58.0709978412
 30
0.0
 10
12.1444192731
 20
58.3034353762
 30
0.0
 10
12.1453101988
 20
58.5600353916
 30
0.0
 10
12.1460982393
 20
58.8383598759
 30
0.0
 10
12.1467762212
 20
59.1357627561
 30
0.0
 10
12.1475373679
 20
59.5623013443
 30
0.0
 10
12.1481540634
 20
60.1208986882
 30
0.0
 10
12.1483003403
 20
60.574613152
 30
0.0
 10
12.1482878461
 20
60.8061138299
 30
0.0
  0
SPLINE
  5
3DB
100
AcDbEntity
  8
0
100
AcDbSpline
 62
7
  6
CONTINUOUS
 70
0
 71
3
 72
9
 73
5
 74
0
 42
0.0000001
 43
0.0000001
 44
0.0000000001
 40
0.0
 40
0.0
 40
0.0
 40
0.0
 40
0.4999281719
 40
1.0
 40
1.0
 40
1.0
 40
1.0
 10
92.7060010746
 20
88.0864659839
 30
0.0
 10
92.6144798343
 20
88.2121967729
 30
0.0
 10
92.3684384186
 20
88.4234380338
 30
0.0
 10
92.0528439915
 20
88.4981390853
 30
0.0
 10
91.8972860623
 20
88.4981215586
 30
0.0
  0
SPLINE
  5
3DC
100
AcDbEntity
  8
0
100
AcDbSpline
 62
7
  6
CONTINUOUS
 70
0
 71
3
 72
46
 73
42
 74
0
 42
0.0000001
 43
0.0000001
 44
0.0000000001
 40
0.0
 40
0.0
 40
0.0
 40
0.0
 40
0.0002699615
 40
0.000801946
 40
0.0016221082
 40
0.0027357453
 40
0.0058476341
 40
0.010138427
 40
0.0156032914
 40
0.022233287
 40
0.0300098214
 40
0.0389121363
 40
0.0600103702
 40
0.085339729
 40
0.1146441107
 40
0.1476502424
 40
0.1840399555
 40
0.2234605681
 40
0.2655418345
 40
0.3098715376
 40
0.4035685686
 40
0.5009583987
 40
0.5983105569
 40
0.6918966448
 40
0.7361452086
 40
0.7781291795
 40
0.8174372893
 40
0.8537006758
 40
0.8865669964
 40
0.91571957
 40
0.940886642
 40
0.9618131955
 40
0.9706266272
 40
0.9783126681
 40
0.9848508822
 40
0.9902226911
 40
0.9944192191
 40
0.9974363701
 40
0.9992754627
 40
0.9997628757
 40
1.0
 40
1.0
 40
1.0
 40
1.0
 10
82.8321179742
 20
88.3648161575
 30
0.0
 10
82.8322827308
 20
88.3641892026
 30
0.0
 10
82.8341904908
 20
88.3630707324
 30
0.0
 10
82.8377379011
 20
88.3619489148
 30
0.0
 10
82.8436161989
 20
88.3606657403
 30
0.0
 10
82.8555339307
 20
88.3587730975
 30
0.0
 10
82.875907783
 20
88.3565430103
 30
0.0
 10
82.9066861794
 20
88.3540332678
 30
0.0
 10
82.9459607475
 20
88.3515229851
 30
0.0
 10
82.9936093462
 20
88.3490273518
 30
0.0
 10
83.0495263649
 20
88.3465595313
 30
0.0
 10
83.1401729553
 20
88.3431213501
 30
0.0
 10
83.2729734295
 20
88.3390761573
 30
0.0
 10
83.4547708466
 20
88.3346632014
 30
0.0
 10
83.6651747213
 20
88.330515584
 30
0.0
 10
83.9021467562
 20
88.3266842711
 30
0.0
 10
84.1634180695
 20
88.3232098458
 30
0.0
 10
84.4464871749
 20
88.3201271338
 30
0.0
 10
84.7486271584
 20
88.3174711348
 30
0.0
 10
85.1810989804
 20
88.3144742039
 30
0.0
 10
85.7463856861
 20
88.3120182252
 30
0.0
 10
86.4389964469
 20
88.3110752232
 30
0.0
 10
87.131340642
 20
88.3121324306
 30
0.0
 10
87.6960752378
 20
88.314681921
 30
0.0
 10
88.1278516729
 20
88.3177510134
 30
0.0
 10
88.4292925755
 20
88.3204569083
 30
0.0
 10
88.7115540084
 20
88.323586457
 30
0.0
 10
88.9719154455
 20
88.3271038673
 30
0.0
 10
89.2078831807
 20
88.3309741886
 30
0.0
 10
89.4171960751
 20
88.3351560888
 30
0.0
 10
89.5978264529
 20
88.339598383
 30
0.0
 10
89.7296092656
 20
88.3436654206
 30
0.0
 10
89.8194135972
 20
88.3471210306
 30
0.0
 10
89.8746738679
 20
88.3495961035
 30
0.0
 10
89.9216737115
 20
88.3521025842
 30
0.0
 10
89.9602385081
 20
88.3546058266
 30
0.0
 10
89.9904354623
 20
88.3571465614
 30
0.0
 10
90.0118621582
 20
88.3595192445
 30
0.0
 10
90.0248278945
 20
88.3618440324
 30
0.0
 10
90.0304115299
 20
88.363577889
 30
0.0
 10
90.0320885462
 20
88.3648466718
 30
0.0
 10
90.0320899267
 20
88.3654160617
 30
0.0
  0
SPLINE
  5
3DD
100
AcDbEntity
  8
0
100
AcDbSpline
 62
7
  6
CONTINUOUS
 70
0
 71
3
 72
9
 73
5
 74
0
 42
0.0000001
 43
0.0000001
 44
0.0000000001
 40
0.0
 40
0.0
 40
0.0
 40
0.0
 40
0.4999926665
 40
1.0
 40
1.0
 40
1.0
 40
1.0
 10
67.6000680463
 20
104.5086214486
 30
0.0
 10
67.2309140035
 20
105.1013491351
 30
0.0
 10
66.326287996
 20
106.191036011
 30
0.0
 10
65.1603891681
 20
106.9950492828
 30
0.0
 10
64.5371363244
 20
107.3099862888
 30
0.0
  0
SPLINE
  5
3DE
100
AcDbEntity
  8
0
100
AcDbSpline
 62
7
  6
CONTINUOUS
 70
0
 71
3
 72
46
 73
42
 74
0
 42
0.0000001
 43
0.0000001
 44
0.0000000001
 40
0.0
 40
0.0
 40
0.0
 40
0.0
 40
0.0002699615
 40
0.000801946
 40
0.0016221082
 40
0.0027357453
 40
0.0058476341
 40
0.010138427
 40
0.0156032914
 40
0.022233287
 40
0.0300098214
 40
0.0389121363
 40
0.0600103702
 40
0.085339729
 40
0.1146441107
 40
0.1476502424
 40
0.1840399555
 40
0.2234605681
 40
0.2655418345
 40
0.3098715376
 40
0.4035685686
 40
0.5009583987
 40
0.5983105569
 40
0.6918966448
 40
0.7361452086
 40
0.7781291795
 40
0.8174372893
 40
0.8537006758
 40
0.8865669964
 40
0.91571957
 40
0.940886642
 40
0.9618131955
 40
0.9706266272
 40
0.9783126681
 40
0.9848508822
 40
0.9902226911
 40
0.9944192191
 40
0.9974363701
 40
0.9992754627
 40
0.9997628757
 40
1.0
 40
1.0
 40
1.0
 40
1.0
 10
15.0326410912
 20
88.3571771961
 30
0.0
 10
15.0328058478
 20
88.3565502412
 30
0.0
 10
15.0347136078
 20
88.355431771
 30
0.0
 10
15.038261018
 20
88.3543099534
 30
0.0
 10
15.0441393159
 20
88.3530267789
 30
0.0
 10
15.0560570477
 20
88.3511341361
 30
0.0
 10
15.0764309
 20
88.3489040489
 30
0.0
 10
15.1072092964
 20
88.3463943064
 30
0.0
 10
15.1464838644
 20
88.3438840237
 30
0.0
 10
15.1941324632
 20
88.3413883904
 30
0.0
 10
15.2500494819
 20
88.3389205699
 30
0.0
 10
15.3406960723
 20
88.3354823887
 30
0.0
 10
15.4734965465
 20
88.3314371959
 30
0.0
 10
15.6552939636
 20
88.32702424
 30
0.0
 10
15.8656978383
 20
88.3228766226
 30
0.0
 10
16.1026698732
 20
88.3190453097
 30
0.0
 10
16.3639411864
 20
88.3155708844
 30
0.0
 10
16.6470102918
 20
88.3124881724
 30
0.0
 10
16.9491502754
 20
88.3098321734
 30
0.0
 10
17.3816220974
 20
88.3068352425
 30
0.0
 10
17.9469088031
 20
88.3043792638
 30
0.0
 10
18.6395195638
 20
88.3034362618
 30
0.0
 10
19.331863759
 20
88.3044934692
 30
0.0
 10
19.8965983548
 20
88.3070429596
 30
0.0
 10
20.3283747899
 20
88.310112052
 30
0.0
 10
20.6298156925
 20
88.3128179469
 30
0.0
 10
20.9120771253
 20
88.3159474956
 30
0.0
 10
21.1724385625
 20
88.3194649059
 30
0.0
 10
21.4084062976
 20
88.3233352272
 30
0.0
 10
21.6177191921
 20
88.3275171274
 30
0.0
 10
21.7983495699
 20
88.3319594216
 30
0.0
 10
21.9301323826
 20
88.3360264592
 30
0.0
 10
22.0199367142
 20
88.3394820692
 30
0.0
 10
22.0751969848
 20
88.3419571421
 30
0.0
 10
22.1221968285
 20
88.3444636227
 30
0.0
 10
22.160761625
 20
88.3469668652
 30
0.0
 10
22.1909585792
 20
88.3495076
 30
0.0
 10
22.2123852752
 20
88.3518802831
 30
0.0
 10
22.2253510115
 20
88.3542050709
 30
0.0
 10
22.2309346469
 20
88.3559389276
 30
0.0
 10
22.2326116632
 20
88.3572077104
 30
0.0
 10
22.2326130437
 20
88.3577771003
 30
0.0
  0
SPLINE
  5
3DF
100
AcDbEntity
  8
0
100
AcDbSpline
 62
7
  6
CONTINUOUS
 70
0
 71
3
 72
9
 73
5
 74
0
 42
0.0000001
 43
0.0000001
 44
0.0000000001
 40
0.0
 40
0.0
 40
0.0
 40
0.0
 40
0.4999926032
 40
1.0
 40
1.0
 40
1.0
 40
1.0
 10
67.1567724913
 20
104.4894930213
 30
0.0
 10
66.7972552988
 20
105.0382030013
 30
0.0
 10
65.9255433059
 20
106.0429014999
 30
0.0
 10
64.8161946466
 20
106.7768219187
 30
0.0
 10
64.2254480014
 20
107.0620921778
 30
0.0
  0
SPLINE
  5
3E0
100
AcDbEntity
  8
0
100
AcDbSpline
 62
7
  6
CONTINUOUS
 70
0
 71
3
 72
29
 73
25
 74
0
 42
0.0000001
 43
0.0000001
 44
0.0000000001
 40
0.0
 40
0.0
 40
0.0
 40
0.0
 40
0.194252847
 40
0.381558129
 40
0.4702187868
 40
0.5544178869
 40
0.6333381895
 40
0.7061764467
 40
0.7722271985
 40
0.8308464509
 40
0.881449479
 40
0.9035957086
 40
0.9235612694
 40
0.9412896154
 40
0.9567397149
 40
0.9698807265
 40
0.9806820237
 40
0.9891130616
 40
0.9924303706
 40
0.9951459252
 40
0.9972595876
 40
0.9987714711
 40
0.9996824524
 40
1.0
 40
1.0
 40
1.0
 40
1.0
 10
12.1200071409
 20
60.9137315487
 30
0.0
 10
12.12001991
 20
60.6771373029
 30
0.0
 10
12.1202236649
 20
60.2124107326
 30
0.0
 10
12.1209262666
 20
59.639698459
 30
0.0
 10
12.1217628363
 20
59.2010288317
 30
0.0
 10
12.1224990298
 20
58.8943690036
 30
0.0
 10
12.1233464445
 20
58.606980757
 30
0.0
 10
12.1242975615
 20
58.3416971144
 30
0.0
 10
12.1253415104
 20
58.1011401089
 30
0.0
 10
12.1264668272
 20
57.8876656396
 30
0.0
 10
12.1275023288
 20
57.7276659794
 30
0.0
 10
12.128380649
 20
57.614745411
 30
0.0
 10
12.1290228598
 20
57.5418648276
 30
0.0
 10
12.1296760486
 20
57.4771398689
 30
0.0
 10
12.1303392535
 20
57.4207292074
 30
0.0
 10
12.1310057636
 20
57.3727514617
 30
0.0
 10
12.1316822188
 20
57.3333371993
 30
0.0
 10
12.1322641578
 20
57.3058559245
 30
0.0
 10
12.132777932
 20
57.2882808874
 30
0.0
 10
12.133084915
 20
57.2782917737
 30
0.0
 10
12.1335100262
 20
57.27076345
 30
0.0
 10
12.1336368715
 20
57.2648217136
 30
0.0
 10
12.1342907455
 20
57.2622495726
 30
0.0
 10
12.1341663594
 20
57.2599727419
 30
0.0
 10
12.1345531002
 20
57.2599685469
 30
0.0
  0
SPLINE
  5
3E1
100
AcDbEntity
  8
0
100
AcDbSpline
 62
7
  6
CONTINUOUS
 70
0
 71
3
 72
46
 73
42
 74
0
 42
0.0000001
 43
0.0000001
 44
0.0000000001
 40
0.0
 40
0.0
 40
0.0
 40
0.0
 40
0.0002699615
 40
0.000801946
 40
0.0016221082
 40
0.0027357453
 40
0.0058476341
 40
0.010138427
 40
0.0156032914
 40
0.022233287
 40
0.0300098214
 40
0.0389121363
 40
0.0600103702
 40
0.085339729
 40
0.1146441107
 40
0.1476502424
 40
0.1840399555
 40
0.2234605681
 40
0.2655418345
 40
0.3098715376
 40
0.4035685686
 40
0.5009583987
 40
0.5983105569
 40
0.6918966448
 40
0.7361452086
 40
0.7781291795
 40
0.8174372893
 40
0.8537006758
 40
0.8865669964
 40
0.91571957
 40
0.940886642
 40
0.9618131955
 40
0.9706266272
 40
0.9783126681
 40
0.9848508822
 40
0.9902226911
 40
0.9944192191
 40
0.9974363701
 40
0.9992754627
 40
0.9997628757
 40
1.0
 40
1.0
 40
1.0
 40
1.0
 10
22.232585539
 20
88.3579884133
 30
0.0
 10
22.2324207824
 20
88.3586153682
 30
0.0
 10
22.2305130224
 20
88.3597338384
 30
0.0
 10
22.2269656121
 20
88.360855656
 30
0.0
 10
22.2210873143
 20
88.3621388305
 30
0.0
 10
22.2091695825
 20
88.3640314733
 30
0.0
 10
22.1887957302
 20
88.3662615605
 30
0.0
 10
22.1580173338
 20
88.368771303
 30
0.0
 10
22.1187427657
 20
88.3712815858
 30
0.0
 10
22.071094167
 20
88.373777219
 30
0.0
 10
22.0151771483
 20
88.3762450396
 30
0.0
 10
21.9245305579
 20
88.3796832207
 30
0.0
 10
21.7917300837
 20
88.3837284135
 30
0.0
 10
21.6099326666
 20
88.3881413694
 30
0.0
 10
21.3995287919
 20
88.3922889868
 30
0.0
 10
21.162556757
 20
88.3961202997
 30
0.0
 10
20.9012854437
 20
88.3995947251
 30
0.0
 10
20.6182163383
 20
88.402677437
 30
0.0
 10
20.3160763548
 20
88.405333436
 30
0.0
 10
19.8836045328
 20
88.4083303669
 30
0.0
 10
19.3183178271
 20
88.4107863456
 30
0.0
 10
18.6257070663
 20
88.4117293476
 30
0.0
 10
17.9333628712
 20
88.4106721402
 30
0.0
 10
17.3686282754
 20
88.4081226498
 30
0.0
 10
16.9368518403
 20
88.4050535574
 30
0.0
 10
16.6354109377
 20
88.4023476626
 30
0.0
 10
16.3531495048
 20
88.3992181138
 30
0.0
 10
16.0927880677
 20
88.3957007035
 30
0.0
 10
15.8568203325
 20
88.3918303822
 30
0.0
 10
15.6475074381
 20
88.387648482
 30
0.0
 10
15.4668770603
 20
88.3832061878
 30
0.0
 10
15.3350942476
 20
88.3791391502
 30
0.0
 10
15.245289916
 20
88.3756835402
 30
0.0
 10
15.1900296453
 20
88.3732084673
 30
0.0
 10
15.1430298017
 20
88.3707019867
 30
0.0
 10
15.1044650051
 20
88.3681987442
 30
0.0
 10
15.0742680509
 20
88.3656580094
 30
0.0
 10
15.052841355
 20
88.3632853263
 30
0.0
 10
15.0398756187
 20
88.3609605385
 30
0.0
 10
15.0342919833
 20
88.3592266818
 30
0.0
 10
15.032614967
 20
88.357957899
 30
0.0
 10
15.0326135865
 20
88.3573885091
 30
0.0
  0
SPLINE
  5
3E2
100
AcDbEntity
  8
0
100
AcDbSpline
 62
7
  6
CONTINUOUS
 70
0
 71
3
 72
46
 73
42
 74
0
 42
0.0000001
 43
0.0000001
 44
0.0000000001
 40
0.0
 40
0.0
 40
0.0
 40
0.0
 40
0.0002699615
 40
0.000801946
 40
0.0016221082
 40
0.0027357453
 40
0.0058476341
 40
0.010138427
 40
0.0156032914
 40
0.022233287
 40
0.0300098214
 40
0.0389121363
 40
0.0600103702
 40
0.085339729
 40
0.1146441107
 40
0.1476502424
 40
0.1840399555
 40
0.2234605681
 40
0.2655418345
 40
0.3098715376
 40
0.4035685686
 40
0.5009583987
 40
0.5983105569
 40
0.6918966448
 40
0.7361452086
 40
0.7781291795
 40
0.8174372893
 40
0.8537006758
 40
0.8865669964
 40
0.91571957
 40
0.940886642
 40
0.9618131955
 40
0.9706266272
 40
0.9783126681
 40
0.9848508822
 40
0.9902226911
 40
0.9944192191
 40
0.9974363701
 40
0.9992754627
 40
0.9997628757
 40
1.0
 40
1.0
 40
1.0
 40
1.0
 10
90.032062422
 20
88.3656273747
 30
0.0
 10
90.0318976654
 20
88.3662543296
 30
0.0
 10
90.0299899054
 20
88.3673727998
 30
0.0
 10
90.0264424952
 20
88.3684946174
 30
0.0
 10
90.0205641973
 20
88.3697777919
 30
0.0
 10
90.0086464655
 20
88.3716704347
 30
0.0
 10
89.9882726132
 20
88.373900522
 30
0.0
 10
89.9574942168
 20
88.3764102644
 30
0.0
 10
89.9182196488
 20
88.3789205472
 30
0.0
 10
89.87057105
 20
88.3814161804
 30
0.0
 10
89.8146540313
 20
88.383884001
 30
0.0
 10
89.7240074409
 20
88.3873221822
 30
0.0
 10
89.5912069667
 20
88.3913673749
 30
0.0
 10
89.4094095496
 20
88.3957803308
 30
0.0
 10
89.1990056749
 20
88.3999279482
 30
0.0
 10
88.96203364
 20
88.4037592611
 30
0.0
 10
88.7007623268
 20
88.4072336865
 30
0.0
 10
88.4176932214
 20
88.4103163984
 30
0.0
 10
88.1155532378
 20
88.4129723974
 30
0.0
 10
87.6830814158
 20
88.4159693283
 30
0.0
 10
87.1177947101
 20
88.4184253071
 30
0.0
 10
86.4251839494
 20
88.4193683091
 30
0.0
 10
85.7328397542
 20
88.4183111016
 30
0.0
 10
85.1681051584
 20
88.4157616112
 30
0.0
 10
84.7363287233
 20
88.4126925188
 30
0.0
 10
84.4348878207
 20
88.409986624
 30
0.0
 10
84.1526263879
 20
88.4068570753
 30
0.0
 10
83.8922649507
 20
88.403339665
 30
0.0
 10
83.6562972156
 20
88.3994693437
 30
0.0
 10
83.4469843211
 20
88.3952874434
 30
0.0
 10
83.2663539433
 20
88.3908451493
 30
0.0
 10
83.1345711306
 20
88.3867781116
 30
0.0
 10
83.044766799
 20
88.3833225016
 30
0.0
 10
82.9895065284
 20
88.3808474287
 30
0.0
 10
82.9425066847
 20
88.3783409481
 30
0.0
 10
82.9039418882
 20
88.3758377056
 30
0.0
 10
82.873744934
 20
88.3732969709
 30
0.0
 10
82.852318238
 20
88.3709242877
 30
0.0
 10
82.8393525017
 20
88.3685994999
 30
0.0
 10
82.8337688663
 20
88.3668656433
 30
0.0
 10
82.83209185
 20
88.3655968604
 30
0.0
 10
82.8320904695
 20
88.3650274705
 30
0.0
  0
ELLIPSE
  5
3E3
100
AcDbEntity
  8
0
100
AcDbEllipse
 62
7
  6
CONTINUOUS
 10
67.5957952544
 20
109.8016783479
 30
0.0
 11
0.1460659862
 21
0.4786788442
 31
0.0
 40
0.998706791
 41
-0.4740735818
 42
1.082834749
  0
ELLIPSE
  5
3E4
100
AcDbEntity
  8
0
100
AcDbEllipse
 62
7
  6
CONTINUOUS
 10
69.9010887579
 20
107.5628671671
 30
0.0
 11
0.1460659863
 21
0.4786788443
 31
0.0
 40
0.998706791
 41
-2.0309819127
 42
-1.0170750865
  0
ENDSEC
  0
SECTION
  2
OBJECTS
  0
DICTIONARY
  5
C
100
AcDbDictionary
280
0
281
1
  3
ACAD_GROUP
350
D
  3
ACAD_MLINESTYLE
350
17
  3
ACAD_LAYOUT
350
1A
  3
ACAD_PLOTSETTINGS
350
19
  3
ACAD_PLOTSTYLENAME
350
E
  0
DICTIONARY
  5
D
102
{ACAD_REACTORS
330
C
102
}
100
AcDbDictionary
280
0
281
1
  0
ACDBDICTIONARYWDFLT
  5
E
102
{ACAD_REACTORS
330
C
102
}
100
AcDbDictionary
281
1
  3
Normal
350
F
100
AcDbDictionaryWithDefault
340
F
  0
DICTIONARY
  5
17
102
{ACAD_REACTORS
330
C
102
}
100
AcDbDictionary
280
0
281
1
  3
Standard
350
18
  0
DICTIONARY
  5
19
102
{ACAD_REACTORS
330
C
102
}
100
AcDbDictionary
281
1
  0
DICTIONARY
  5
1A
102
{ACAD_REACTORS
330
C
102
}
100
AcDbDictionary
281
1
  3
Model
350
3E5
  3
Layout1
350
3E6
  0
ACDBPLACEHOLDER
  5
F
102
{ACAD_REACTORS
330
E
102
}
  0
MLINESTYLE
  5
18
102
{ACAD_REACTORS
330
17
102
}
100
AcDbMlineStyle
  2
STANDARD
 70
0
  3

 62
256
 51
90.0
 52
90.0
 71
2
 49
0.5
 62
256
  6
BYLAYER
 49
-0.5
 62
256
  6
BYLAYER
  0
LAYOUT
  5
3E5
102
{ACAD_REACTORS
330
1A
102
}
100
AcDbPlotSettings
  1

  2
none_device
  4

  6

 40
0.0
 41
0.0
 42
0.0
 43
0.0
 44
210.0
 45
297.0
 46
0.0
 47
0.0
 48
0.0
 49
0.0
140
0.0
141
0.0
142
1.0
143
1.0
 70
1024
 72
1
 73
0
 74
0
  7

 75
0
147
1.0
148
0.0
149
0.0
100
AcDbLayout
  1
Model
 70
0
 71
0
 10
0.0
 20
0.0
 11
210.0
 21
297.0
 12
0.0
 22
0.0
 32
0.0
 14
0.0
 24
0.0
 34
0.0
 15
0.0
 25
0.0
 35
0.0
146
0.0
 13
0.0
 23
0.0
 33
0.0
 16
1.0
 26
0.0
 36
0.0
 17
0.0
 27
1.0
 37
0.0
 76
0
330
210
345
0
346
0
  0
LAYOUT
  5
3E6
102
{ACAD_REACTORS
330
1A
102
}
100
AcDbPlotSettings
  1

  2
none_device
  4

  6

 40
0.0
 41
0.0
 42
0.0
 43
0.0
 44
210.0
 45
297.0
 46
0.0
 47
0.0
 48
0.0
 49
0.0
140
0.0
141
0.0
142
1.0
143
1.0
 70
0
 72
1
 73
0
 74
0
  7

 75
0
147
1.0
148
0.0
149
0.0
100
AcDbLayout
  1
Layout1
 70
0
 71
1
 10
0.0
 20
0.0
 11
210.0
 21
297.0
 12
0.0
 22
0.0
 32
0.0
 14
0.0
 24
0.0
 34
0.0
 15
0.0
 25
0.0
 35
0.0
146
0.0
 13
0.0
 23
0.0
 33
0.0
 16
1.0
 26
0.0
 36
0.0
 17
0.0
 27
1.0
 37
0.0
 76
0
330
211
345
0
346
0
  0
ENDSEC
  0
EOF
