999
DXF file: C:\Users\sesa63760\Dev\_Creo\CAD\MCADID0005231_3D-CAD\drw0001_1.dxf
999
Pro/ENGINEER 2019471 by Parametric Technology Corporation
  0
SECTION
  2
HEADER
  9
$ACADVER
  1
AC1024
  9
$DWGCODEPAGE
  3
ANSI_1252
  9
$EXTMAX
 10
115.3514027022
 20
163.1398409645
 30
0.0
  9
$EXTMIN
 10
0.0
 20
0.0
 30
0.0
  9
$LIMMIN
 10
0.0
 20
0.0
  9
$LIMMAX
 10
115.3514027022
 20
163.1398409645
  9
$VIEWCTR
 10
57.6757013511
 20
81.5699204822
  9
$VIEWSIZE
 40
163.1398409645
  9
$CLAYER
  8
0
  9
$LTSCALE
 40
10.6343007444
  9
$CELTYPE
  6
BYLAYER
  9
$DIMSCALE
 40
1.0
  9
$DIMASZ
 40
1.3732309845
  9
$DIMEXO
 40
1.0
  9
$DIMDLI
 40
7.3473350597
  9
$DIMEXE
 40
1.0
  9
$DIMCEN
 40
1.7401583036
  9
$DIMLFAC
 40
1.0
  9
$DIMBLK
  1
_FILLED
  9
$DIMALT
 70
0
  9
$DIMALTF
 40
0.0393700787
  9
$DIMTXT
 40
1.9225233784
  9
$DIMTOL
 70
1
  9
$DIMLIM
 70
0
  9
$DIMTFAC
 40
1.0
  9
$DIMTP
 40
0.01
  9
$DIMTM
 40
0.01
  9
$DIMGAP
 40
0.625
  9
$DIMDSEP
 70
46
  9
$AUNITS
 70
0
  9
$PDMODE
 70
3
  9
$PDSIZE
 40
0.3125
  9
$HANDSEED
  5
3B2
  9
$TILEMODE
 70
1
  9
$MEASUREMENT
 70
1
  9
$INSUNITS
 70
4
  0
ENDSEC
  0
SECTION
  2
CLASSES
  0
CLASS
  1
ACDBDICTIONARYWDFLT
  2
AcDbDictionaryWithDefault
  3
AutoCAD 2000
 90
0
 91
1
280
0
281
0
  0
CLASS
  1
ACDBPLACEHOLDER
  2
AcDbPlaceHolder
  3
AutoCAD 2000
 90
0
 91
1
280
0
281
0
  0
CLASS
  1
LAYOUT
  2
AcDbLayout
  3
AutoCAD 2000
 90
0
 91
0
280
0
281
0
  0
ENDSEC
  0
SECTION
  2
TABLES
  0
TABLE
  2
VPORT
  5
8
100
AcDbSymbolTable
 70
2
  0
VPORT
  5
1F4
100
AcDbSymbolTableRecord
100
AcDbViewportTableRecord
  2
*ACTIVE
 70
0
 10
0.0
 20
0.0
 11
1.0
 21
1.0
 12
57.6757013511
 22
81.5699204822
 13
0.0
 23
0.0
 14
1.0
 24
1.0
 15
0.0
 25
0.0
 16
0.0
 26
0.0
 36
1.0
 17
0.0
 27
0.0
 37
0.0
 40
163.1398409645
 41
0.7070707071
 42
50.0
 43
0.0
 44
0.0
 50
0.0
 51
0.0
 71
0
 72
100
 73
1
 74
1
 75
0
 76
0
 77
0
 78
0
  0
ENDTAB
  0
TABLE
  2
LTYPE
  5
5
100
AcDbSymbolTable
 70
6
  0
LTYPE
  5
14
100
AcDbSymbolTableRecord
100
AcDbLinetypeTableRecord
  2
BYBLOCK
 70
0
  3

 72
65
 73
0
 40
0.0
  0
LTYPE
  5
15
100
AcDbSymbolTableRecord
100
AcDbLinetypeTableRecord
  2
BYLAYER
 70
0
  3

 72
65
 73
0
 40
0.0
  0
LTYPE
  5
16
100
AcDbSymbolTableRecord
100
AcDbLinetypeTableRecord
  2
CONTINUOUS
 70
64
  3
Solid line
 72
65
 73
0
 40
0.0
  0
LTYPE
  5
1F5
100
AcDbSymbolTableRecord
100
AcDbLinetypeTableRecord
  2
CENTER
 70
64
  3
____ _ ____ _ ____ _ ____ _ ____ _ ____ _ ____
 72
65
 73
4
 40
0.6
 49
0.375
 74
0
 49
-0.075
 74
0
 49
0.075
 74
0
 49
-0.075
 74
0
  0
LTYPE
  5
1F6
100
AcDbSymbolTableRecord
100
AcDbLinetypeTableRecord
  2
HIDDEN
 70
64
  3
- - - - - - - - - - - - - - - - - - - -
 72
65
 73
2
 40
0.2
 49
0.1
 74
0
 49
-0.1
 74
0
  0
LTYPE
  5
1F7
100
AcDbSymbolTableRecord
100
AcDbLinetypeTableRecord
  2
PHANTOM
 70
64
  3
_____ _ _ _____ _ _ _____ _ _ _____
 72
65
 73
6
 40
0.8
 49
0.45
 74
0
 49
-0.05
 74
0
 49
0.1
 74
0
 49
-0.05
 74
0
 49
0.1
 74
0
 49
-0.05
 74
0
  0
LTYPE
  5
1F8
100
AcDbSymbolTableRecord
100
AcDbLinetypeTableRecord
  2
DOT
 70
64
  3
. . . . . . . . . . . . . . . . . . . .
 72
65
 73
2
 40
0.2
 49
0.1
 74
0
 49
-0.1
 74
0
  0
LTYPE
  5
1F9
100
AcDbSymbolTableRecord
100
AcDbLinetypeTableRecord
  2
DASHED
 70
64
  3
- - - - - - - - - - - - - - - - - - - -
 72
65
 73
2
 40
0.2
 49
0.1
 74
0
 49
-0.1
 74
0
  0
ENDTAB
  0
TABLE
  2
LAYER
  5
2
100
AcDbSymbolTable
 70
36
  0
LAYER
  5
10
100
AcDbSymbolTableRecord
100
AcDbLayerTableRecord
  2
0
 70
0
 62
7
  6
CONTINUOUS
370
-3
390
F
  0
LAYER
  5
1FA
100
AcDbSymbolTableRecord
100
AcDbLayerTableRecord
  2
DEFAULT_1
 70
0
 62
7
  6
CENTER
370
-3
390
F
  0
LAYER
  5
1FB
100
AcDbSymbolTableRecord
100
AcDbLayerTableRecord
  2
DEFAULT_2
 70
0
 62
7
  6
HIDDEN
370
-3
390
F
  0
LAYER
  5
1FC
100
AcDbSymbolTableRecord
100
AcDbLayerTableRecord
  2
DEFAULT_3
 70
0
 62
7
  6
PHANTOM
370
-3
390
F
  0
LAYER
  5
1FD
100
AcDbSymbolTableRecord
100
AcDbLayerTableRecord
  2
00_COMPONENTS
 70
0
 62
7
  6
CONTINUOUS
370
-3
390
F
  0
LAYER
  5
1FE
100
AcDbSymbolTableRecord
100
AcDbLayerTableRecord
  2
00_COMPONENTS_1
 70
0
 62
7
  6
CONTINUOUS
370
-3
390
F
  0
LAYER
  5
1FF
100
AcDbSymbolTableRecord
100
AcDbLayerTableRecord
  2
00_COMPONENTS_3
 70
0
 62
7
  6
CONTINUOUS
370
-3
390
F
  0
LAYER
  5
200
100
AcDbSymbolTableRecord
100
AcDbLayerTableRecord
  2
00_COMPONENTS_4
 70
0
 62
7
  6
CONTINUOUS
370
-3
390
F
  0
LAYER
  5
201
100
AcDbSymbolTableRecord
100
AcDbLayerTableRecord
  2
01_1_DEFAULT_DATUMS
 70
0
 62
7
  6
CONTINUOUS
370
-3
390
F
  0
LAYER
  5
202
100
AcDbSymbolTableRecord
100
AcDbLayerTableRecord
  2
01_PLANES
 70
0
 62
7
  6
CONTINUOUS
370
-3
390
F
  0
LAYER
  5
203
100
AcDbSymbolTableRecord
100
AcDbLayerTableRecord
  2
02_COORD_SYS
 70
0
 62
7
  6
CONTINUOUS
370
-3
390
F
  0
LAYER
  5
204
100
AcDbSymbolTableRecord
100
AcDbLayerTableRecord
  2
03_AXES
 70
0
 62
7
  6
CONTINUOUS
370
-3
390
F
  0
LAYER
  5
205
100
AcDbSymbolTableRecord
100
AcDbLayerTableRecord
  2
04_POINTS
 70
0
 62
7
  6
CONTINUOUS
370
-3
390
F
  0
LAYER
  5
206
100
AcDbSymbolTableRecord
100
AcDbLayerTableRecord
  2
05_CURVES
 70
0
 62
7
  6
CONTINUOUS
370
-3
390
F
  0
LAYER
  5
207
100
AcDbSymbolTableRecord
100
AcDbLayerTableRecord
  2
06_SURFS
 70
0
 62
7
  6
CONTINUOUS
370
-3
390
F
  0
LAYER
  5
208
100
AcDbSymbolTableRecord
100
AcDbLayerTableRecord
  2
07_COSMETICS
 70
0
 62
7
  6
CONTINUOUS
370
-3
390
F
  0
LAYER
  5
209
100
AcDbSymbolTableRecord
100
AcDbLayerTableRecord
  2
10_NOTES
 70
0
 62
7
  6
CONTINUOUS
370
-3
390
F
  0
LAYER
  5
20A
100
AcDbSymbolTableRecord
100
AcDbLayerTableRecord
  2
11_NOTES_PUB
 70
0
 62
7
  6
CONTINUOUS
370
-3
390
F
  0
LAYER
  5
20B
100
AcDbSymbolTableRecord
100
AcDbLayerTableRecord
  2
13_REF_GTOL
 70
0
 62
7
  6
CONTINUOUS
370
-3
390
F
  0
LAYER
  5
20C
100
AcDbSymbolTableRecord
100
AcDbLayerTableRecord
  2
16_MISC
 70
0
 62
7
  6
CONTINUOUS
370
-3
390
F
  0
LAYER
  5
20D
100
AcDbSymbolTableRecord
100
AcDbLayerTableRecord
  2
17_NO_PRINT
 70
0
 62
7
  6
CONTINUOUS
370
-3
390
F
  0
LAYER
  5
20E
100
AcDbSymbolTableRecord
100
AcDbLayerTableRecord
  2
18_DATUM_CAMS_JOINTS
 70
0
 62
7
  6
CONTINUOUS
370
-3
390
F
  0
LAYER
  5
20F
100
AcDbSymbolTableRecord
100
AcDbLayerTableRecord
  2
19_DATUM_FUNCTIONAL
 70
0
 62
7
  6
CONTINUOUS
370
-3
390
F
  0
LAYER
  5
210
100
AcDbSymbolTableRecord
100
AcDbLayerTableRecord
  2
20_DATUM_KINEMATIC_SCHEME
 70
0
 62
7
  6
CONTINUOUS
370
-3
390
F
  0
LAYER
  5
211
100
AcDbSymbolTableRecord
100
AcDbLayerTableRecord
  2
INTF_BLANK
 70
0
 62
7
  6
CONTINUOUS
370
-3
390
F
  0
LAYER
  5
212
100
AcDbSymbolTableRecord
100
AcDbLayerTableRecord
  2
SHELL1
 70
0
 62
7
  6
CONTINUOUS
370
-3
390
F
  0
LAYER
  5
213
100
AcDbSymbolTableRecord
100
AcDbLayerTableRecord
  2
SHELL508
 70
0
 62
7
  6
CONTINUOUS
370
-3
390
F
  0
LAYER
  5
214
100
AcDbSymbolTableRecord
100
AcDbLayerTableRecord
  2
SHELL509
 70
0
 62
7
  6
CONTINUOUS
370
-3
390
F
  0
LAYER
  5
215
100
AcDbSymbolTableRecord
100
AcDbLayerTableRecord
  2
_BLACK_HOLE
 70
0
 62
7
  6
CONTINUOUS
370
-3
390
F
  0
LAYER
  5
216
100
AcDbSymbolTableRecord
100
AcDbLayerTableRecord
  2
black
 70
0
 62
7
  6
CONTINUOUS
370
-3
390
F
  0
ENDTAB
  0
TABLE
  2
STYLE
  5
3
100
AcDbSymbolTable
 70
1
  0
STYLE
  5
11
100
AcDbSymbolTableRecord
100
AcDbTextStyleTableRecord
  2
STANDARD
 70
0
 40
0.0
 41
1.0
 50
0.0
 71
0
 42
0.2
  3
ARIAL.TTF
  4

  0
STYLE
  5
217
100
AcDbSymbolTableRecord
100
AcDbTextStyleTableRecord
  2
TEXTSTYLE_1
 70
0
 40
0.0
 41
0.8
 50
0.0
 71
0
 42
0.2
  3
gdt
  4

  0
ENDTAB
  0
TABLE
  2
VIEW
  5
6
100
AcDbSymbolTable
 70
0
  0
ENDTAB
  0
TABLE
  2
UCS
  5
7
100
AcDbSymbolTable
 70
0
  0
ENDTAB
  0
TABLE
  2
APPID
  5
9
100
AcDbSymbolTable
 70
1
  0
APPID
  5
218
100
AcDbSymbolTableRecord
100
AcDbRegAppTableRecord
  2
ACAD
 70
0
  0
ENDTAB
  0
TABLE
  2
BLOCK_RECORD
  5
1
100
AcDbSymbolTable
 70
0
  0
BLOCK_RECORD
  5
219
100
AcDbSymbolTableRecord
100
AcDbBlockTableRecord
  2
*Model_Space
  0
BLOCK_RECORD
  5
21A
100
AcDbSymbolTableRecord
100
AcDbBlockTableRecord
  2
*Paper_Space
  0
BLOCK_RECORD
  5
21B
100
AcDbSymbolTableRecord
100
AcDbBlockTableRecord
  2
_FILLED
  0
ENDTAB
  0
TABLE
  2
DIMSTYLE
  5
A
100
AcDbSymbolTable
 70
1
100
AcDbDimStyleTable
 71
0
  0
DIMSTYLE
105
21C
100
AcDbSymbolTableRecord
100
AcDbDimStyleTableRecord
  2
STANDARD
 70
0
  3

  4

 40
1.0
 41
1.3732309845
 42
1.0
 43
0.38
 44
1.0
 45
0.0
 46
0.0
 47
0.01
 48
0.01
140
1.9225233784
141
0.09
142
0.0
143
25.4
144
1.0
145
0.0
146
1.0
147
0.625
 71
1
 72
0
 73
0
 74
0
 75
0
 76
0
 77
1
 78
8
 79
2
170
0
171
1
172
0
173
0
174
0
175
0
176
0
177
0
178
0
270
2
179
2
271
2
272
2
273
2
274
2
275
0
280
0
281
0
282
0
283
1
284
8
285
0
286
0
287
3
288
0
340
11
278
46
341
21B
342
21B
343
21B
344
21B
  0
ENDTAB
  0
ENDSEC
  0
SECTION
  2
BLOCKS
  0
BLOCK
  5
20
100
AcDbEntity
  8
0
100
AcDbBlockBegin
  2
*Model_Space
 70
0
 10
0.0
 20
0.0
 30
0.0
  3
*Model_Space
  1

  0
ENDBLK
  5
21
100
AcDbEntity
  8
0
100
AcDbBlockEnd
  0
BLOCK
  5
1C
100
AcDbEntity
  8
0
100
AcDbBlockBegin
  2
*Paper_Space
 70
0
 10
0.0
 20
0.0
 30
0.0
  3
*Paper_Space
  1

  0
ENDBLK
  5
1D
100
AcDbEntity
  8
0
100
AcDbBlockEnd
  0
BLOCK
  5
21D
100
AcDbEntity
  8
0
100
AcDbBlockBegin
  2
_FILLED
 70
64
 10
0.0
 20
0.0
  3
_FILLED
  1

  0
SOLID
  5
21E
100
AcDbEntity
  8
0
  6
BYBLOCK
 62
0
100
AcDbTrace
 10
0.0
 20
0.0
 11
-1.0
 21
0.25
 12
-1.0
 22
-0.25
 13
-1.0
 23
-0.25
  0
ENDBLK
  5
21F
100
AcDbEntity
  8
0
  6
BYBLOCK
 62
0
100
AcDbBlockEnd
  0
ENDSEC
  0
SECTION
  2
ENTITIES
  0
LINE
  5
220
100
AcDbEntity
  8
00_COMPONENTS_1
100
AcDbLine
 62
7
  6
BYLAYER
 10
39.4031451292
 20
147.4158620197
 11
43.9830566829
 21
150.0600594043
  0
LINE
  5
221
100
AcDbEntity
  8
00_COMPONENTS_1
100
AcDbLine
 62
7
  6
BYLAYER
 10
44.9747252867
 20
150.4044438441
 11
44.1806451762
 21
149.9459842152
  0
LINE
  5
222
100
AcDbEntity
  8
00_COMPONENTS_1
100
AcDbLine
 62
7
  6
BYLAYER
 10
39.4031451292
 20
147.1877097417
 11
36.2562060832
 21
145.3708344816
  0
LINE
  5
223
100
AcDbEntity
  8
00_COMPONENTS_1
100
AcDbLine
 62
7
  6
BYLAYER
 10
43.9830641605
 20
149.0231235706
 11
41.1991963534
 21
147.4158663368
  0
LINE
  5
224
100
AcDbEntity
  8
00_COMPONENTS_1
100
AcDbLine
 62
7
  6
BYLAYER
 10
43.9830641605
 20
147.5506431116
 11
42.4744200679
 21
146.6796322378
  0
LINE
  5
225
100
AcDbEntity
  8
00_COMPONENTS_1
100
AcDbLine
 62
7
  6
BYLAYER
 10
46.4256965174
 20
148.6498325419
 11
45.5276746441
 21
148.1313624665
  0
LINE
  5
226
100
AcDbEntity
  8
00_COMPONENTS_1
100
AcDbLine
 62
7
  6
BYLAYER
 10
42.743806837
 20
146.5241052327
 11
41.8457849638
 21
146.0056351573
  0
LINE
  5
227
100
AcDbEntity
  8
00_COMPONENTS_1
100
AcDbLine
 62
7
  6
BYLAYER
 10
46.4256965174
 20
147.1773520828
 11
45.5276746441
 21
146.6588820074
  0
LINE
  5
228
100
AcDbEntity
  8
00_COMPONENTS_1
100
AcDbLine
 62
7
  6
BYLAYER
 10
42.743806837
 20
145.0516247736
 11
41.8457849638
 21
144.5331546982
  0
LINE
  5
229
100
AcDbEntity
  8
00_COMPONENTS_1
100
AcDbLine
 62
7
  6
BYLAYER
 10
35.3172114094
 20
134.4593073813
 11
42.4075891217
 21
138.5529144266
  0
LINE
  5
22A
100
AcDbEntity
  8
00_COMPONENTS_1
100
AcDbLine
 62
7
  6
BYLAYER
 10
56.7839292669
 20
146.8530487342
 11
63.8743069791
 21
150.9466557795
  0
LINE
  5
22B
100
AcDbEntity
  8
00_COMPONENTS_1
100
AcDbLine
 62
7
  6
BYLAYER
 10
30.5491687196
 20
135.4859009347
 11
31.4699148861
 21
137.0806889289
  0
LINE
  5
22C
100
AcDbEntity
  8
00_COMPONENTS_1
100
AcDbLine
 62
7
  6
BYLAYER
 10
33.2606074307
 20
140.1822766141
 11
36.2562060832
 21
145.3708344816
  0
LINE
  5
22D
100
AcDbEntity
  8
00_COMPONENTS_1
100
AcDbLine
 62
7
  6
BYLAYER
 10
65.670365681
 20
149.9097242631
 11
53.0531583617
 21
142.6252197035
  0
LINE
  5
22E
100
AcDbEntity
  8
00_COMPONENTS_1
100
AcDbLine
 62
7
  6
BYLAYER
 10
49.7304774306
 20
140.7068804244
 11
37.1132701113
 21
133.4223758648
  0
LINE
  5
22F
100
AcDbEntity
  8
00_COMPONENTS_1
100
AcDbLine
 62
7
  6
BYLAYER
 10
37.1312306983
 20
133.4120065496
 11
49.7214973614
 21
140.680957007
  0
LINE
  5
230
100
AcDbEntity
  8
00_COMPONENTS_1
100
AcDbLine
 62
7
  6
BYLAYER
 10
53.0800990179
 20
142.6200346443
 11
65.688326268
 21
149.8993549479
  0
LINE
  5
231
100
AcDbEntity
  8
00_COMPONENTS_1
100
AcDbLine
 62
7
  6
BYLAYER
 10
53.6278971463
 20
142.2934016182
 11
50.3052162152
 21
140.3750623391
  0
LINE
  5
232
100
AcDbEntity
  8
00_COMPONENTS_1
100
AcDbLine
 62
7
  6
BYLAYER
 10
51.4892948659
 20
139.704419147
 11
53.6278971463
 21
140.9391343791
  0
LINE
  5
233
100
AcDbEntity
  8
00_COMPONENTS_1
100
AcDbLine
 62
7
  6
BYLAYER
 10
41.8099636167
 20
130.7107999492
 11
45.1506049852
 21
132.6395086298
  0
LINE
  5
234
100
AcDbEntity
  8
00_COMPONENTS_1
100
AcDbLine
 62
7
  6
BYLAYER
 10
41.8189439102
 20
130.7056152916
 11
45.1595852787
 21
132.6343239722
  0
LINE
  5
235
100
AcDbEntity
  8
00_COMPONENTS_1
100
AcDbLine
 62
7
  6
BYLAYER
 10
27.0072693793
 20
125.3036320094
 11
32.3017614228
 21
134.4740121348
  0
LINE
  5
236
100
AcDbEntity
  8
00_COMPONENTS_1
100
AcDbLine
 62
7
  6
BYLAYER
 10
37.1009806868
 20
138.536932346
 11
36.8534655094
 21
138.1082211032
  0
LINE
  5
237
100
AcDbEntity
  8
00_COMPONENTS_1
100
AcDbLine
 62
7
  6
BYLAYER
 10
36.7583040394
 20
137.9433956874
 11
36.3679369625
 21
137.2672563233
  0
LINE
  5
238
100
AcDbEntity
  8
00_COMPONENTS_1
100
AcDbLine
 62
7
  6
BYLAYER
 10
35.0614467616
 20
135.0043363539
 11
34.8149902043
 21
134.5774587052
  0
LINE
  5
239
100
AcDbEntity
  8
00_COMPONENTS_1
100
AcDbLine
 62
7
  6
BYLAYER
 10
38.92323524
 20
140.5645615685
 11
36.7620703821
 21
136.8212934516
  0
LINE
  5
23A
100
AcDbEntity
  8
00_COMPONENTS_1
100
AcDbLine
 62
7
  6
BYLAYER
 10
36.1314207194
 20
135.7289701305
 11
35.4389705818
 21
134.5296046526
  0
LINE
  5
23B
100
AcDbEntity
  8
00_COMPONENTS_1
100
AcDbLine
 62
7
  6
BYLAYER
 10
35.3172114094
 20
134.3187104091
 11
34.6306531119
 21
133.1295499542
  0
LINE
  5
23C
100
AcDbEntity
  8
00_COMPONENTS_1
100
AcDbLine
 62
7
  6
BYLAYER
 10
49.8293184617
 20
132.6343351968
 11
67.0354175533
 21
142.5682218418
  0
LINE
  5
23D
100
AcDbEntity
  8
00_COMPONENTS_3
100
AcDbLine
 62
7
  6
BYLAYER
 10
27.322346013
 20
118.958054095
 11
32.6603428193
 21
122.0399295917
  0
LINE
  5
23E
100
AcDbEntity
  8
00_COMPONENTS_1
100
AcDbLine
 62
7
  6
BYLAYER
 10
75.0457921048
 20
144.496941747
 11
71.7051507363
 21
142.5682330665
  0
LINE
  5
23F
100
AcDbEntity
  8
00_COMPONENTS_1
100
AcDbLine
 62
7
  6
BYLAYER
 10
75.0547723983
 20
144.4917570894
 11
71.7141310298
 21
142.5630484089
  0
LINE
  5
240
100
AcDbEntity
  8
00_COMPONENTS_1
100
AcDbLine
 62
7
  6
BYLAYER
 10
35.3172114094
 20
130.2712251513
 11
31.5826658019
 21
123.8027665088
  0
LINE
  5
241
100
AcDbEntity
  8
00_COMPONENTS_1
100
AcDbLine
 62
7
  6
BYLAYER
 10
63.2368388687
 20
132.9091554205
 11
66.5595197998
 21
134.8274946995
  0
LINE
  5
242
100
AcDbEntity
  8
00_COMPONENTS_1
100
AcDbLine
 62
7
  6
BYLAYER
 10
79.7335053167
 20
141.790550489
 11
67.1432386536
 21
134.5216000317
  0
LINE
  5
243
100
AcDbEntity
  8
00_COMPONENTS_1
100
AcDbLine
 62
7
  6
BYLAYER
 10
63.7666764101
 20
132.5721525481
 11
51.176409747
 21
125.3032020908
  0
LINE
  5
244
100
AcDbEntity
  8
00_COMPONENTS_1
100
AcDbLine
 62
7
  6
BYLAYER
 10
51.194370334
 20
125.2928327756
 11
63.8115776533
 21
132.5773373352
  0
LINE
  5
245
100
AcDbEntity
  8
00_COMPONENTS_1
100
AcDbLine
 62
7
  6
BYLAYER
 10
67.1342585844
 20
134.4956766142
 11
79.7514659037
 21
141.7801811738
  0
LINE
  5
246
100
AcDbEntity
  8
00_COMPONENTS_1
100
AcDbLine
 62
7
  6
BYLAYER
 10
36.8630783854
 20
120.7541878503
 11
37.1132701113
 21
121.1875350367
  0
LINE
  5
247
100
AcDbEntity
  8
00_COMPONENTS_1
100
AcDbLine
 62
7
  6
BYLAYER
 10
81.5475246056
 20
140.7432496574
 11
74.4571468933
 21
136.6496426121
  0
LINE
  5
248
100
AcDbEntity
  8
00_COMPONENTS_1
100
AcDbLine
 62
7
  6
BYLAYER
 10
60.0808067481
 20
128.3495083044
 11
52.9904290359
 21
124.2559012591
  0
LINE
  5
249
100
AcDbEntity
  8
00_COMPONENTS_1
100
AcDbLine
 62
7
  6
BYLAYER
 10
37.1132701113
 20
113.3053893116
 11
37.1312306983
 21
113.3157587994
  0
LINE
  5
24A
100
AcDbEntity
  8
00_COMPONENTS_1
100
AcDbLine
 62
7
  6
BYLAYER
 10
70.4390394976
 20
129.4976854149
 11
71.3370613709
 21
130.0161554903
  0
LINE
  5
24B
100
AcDbEntity
  8
00_COMPONENTS_1
100
AcDbLine
 62
7
  6
BYLAYER
 10
74.120929178
 20
131.6234127241
 11
75.0189510512
 21
132.1418827995
  0
LINE
  5
24C
100
AcDbEntity
  8
00_COMPONENTS_3
100
AcDbLine
 62
7
  6
BYLAYER
 10
24.9839477354
 20
89.846890987
 11
24.9839477354
 21
88.5232589185
  0
LINE
  5
24D
100
AcDbEntity
  8
00_COMPONENTS_3
100
AcDbLine
 62
7
  6
BYLAYER
 10
27.322346013
 20
118.958054095
 11
27.322346013
 21
110.7930299237
  0
LINE
  5
24E
100
AcDbEntity
  8
00_COMPONENTS_3
100
AcDbLine
 62
7
  6
BYLAYER
 10
27.322346013
 20
92.4217255382
 11
27.322346013
 21
90.3804694954
  0
LINE
  5
24F
100
AcDbEntity
  8
00_COMPONENTS_3
100
AcDbLine
 62
7
  6
BYLAYER
 10
27.3582670375
 20
110.7722913797
 11
27.3582670375
 21
92.4217256246
  0
LINE
  5
250
100
AcDbEntity
  8
00_COMPONENTS_1
100
AcDbLine
 62
7
  6
BYLAYER
 10
72.8816718545
 20
129.1243943861
 11
75.6655396616
 21
130.7316516199
  0
LINE
  5
251
100
AcDbEntity
  8
00_COMPONENTS_1
100
AcDbLine
 62
7
  6
BYLAYER
 10
41.8189439102
 20
110.5989981399
 11
41.8099636167
 21
110.593813396
  0
LINE
  5
252
100
AcDbEntity
  8
00_COMPONENTS_1
100
AcDbLine
 62
7
  6
BYLAYER
 10
77.4615908858
 20
130.7316559371
 11
72.8816793321
 21
128.0874585525
  0
LINE
  5
253
100
AcDbEntity
  8
00_COMPONENTS_1
100
AcDbLine
 62
7
  6
BYLAYER
 10
77.4615908858
 20
129.259175478
 11
72.8816793321
 21
126.6149780934
  0
LINE
  5
254
100
AcDbEntity
  8
00_COMPONENTS_3
100
AcDbLine
 62
7
  6
BYLAYER
 10
37.2398426025
 20
105.0880287619
 11
37.2218821651
 21
105.0776593604
  0
LINE
  5
255
100
AcDbEntity
  8
00_COMPONENTS_1
100
AcDbLine
 62
7
  6
BYLAYER
 10
71.8900107283
 20
124.7981131946
 11
80.6085299318
 21
129.8317225571
  0
LINE
  5
256
100
AcDbEntity
  8
00_COMPONENTS_1
100
AcDbLine
 62
7
  6
BYLAYER
 10
66.9418798668
 20
117.2873680002
 11
66.317905729
 21
117.0268826387
  0
LINE
  5
257
100
AcDbEntity
  8
00_COMPONENTS_1
100
AcDbLine
 62
7
  6
BYLAYER
 10
35.3172114094
 20
114.342320828
 11
35.3172114094
 21
120.5060130998
  0
LINE
  5
258
100
AcDbEntity
  8
00_COMPONENTS_1
100
AcDbLine
 62
7
  6
BYLAYER
 10
35.3172114094
 20
122.2244665532
 11
35.3172114094
 21
134.4593073813
  0
LINE
  5
259
100
AcDbEntity
  8
00_COMPONENTS_1
100
AcDbLine
 62
7
  6
BYLAYER
 10
36.8630783854
 20
119.6135339736
 11
36.8630783854
 21
120.7541878503
  0
LINE
  5
25A
100
AcDbEntity
  8
00_COMPONENTS_1
100
AcDbLine
 62
7
  6
BYLAYER
 10
37.1132701113
 20
133.4223758648
 11
37.1132701113
 21
121.1875350367
  0
LINE
  5
25B
100
AcDbEntity
  8
00_COMPONENTS_1
100
AcDbLine
 62
7
  6
BYLAYER
 10
37.1132701113
 20
119.4690815833
 11
37.1132701113
 21
113.3053893116
  0
LINE
  5
25C
100
AcDbEntity
  8
00_COMPONENTS_1
100
AcDbLine
 62
7
  6
BYLAYER
 10
37.1312306983
 20
133.4120065496
 11
37.1312306983
 21
113.2950199964
  0
LINE
  5
25D
100
AcDbEntity
  8
00_COMPONENTS_3
100
AcDbLine
 62
7
  6
BYLAYER
 10
37.2218821651
 20
105.0776593604
 11
37.2218821651
 21
109.160171446
  0
LINE
  5
25E
100
AcDbEntity
  8
00_COMPONENTS_3
100
AcDbLine
 62
7
  6
BYLAYER
 10
37.2398426025
 20
105.0880287619
 11
37.2398426025
 21
109.1498022172
  0
LINE
  5
25F
100
AcDbEntity
  8
00_COMPONENTS
100
AcDbLine
 62
7
  6
BYLAYER
 10
38.7277772014
 20
79.777395898
 11
38.7277772014
 21
80.5884347864
  0
LINE
  5
260
100
AcDbEntity
  8
00_COMPONENTS_1
100
AcDbLine
 62
7
  6
BYLAYER
 10
51.194370334
 20
113.0579919475
 11
50.9441786081
 21
112.6246447611
  0
LINE
  5
261
100
AcDbEntity
  8
00_COMPONENTS_1
100
AcDbLine
 62
7
  6
BYLAYER
 10
60.0808067481
 20
128.3495083044
 11
55.7882246199
 21
120.9144966901
  0
LINE
  5
262
100
AcDbEntity
  8
00_COMPONENTS_1
100
AcDbLine
 62
7
  6
BYLAYER
 10
57.5408173232
 20
119.9026078902
 11
52.9904290359
 21
112.021060431
  0
LINE
  5
263
100
AcDbEntity
  8
00_COMPONENTS_3
100
AcDbLine
 62
7
  6
BYLAYER
 10
27.322346013
 20
92.4217255382
 11
27.3492868992
 21
92.4372797733
  0
LINE
  5
264
100
AcDbEntity
  8
00_COMPONENTS_1
100
AcDbLine
 62
7
  6
BYLAYER
 10
51.194370334
 20
105.1965850254
 11
51.176409747
 21
105.1862155375
  0
LINE
  5
265
100
AcDbEntity
  8
00_COMPONENTS_3
100
AcDbLine
 62
7
  6
BYLAYER
 10
24.9839477354
 20
89.846890987
 11
27.322346013
 21
91.1969578032
  0
LINE
  5
266
100
AcDbEntity
  8
00_COMPONENTS_1
100
AcDbLine
 62
7
  6
BYLAYER
 10
52.9904290359
 20
104.1389147059
 11
58.3284248739
 21
107.2207896436
  0
LINE
  5
267
100
AcDbEntity
  8
00_COMPONENTS_1
100
AcDbLine
 62
7
  6
BYLAYER
 10
39.4031451292
 20
145.9433815606
 11
39.4031451292
 21
147.4158620197
  0
LINE
  5
268
100
AcDbEntity
  8
00_COMPONENTS
100
AcDbLine
 62
7
  6
BYLAYER
 10
41.1090573163
 20
74.5402504307
 11
41.1090573163
 21
70.104342092
  0
LINE
  5
269
100
AcDbEntity
  8
00_COMPONENTS_1
100
AcDbLine
 62
7
  6
BYLAYER
 10
41.8099636167
 20
110.593813396
 11
41.8099636167
 21
130.7107999492
  0
LINE
  5
26A
100
AcDbEntity
  8
00_COMPONENTS_1
100
AcDbLine
 62
7
  6
BYLAYER
 10
41.8189439102
 20
110.5886287384
 11
41.8189439102
 21
130.7056152916
  0
LINE
  5
26B
100
AcDbEntity
  8
00_COMPONENTS_1
100
AcDbLine
 62
7
  6
BYLAYER
 10
41.8457849638
 20
144.5331546982
 11
41.8457849638
 21
146.0056351573
  0
LINE
  5
26C
100
AcDbEntity
  8
00_COMPONENTS
100
AcDbLine
 62
7
  6
BYLAYER
 10
42.5715271974
 20
65.5088528582
 11
42.5715271974
 21
69.0047786912
  0
LINE
  5
26D
100
AcDbEntity
  8
00_COMPONENTS_1
100
AcDbLine
 62
7
  6
BYLAYER
 10
42.743806837
 20
145.0516247736
 11
42.743806837
 21
146.5241052327
  0
LINE
  5
26E
100
AcDbEntity
  8
00_COMPONENTS_1
100
AcDbLine
 62
7
  6
BYLAYER
 10
59.2725785016
 20
118.9028495481
 11
60.7733461091
 21
121.5022697243
  0
LINE
  5
26F
100
AcDbEntity
  8
00_COMPONENTS_1
100
AcDbLine
 62
7
  6
BYLAYER
 10
61.4039957718
 20
122.5945930455
 11
63.5651606297
 21
126.3378611624
  0
LINE
  5
270
100
AcDbEntity
  8
00_COMPONENTS_1
100
AcDbLine
 62
7
  6
BYLAYER
 10
62.0201718881
 20
122.6750880863
 11
61.0029970988
 21
120.9132798911
  0
LINE
  5
271
100
AcDbEntity
  8
00_COMPONENTS_1
100
AcDbLine
 62
7
  6
BYLAYER
 10
56.2245911916
 20
109.5760661027
 11
61.0251712048
 21
117.8909607482
  0
LINE
  5
272
100
AcDbEntity
  8
00_COMPONENTS_1
100
AcDbLine
 62
7
  6
BYLAYER
 10
83.5680899041
 20
128.1518127725
 11
84.1844872973
 21
128.7357157988
  0
LWPOLYLINE
  5
273
100
AcDbEntity
  8
00_COMPONENTS
100
AcDbPolyline
 62
7
  6
BYLAYER
 90
5
 70
0
 10
43.5220252236
 20
72.3100986508
 10
45.6434446547
 20
71.0857892133
 10
50.7139514412
 20
69.2572094391
 10
56.500923216
 20
68.3833099109
 10
59.7179121224
 20
68.4700488939
  0
LINE
  5
274
100
AcDbEntity
  8
00_COMPONENTS
100
AcDbLine
 62
7
  6
BYLAYER
 10
47.7203960257
 20
69.9696926162
 11
46.0264726556
 21
70.9476576054
  0
LINE
  5
275
100
AcDbEntity
  8
00_COMPONENTS
100
AcDbLine
 62
7
  6
BYLAYER
 10
51.3383955719
 20
68.6585854968
 11
50.892399582
 21
68.9160755764
  0
LINE
  5
276
100
AcDbEntity
  8
00_COMPONENTS
100
AcDbLine
 62
7
  6
BYLAYER
 10
41.0970383122
 20
74.5513588268
 11
43.3629722
 21
72.4571011793
  0
LINE
  5
277
100
AcDbEntity
  8
00_COMPONENTS
100
AcDbLine
 62
7
  6
BYLAYER
 10
46.1204489659
 20
54.8655670824
 11
45.2342568523
 21
60.631535929
  0
LINE
  5
278
100
AcDbEntity
  8
00_COMPONENTS_1
100
AcDbLine
 62
7
  6
BYLAYER
 10
43.9830641605
 20
147.5506431116
 11
43.9830641605
 21
149.0231235706
  0
LINE
  5
279
100
AcDbEntity
  8
00_COMPONENTS_1
100
AcDbLine
 62
7
  6
BYLAYER
 10
45.1506049852
 20
132.6291392282
 11
45.1506049852
 21
132.6395086298
  0
LINE
  5
27A
100
AcDbEntity
  8
00_COMPONENTS_1
100
AcDbLine
 62
7
  6
BYLAYER
 10
45.5276746441
 20
146.6588820074
 11
45.5276746441
 21
148.1313624665
  0
LINE
  5
27B
100
AcDbEntity
  8
00_COMPONENTS
100
AcDbLine
 62
7
  6
BYLAYER
 10
46.0715272015
 20
53.0539249873
 11
46.0715272015
 21
55.1838743271
  0
LINE
  5
27C
100
AcDbEntity
  8
00_COMPONENTS_1
100
AcDbLine
 62
7
  6
BYLAYER
 10
46.4256965174
 20
147.1773520828
 11
46.4256965174
 21
148.6498325419
  0
LINE
  5
27D
100
AcDbEntity
  8
00_COMPONENTS
100
AcDbLine
 62
7
  6
BYLAYER
 10
47.7203960257
 20
69.9696926162
 11
47.7203960257
 21
70.3367770476
  0
LINE
  5
27E
100
AcDbEntity
  8
00_COMPONENTS_1
100
AcDbLine
 62
7
  6
BYLAYER
 10
71.8900107283
 20
124.7981131946
 11
68.8944120759
 21
119.6095553271
  0
LINE
  5
27F
100
AcDbEntity
  8
00_COMPONENTS_1
100
AcDbLine
 62
7
  6
BYLAYER
 10
67.1037195313
 20
116.5079676419
 11
66.1829733647
 21
114.9131796477
  0
LINE
  5
280
100
AcDbEntity
  8
00_COMPONENTS_3
100
AcDbLine
 62
7
  6
BYLAYER
 10
61.2636128201
 20
99.362497878
 11
66.6014846372
 21
102.4443012126
  0
LINE
  5
281
100
AcDbEntity
  8
00_COMPONENTS_3
100
AcDbLine
 62
7
  6
BYLAYER
 10
85.8970560229
 20
113.5845380481
 11
89.8207083898
 21
115.8498462762
  0
LINE
  5
282
100
AcDbEntity
  8
00_COMPONENTS_1
100
AcDbLine
 62
7
  6
BYLAYER
 10
85.2789327358
 20
112.5139111662
 11
67.2196079244
 21
102.0874173628
  0
LINE
  5
283
100
AcDbEntity
  8
00_COMPONENTS_3
100
AcDbLine
 62
7
  6
BYLAYER
 10
70.2388818258
 20
100.4618288374
 11
80.845439384
 21
106.5854911455
  0
LINE
  5
284
100
AcDbEntity
  8
00_COMPONENTS
100
AcDbLine
 62
7
  6
BYLAYER
 10
65.8048042376
 20
68.6586202697
 11
65.1740732859
 21
68.6586187536
  0
LINE
  5
285
100
AcDbEntity
  8
00_COMPONENTS
100
AcDbLine
 62
7
  6
BYLAYER
 10
51.9691265236
 20
68.6585870129
 11
51.3383955719
 21
68.6585854968
  0
LINE
  5
286
100
AcDbEntity
  8
00_COMPONENTS_3
100
AcDbLine
 62
7
  6
BYLAYER
 10
24.9839477354
 20
88.5232589185
 11
60.3394339928
 21
68.1112211925
  0
LINE
  5
287
100
AcDbEntity
  8
00_COMPONENTS_3
100
AcDbLine
 62
7
  6
BYLAYER
 10
60.3394339928
 20
69.4348532609
 11
24.9839477354
 21
89.846890987
  0
LWPOLYLINE
  5
288
100
AcDbEntity
  8
00_COMPONENTS
100
AcDbPolyline
 62
7
  6
BYLAYER
 90
4
 70
0
 10
45.6375776735
 20
76.5991498735
 10
46.9620492329
 20
75.3216176263
 10
48.7405514062
 20
74.2985224647
 10
50.9155066436
 20
73.5520050974
  0
LINE
  5
289
100
AcDbEntity
  8
00_COMPONENTS_1
100
AcDbLine
 62
7
  6
BYLAYER
 10
49.7304774306
 20
140.680957007
 11
49.7304774306
 21
140.7068804244
  0
LINE
  5
28A
100
AcDbEntity
  8
00_COMPONENTS_1
100
AcDbLine
 62
7
  6
BYLAYER
 10
50.3052162152
 20
140.3750623391
 11
50.3052162152
 21
140.3439543936
  0
LINE
  5
28B
100
AcDbEntity
  8
00_COMPONENTS_1
100
AcDbLine
 62
7
  6
BYLAYER
 10
50.9441786081
 20
112.6246447611
 11
50.9441786081
 21
111.4839908844
  0
LINE
  5
28C
100
AcDbEntity
  8
00_COMPONENTS_1
100
AcDbLine
 62
7
  6
BYLAYER
 10
51.176409747
 20
105.1862155375
 11
51.176409747
 21
111.3499152071
  0
LINE
  5
28D
100
AcDbEntity
  8
00_COMPONENTS_1
100
AcDbLine
 62
7
  6
BYLAYER
 10
51.176409747
 20
113.0268831255
 11
51.176409747
 21
125.3032020908
  0
LINE
  5
28E
100
AcDbEntity
  8
00_COMPONENTS_1
100
AcDbLine
 62
7
  6
BYLAYER
 10
51.194370334
 20
105.1758462223
 11
51.194370334
 21
111.3395384941
  0
LINE
  5
28F
100
AcDbEntity
  8
00_COMPONENTS_1
100
AcDbLine
 62
7
  6
BYLAYER
 10
51.194370334
 20
113.0579919475
 11
51.194370334
 21
125.2928327756
  0
LINE
  5
290
100
AcDbEntity
  8
00_COMPONENTS
100
AcDbLine
 62
7
  6
BYLAYER
 10
51.3383955719
 20
68.6585854968
 11
51.3383955719
 21
64.198564503
  0
LINE
  5
291
100
AcDbEntity
  8
00_COMPONENTS_3
100
AcDbLine
 62
7
  6
BYLAYER
 10
51.364076668
 20
100.9953563556
 11
51.364076668
 21
96.91284427
  0
LINE
  5
292
100
AcDbEntity
  8
00_COMPONENTS_1
100
AcDbLine
 62
7
  6
BYLAYER
 10
52.9904290359
 20
124.2559012591
 11
52.9904290359
 21
112.021060431
  0
LINE
  5
293
100
AcDbEntity
  8
00_COMPONENTS_1
100
AcDbLine
 62
7
  6
BYLAYER
 10
52.9904290359
 20
110.3026069776
 11
52.9904290359
 21
104.1389147059
  0
LINE
  5
294
100
AcDbEntity
  8
00_COMPONENTS_1
100
AcDbLine
 62
7
  6
BYLAYER
 10
53.0800990179
 20
139.3935336118
 11
53.0800990179
 21
140.6228648701
  0
LINE
  5
295
100
AcDbEntity
  8
00_COMPONENTS_1
100
AcDbLine
 62
7
  6
BYLAYER
 10
53.0800990179
 20
142.6096658602
 11
53.0800990179
 21
142.6200346443
  0
LINE
  5
296
100
AcDbEntity
  8
00_COMPONENTS_1
100
AcDbLine
 62
7
  6
BYLAYER
 10
53.0980596049
 20
142.6096653292
 11
53.0980596049
 21
142.6304044905
  0
LINE
  5
297
100
AcDbEntity
  8
00_COMPONENTS
100
AcDbLine
 62
7
  6
BYLAYER
 10
53.5715272014
 20
34.4455403364
 11
53.5715272014
 21
46.5573234362
  0
LINE
  5
298
100
AcDbEntity
  8
00_COMPONENTS_1
100
AcDbLine
 62
7
  6
BYLAYER
 10
53.6278971463
 20
140.9391343791
 11
53.6278971463
 21
142.2934016182
  0
LINE
  5
299
100
AcDbEntity
  8
00_COMPONENTS_1
100
AcDbLine
 62
7
  6
BYLAYER
 10
68.5052662295
 20
115.6987611424
 11
70.2959587741
 21
118.8003488276
  0
LINE
  5
29A
100
AcDbEntity
  8
00_COMPONENTS_1
100
AcDbLine
 62
7
  6
BYLAYER
 10
70.6134574522
 20
118.6170356392
 11
68.8227649076
 21
115.515447954
  0
LINE
  5
29B
100
AcDbEntity
  8
00_COMPONENTS_1
100
AcDbLine
 62
7
  6
BYLAYER
 10
67.935566068
 20
113.9012908478
 11
62.6410740245
 21
104.7309107224
  0
LINE
  5
29C
100
AcDbEntity
  8
00_COMPONENTS_1
100
AcDbLine
 62
7
  6
BYLAYER
 10
72.7313849765
 20
119.168655652
 11
71.9630381755
 21
117.8378325672
  0
LINE
  5
29D
100
AcDbEntity
  8
00_COMPONENTS_1
100
AcDbLine
 62
7
  6
BYLAYER
 10
70.1723456309
 20
114.7362448819
 11
69.4039988298
 21
113.4054217971
  0
LINE
  5
29E
100
AcDbEntity
  8
00_COMPONENTS_1
100
AcDbLine
 62
7
  6
BYLAYER
 10
72.8930839337
 20
118.8992860312
 11
72.5755852556
 21
118.3493591366
  0
LINE
  5
29F
100
AcDbEntity
  8
00_COMPONENTS_1
100
AcDbLine
 62
7
  6
BYLAYER
 10
70.0355958307
 20
113.9499439802
 11
69.7180971525
 21
113.4000170857
  0
LINE
  5
2A0
100
AcDbEntity
  8
00_COMPONENTS_1
100
AcDbLine
 62
7
  6
BYLAYER
 10
70.7374932779
 20
112.6355064059
 11
74.0648794246
 21
118.3987402608
  0
LINE
  5
2A1
100
AcDbEntity
  8
00_COMPONENTS_3
100
AcDbLine
 62
7
  6
BYLAYER
 10
61.2636128201
 20
91.1974737067
 11
70.2388818258
 21
96.3793167518
  0
LINE
  5
2A2
100
AcDbEntity
  8
00_COMPONENTS_3
100
AcDbLine
 62
7
  6
BYLAYER
 10
80.845439384
 20
102.5029790598
 11
89.8207083898
 21
107.6848221049
  0
LINE
  5
2A3
100
AcDbEntity
  8
00_COMPONENTS_3
100
AcDbLine
 62
7
  6
BYLAYER
 10
27.322346013
 20
90.3804694954
 11
61.2636128201
 21
70.7849132784
  0
LINE
  5
2A4
100
AcDbEntity
  8
00_COMPONENTS_3
100
AcDbLine
 62
7
  6
BYLAYER
 10
61.2636128201
 20
72.8261693213
 11
27.322346013
 21
92.4217255382
  0
LINE
  5
2A5
100
AcDbEntity
  8
00_COMPONENTS_3
100
AcDbLine
 62
7
  6
BYLAYER
 10
27.3582670375
 20
92.4217256246
 11
61.2636126705
 21
72.8469080379
  0
LINE
  5
2A6
100
AcDbEntity
  8
00_COMPONENTS_1
100
AcDbLine
 62
7
  6
BYLAYER
 10
54.6606306755
 20
139.8276015392
 11
54.6606306755
 21
141.7282740712
  0
LINE
  5
2A7
100
AcDbEntity
  8
00_COMPONENTS_1
100
AcDbLine
 62
7
  6
BYLAYER
 10
79.7671556836
 20
123.2307355164
 11
78.4336612355
 21
120.9210425593
  0
LINE
  5
2A8
100
AcDbEntity
  8
00_COMPONENTS_1
100
AcDbLine
 62
7
  6
BYLAYER
 10
83.6041285843
 20
128.1021634189
 11
80.5355024847
 21
122.7871176005
  0
LINE
  5
2A9
100
AcDbEntity
  8
00_COMPONENTS_1
100
AcDbLine
 62
7
  6
BYLAYER
 10
80.7623754335
 20
122.9493636575
 11
80.3813770198
 21
122.2894513841
  0
LINE
  5
2AA
100
AcDbEntity
  8
00_COMPONENTS_1
100
AcDbLine
 62
7
  6
BYLAYER
 10
83.9046553677
 20
126.5611267538
 11
81.4281656783
 21
122.2716969763
  0
LINE
  5
2AB
100
AcDbEntity
  8
00_COMPONENTS_1
100
AcDbLine
 62
7
  6
BYLAYER
 10
80.2717532132
 20
119.8597569237
 11
81.6052517024
 21
122.1694568802
  0
LINE
  5
2AC
100
AcDbEntity
  8
00_COMPONENTS_1
100
AcDbLine
 62
7
  6
BYLAYER
 10
81.9227552014
 20
121.9861520419
 11
80.5892518913
 21
119.6764437353
  0
LINE
  5
2AD
100
AcDbEntity
  8
00_COMPONENTS_1
100
AcDbLine
 62
7
  6
BYLAYER
 10
82.3261950293
 20
121.753231218
 11
85.3948211289
 21
127.0682770365
  0
LINE
  5
2AE
100
AcDbEntity
  8
00_COMPONENTS_3
100
AcDbLine
 62
7
  6
BYLAYER
 10
60.3394339928
 20
68.1112211925
 11
60.3394339928
 21
69.4348532609
  0
LINE
  5
2AF
100
AcDbEntity
  8
00_COMPONENTS_3
100
AcDbLine
 62
7
  6
BYLAYER
 10
61.2636128201
 20
70.7849132784
 11
61.2636128201
 21
72.8261693213
  0
LINE
  5
2B0
100
AcDbEntity
  8
00_COMPONENTS_3
100
AcDbLine
 62
7
  6
BYLAYER
 10
61.2636126705
 20
72.8469080379
 11
61.2636128201
 21
99.362497878
  0
LINE
  5
2B1
100
AcDbEntity
  8
00_COMPONENTS_1
100
AcDbLine
 62
7
  6
BYLAYER
 10
63.2368388687
 20
132.878047475
 11
63.2368388687
 21
132.9091554205
  0
LINE
  5
2B2
100
AcDbEntity
  8
00_COMPONENTS
100
AcDbLine
 62
7
  6
BYLAYER
 10
63.5715272014
 20
34.4455403364
 11
63.5715272014
 21
46.467606268
  0
LINE
  5
2B3
100
AcDbEntity
  8
00_COMPONENTS_1
100
AcDbLine
 62
7
  6
BYLAYER
 10
63.7666764101
 20
132.5514133867
 11
63.7666764101
 21
132.5721525481
  0
LINE
  5
2B4
100
AcDbEntity
  8
00_COMPONENTS_1
100
AcDbLine
 62
7
  6
BYLAYER
 10
81.7610473822
 20
118.999920345
 11
83.0945418303
 21
121.3096133021
  0
LINE
  5
2B5
100
AcDbEntity
  8
00_COMPONENTS_1
100
AcDbLine
 62
7
  6
BYLAYER
 10
86.3155672954
 20
126.5366687901
 11
84.5629745922
 21
123.5010723322
  0
LINE
  5
2B6
100
AcDbEntity
  8
00_COMPONENTS_1
100
AcDbLine
 62
7
  6
BYLAYER
 10
36.4857064029
 20
136.245863838
 11
35.8985082439
 21
137.5204147157
  0
LINE
  5
2B7
100
AcDbEntity
  8
00_COMPONENTS_1
100
AcDbLine
 62
7
  6
BYLAYER
 10
36.6622594117
 20
136.5910508241
 11
36.3557063404
 21
137.2564437244
  0
LINE
  5
2B8
100
AcDbEntity
  8
00_COMPONENTS_1
100
AcDbLine
 62
7
  6
BYLAYER
 10
36.6976590577
 20
138.0750294698
 11
36.9827294386
 21
137.4562661127
  0
LINE
  5
2B9
100
AcDbEntity
  8
00_COMPONENTS_1
100
AcDbLine
 62
7
  6
BYLAYER
 10
65.5806675829
 20
135.423730451
 11
65.5806675829
 21
134.262357482
  0
LINE
  5
2BA
100
AcDbEntity
  8
00_COMPONENTS_1
100
AcDbLine
 62
7
  6
BYLAYER
 10
65.670365681
 20
149.88898546
 11
65.670365681
 21
149.9097242631
  0
LINE
  5
2BB
100
AcDbEntity
  8
00_COMPONENTS
100
AcDbLine
 62
7
  6
BYLAYER
 10
65.8048042376
 20
68.6586202697
 11
65.8048042376
 21
64.198599276
  0
LINE
  5
2BC
100
AcDbEntity
  8
00_COMPONENTS_1
100
AcDbLine
 62
7
  6
BYLAYER
 10
67.0354175533
 20
142.5595745349
 11
67.0354175533
 21
142.5682218418
  0
LINE
  5
2BD
100
AcDbEntity
  8
00_COMPONENTS_1
100
AcDbLine
 62
7
  6
BYLAYER
 10
67.1432386536
 20
134.5216000317
 11
67.1432386536
 21
134.5008608703
  0
LINE
  5
2BE
100
AcDbEntity
  8
00_COMPONENTS
100
AcDbLine
 62
7
  6
BYLAYER
 10
68.1131217699
 20
70.9764526281
 11
68.1131217699
 21
69.7321029444
  0
LINE
  5
2BF
100
AcDbEntity
  8
00_COMPONENTS_1
100
AcDbLine
 62
7
  6
BYLAYER
 10
69.1726901698
 20
143.1510953647
 11
69.1726901698
 21
143.6433678956
  0
LINE
  5
2C0
100
AcDbEntity
  8
00_COMPONENTS
100
AcDbLine
 62
7
  6
BYLAYER
 10
69.422784874
 20
70.4882327766
 11
69.422784874
 21
69.9697447823
  0
LINE
  5
2C1
100
AcDbEntity
  8
00_COMPONENTS_1
100
AcDbLine
 62
7
  6
BYLAYER
 10
89.8574666357
 20
120.444208527
 11
85.2789327358
 21
112.5139111662
  0
LINE
  5
2C2
100
AcDbEntity
  8
00_COMPONENTS_3
100
AcDbLine
 62
7
  6
BYLAYER
 10
61.2636126705
 20
72.8469080379
 11
89.7847873653
 21
89.3135176332
  0
LINE
  5
2C3
100
AcDbEntity
  8
00_COMPONENTS_3
100
AcDbLine
 62
7
  6
BYLAYER
 10
61.2636128201
 20
72.8261693213
 11
89.8207083898
 21
89.3135177195
  0
LINE
  5
2C4
100
AcDbEntity
  8
00_COMPONENTS_3
100
AcDbLine
 62
7
  6
BYLAYER
 10
61.2636128201
 20
70.7849132784
 11
89.8207083898
 21
87.2722616767
  0
LINE
  5
2C5
100
AcDbEntity
  8
00_COMPONENTS_3
100
AcDbLine
 62
7
  6
BYLAYER
 10
27.322346013
 20
110.7930299237
 11
37.2218821651
 21
105.0776593604
  0
LINE
  5
2C6
100
AcDbEntity
  8
00_COMPONENTS_3
100
AcDbLine
 62
7
  6
BYLAYER
 10
51.364076668
 20
96.91284427
 11
61.2636128201
 21
91.1974737067
  0
LINE
  5
2C7
100
AcDbEntity
  8
00_COMPONENTS_3
100
AcDbLine
 62
7
  6
BYLAYER
 10
70.2388818258
 20
96.3793167518
 11
70.2388818258
 21
100.4618288374
  0
LINE
  5
2C8
100
AcDbEntity
  8
00_COMPONENTS_1
100
AcDbLine
 62
7
  6
BYLAYER
 10
70.4390394976
 20
128.0252049558
 11
70.4390394976
 21
129.4976854149
  0
LINE
  5
2C9
100
AcDbEntity
  8
00_COMPONENTS
100
AcDbLine
 62
7
  6
BYLAYER
 10
71.0715272014
 20
53.0539249873
 11
71.0715272014
 21
55.1838743271
  0
LINE
  5
2CA
100
AcDbEntity
  8
00_COMPONENTS_1
100
AcDbLine
 62
7
  6
BYLAYER
 10
71.7051507363
 20
142.5682330665
 11
71.7051507363
 21
142.5595856656
  0
LINE
  5
2CB
100
AcDbEntity
  8
00_COMPONENTS_1
100
AcDbLine
 62
7
  6
BYLAYER
 10
72.8816793321
 20
126.6149780934
 11
72.8816793321
 21
128.0874585525
  0
LINE
  5
2CC
100
AcDbEntity
  8
00_COMPONENTS
100
AcDbLine
 62
7
  6
BYLAYER
 10
73.763120706
 20
72.4756238852
 11
73.763120706
 21
72.9941118795
  0
LINE
  5
2CD
100
AcDbEntity
  8
00_COMPONENTS_1
100
AcDbLine
 62
7
  6
BYLAYER
 10
74.120929178
 20
130.150932265
 11
74.120929178
 21
131.6234127241
  0
LINE
  5
2CE
100
AcDbEntity
  8
00_COMPONENTS
100
AcDbLine
 62
7
  6
BYLAYER
 10
74.5715272054
 20
65.5088528582
 11
74.5715272054
 21
68.9435314608
  0
LINE
  5
2CF
100
AcDbEntity
  8
00_COMPONENTS_3
100
AcDbLine
 62
7
  6
BYLAYER
 10
60.3394339928
 20
69.4348532609
 11
92.1591066674
 21
87.8058401852
  0
LINE
  5
2D0
100
AcDbEntity
  8
00_COMPONENTS_3
100
AcDbLine
 62
7
  6
BYLAYER
 10
60.3394339928
 20
68.1112211925
 11
92.1591066674
 21
86.4822081167
  0
LINE
  5
2D1
100
AcDbEntity
  8
00_COMPONENTS
100
AcDbLine
 62
7
  6
BYLAYER
 10
68.1131217699
 20
70.9764526281
 11
75.970813161
 21
75.513065788
  0
LINE
  5
2D2
100
AcDbEntity
  8
00_COMPONENTS
100
AcDbLine
 62
7
  6
BYLAYER
 10
66.2507965138
 20
68.9161124934
 11
65.8048042376
 21
68.6586202697
  0
LINE
  5
2D3
100
AcDbEntity
  8
00_COMPONENTS
100
AcDbLine
 62
7
  6
BYLAYER
 10
75.970813161
 20
74.2687161043
 11
68.1131217699
 21
69.7321029444
  0
LINE
  5
2D4
100
AcDbEntity
  8
00_COMPONENTS
100
AcDbLine
 62
7
  6
BYLAYER
 10
73.763120706
 20
72.4756238852
 11
69.422784874
 21
69.9697447823
  0
LINE
  5
2D5
100
AcDbEntity
  8
00_COMPONENTS_3
100
AcDbLine
 62
7
  6
BYLAYER
 10
37.2218821651
 20
109.160171446
 11
51.364076668
 21
100.9953563556
  0
LINE
  5
2D6
100
AcDbEntity
  8
00_COMPONENTS_1
100
AcDbLine
 62
7
  6
BYLAYER
 10
38.92323524
 20
140.5645615685
 11
36.2562060832
 21
145.3708344816
  0
LINE
  5
2D7
100
AcDbEntity
  8
00_COMPONENTS_1
100
AcDbLine
 62
7
  6
BYLAYER
 10
68.138452525
 20
119.3598333836
 11
68.0520690018
 21
120.0304556582
  0
LINE
  5
2D8
100
AcDbEntity
  8
00_COMPONENTS_1
100
AcDbLine
 62
7
  6
BYLAYER
 10
75.0457921048
 20
144.4865723455
 11
75.0457921048
 21
144.496941747
  0
LINE
  5
2D9
100
AcDbEntity
  8
00_COMPONENTS
100
AcDbLine
 62
7
  6
BYLAYER
 10
75.970813161
 20
74.2687161043
 11
75.970813161
 21
75.513065788
  0
LINE
  5
2DA
100
AcDbEntity
  8
00_COMPONENTS
100
AcDbLine
 62
7
  6
BYLAYER
 10
76.034057316
 20
74.3686761309
 11
76.034057316
 21
70.1044260414
  0
LINE
  5
2DB
100
AcDbEntity
  8
00_COMPONENTS_1
100
AcDbLine
 62
7
  6
BYLAYER
 10
77.4615908858
 20
129.259175478
 11
77.4615908858
 21
130.7316559371
  0
LINE
  5
2DC
100
AcDbEntity
  8
00_COMPONENTS_1
100
AcDbLine
 62
7
  6
BYLAYER
 10
79.7335053167
 20
141.790550489
 11
79.7335053167
 21
141.769811686
  0
LINE
  5
2DD
100
AcDbEntity
  8
00_COMPONENTS
100
AcDbLine
 62
7
  6
BYLAYER
 10
71.0226054369
 20
54.8655670824
 11
71.8867239244
 21
60.4879148804
  0
LINE
  5
2DE
100
AcDbEntity
  8
00_COMPONENTS_1
100
AcDbLine
 62
7
  6
BYLAYER
 10
52.9904290359
 20
104.1389147059
 11
51.194370334
 21
105.1758462223
  0
LINE
  5
2DF
100
AcDbEntity
  8
00_COMPONENTS_3
100
AcDbLine
 62
7
  6
BYLAYER
 10
61.2636128201
 20
99.362497878
 11
27.322346013
 21
118.958054095
  0
LINE
  5
2E0
100
AcDbEntity
  8
00_COMPONENTS_1
100
AcDbLine
 62
7
  6
BYLAYER
 10
35.3172114094
 20
114.342320828
 11
37.1132701113
 21
113.3053893116
  0
LINE
  5
2E1
100
AcDbEntity
  8
00_COMPONENTS_1
100
AcDbLine
 62
7
  6
BYLAYER
 10
37.1312306983
 20
113.2950199964
 11
41.8099636167
 21
110.593813396
  0
LINE
  5
2E2
100
AcDbEntity
  8
00_COMPONENTS_1
100
AcDbLine
 62
7
  6
BYLAYER
 10
41.8189439102
 20
110.5886287384
 11
51.176409747
 21
105.1862155375
  0
LINE
  5
2E3
100
AcDbEntity
  8
00_COMPONENTS_1
100
AcDbLine
 62
7
  6
BYLAYER
 10
58.1437121591
 20
107.3274322846
 11
56.2245911916
 21
109.5760661027
  0
LINE
  5
2E4
100
AcDbEntity
  8
00_COMPONENTS_3
100
AcDbLine
 62
7
  6
BYLAYER
 10
80.827478797
 20
106.5751216576
 11
80.827478797
 21
102.513348375
  0
LINE
  5
2E5
100
AcDbEntity
  8
00_COMPONENTS_3
100
AcDbLine
 62
7
  6
BYLAYER
 10
80.845439384
 20
106.5854911455
 11
80.845439384
 21
102.5029790598
  0
LINE
  5
2E6
100
AcDbEntity
  8
00_COMPONENTS_1
100
AcDbLine
 62
7
  6
BYLAYER
 10
81.5475246056
 20
132.5559971144
 11
81.5475246056
 21
140.7432496574
  0
LINE
  5
2E7
100
AcDbEntity
  8
00_COMPONENTS_1
100
AcDbLine
 62
7
  6
BYLAYER
 10
50.9441786081
 20
111.4839908844
 11
67.2196079244
 21
102.0874173628
  0
LINE
  5
2E8
100
AcDbEntity
  8
00_COMPONENTS_1
100
AcDbLine
 62
7
  6
BYLAYER
 10
37.1132701113
 20
119.4690815833
 11
27.0072693793
 21
125.3036320094
  0
LINE
  5
2E9
100
AcDbEntity
  8
00_COMPONENTS_3
100
AcDbLine
 62
7
  6
BYLAYER
 10
89.8207083898
 20
89.1558845181
 11
92.1591066674
 21
87.8058401852
  0
LINE
  5
2EA
100
AcDbEntity
  8
00_COMPONENTS_3
100
AcDbLine
 62
7
  6
BYLAYER
 10
89.7937673541
 20
89.3290717819
 11
89.8207083898
 21
89.3135177195
  0
LINE
  5
2EB
100
AcDbEntity
  8
00_COMPONENTS_1
100
AcDbLine
 62
7
  6
BYLAYER
 10
36.8630783855
 20
120.7541878503
 11
31.5826658019
 21
123.8027665088
  0
LINE
  5
2EC
100
AcDbEntity
  8
00_COMPONENTS_1
100
AcDbLine
 62
7
  6
BYLAYER
 10
50.9441786081
 20
112.6246447611
 11
56.2245911916
 21
109.5760661027
  0
LINE
  5
2ED
100
AcDbEntity
  8
00_COMPONENTS_1
100
AcDbLine
 62
7
  6
BYLAYER
 10
35.3172114094
 20
122.2244665532
 11
37.1132701113
 21
121.1875350367
  0
LINE
  5
2EE
100
AcDbEntity
  8
00_COMPONENTS_1
100
AcDbLine
 62
7
  6
BYLAYER
 10
51.194370334
 20
113.0579919475
 11
52.9904290359
 21
112.021060431
  0
LINE
  5
2EF
100
AcDbEntity
  8
00_COMPONENTS_1
100
AcDbLine
 62
7
  6
BYLAYER
 10
65.6129375523
 20
117.4915033529
 11
63.809260471
 21
121.4064989495
  0
LINE
  5
2F0
100
AcDbEntity
  8
00_COMPONENTS_1
100
AcDbLine
 62
7
  6
BYLAYER
 10
66.0701356488
 20
117.2275323617
 11
64.2664585675
 21
121.1425279583
  0
LINE
  5
2F1
100
AcDbEntity
  8
00_COMPONENTS_1
100
AcDbLine
 62
7
  6
BYLAYER
 10
64.6084112848
 20
121.9611137037
 11
66.4120883662
 21
118.0461181071
  0
LINE
  5
2F2
100
AcDbEntity
  8
00_COMPONENTS_3
100
AcDbLine
 62
7
  6
BYLAYER
 10
89.7847873653
 20
107.6640832156
 11
89.7847873653
 21
89.3135176332
  0
LINE
  5
2F3
100
AcDbEntity
  8
00_COMPONENTS_3
100
AcDbLine
 62
7
  6
BYLAYER
 10
89.8207083898
 20
115.8498462762
 11
89.8207083898
 21
107.6848221049
  0
LINE
  5
2F4
100
AcDbEntity
  8
00_COMPONENTS_3
100
AcDbLine
 62
7
  6
BYLAYER
 10
89.8207083898
 20
89.3135177195
 11
89.8207083898
 21
87.2722616767
  0
LINE
  5
2F5
100
AcDbEntity
  8
00_COMPONENTS_3
100
AcDbLine
 62
7
  6
BYLAYER
 10
80.845439384
 20
102.5029790598
 11
80.827478797
 21
102.513348375
  0
LINE
  5
2F6
100
AcDbEntity
  8
00_COMPONENTS_3
100
AcDbLine
 62
7
  6
BYLAYER
 10
92.1591066674
 20
87.8058401852
 11
92.1591066674
 21
86.4822081167
  0
LINE
  5
2F7
100
AcDbEntity
  8
00_COMPONENTS_1
100
AcDbLine
 62
7
  6
BYLAYER
 10
55.7882246199
 20
120.9144966901
 11
67.935566068
 21
113.9012908478
  0
LINE
  5
2F8
100
AcDbEntity
  8
00_COMPONENTS_1
100
AcDbLine
 62
7
  6
BYLAYER
 10
35.3172114094
 20
132.7331743036
 11
30.5491687196
 21
135.4859009347
  0
LINE
  5
2F9
100
AcDbEntity
  8
00_COMPONENTS_1
100
AcDbLine
 62
7
  6
BYLAYER
 10
69.4039988298
 20
113.4054217971
 11
70.7374932779
 21
112.6355064059
  0
LINE
  5
2FA
100
AcDbEntity
  8
00_COMPONENTS_1
100
AcDbLine
 62
7
  6
BYLAYER
 10
69.7180971525
 20
113.4000170857
 11
69.4801864361
 21
113.5373788292
  0
LINE
  5
2FB
100
AcDbEntity
  8
00_COMPONENTS_1
100
AcDbLine
 62
7
  6
BYLAYER
 10
63.8406797061
 20
117.5266009501
 11
64.0516597336
 21
117.4047880917
  0
LINE
  5
2FC
100
AcDbEntity
  8
00_COMPONENTS_1
100
AcDbLine
 62
7
  6
BYLAYER
 10
69.7976831633
 20
114.0873068501
 11
70.0355958307
 21
113.9499439802
  0
LINE
  5
2FD
100
AcDbEntity
  8
00_COMPONENTS_1
100
AcDbLine
 62
7
  6
BYLAYER
 10
34.8149902043
 20
134.5774587052
 11
34.8619078362
 21
134.5503714106
  0
LINE
  5
2FE
100
AcDbEntity
  8
00_COMPONENTS_1
100
AcDbLine
 62
7
  6
BYLAYER
 10
61.6560508274
 20
119.0811157033
 11
63.2023697662
 21
118.1883682444
  0
LINE
  5
2FF
100
AcDbEntity
  8
00_COMPONENTS_1
100
AcDbLine
 62
7
  6
BYLAYER
 10
52.9904290359
 20
124.2559012591
 11
51.194370334
 21
125.2928327756
  0
LINE
  5
300
100
AcDbEntity
  8
00_COMPONENTS_1
100
AcDbLine
 62
7
  6
BYLAYER
 10
51.176409747
 20
125.3032020908
 11
41.8189439102
 21
130.7056152916
  0
LINE
  5
301
100
AcDbEntity
  8
00_COMPONENTS_1
100
AcDbLine
 62
7
  6
BYLAYER
 10
35.3172114094
 20
134.4593073813
 11
37.1132701113
 21
133.4223758648
  0
LINE
  5
302
100
AcDbEntity
  8
00_COMPONENTS_1
100
AcDbLine
 62
7
  6
BYLAYER
 10
41.8099636167
 20
130.7107999492
 11
37.1312306983
 21
133.4120065496
  0
LINE
  5
303
100
AcDbEntity
  8
00_COMPONENTS_1
100
AcDbLine
 62
7
  6
BYLAYER
 10
61.5303199446
 20
119.7256810901
 11
60.8647345141
 21
120.1099888804
  0
LINE
  5
304
100
AcDbEntity
  8
00_COMPONENTS_1
100
AcDbLine
 62
7
  6
BYLAYER
 10
70.1723456309
 20
114.7362448819
 11
65.0544933458
 21
117.6910745689
  0
LINE
  5
305
100
AcDbEntity
  8
00_COMPONENTS_1
100
AcDbLine
 62
7
  6
BYLAYER
 10
35.060335479
 20
135.0077259177
 11
31.4699148861
 21
137.0806889289
  0
LINE
  5
306
100
AcDbEntity
  8
00_COMPONENTS_1
100
AcDbLine
 62
7
  6
BYLAYER
 10
66.0701356488
 20
117.2275323617
 11
65.6129375523
 21
117.4915033529
  0
LINE
  5
307
100
AcDbEntity
  8
00_COMPONENTS_1
100
AcDbLine
 62
7
  6
BYLAYER
 10
66.4120883662
 20
118.0461181071
 11
66.8692864627
 21
117.7821471158
  0
LINE
  5
308
100
AcDbEntity
  8
00_COMPONENTS_1
100
AcDbLine
 62
7
  6
BYLAYER
 10
35.8985082439
 20
137.5204147157
 11
36.3557063403
 21
137.2564437244
  0
LINE
  5
309
100
AcDbEntity
  8
00_COMPONENTS_1
100
AcDbLine
 62
7
  6
BYLAYER
 10
63.809260471
 20
121.4064989495
 11
64.2664585675
 21
121.1425279583
  0
LINE
  5
30A
100
AcDbEntity
  8
00_COMPONENTS_1
100
AcDbLine
 62
7
  6
BYLAYER
 10
62.6554270587
 20
123.2115765657
 11
63.3210124892
 21
122.8272687754
  0
LINE
  5
30B
100
AcDbEntity
  8
00_COMPONENTS_1
100
AcDbLine
 62
7
  6
BYLAYER
 10
66.8451858904
 20
120.7926622542
 11
71.9630381755
 21
117.8378325672
  0
LINE
  5
30C
100
AcDbEntity
  8
00_COMPONENTS_1
100
AcDbLine
 62
7
  6
BYLAYER
 10
33.2606074307
 20
140.1822766141
 11
36.8530671992
 21
138.1081362507
  0
LINE
  5
30D
100
AcDbEntity
  8
00_COMPONENTS_1
100
AcDbLine
 62
7
  6
BYLAYER
 10
65.4874386643
 20
122.14837395
 11
63.9419585062
 21
123.0406371497
  0
LINE
  5
30E
100
AcDbEntity
  8
00_COMPONENTS_1
100
AcDbLine
 62
7
  6
BYLAYER
 10
37.1480142008
 20
138.5097781483
 11
37.1009806868
 21
138.536932346
  0
LINE
  5
30F
100
AcDbEntity
  8
00_COMPONENTS_1
100
AcDbLine
 62
7
  6
BYLAYER
 10
66.5917235238
 20
121.8041603121
 11
66.3806691311
 21
121.9260161065
  0
LINE
  5
310
100
AcDbEntity
  8
00_COMPONENTS_1
100
AcDbLine
 62
7
  6
BYLAYER
 10
72.5755852556
 20
118.3493591366
 11
72.3376725883
 21
118.4867220065
  0
LINE
  5
311
100
AcDbEntity
  8
00_COMPONENTS_1
100
AcDbLine
 62
7
  6
BYLAYER
 10
72.6551693148
 20
119.0366500278
 11
72.8930839337
 21
118.8992860312
  0
LINE
  5
312
100
AcDbEntity
  8
00_COMPONENTS_1
100
AcDbLine
 62
7
  6
BYLAYER
 10
74.0648794246
 20
118.3987402608
 11
72.7313849765
 21
119.168655652
  0
LINE
  5
313
100
AcDbEntity
  8
00_COMPONENTS_1
100
AcDbLine
 62
7
  6
BYLAYER
 10
42.4075891217
 20
138.5529144266
 11
38.92323524
 21
140.5645615685
  0
LINE
  5
314
100
AcDbEntity
  8
00_COMPONENTS_1
100
AcDbLine
 62
7
  6
BYLAYER
 10
60.0808067481
 20
128.3495083044
 11
63.5651606297
 21
126.3378611624
  0
LINE
  5
315
100
AcDbEntity
  8
00_COMPONENTS_1
100
AcDbLine
 62
7
  6
BYLAYER
 10
31.5826658019
 20
123.8027665088
 11
29.6635448344
 21
123.7700925734
  0
LINE
  5
316
100
AcDbEntity
  8
00_COMPONENTS_1
100
AcDbLine
 62
7
  6
BYLAYER
 10
71.8900107283
 20
124.7981131946
 11
63.5651606297
 21
126.3378611624
  0
LINE
  5
317
100
AcDbEntity
  8
00_COMPONENTS_1
100
AcDbLine
 62
7
  6
BYLAYER
 10
78.4336612355
 20
120.9210425593
 11
81.7610473822
 21
118.999920345
  0
LINE
  5
318
100
AcDbEntity
  8
00_COMPONENTS_3
100
AcDbLine
 62
7
  6
BYLAYER
 10
87.8588570879
 20
116.9824960295
 11
89.8207083898
 21
115.8498462762
  0
LINE
  5
319
100
AcDbEntity
  8
00_COMPONENTS_1
100
AcDbLine
 62
7
  6
BYLAYER
 10
72.8816793321
 20
126.6149780934
 11
70.4390394976
 21
128.0252049558
  0
LINE
  5
31A
100
AcDbEntity
  8
00_COMPONENTS_1
100
AcDbLine
 62
7
  6
BYLAYER
 10
41.8457849638
 20
144.5331546982
 11
39.4031451292
 21
145.9433815606
  0
LINE
  5
31B
100
AcDbEntity
  8
00_COMPONENTS_1
100
AcDbLine
 62
7
  6
BYLAYER
 10
80.3813770198
 20
122.2894513841
 11
79.5131302961
 21
122.7907481963
  0
LINE
  5
31C
100
AcDbEntity
  8
00_COMPONENTS_1
100
AcDbLine
 62
7
  6
BYLAYER
 10
83.0945418303
 20
121.3096133021
 11
81.4281656783
 21
122.2716969763
  0
LINE
  5
31D
100
AcDbEntity
  8
00_COMPONENTS_1
100
AcDbLine
 62
7
  6
BYLAYER
 10
80.5355024847
 20
122.7871176005
 11
79.7671556836
 21
123.2307355164
  0
LINE
  5
31E
100
AcDbEntity
  8
00_COMPONENTS_1
100
AcDbLine
 62
7
  6
BYLAYER
 10
63.7666764101
 20
132.5721525481
 11
62.2041053395
 21
133.4742829674
  0
LINE
  5
31F
100
AcDbEntity
  8
00_COMPONENTS_1
100
AcDbLine
 62
7
  6
BYLAYER
 10
51.2840684321
 20
139.7788265876
 11
49.7214973614
 21
140.680957007
  0
LINE
  5
320
100
AcDbEntity
  8
00_COMPONENTS_1
100
AcDbLine
 62
7
  6
BYLAYER
 10
63.8115776533
 20
132.5773373352
 11
63.2368388687
 21
132.9091554205
  0
LINE
  5
321
100
AcDbEntity
  8
00_COMPONENTS_1
100
AcDbLine
 62
7
  6
BYLAYER
 10
49.7304774306
 20
140.7068804244
 11
50.3052162152
 21
140.3750623391
  0
LINE
  5
322
100
AcDbEntity
  8
00_COMPONENTS_1
100
AcDbLine
 62
7
  6
BYLAYER
 10
81.5551603527
 20
122.4916594257
 11
80.6624755109
 21
123.0070425539
  0
LINE
  5
323
100
AcDbEntity
  8
00_COMPONENTS_1
100
AcDbLine
 62
7
  6
BYLAYER
 10
77.941500775
 20
134.6379954701
 11
80.6085299318
 21
129.8317225571
  0
LINE
  5
324
100
AcDbEntity
  8
00_COMPONENTS_1
100
AcDbLine
 62
7
  6
BYLAYER
 10
81.6821620913
 20
122.7116341106
 11
80.7894873998
 21
123.2270348199
  0
LINE
  5
325
100
AcDbEntity
  8
00_COMPONENTS_1
100
AcDbLine
 62
7
  6
BYLAYER
 10
72.8816793321
 20
128.0874585525
 11
70.4390394976
 21
129.4976854149
  0
LINE
  5
326
100
AcDbEntity
  8
00_COMPONENTS_1
100
AcDbLine
 62
7
  6
BYLAYER
 10
41.8457849638
 20
146.0056351573
 11
39.4031451292
 21
147.4158620197
  0
LINE
  5
327
100
AcDbEntity
  8
00_COMPONENTS_1
100
AcDbLine
 62
7
  6
BYLAYER
 10
81.1069860779
 20
123.7769617144
 11
81.9996607694
 21
123.2615610052
  0
LINE
  5
328
100
AcDbEntity
  8
00_COMPONENTS_1
100
AcDbLine
 62
7
  6
BYLAYER
 10
41.1991963534
 20
147.4158663368
 11
42.743806837
 21
146.5241052327
  0
LINE
  5
329
100
AcDbEntity
  8
00_COMPONENTS_1
100
AcDbLine
 62
7
  6
BYLAYER
 10
71.3370613709
 20
130.0161554903
 11
72.8816718545
 21
129.1243943861
  0
LINE
  5
32A
100
AcDbEntity
  8
00_COMPONENTS_1
100
AcDbLine
 62
7
  6
BYLAYER
 10
89.8574666357
 20
120.444208527
 11
84.5629745922
 21
123.5010723322
  0
LINE
  5
32B
100
AcDbEntity
  8
00_COMPONENTS_1
100
AcDbLine
 62
7
  6
BYLAYER
 10
74.3903159471
 20
129.9954052599
 11
74.120929178
 21
130.150932265
  0
LINE
  5
32C
100
AcDbEntity
  8
00_COMPONENTS_1
100
AcDbLine
 62
7
  6
BYLAYER
 10
45.5276746441
 20
146.6588820074
 11
43.9830641605
 21
147.5506431116
  0
LINE
  5
32D
100
AcDbEntity
  8
00_COMPONENTS_1
100
AcDbLine
 62
7
  6
BYLAYER
 10
67.1342585844
 20
134.4956766142
 11
66.5595197998
 21
134.8274946995
  0
LINE
  5
32E
100
AcDbEntity
  8
00_COMPONENTS_1
100
AcDbLine
 62
7
  6
BYLAYER
 10
53.0531583617
 20
142.6252197035
 11
53.6278971463
 21
142.2934016182
  0
LINE
  5
32F
100
AcDbEntity
  8
00_COMPONENTS_1
100
AcDbLine
 62
7
  6
BYLAYER
 10
53.0800990179
 20
142.6200346443
 11
53.0980596049
 21
142.6096653292
  0
LINE
  5
330
100
AcDbEntity
  8
00_COMPONENTS_1
100
AcDbLine
 62
7
  6
BYLAYER
 10
53.0980596049
 20
142.6304044905
 11
54.6606306755
 21
141.7282740712
  0
LINE
  5
331
100
AcDbEntity
  8
00_COMPONENTS_1
100
AcDbLine
 62
7
  6
BYLAYER
 10
65.5806675829
 20
135.423730451
 11
67.1432386536
 21
134.5216000317
  0
LINE
  5
332
100
AcDbEntity
  8
00_COMPONENTS_1
100
AcDbLine
 62
7
  6
BYLAYER
 10
75.6655396616
 20
130.7316516199
 11
74.120929178
 21
131.6234127241
  0
LINE
  5
333
100
AcDbEntity
  8
00_COMPONENTS_1
100
AcDbLine
 62
7
  6
BYLAYER
 10
45.5276746441
 20
148.1313624665
 11
43.9830641605
 21
149.0231235706
  0
LINE
  5
334
100
AcDbEntity
  8
00_COMPONENTS_1
100
AcDbLine
 62
7
  6
BYLAYER
 10
83.0119692467
 20
127.0765076665
 11
83.9046553677
 21
126.5611267538
  0
LINE
  5
335
100
AcDbEntity
  8
00_COMPONENTS_1
100
AcDbLine
 62
7
  6
BYLAYER
 10
43.9830566829
 20
150.0600594043
 11
46.4256965174
 21
148.6498325419
  0
LINE
  5
336
100
AcDbEntity
  8
00_COMPONENTS_1
100
AcDbLine
 62
7
  6
BYLAYER
 10
75.0189510512
 20
132.1418827995
 11
77.4615908858
 21
130.7316559371
  0
LINE
  5
337
100
AcDbEntity
  8
00_COMPONENTS_1
100
AcDbLine
 62
7
  6
BYLAYER
 10
85.835049705
 20
125.7043832895
 11
87.2011911806
 21
124.1036754789
  0
LINE
  5
338
100
AcDbEntity
  8
00_COMPONENTS_1
100
AcDbLine
 62
7
  6
BYLAYER
 10
83.6041285843
 20
128.1021634189
 11
82.3937947527
 21
129.7696021813
  0
LINE
  5
339
100
AcDbEntity
  8
00_COMPONENTS_1
100
AcDbLine
 62
7
  6
BYLAYER
 10
87.2011911806
 20
124.1036754789
 11
89.8574666357
 21
120.444208527
  0
LINE
  5
33A
100
AcDbEntity
  8
00_COMPONENTS_1
100
AcDbLine
 62
7
  6
BYLAYER
 10
84.1844872973
 20
128.7357157988
 11
85.3948211289
 21
127.0682770365
  0
LINE
  5
33B
100
AcDbEntity
  8
00_COMPONENTS_1
100
AcDbLine
 62
7
  6
BYLAYER
 10
82.2340829031
 20
132.1596011632
 11
86.3155672954
 21
126.5366687901
  0
LINE
  5
33C
100
AcDbEntity
  8
00_COMPONENTS_1
100
AcDbLine
 62
7
  6
BYLAYER
 10
86.3155672954
 20
126.5366687901
 11
85.3948211289
 21
127.0682770365
  0
LINE
  5
33D
100
AcDbEntity
  8
00_COMPONENTS_1
100
AcDbLine
 62
7
  6
BYLAYER
 10
83.6041285843
 20
128.1021634189
 11
80.6085299318
 21
129.8317225571
  0
LINE
  5
33E
100
AcDbEntity
  8
00_COMPONENTS_1
100
AcDbLine
 62
7
  6
BYLAYER
 10
80.7147518701
 20
131.5703333353
 11
80.699707667
 21
131.5790191873
  0
LINE
  5
33F
100
AcDbEntity
  8
00_COMPONENTS_1
100
AcDbLine
 62
7
  6
BYLAYER
 10
56.7839292669
 20
146.8530487342
 11
53.2995753853
 21
148.8646958762
  0
LINE
  5
340
100
AcDbEntity
  8
00_COMPONENTS_1
100
AcDbLine
 62
7
  6
BYLAYER
 10
74.4571468933
 20
136.6496426121
 11
82.2340829031
 21
132.1596011632
  0
LINE
  5
341
100
AcDbEntity
  8
00_COMPONENTS_1
100
AcDbLine
 62
7
  6
BYLAYER
 10
44.9747252867
 20
150.4044438441
 11
53.2995753853
 21
148.8646958762
  0
LINE
  5
342
100
AcDbEntity
  8
00_COMPONENTS_1
100
AcDbLine
 62
7
  6
BYLAYER
 10
81.5475246056
 20
140.7432496574
 11
79.7514659037
 21
141.7801811738
  0
LINE
  5
343
100
AcDbEntity
  8
00_COMPONENTS_1
100
AcDbLine
 62
7
  6
BYLAYER
 10
63.8743069791
 20
150.9466557795
 11
65.670365681
 21
149.9097242631
  0
LINE
  5
344
100
AcDbEntity
  8
00_COMPONENTS_1
100
AcDbLine
 62
7
  6
BYLAYER
 10
65.688326268
 20
149.8993549479
 11
75.0457921048
 21
144.496941747
  0
LINE
  5
345
100
AcDbEntity
  8
00_COMPONENTS_1
100
AcDbLine
 62
7
  6
BYLAYER
 10
75.0547723983
 20
144.4917570894
 11
79.7335053167
 21
141.790550489
  0
ARC
  5
346
100
AcDbEntity
  8
00_COMPONENTS
100
AcDbCircle
 62
7
  6
BYLAYER
 10
59.2418077943
 20
95.84462344
 40
27.8257187628
100
AcDbArc
 50
282.3095720405
 51
284.5893136853
  0
ARC
  5
347
100
AcDbEntity
  8
00_COMPONENTS
100
AcDbCircle
 62
7
  6
BYLAYER
 10
57.8487204887
 20
95.6249802626
 40
27.5999273567
100
AcDbArc
 50
255.4016626809
 51
257.7000620857
  0
ARC
  5
348
100
AcDbEntity
  8
00_COMPONENTS
100
AcDbCircle
 62
7
  6
BYLAYER
 10
59.741073104
 20
93.9366604006
 40
25.8535165199
100
AcDbArc
 50
284.5836127262
 51
289.078077701
  0
ARC
  5
349
100
AcDbEntity
  8
00_COMPONENTS
100
AcDbCircle
 62
7
  6
BYLAYER
 10
60.5624732063
 20
91.4948571865
 40
23.2773621114
100
AcDbArc
 50
289.1318229659
 51
292.3733754239
  0
ARC
  5
34A
100
AcDbEntity
  8
00_COMPONENTS
100
AcDbCircle
 62
7
  6
BYLAYER
 10
52.6763329103
 20
85.9379118533
 40
16.4170229307
100
AcDbArc
 50
235.2974772496
 51
236.1092775907
  0
ARC
  5
34B
100
AcDbEntity
  8
00_COMPONENTS
100
AcDbCircle
 62
7
  6
BYLAYER
 10
54.8960816995
 20
72.2077744116
 40
15.2773189569
100
AcDbArc
 50
240.0007623764
 51
240.7656659571
  0
ARC
  5
34C
100
AcDbEntity
  8
00_COMPONENTS
100
AcDbCircle
 62
7
  6
BYLAYER
 10
62.2832049601
 20
72.1450909441
 40
15.2049395278
100
AcDbArc
 50
299.2477009134
 51
299.9982947106
  0
ARC
  5
34D
100
AcDbEntity
  8
00_COMPONENTS
100
AcDbCircle
 62
7
  6
BYLAYER
 10
58.5715272014
 20
25.0913300073
 40
12.5
100
AcDbArc
 50
113.5584628081
 51
66.2969269409
  0
ARC
  5
34E
100
AcDbEntity
  8
00_COMPONENTS
100
AcDbCircle
 62
7
  6
BYLAYER
 10
67.6457659601
 20
82.1767852074
 40
11.4823328568
100
AcDbArc
 50
316.4714262016
 51
317.9893269443
  0
ARC
  5
34F
100
AcDbEntity
  8
00_COMPONENTS
100
AcDbCircle
 62
7
  6
BYLAYER
 10
67.9564022207
 20
81.8959401608
 40
11.0635629865
100
AcDbArc
 50
317.9933369025
 51
319.6895241183
  0
ARC
  5
350
100
AcDbEntity
  8
00_COMPONENTS
100
AcDbCircle
 62
7
  6
BYLAYER
 10
49.1724733757
 20
81.8851754738
 40
11.0457995817
100
AcDbArc
 50
220.6819011605
 51
221.9041793142
  0
ARC
  5
351
100
AcDbEntity
  8
00_COMPONENTS
100
AcDbCircle
 62
7
  6
BYLAYER
 10
45.4628358304
 20
81.0315007037
 40
6.7354299776
100
AcDbArc
 50
183.9802591253
 51
190.3085326059
  0
ARC
  5
352
100
AcDbEntity
  8
00_COMPONENTS_1
100
AcDbCircle
 62
7
  6
BYLAYER
 10
64.6300404314
 20
119.6860751775
 40
2.4046272566
100
AcDbArc
 50
290.2384143996
 51
294.1264855057
  0
ARC
  5
353
100
AcDbEntity
  8
00_COMPONENTS_1
100
AcDbCircle
 62
7
  6
BYLAYER
 10
65.3961020742
 20
119.2349497488
 40
2.3927455285
100
AcDbArc
 50
290.5907552269
 51
292.6591662263
  0
ARC
  5
354
100
AcDbEntity
  8
00_COMPONENTS_1
100
AcDbCircle
 62
7
  6
BYLAYER
 10
65.6789931807
 20
119.7247967832
 40
2.3926690218
100
AcDbArc
 50
7.3393966954
 51
9.4138791635
  0
ARC
  5
355
100
AcDbEntity
  8
00_COMPONENTS_1
100
AcDbCircle
 62
7
  6
BYLAYER
 10
67.928766271
 20
118.0992471022
 40
2.1363811034
100
AcDbArc
 50
318.7775481223
 51
341.1022453982
  0
ARC
  5
356
100
AcDbEntity
  8
00_COMPONENTS_1
100
AcDbCircle
 62
7
  6
BYLAYER
 10
64.6946225509
 20
119.0081221477
 40
1.7100068541
100
AcDbArc
 50
240.0410250182
 51
251.2990360679
  0
ARC
  5
357
100
AcDbEntity
  8
00_COMPONENTS_1
100
AcDbCircle
 62
7
  6
BYLAYER
 10
65.5293032717
 20
120.4522107794
 40
1.7020358306
100
AcDbArc
 50
48.6892649723
 51
59.9864742212
  0
ARC
  5
358
100
AcDbEntity
  8
00_COMPONENTS_1
100
AcDbCircle
 62
7
  6
BYLAYER
 10
38.4267141306
 20
137.7714701201
 40
1.5308499546
100
AcDbArc
 50
147.5657892582
 51
149.9983901968
  0
ARC
  5
359
100
AcDbEntity
  8
00_COMPONENTS_1
100
AcDbCircle
 62
7
  6
BYLAYER
 10
36.1407660745
 20
133.8120797018
 40
1.5308450859
100
AcDbArc
 50
150.0018816562
 51
152.4284429594
  0
ARC
  5
35A
100
AcDbEntity
  8
00_COMPONENTS_1
100
AcDbCircle
 62
7
  6
BYLAYER
 10
69.7213115698
 20
142.3669550246
 40
1.2380337873
100
AcDbArc
 50
57.0237754723
 51
60.0101751732
  0
ARC
  5
35B
100
AcDbEntity
  8
00_COMPONENTS_1
100
AcDbCircle
 62
7
  6
BYLAYER
 10
47.8454987371
 20
129.7370239874
 40
1.2380337873
100
AcDbArc
 50
57.0237754724
 51
60.0101751731
  0
ARC
  5
35C
100
AcDbEntity
  8
00_COMPONENTS_1
100
AcDbCircle
 62
7
  6
BYLAYER
 10
69.0101565542
 20
142.3814402009
 40
1.2209409726
100
AcDbArc
 50
120.1673543734
 51
123.0220386138
  0
ARC
  5
35D
100
AcDbEntity
  8
00_COMPONENTS_1
100
AcDbCircle
 62
7
  6
BYLAYER
 10
47.1343437215
 20
129.7515091638
 40
1.2209409725
100
AcDbArc
 50
120.1673543733
 51
123.0220386139
  0
SPLINE
  5
35E
100
AcDbEntity
  8
00_COMPONENTS_1
100
AcDbSpline
 62
7
  6
BYLAYER
 70
0
 71
3
 72
9
 73
5
 74
0
 42
0.0000001
 43
0.0000001
 44
0.0000000001
 40
0.0
 40
0.0
 40
0.0
 40
0.0
 40
0.2532689644
 40
1.0
 40
1.0
 40
1.0
 40
1.0
 10
36.6976590577
 20
138.0750294698
 30
0.0
 10
36.729914865
 20
138.0894727568
 30
0.0
 10
36.8584929304
 20
138.1437214044
 30
0.0
 10
36.9918734986
 20
138.1866994293
 30
0.0
 10
37.0930678818
 20
138.2115493779
 30
0.0
  0
SPLINE
  5
35F
100
AcDbEntity
  8
00_COMPONENTS_1
100
AcDbSpline
 62
7
  6
BYLAYER
 70
0
 71
3
 72
11
 73
7
 74
0
 42
0.0000001
 43
0.0000001
 44
0.0000000001
 40
0.0
 40
0.0
 40
0.0
 40
0.0
 40
0.2368255299
 40
0.4864801038
 40
0.7434203344
 40
1.0
 40
1.0
 40
1.0
 40
1.0
 10
35.0929023137
 20
134.7469222841
 30
0.0
 10
35.0264316898
 20
134.9755170809
 30
0.0
 10
34.9662563204
 20
135.4694756348
 30
0.0
 10
35.0849439342
 20
136.2156839013
 30
0.0
 10
35.3949224242
 20
136.9258647976
 30
0.0
 10
35.715341215
 20
137.338830931
 30
0.0
 10
35.8985082439
 20
137.5204147157
 30
0.0
  0
SPLINE
  5
360
100
AcDbEntity
  8
00_COMPONENTS_1
100
AcDbSpline
 62
7
  6
BYLAYER
 70
0
 71
3
 72
9
 73
5
 74
0
 42
0.0000001
 43
0.0000001
 44
0.0000000001
 40
0.0
 40
0.0
 40
0.0
 40
0.0
 40
0.2536608796
 40
1.0
 40
1.0
 40
1.0
 40
1.0
 10
36.3557063404
 20
137.2564437244
 30
0.0
 10
36.3960575881
 20
137.2964461873
 30
0.0
 10
36.559631462
 20
137.4495183319
 30
0.0
 10
36.7411697698
 20
137.5835952359
 30
0.0
 10
36.8844718686
 20
137.6696929376
 30
0.0
  0
SPLINE
  5
361
100
AcDbEntity
  8
00_COMPONENTS_1
100
AcDbSpline
 62
7
  6
BYLAYER
 70
0
 71
3
 72
11
 73
7
 74
0
 42
0.0000001
 43
0.0000001
 44
0.0000000001
 40
0.0
 40
0.0
 40
0.0
 40
0.0
 40
0.2177788164
 40
0.450922209
 40
0.7102585214
 40
1.0
 40
1.0
 40
1.0
 40
1.0
 10
45.660320672
 20
143.9265607734
 30
0.0
 10
45.6603085481
 20
143.8573890956
 30
0.0
 10
45.6858894751
 20
143.713206716
 30
0.0
 10
45.7951774577
 20
143.5123325929
 30
0.0
 10
45.9679533021
 20
143.3307223653
 30
0.0
 10
46.1125389921
 20
143.2311621385
 30
0.0
 10
46.1922386473
 20
143.185148562
 30
0.0
  0
SPLINE
  5
362
100
AcDbEntity
  8
00_COMPONENTS_1
100
AcDbSpline
 62
7
  6
BYLAYER
 70
0
 71
3
 72
14
 73
10
 74
0
 42
0.0000001
 43
0.0000001
 44
0.0000000001
 40
0.0
 40
0.0
 40
0.0
 40
0.0
 40
0.1140488999
 40
0.2371806301
 40
0.4995090042
 40
0.6326589139
 40
0.762423398
 40
0.885776644
 40
1.0
 40
1.0
 40
1.0
 40
1.0
 10
68.3966002324
 20
143.4370184777
 30
0.0
 10
68.4629167258
 20
143.4756085211
 30
0.0
 10
68.6081008101
 20
143.5437178671
 30
0.0
 10
68.9301347855
 20
143.642256884
 30
0.0
 10
69.280801977
 20
143.6809485978
 30
0.0
 10
69.634100986
 20
143.6615067332
 30
0.0
 10
69.8908863331
 20
143.6173635252
 30
0.0
 10
70.1279673378
 20
143.5453918729
 30
0.0
 10
70.2735882925
 20
143.477655299
 30
0.0
 10
70.3401380469
 20
143.4392336496
 30
0.0
  0
SPLINE
  5
363
100
AcDbEntity
  8
00_COMPONENTS_1
100
AcDbSpline
 62
7
  6
BYLAYER
 70
0
 71
3
 72
11
 73
7
 74
0
 42
0.0000001
 43
0.0000001
 44
0.0000000001
 40
0.0
 40
0.0
 40
0.0
 40
0.0
 40
0.2177822878
 40
0.4509146108
 40
0.7103059136
 40
1.0
 40
1.0
 40
1.0
 40
1.0
 10
67.9986807293
 20
143.9162440535
 30
0.0
 10
67.9986878635
 20
143.8640017725
 30
0.0
 10
68.0179828122
 20
143.7551109913
 30
0.0
 10
68.1005380082
 20
143.6033907263
 30
0.0
 10
68.2310381086
 20
143.4662472534
 30
0.0
 10
68.3402280135
 20
143.3910421188
 30
0.0
 10
68.4004108007
 20
143.3562963564
 30
0.0
  0
SPLINE
  5
364
100
AcDbEntity
  8
00_COMPONENTS_1
100
AcDbSpline
 62
7
  6
BYLAYER
 70
0
 71
3
 72
15
 73
11
 74
0
 42
0.0000001
 43
0.0000001
 44
0.0000000001
 40
0.0
 40
0.0
 40
0.0
 40
0.0
 40
0.0930279193
 40
0.1913993261
 40
0.2990756651
 40
0.4182041362
 40
0.5492086211
 40
0.6911795105
 40
0.8423026349
 40
1.0
 40
1.0
 40
1.0
 40
1.0
 10
33.2855177073
 20
134.3900630008
 30
0.0
 10
33.3768120124
 20
134.3373563371
 30
0.0
 10
33.5826635131
 20
134.2576970763
 30
0.0
 10
33.9243338791
 20
134.2304209424
 30
0.0
 10
34.2908273768
 20
134.2911701064
 30
0.0
 10
34.6719079187
 20
134.4357642116
 30
0.0
 10
35.057846058
 20
134.6591587346
 30
0.0
 10
35.4383883043
 20
134.9547379656
 30
0.0
 10
35.80288137
 20
135.3140736367
 30
0.0
 10
36.0251106432
 20
135.5853346227
 30
0.0
 10
36.1314207194
 20
135.7289701305
 30
0.0
  0
SPLINE
  5
365
100
AcDbEntity
  8
00_COMPONENTS_1
100
AcDbSpline
 62
7
  6
BYLAYER
 70
0
 71
3
 72
15
 73
11
 74
0
 42
0.0000001
 43
0.0000001
 44
0.0000000001
 40
0.0
 40
0.0
 40
0.0
 40
0.0
 40
0.1576981856
 40
0.3088216534
 40
0.4507924633
 40
0.5817965464
 40
0.7009244515
 40
0.8086002898
 40
0.9069715579
 40
1.0
 40
1.0
 40
1.0
 40
1.0
 10
36.7620703821
 20
136.8212934516
 30
0.0
 10
36.8333061444
 20
136.9851780041
 30
0.0
 10
36.9571078495
 20
137.3132633118
 30
0.0
 10
37.0860508001
 20
137.8085885081
 30
0.0
 10
37.1517538636
 20
138.2859330516
 30
0.0
 10
37.1522447033
 20
138.7318569531
 30
0.0
 10
37.086920764
 20
139.1341727644
 30
0.0
 10
36.9562780976
 20
139.4819324131
 30
0.0
 10
36.7618145079
 20
139.7641809253
 30
0.0
 10
36.5898982284
 20
139.9026167446
 30
0.0
 10
36.4986043299
 20
139.9553231737
 30
0.0
  0
SPLINE
  5
366
100
AcDbEntity
  8
00_COMPONENTS_1
100
AcDbSpline
 62
7
  6
BYLAYER
 70
0
 71
3
 72
17
 73
13
 74
0
 42
0.0000001
 43
0.0000001
 44
0.0000000001
 40
0.0
 40
0.0
 40
0.0
 40
0.0
 40
0.1286939823
 40
0.2702791225
 40
0.4174355951
 40
0.5617800095
 40
0.6954508492
 40
0.8127133183
 40
0.8646791508
 40
0.9125112059
 40
0.957140493
 40
1.0
 40
1.0
 40
1.0
 40
1.0
 10
46.1922386473
 20
143.185148562
 30
0.0
 10
46.3266788042
 20
143.1075312572
 30
0.0
 10
46.6310607568
 20
142.9819416217
 30
0.0
 10
47.1271457093
 20
142.8827119742
 30
0.0
 10
47.6518373314
 20
142.8681767956
 30
0.0
 10
48.1623249278
 20
142.9399066517
 30
0.0
 10
48.6172272084
 20
143.0918423346
 30
0.0
 10
48.9335761486
 20
143.284452322
 30
0.0
 10
49.1192810459
 20
143.4707595367
 30
0.0
 10
49.2178716221
 20
143.6158635256
 30
0.0
 10
49.2786882086
 20
143.7688750348
 30
0.0
 10
49.2924901188
 20
143.8748614444
 30
0.0
 10
49.2924991802
 20
143.9265607663
 30
0.0
  0
SPLINE
  5
367
100
AcDbEntity
  8
00_COMPONENTS_1
100
AcDbSpline
 62
7
  6
BYLAYER
 70
0
 71
3
 72
17
 73
13
 74
0
 42
0.0000001
 43
0.0000001
 44
0.0000000001
 40
0.0
 40
0.0
 40
0.0
 40
0.0
 40
0.1286930255
 40
0.2702801155
 40
0.4174389234
 40
0.5617808058
 40
0.6954504305
 40
0.8127136056
 40
0.8646759876
 40
0.9125114232
 40
0.9571388406
 40
1.0
 40
1.0
 40
1.0
 40
1.0
 10
68.4004108007
 20
143.3562963564
 30
0.0
 10
68.5019449561
 20
143.2976769107
 30
0.0
 10
68.731827433
 20
143.2028250434
 30
0.0
 10
69.1064949831
 20
143.127880961
 30
0.0
 10
69.5027658417
 20
143.1169072897
 30
0.0
 10
69.8883075005
 20
143.1710895195
 30
0.0
 10
70.2318566651
 20
143.2858427594
 30
0.0
 10
70.4708026648
 20
143.4312799358
 30
0.0
 10
70.6110182234
 20
143.5720164771
 30
0.0
 10
70.685526298
 20
143.6815753888
 30
0.0
 10
70.7314012335
 20
143.7971583615
 30
0.0
 10
70.7418734505
 20
143.8771969954
 30
0.0
 10
70.7418681183
 20
143.9162440223
 30
0.0
  0
SPLINE
  5
368
100
AcDbEntity
  8
00_COMPONENTS_1
100
AcDbSpline
 62
7
  6
BYLAYER
 70
0
 71
3
 72
18
 73
14
 74
0
 42
0.0000001
 43
0.0000001
 44
0.0000000001
 40
0.0
 40
0.0
 40
0.0
 40
0.0
 40
0.1286574891
 40
0.2702046904
 40
0.4173193899
 40
0.5616273366
 40
0.6952642673
 40
0.7562716244
 40
0.8127646565
 40
0.8647142813
 40
0.9125355849
 40
0.9571531169
 40
1.0
 40
1.0
 40
1.0
 40
1.0
 10
51.2840684321
 20
139.7788265876
 30
0.0
 10
51.4608117752
 20
139.6767860794
 30
0.0
 10
51.8609809943
 20
139.5116826412
 30
0.0
 10
52.5131371365
 20
139.3812036267
 30
0.0
 10
53.2030462712
 20
139.3621243785
 30
0.0
 10
53.8737978292
 20
139.4563080397
 30
0.0
 10
54.3878431284
 20
139.6280087083
 30
0.0
 10
54.738668277
 20
139.8187176358
 30
0.0
 10
54.9564519966
 20
139.9778574374
 30
0.0
 10
55.1321809413
 20
140.1543534029
 30
0.0
 10
55.261857016
 20
140.3450656008
 30
0.0
 10
55.3417723038
 20
140.5462503579
 30
0.0
 10
55.3599303057
 20
140.6855839498
 30
0.0
 10
55.3599319884
 20
140.75355033
 30
0.0
  0
SPLINE
  5
369
100
AcDbEntity
  8
00_COMPONENTS_1
100
AcDbSpline
 62
7
  6
BYLAYER
 70
0
 71
3
 72
17
 73
13
 74
0
 42
0.0000001
 43
0.0000001
 44
0.0000000001
 40
0.0
 40
0.0
 40
0.0
 40
0.0
 40
0.1286939823
 40
0.2702791225
 40
0.4174355951
 40
0.5617800095
 40
0.6954508492
 40
0.8127133183
 40
0.8646791508
 40
0.9125112059
 40
0.957140493
 40
1.0
 40
1.0
 40
1.0
 40
1.0
 10
48.7605812048
 20
144.6679729777
 30
0.0
 10
48.6261410479
 20
144.7455902826
 30
0.0
 10
48.3217590954
 20
144.871179918
 30
0.0
 10
47.8256741429
 20
144.9704095655
 30
0.0
 10
47.3009825208
 20
144.9849447442
 30
0.0
 10
46.7904949243
 20
144.9132148881
 30
0.0
 10
46.3355926438
 20
144.7612792051
 30
0.0
 10
46.0192437036
 20
144.5686692178
 30
0.0
 10
45.8335388062
 20
144.382362003
 30
0.0
 10
45.73494823
 20
144.2372580141
 30
0.0
 10
45.6741316435
 20
144.0842465049
 30
0.0
 10
45.6603297334
 20
143.9782600953
 30
0.0
 10
45.660320672
 20
143.9265607734
 30
0.0
  0
SPLINE
  5
36A
100
AcDbEntity
  8
00_COMPONENTS_1
100
AcDbSpline
 62
7
  6
BYLAYER
 70
0
 71
3
 72
11
 73
7
 74
0
 42
0.0000001
 43
0.0000001
 44
0.0000000001
 40
0.0
 40
0.0
 40
0.0
 40
0.0
 40
0.2177788164
 40
0.450922209
 40
0.7102585214
 40
1.0
 40
1.0
 40
1.0
 40
1.0
 10
49.2924991802
 20
143.9265607663
 30
0.0
 10
49.292511304
 20
143.9957324441
 30
0.0
 10
49.266930377
 20
144.1399148237
 30
0.0
 10
49.1576423945
 20
144.3407889468
 30
0.0
 10
48.9848665501
 20
144.5223991745
 30
0.0
 10
48.8402808601
 20
144.6219594013
 30
0.0
 10
48.7605812048
 20
144.6679729777
 30
0.0
  0
SPLINE
  5
36B
100
AcDbEntity
  8
00_COMPONENTS_1
100
AcDbSpline
 62
7
  6
BYLAYER
 70
0
 71
3
 72
17
 73
13
 74
0
 42
0.0000001
 43
0.0000001
 44
0.0000000001
 40
0.0
 40
0.0
 40
0.0
 40
0.0
 40
0.1286930255
 40
0.2702801155
 40
0.4174389234
 40
0.5617808058
 40
0.6954504305
 40
0.8127136056
 40
0.8646759876
 40
0.9125114232
 40
0.9571388406
 40
1.0
 40
1.0
 40
1.0
 40
1.0
 10
70.3401380469
 20
144.4761917193
 30
0.0
 10
70.2386038916
 20
144.5348111651
 30
0.0
 10
70.0087214146
 20
144.6296630324
 30
0.0
 10
69.6340538645
 20
144.7046071148
 30
0.0
 10
69.237783006
 20
144.7155807861
 30
0.0
 10
68.8522413472
 20
144.6613985563
 30
0.0
 10
68.5086921825
 20
144.5466453164
 30
0.0
 10
68.2697461828
 20
144.40120814
 30
0.0
 10
68.1295306243
 20
144.2604715986
 30
0.0
 10
68.0550225496
 20
144.150912687
 30
0.0
 10
68.0091476141
 20
144.0353297143
 30
0.0
 10
67.9986753971
 20
143.9552910804
 30
0.0
 10
67.9986807293
 20
143.9162440535
 30
0.0
  0
SPLINE
  5
36C
100
AcDbEntity
  8
00_COMPONENTS_1
100
AcDbSpline
 62
7
  6
BYLAYER
 70
0
 71
3
 72
12
 73
8
 74
0
 42
0.0000001
 43
0.0000001
 44
0.0000000001
 40
0.0
 40
0.0
 40
0.0
 40
0.0
 40
0.1081586306
 40
0.2183656275
 40
0.451346671
 40
0.7104467398
 40
1.0
 40
1.0
 40
1.0
 40
1.0
 10
55.3599319884
 20
140.75355033
 30
0.0
 10
55.3599331075
 20
140.7987492007
 30
0.0
 10
55.3520968326
 20
140.8901957154
 30
0.0
 10
55.3045465114
 20
141.0734966122
 30
0.0
 10
55.1826603381
 20
141.2983143804
 30
0.0
 10
54.9555122434
 20
141.5368313891
 30
0.0
 10
54.7654226325
 20
141.6677737753
 30
0.0
 10
54.6606306755
 20
141.7282740712
 30
0.0
  0
SPLINE
  5
36D
100
AcDbEntity
  8
00_COMPONENTS_1
100
AcDbSpline
 62
7
  6
BYLAYER
 70
0
 71
3
 72
15
 73
11
 74
0
 42
0.0000001
 43
0.0000001
 44
0.0000000001
 40
0.0
 40
0.0
 40
0.0
 40
0.0
 40
0.1141545727
 40
0.2373261359
 40
0.366975604
 40
0.4999994966
 40
0.6330234588
 40
0.7626731321
 40
0.8858450149
 40
1.0
 40
1.0
 40
1.0
 40
1.0
 10
71.7051507363
 20
142.5682330665
 30
0.0
 10
71.5453108589
 20
142.4759500211
 30
0.0
 10
71.1957920861
 20
142.3131924139
 30
0.0
 10
70.6266208954
 20
142.1401984502
 30
0.0
 10
70.0104039432
 20
142.0337140148
 30
0.0
 10
69.3702879995
 20
141.9977865027
 30
0.0
 10
68.7301715555
 20
142.0337109925
 30
0.0
 10
68.1139531331
 20
142.1401925159
 30
0.0
 10
67.5447795457
 20
142.3131837657
 30
0.0
 10
67.1952586736
 20
142.4759396157
 30
0.0
 10
67.0354175533
 20
142.5682218418
 30
0.0
  0
SPLINE
  5
36E
100
AcDbEntity
  8
00_COMPONENTS_1
100
AcDbSpline
 62
7
  6
BYLAYER
 70
0
 71
3
 72
15
 73
11
 74
0
 42
0.0000001
 43
0.0000001
 44
0.0000000001
 40
0.0
 40
0.0
 40
0.0
 40
0.0
 40
0.1141549974
 40
0.2373268943
 40
0.3669765742
 40
0.5000005394
 40
0.633024429
 40
0.7626738905
 40
0.8858454396
 40
1.0
 40
1.0
 40
1.0
 40
1.0
 10
49.8382986804
 20
132.6395198976
 30
0.0
 10
49.6778427693
 20
132.7321570653
 30
0.0
 10
49.3269775438
 20
132.8955389109
 30
0.0
 10
48.7556147735
 20
133.06919552
 30
0.0
 10
48.1370262384
 20
133.1760865737
 30
0.0
 10
47.4944477967
 20
133.2121492187
 30
0.0
 10
46.85186988
 20
133.1760835081
 30
0.0
 10
46.2332829045
 20
133.0691895031
 30
0.0
 10
45.6619226475
 20
132.8955301864
 30
0.0
 10
45.3110596141
 20
132.7321465999
 30
0.0
 10
45.1506049852
 20
132.6395086298
 30
0.0
  0
SPLINE
  5
36F
100
AcDbEntity
  8
00_COMPONENTS_1
100
AcDbSpline
 62
7
  6
BYLAYER
 70
0
 71
3
 72
11
 73
7
 74
0
 42
0.0000001
 43
0.0000001
 44
0.0000000001
 40
0.0
 40
0.0
 40
0.0
 40
0.0
 40
0.2177822878
 40
0.4509146108
 40
0.7103059136
 40
1.0
 40
1.0
 40
1.0
 40
1.0
 10
70.7418681183
 20
143.9162440223
 30
0.0
 10
70.7418609842
 20
143.9684863033
 30
0.0
 10
70.7225660355
 20
144.0773770845
 30
0.0
 10
70.6400108394
 20
144.2290973495
 30
0.0
 10
70.5095107391
 20
144.3662408223
 30
0.0
 10
70.4003208341
 20
144.441445957
 30
0.0
 10
70.3401380469
 20
144.4761917193
 30
0.0
  0
SPLINE
  5
370
100
AcDbEntity
  8
00_COMPONENTS_1
100
AcDbSpline
 62
7
  6
BYLAYER
 70
0
 71
3
 72
13
 73
9
 74
0
 42
0.0000001
 43
0.0000001
 44
0.0000000001
 40
0.0
 40
0.0
 40
0.0
 40
0.0
 40
0.3001429511
 40
0.563614292
 40
0.6820925689
 40
0.7928901103
 40
0.8980170266
 40
1.0
 40
1.0
 40
1.0
 40
1.0
 10
32.6802487177
 20
136.3819305761
 30
0.0
 10
32.6454743247
 20
136.164105022
 30
0.0
 10
32.6134370527
 20
135.7484868374
 30
0.0
 10
32.6844189493
 20
135.2461177518
 30
0.0
 10
32.8142928618
 20
134.9065250047
 30
0.0
 10
32.9403140801
 20
134.6939290536
 30
0.0
 10
33.096739813
 20
134.5183501006
 30
0.0
 10
33.2206082125
 20
134.4275370022
 30
0.0
 10
33.2855177073
 20
134.3900630008
 30
0.0
  0
SPLINE
  5
371
100
AcDbEntity
  8
00_COMPONENTS_1
100
AcDbSpline
 62
7
  6
BYLAYER
 70
0
 71
3
 72
13
 73
9
 74
0
 42
0.0000001
 43
0.0000001
 44
0.0000000001
 40
0.0
 40
0.0
 40
0.0
 40
0.0
 40
0.1019820871
 40
0.2071086862
 40
0.3179063264
 40
0.436384937
 40
0.6998570297
 40
1.0
 40
1.0
 40
1.0
 40
1.0
 10
36.4986043299
 20
139.9553231737
 30
0.0
 10
36.4336946267
 20
139.9927972953
 30
0.0
 10
36.2931109534
 20
140.0546593369
 30
0.0
 10
36.0628388236
 20
140.1023314258
 30
0.0
 10
35.8157116869
 20
140.1051641481
 30
0.0
 10
35.4566750609
 20
140.0478327934
 30
0.0
 10
34.9861167478
 20
139.8581103806
 30
0.0
 10
34.6421973749
 20
139.6225496919
 30
0.0
 10
34.4709412623
 20
139.4835182614
 30
0.0
  0
SPLINE
  5
372
100
AcDbEntity
  8
00_COMPONENTS_1
100
AcDbSpline
 62
7
  6
BYLAYER
 70
0
 71
3
 72
11
 73
7
 74
0
 42
0.0000001
 43
0.0000001
 44
0.0000000001
 40
0.0
 40
0.0
 40
0.0
 40
0.0
 40
0.2177788164
 40
0.450922209
 40
0.7102585214
 40
1.0
 40
1.0
 40
1.0
 40
1.0
 10
67.5722368348
 20
131.2759962723
 30
0.0
 10
67.572224711
 20
131.2068245946
 30
0.0
 10
67.597805638
 20
131.0626422149
 30
0.0
 10
67.7070936205
 20
130.8617680918
 30
0.0
 10
67.8798694649
 20
130.6801578642
 30
0.0
 10
68.0244551549
 20
130.5805976374
 30
0.0
 10
68.1041548102
 20
130.5345840609
 30
0.0
  0
SPLINE
  5
373
100
AcDbEntity
  8
00_COMPONENTS_1
100
AcDbSpline
 62
7
  6
BYLAYER
 70
0
 71
3
 72
14
 73
10
 74
0
 42
0.0000001
 43
0.0000001
 44
0.0000000001
 40
0.0
 40
0.0
 40
0.0
 40
0.0
 40
0.1140488999
 40
0.2371806301
 40
0.4995090042
 40
0.6326589139
 40
0.762423398
 40
0.885776644
 40
1.0
 40
1.0
 40
1.0
 40
1.0
 10
46.5207873997
 20
130.8070874405
 30
0.0
 10
46.5871038932
 20
130.845677484
 30
0.0
 10
46.7322879774
 20
130.9137868299
 30
0.0
 10
47.0543219529
 20
131.0123258468
 30
0.0
 10
47.4049891444
 20
131.0510175607
 30
0.0
 10
47.7582881534
 20
131.0315756961
 30
0.0
 10
48.0150735005
 20
130.987432488
 30
0.0
 10
48.2521545052
 20
130.9154608357
 30
0.0
 10
48.3977754599
 20
130.8477242619
 30
0.0
 10
48.4643252143
 20
130.8093026124
 30
0.0
  0
SPLINE
  5
374
100
AcDbEntity
  8
00_COMPONENTS_1
100
AcDbSpline
 62
7
  6
BYLAYER
 70
0
 71
3
 72
11
 73
7
 74
0
 42
0.0000001
 43
0.0000001
 44
0.0000000001
 40
0.0
 40
0.0
 40
0.0
 40
0.0
 40
0.2177822878
 40
0.4509146108
 40
0.7103059136
 40
1.0
 40
1.0
 40
1.0
 40
1.0
 10
46.1228678967
 20
131.2863130164
 30
0.0
 10
46.1228750308
 20
131.2340707354
 30
0.0
 10
46.1421699795
 20
131.1251799541
 30
0.0
 10
46.2247251756
 20
130.9734596892
 30
0.0
 10
46.3552252759
 20
130.8363162163
 30
0.0
 10
46.4644151809
 20
130.7611110816
 30
0.0
 10
46.5245979681
 20
130.7263653193
 30
0.0
  0
SPLINE
  5
375
100
AcDbEntity
  8
00_COMPONENTS_1
100
AcDbSpline
 62
7
  6
BYLAYER
 70
0
 71
3
 72
12
 73
8
 74
0
 42
0.0000001
 43
0.0000001
 44
0.0000000001
 40
0.0
 40
0.0
 40
0.0
 40
0.0
 40
0.1081586306
 40
0.2183656275
 40
0.451346671
 40
0.7104467398
 40
1.0
 40
1.0
 40
1.0
 40
1.0
 10
61.5048040266
 20
134.4490067086
 30
0.0
 10
61.5048029075
 20
134.403807838
 30
0.0
 10
61.5126391824
 20
134.3123613232
 30
0.0
 10
61.5601895036
 20
134.1290604265
 30
0.0
 10
61.6820756769
 20
133.9042426583
 30
0.0
 10
61.9092237716
 20
133.6657256495
 30
0.0
 10
62.0993133825
 20
133.5347832633
 30
0.0
 10
62.2041053395
 20
133.4742829674
 30
0.0
  0
SPLINE
  5
376
100
AcDbEntity
  8
00_COMPONENTS_1
100
AcDbSpline
 62
7
  6
BYLAYER
 70
0
 71
3
 72
17
 73
13
 74
0
 42
0.0000001
 43
0.0000001
 44
0.0000000001
 40
0.0
 40
0.0
 40
0.0
 40
0.0
 40
0.0248505838
 40
0.0518664153
 40
0.0827259147
 40
0.1185392197
 40
0.2071988507
 40
0.320216942
 40
0.4574836478
 40
0.617856443
 40
0.7995725419
 40
1.0
 40
1.0
 40
1.0
 40
1.0
 10
79.7629892745
 20
133.3989680848
 30
0.0
 10
79.7534379337
 20
133.3899167129
 30
0.0
 10
79.7365021179
 20
133.3676464017
 30
0.0
 10
79.7209832635
 20
133.326189014
 30
0.0
 10
79.7143615197
 20
133.2767049527
 30
0.0
 10
79.7173194986
 20
133.1942303254
 30
0.0
 10
79.7459021999
 20
133.070835088
 30
0.0
 10
79.809923931
 20
132.9029354715
 30
0.0
 10
79.9057532699
 20
132.7074531641
 30
0.0
 10
80.0321999067
 20
132.4872268265
 30
0.0
 10
80.1875881286
 20
132.2454916928
 30
0.0
 10
80.3037881068
 20
132.0797662499
 30
0.0
 10
80.3661316851
 20
131.9938774675
 30
0.0
  0
SPLINE
  5
377
100
AcDbEntity
  8
00_COMPONENTS_1
100
AcDbSpline
 62
7
  6
BYLAYER
 70
0
 71
3
 72
11
 73
7
 74
0
 42
0.0000001
 43
0.0000001
 44
0.0000000001
 40
0.0
 40
0.0
 40
0.0
 40
0.0
 40
0.2640073859
 40
0.517009801
 40
0.7610372442
 40
1.0
 40
1.0
 40
1.0
 40
1.0
 10
64.6084112848
 20
121.9611137037
 30
0.0
 10
64.7559463552
 20
122.0271759587
 30
0.0
 10
65.0587900794
 20
122.128354269
 30
0.0
 10
65.5263493454
 20
122.1762180547
 30
0.0
 10
65.9771761989
 20
122.1139532953
 30
0.0
 10
66.2539553833
 20
121.9991726679
 30
0.0
 10
66.3806691311
 20
121.9260161065
 30
0.0
  0
SPLINE
  5
378
100
AcDbEntity
  8
00_COMPONENTS_1
100
AcDbSpline
 62
7
  6
BYLAYER
 70
0
 71
3
 72
9
 73
5
 74
0
 42
0.0000001
 43
0.0000001
 44
0.0000000001
 40
0.0
 40
0.0
 40
0.0
 40
0.0
 40
0.2536608796
 40
1.0
 40
1.0
 40
1.0
 40
1.0
 10
64.2664585675
 20
121.1425279583
 30
0.0
 10
64.3068098152
 20
121.1825304212
 30
0.0
 10
64.4703836891
 20
121.3356025658
 30
0.0
 10
64.6519219969
 20
121.4696794698
 30
0.0
 10
64.7952240957
 20
121.5557771714
 30
0.0
  0
SPLINE
  5
379
100
AcDbEntity
  8
00_COMPONENTS_1
100
AcDbSpline
 62
7
  6
BYLAYER
 70
0
 71
3
 72
15
 73
11
 74
0
 42
0.0000001
 43
0.0000001
 44
0.0000000001
 40
0.0
 40
0.0
 40
0.0
 40
0.0
 40
0.1107327021
 40
0.224353097
 40
0.342967013
 40
0.4673836085
 40
0.5971259132
 40
0.7306661219
 40
0.865777108
 40
1.0
 40
1.0
 40
1.0
 40
1.0
 10
63.8406797061
 20
117.5266009501
 30
0.0
 10
63.6988449175
 20
117.608487451
 30
0.0
 10
63.4344262102
 20
117.8179218165
 30
0.0
 10
63.1379994726
 20
118.2370655614
 30
0.0
 10
62.9538399302
 20
118.7373550135
 30
0.0
 10
62.8905350632
 20
119.2898088391
 30
0.0
 10
62.9496534691
 20
119.8643387839
 30
0.0
 10
63.127209534
 20
120.4302176007
 30
0.0
 10
63.4129623108
 20
120.9570459799
 30
0.0
 10
63.6682789115
 20
121.266735995
 30
0.0
 10
63.809260471
 20
121.4064989495
 30
0.0
  0
SPLINE
  5
37A
100
AcDbEntity
  8
00_COMPONENTS_1
100
AcDbSpline
 62
7
  6
BYLAYER
 70
0
 71
3
 72
11
 73
7
 74
0
 42
0.0000001
 43
0.0000001
 44
0.0000000001
 40
0.0
 40
0.0
 40
0.0
 40
0.0
 40
0.2340042297
 40
0.4884059274
 40
0.748702124
 40
1.0
 40
1.0
 40
1.0
 40
1.0
 10
80.3661316851
 20
131.9938774675
 30
0.0
 10
80.5042580307
 20
131.8035851559
 30
0.0
 10
80.8066378966
 20
131.4165833367
 30
0.0
 10
81.3004278119
 20
130.8486169262
 30
0.0
 10
81.8327179402
 20
130.2922523654
 30
0.0
 10
82.2057523764
 20
129.9381379591
 30
0.0
 10
82.3937947527
 20
129.7696021813
 30
0.0
  0
SPLINE
  5
37B
100
AcDbEntity
  8
00_COMPONENTS_1
100
AcDbSpline
 62
7
  6
BYLAYER
 70
0
 71
3
 72
17
 73
13
 74
0
 42
0.0000001
 43
0.0000001
 44
0.0000000001
 40
0.0
 40
0.0
 40
0.0
 40
0.0
 40
0.1286939823
 40
0.2702791225
 40
0.4174355951
 40
0.5617800095
 40
0.6954508492
 40
0.8127133183
 40
0.8646791508
 40
0.9125112059
 40
0.957140493
 40
1.0
 40
1.0
 40
1.0
 40
1.0
 10
68.1041548102
 20
130.5345840609
 30
0.0
 10
68.2385949671
 20
130.4569667561
 30
0.0
 10
68.5429769196
 20
130.3313771206
 30
0.0
 10
69.0390618721
 20
130.2321474731
 30
0.0
 10
69.5637534942
 20
130.2176122945
 30
0.0
 10
70.0742410907
 20
130.2893421506
 30
0.0
 10
70.5291433712
 20
130.4412778335
 30
0.0
 10
70.8454923114
 20
130.6338878209
 30
0.0
 10
71.0311972088
 20
130.8201950357
 30
0.0
 10
71.129787785
 20
130.9652990245
 30
0.0
 10
71.1906043715
 20
131.1183105337
 30
0.0
 10
71.2044062816
 20
131.2242969433
 30
0.0
 10
71.204415343
 20
131.2759962653
 30
0.0
  0
SPLINE
  5
37C
100
AcDbEntity
  8
00_COMPONENTS_1
100
AcDbSpline
 62
7
  6
BYLAYER
 70
0
 71
3
 72
11
 73
7
 74
0
 42
0.0000001
 43
0.0000001
 44
0.0000000001
 40
0.0
 40
0.0
 40
0.0
 40
0.0
 40
0.2528358797
 40
0.5034586427
 40
0.7522415715
 40
1.0
 40
1.0
 40
1.0
 40
1.0
 10
66.8451858904
 20
120.7926622542
 30
0.0
 10
66.832034595
 20
121.0500785328
 30
0.0
 10
66.7437069304
 20
121.5617472239
 30
0.0
 10
66.4298766755
 20
122.2698206137
 30
0.0
 10
65.9541526371
 20
122.8746337052
 30
0.0
 10
65.5462011954
 20
123.1850633741
 30
0.0
 10
65.3274634463
 20
123.3113501393
 30
0.0
  0
SPLINE
  5
37D
100
AcDbEntity
  8
00_COMPONENTS_1
100
AcDbSpline
 62
7
  6
BYLAYER
 70
0
 71
3
 72
17
 73
13
 74
0
 42
0.0000001
 43
0.0000001
 44
0.0000000001
 40
0.0
 40
0.0
 40
0.0
 40
0.0
 40
0.1286930255
 40
0.2702801155
 40
0.4174389234
 40
0.5617808058
 40
0.6954504305
 40
0.8127136056
 40
0.8646759876
 40
0.9125114232
 40
0.9571388406
 40
1.0
 40
1.0
 40
1.0
 40
1.0
 10
46.5245979681
 20
130.7263653193
 30
0.0
 10
46.6261321234
 20
130.6677458735
 30
0.0
 10
46.8560146004
 20
130.5728940062
 30
0.0
 10
47.2306821505
 20
130.4979499239
 30
0.0
 10
47.626953009
 20
130.4869762525
 30
0.0
 10
48.0124946678
 20
130.5411584823
 30
0.0
 10
48.3560438325
 20
130.6559117222
 30
0.0
 10
48.5949898322
 20
130.8013488986
 30
0.0
 10
48.7352053907
 20
130.94208544
 30
0.0
 10
48.8097134654
 20
131.0516443517
 30
0.0
 10
48.8555884009
 20
131.1672273244
 30
0.0
 10
48.8660606179
 20
131.2472659582
 30
0.0
 10
48.8660552857
 20
131.2863129851
 30
0.0
  0
SPLINE
  5
37E
100
AcDbEntity
  8
00_COMPONENTS_1
100
AcDbSpline
 62
7
  6
BYLAYER
 70
0
 71
3
 72
15
 73
11
 74
0
 42
0.0000001
 43
0.0000001
 44
0.0000000001
 40
0.0
 40
0.0
 40
0.0
 40
0.0
 40
0.1141545727
 40
0.2373261359
 40
0.366975604
 40
0.4999994966
 40
0.6330234588
 40
0.7626731321
 40
0.8858450149
 40
1.0
 40
1.0
 40
1.0
 40
1.0
 10
45.1595852787
 20
132.6343239722
 30
0.0
 10
45.3194251561
 20
132.7266070175
 30
0.0
 10
45.6689439289
 20
132.8893646248
 30
0.0
 10
46.2381151196
 20
133.0623585884
 30
0.0
 10
46.8543320718
 20
133.1688430238
 30
0.0
 10
47.4944480155
 20
133.2047705359
 30
0.0
 10
48.1345644595
 20
133.1688460462
 30
0.0
 10
48.7507828819
 20
133.0623645227
 30
0.0
 10
49.3199564693
 20
132.8893732729
 30
0.0
 10
49.6694773414
 20
132.726617423
 30
0.0
 10
49.8293184617
 20
132.6343351968
 30
0.0
  0
SPLINE
  5
37F
100
AcDbEntity
  8
00_COMPONENTS_1
100
AcDbSpline
 62
7
  6
BYLAYER
 70
0
 71
3
 72
11
 73
7
 74
0
 42
0.0000001
 43
0.0000001
 44
0.0000000001
 40
0.0
 40
0.0
 40
0.0
 40
0.0
 40
0.2477580966
 40
0.4965410023
 40
0.7471639304
 40
1.0
 40
1.0
 40
1.0
 40
1.0
 10
62.1143768238
 20
117.7460899665
 30
0.0
 10
62.3331147295
 20
117.6198031108
 30
0.0
 10
62.8059331483
 20
117.4217263869
 30
0.0
 10
63.5675810552
 20
117.3121511526
 30
0.0
 10
64.3377068563
 20
117.3944096843
 30
0.0
 10
64.824988779
 20
117.573753966
 30
0.0
 10
65.0544933458
 20
117.6910745689
 30
0.0
  0
SPLINE
  5
380
100
AcDbEntity
  8
00_COMPONENTS_1
100
AcDbSpline
 62
7
  6
BYLAYER
 70
0
 71
3
 72
15
 73
11
 74
0
 42
0.0000001
 43
0.0000001
 44
0.0000000001
 40
0.0
 40
0.0
 40
0.0
 40
0.0
 40
0.1141549974
 40
0.2373268943
 40
0.3669765742
 40
0.5000005394
 40
0.633024429
 40
0.7626738905
 40
0.8858454396
 40
1.0
 40
1.0
 40
1.0
 40
1.0
 10
67.0264373346
 20
142.5630371411
 30
0.0
 10
67.1868932457
 20
142.4703999733
 30
0.0
 10
67.5377584712
 20
142.3070181277
 30
0.0
 10
68.1091212415
 20
142.1333615187
 30
0.0
 10
68.7277097766
 20
142.0264704649
 30
0.0
 10
69.3702882183
 20
141.9904078199
 30
0.0
 10
70.012866135
 20
142.0264735306
 30
0.0
 10
70.6314531105
 20
142.1333675355
 30
0.0
 10
71.2028133675
 20
142.3070268523
 30
0.0
 10
71.5536764009
 20
142.4704104387
 30
0.0
 10
71.7141310298
 20
142.5630484089
 30
0.0
  0
SPLINE
  5
381
100
AcDbEntity
  8
00_COMPONENTS_1
100
AcDbSpline
 62
7
  6
BYLAYER
 70
0
 71
3
 72
9
 73
5
 74
0
 42
0.0000001
 43
0.0000001
 44
0.0000000001
 40
0.0
 40
0.0
 40
0.0
 40
0.0
 40
0.5078894714
 40
1.0
 40
1.0
 40
1.0
 40
1.0
 10
66.8692864627
 20
117.7821471158
 30
0.0
 10
66.7518610651
 20
117.6657367103
 30
0.0
 10
66.5009608843
 20
117.4554508155
 30
0.0
 10
66.2163575105
 20
117.293006597
 30
0.0
 10
66.0701356488
 20
117.2275323617
 30
0.0
  0
SPLINE
  5
382
100
AcDbEntity
  8
00_COMPONENTS_1
100
AcDbSpline
 62
7
  6
BYLAYER
 70
0
 71
3
 72
9
 73
5
 74
0
 42
0.0000001
 43
0.0000001
 44
0.0000000001
 40
0.0
 40
0.0
 40
0.0
 40
0.0
 40
0.4999981719
 40
1.0
 40
1.0
 40
1.0
 40
1.0
 10
66.9418772508
 20
117.2873812848
 30
0.0
 10
67.3285481757
 20
117.4488284118
 30
0.0
 10
67.9875859244
 20
118.0652746529
 30
0.0
 10
68.1919419635
 20
118.9442333068
 30
0.0
 10
68.1384389569
 20
119.3598287532
 30
0.0
  0
SPLINE
  5
383
100
AcDbEntity
  8
00_COMPONENTS_1
100
AcDbSpline
 62
7
  6
BYLAYER
 70
0
 71
3
 72
11
 73
7
 74
0
 42
0.0000001
 43
0.0000001
 44
0.0000000001
 40
0.0
 40
0.0
 40
0.0
 40
0.0
 40
0.2177788164
 40
0.450922209
 40
0.7102585214
 40
1.0
 40
1.0
 40
1.0
 40
1.0
 10
71.204415343
 20
131.2759962653
 30
0.0
 10
71.2044274669
 20
131.345167943
 30
0.0
 10
71.1788465399
 20
131.4893503227
 30
0.0
 10
71.0695585573
 20
131.6902244458
 30
0.0
 10
70.8967827129
 20
131.8718346734
 30
0.0
 10
70.7521970229
 20
131.9713949002
 30
0.0
 10
70.6724973677
 20
132.0174084766
 30
0.0
  0
SPLINE
  5
384
100
AcDbEntity
  8
00_COMPONENTS_1
100
AcDbSpline
 62
7
  6
BYLAYER
 70
0
 71
3
 72
11
 73
7
 74
0
 42
0.0000001
 43
0.0000001
 44
0.0000000001
 40
0.0
 40
0.0
 40
0.0
 40
0.0
 40
0.2177822878
 40
0.4509146108
 40
0.7103059136
 40
1.0
 40
1.0
 40
1.0
 40
1.0
 10
48.8660552857
 20
131.2863129851
 30
0.0
 10
48.8660481515
 20
131.3385552661
 30
0.0
 10
48.8467532028
 20
131.4474460474
 30
0.0
 10
48.7641980068
 20
131.5991663123
 30
0.0
 10
48.6336979064
 20
131.7363097852
 30
0.0
 10
48.5245080015
 20
131.8115149199
 30
0.0
 10
48.4643252143
 20
131.8462606822
 30
0.0
  0
SPLINE
  5
385
100
AcDbEntity
  8
00_COMPONENTS_1
100
AcDbSpline
 62
7
  6
BYLAYER
 70
0
 71
3
 72
17
 73
13
 74
0
 42
0.0000001
 43
0.0000001
 44
0.0000000001
 40
0.0
 40
0.0
 40
0.0
 40
0.0
 40
0.1286930255
 40
0.2702801155
 40
0.4174389234
 40
0.5617808058
 40
0.6954504305
 40
0.8127136056
 40
0.8646759876
 40
0.9125114232
 40
0.9571388406
 40
1.0
 40
1.0
 40
1.0
 40
1.0
 10
48.4643252143
 20
131.8462606822
 30
0.0
 10
48.3627910589
 20
131.904880128
 30
0.0
 10
48.132908582
 20
131.9997319953
 30
0.0
 10
47.7582410319
 20
132.0746760776
 30
0.0
 10
47.3619701733
 20
132.0856497489
 30
0.0
 10
46.9764285145
 20
132.0314675192
 30
0.0
 10
46.6328793499
 20
131.9167142793
 30
0.0
 10
46.3939333502
 20
131.7712771028
 30
0.0
 10
46.2537177917
 20
131.6305405615
 30
0.0
 10
46.179209717
 20
131.5209816498
 30
0.0
 10
46.1333347815
 20
131.4053986771
 30
0.0
 10
46.1228625645
 20
131.3253600433
 30
0.0
 10
46.1228678967
 20
131.2863130164
 30
0.0
  0
SPLINE
  5
386
100
AcDbEntity
  8
00_COMPONENTS_1
100
AcDbSpline
 62
7
  6
BYLAYER
 70
0
 71
3
 72
15
 73
11
 74
0
 42
0.0000001
 43
0.0000001
 44
0.0000000001
 40
0.0
 40
0.0
 40
0.0
 40
0.0
 40
0.1272019417
 40
0.2539154337
 40
0.3799335946
 40
0.5052012148
 40
0.6297124965
 40
0.7535514907
 40
0.8769180345
 40
1.0
 40
1.0
 40
1.0
 40
1.0
 10
60.7733461091
 20
121.5022697243
 30
0.0
 10
60.7135184639
 20
121.3292064476
 30
0.0
 10
60.6225946769
 20
120.9731136977
 30
0.0
 10
60.5770577387
 20
120.4256195164
 30
0.0
 10
60.6238573267
 20
119.8808362127
 30
0.0
 10
60.7616299418
 20
119.3549488751
 30
0.0
 10
60.9865169334
 20
118.8634028059
 30
0.0
 10
61.291938283
 20
118.4206265668
 30
0.0
 10
61.6688626637
 20
118.0399500542
 30
0.0
 10
61.9609324411
 20
117.8346800467
 30
0.0
 10
62.1143768238
 20
117.7460899665
 30
0.0
  0
SPLINE
  5
387
100
AcDbEntity
  8
00_COMPONENTS_1
100
AcDbSpline
 62
7
  6
BYLAYER
 70
0
 71
3
 72
14
 73
10
 74
0
 42
0.0000001
 43
0.0000001
 44
0.0000000001
 40
0.0
 40
0.0
 40
0.0
 40
0.0
 40
0.1194748455
 40
0.2479260183
 40
0.5170765342
 40
0.6502420602
 40
0.7774225997
 40
0.8950932434
 40
1.0
 40
1.0
 40
1.0
 40
1.0
 10
83.5792183077
 20
130.1387480011
 30
0.0
 10
83.4840466144
 20
130.2698630425
 30
0.0
 10
83.2798038134
 20
130.5370825146
 30
0.0
 10
82.8322376746
 20
131.0769914812
 30
0.0
 10
82.3437978387
 20
131.6065734126
 30
0.0
 10
81.8312419088
 20
132.1095536329
 30
0.0
 10
81.4525765937
 20
132.4552778214
 30
0.0
 10
81.0895738423
 20
132.7607334395
 30
0.0
 10
80.8493450176
 20
132.9437846581
 30
0.0
 10
80.7333152956
 20
133.0260945193
 30
0.0
  0
SPLINE
  5
388
100
AcDbEntity
  8
00_COMPONENTS_1
100
AcDbSpline
 62
7
  6
BYLAYER
 70
0
 71
3
 72
18
 73
14
 74
0
 42
0.0000001
 43
0.0000001
 44
0.0000000001
 40
0.0
 40
0.0
 40
0.0
 40
0.0
 40
0.1286574891
 40
0.2702046904
 40
0.4173193899
 40
0.5616273366
 40
0.6952642673
 40
0.7562716244
 40
0.8127646565
 40
0.8647142813
 40
0.9125355849
 40
0.9571531169
 40
1.0
 40
1.0
 40
1.0
 40
1.0
 10
65.5806675829
 20
135.423730451
 30
0.0
 10
65.4039242398
 20
135.5257709593
 30
0.0
 10
65.0037550207
 20
135.6908743975
 30
0.0
 10
64.3515988785
 20
135.8213534119
 30
0.0
 10
63.6616897438
 20
135.8404326601
 30
0.0
 10
62.9909381858
 20
135.7462489989
 30
0.0
 10
62.4768928866
 20
135.5745483303
 30
0.0
 10
62.126067738
 20
135.3838394028
 30
0.0
 10
61.9082840184
 20
135.2246996012
 30
0.0
 10
61.7325550737
 20
135.0482036357
 30
0.0
 10
61.602878999
 20
134.8574914379
 30
0.0
 10
61.5229637112
 20
134.6563066808
 30
0.0
 10
61.5048057093
 20
134.5169730888
 30
0.0
 10
61.5048040266
 20
134.4490067086
 30
0.0
  0
SPLINE
  5
389
100
AcDbEntity
  8
00_COMPONENTS_1
100
AcDbSpline
 62
7
  6
BYLAYER
 70
0
 71
3
 72
17
 73
13
 74
0
 42
0.0000001
 43
0.0000001
 44
0.0000000001
 40
0.0
 40
0.0
 40
0.0
 40
0.0
 40
0.024848263
 40
0.0520070732
 40
0.083077282
 40
0.1191096048
 40
0.2081311004
 40
0.3213448881
 40
0.4586104166
 40
0.6187827765
 40
0.8001131125
 40
1.0
 40
1.0
 40
1.0
 40
1.0
 10
84.1844872973
 20
128.7357157988
 30
0.0
 10
84.1938059132
 20
128.7449704155
 30
0.0
 10
84.2102258142
 20
128.7676387081
 30
0.0
 10
84.2250437205
 20
128.8094394885
 30
0.0
 10
84.2310991592
 20
128.8591953451
 30
0.0
 10
84.2274561758
 20
128.9418988503
 30
0.0
 10
84.1983056316
 20
129.0653115072
 30
0.0
 10
84.1339207159
 20
129.2330289857
 30
0.0
 10
84.0380422907
 20
129.4280291346
 30
0.0
 10
83.9118439012
 20
129.6474979221
 30
0.0
 10
83.7569949295
 20
129.8882391641
 30
0.0
 10
83.6412789654
 20
130.0532489896
 30
0.0
 10
83.5792183077
 20
130.1387480011
 30
0.0
  0
SPLINE
  5
38A
100
AcDbEntity
  8
00_COMPONENTS_1
100
AcDbSpline
 62
7
  6
BYLAYER
 70
0
 71
3
 72
11
 73
7
 74
0
 42
0.0000001
 43
0.0000001
 44
0.0000000001
 40
0.0
 40
0.0
 40
0.0
 40
0.0
 40
0.239647193
 40
0.4898316145
 40
0.7454061854
 40
1.0
 40
1.0
 40
1.0
 40
1.0
 10
67.2753444297
 20
120.5685511335
 30
0.0
 10
67.3126033957
 20
120.3512174153
 30
0.0
 10
67.3262421145
 20
119.8946639922
 30
0.0
 10
67.1775615704
 20
119.2188863906
 30
0.0
 10
66.8735990566
 20
118.5823331351
 30
0.0
 10
66.5784505581
 20
118.2110423111
 30
0.0
 10
66.4120883662
 20
118.0461181071
 30
0.0
  0
SPLINE
  5
38B
100
AcDbEntity
  8
00_COMPONENTS_1
100
AcDbSpline
 62
7
  6
BYLAYER
 70
0
 71
3
 72
11
 73
7
 74
0
 42
0.0000001
 43
0.0000001
 44
0.0000000001
 40
0.0
 40
0.0
 40
0.0
 40
0.0
 40
0.3360662951
 40
0.6070085523
 40
0.8212906637
 40
1.0
 40
1.0
 40
1.0
 40
1.0
 10
80.1026656329
 20
133.3902106822
 30
0.0
 10
80.0655065063
 20
133.4043439925
 30
0.0
 10
79.997052293
 20
133.4267648072
 30
0.0
 10
79.9006640592
 20
133.4425540111
 30
0.0
 10
79.8211098873
 20
133.4363259177
 30
0.0
 10
79.7783344843
 20
133.413510043
 30
0.0
 10
79.7629892745
 20
133.3989680848
 30
0.0
  0
SPLINE
  5
38C
100
AcDbEntity
  8
00_COMPONENTS_1
100
AcDbSpline
 62
7
  6
BYLAYER
 70
0
 71
3
 72
9
 73
5
 74
0
 42
0.0000001
 43
0.0000001
 44
0.0000000001
 40
0.0
 40
0.0
 40
0.0
 40
0.0
 40
0.4999999998
 40
1.0
 40
1.0
 40
1.0
 40
1.0
 10
66.3179036196
 20
117.0268933466
 30
0.0
 10
66.8783289942
 20
117.2608134133
 30
0.0
 10
67.8334115267
 20
118.1542905703
 30
0.0
 10
68.1296757621
 20
119.4281475695
 30
0.0
 10
68.0520586781
 20
120.0304521328
 30
0.0
  0
SPLINE
  5
38D
100
AcDbEntity
  8
00_COMPONENTS_1
100
AcDbSpline
 62
7
  6
BYLAYER
 70
0
 71
3
 72
17
 73
13
 74
0
 42
0.0000001
 43
0.0000001
 44
0.0000000001
 40
0.0
 40
0.0
 40
0.0
 40
0.0
 40
0.1286939823
 40
0.2702791225
 40
0.4174355951
 40
0.5617800095
 40
0.6954508492
 40
0.8127133183
 40
0.8646791508
 40
0.9125112059
 40
0.957140493
 40
1.0
 40
1.0
 40
1.0
 40
1.0
 10
70.6724973677
 20
132.0174084766
 30
0.0
 10
70.5380572108
 20
132.0950257815
 30
0.0
 10
70.2336752582
 20
132.220615417
 30
0.0
 10
69.7375903057
 20
132.3198450645
 30
0.0
 10
69.2128986836
 20
132.3343802431
 30
0.0
 10
68.7024110872
 20
132.262650387
 30
0.0
 10
68.2475088066
 20
132.1107147041
 30
0.0
 10
67.9311598664
 20
131.9181047167
 30
0.0
 10
67.7454549691
 20
131.7317975019
 30
0.0
 10
67.6468643929
 20
131.5866935131
 30
0.0
 10
67.5860478064
 20
131.4336820038
 30
0.0
 10
67.5722458962
 20
131.3276955942
 30
0.0
 10
67.5722368348
 20
131.2759962723
 30
0.0
  0
SPLINE
  5
38E
100
AcDbEntity
  8
00_COMPONENTS_1
100
AcDbSpline
 62
7
  6
BYLAYER
 70
0
 71
3
 72
15
 73
11
 74
0
 42
0.0000001
 43
0.0000001
 44
0.0000000001
 40
0.0
 40
0.0
 40
0.0
 40
0.0
 40
0.1230817799
 40
0.2464482541
 40
0.3702872727
 40
0.4947986392
 40
0.6200663646
 40
0.7460846094
 40
0.8727981253
 40
1.0
 40
1.0
 40
1.0
 40
1.0
 10
65.3274634463
 20
123.3113501393
 30
0.0
 10
65.1740189862
 20
123.3999402642
 30
0.0
 10
64.8502131565
 20
123.550241834
 30
0.0
 10
64.3320733443
 20
123.686324569
 30
0.0
 10
63.7959056764
 20
123.7294340824
 30
0.0
 10
63.2577698757
 20
123.6784141245
 30
0.0
 10
62.7334514622
 20
123.5347806555
 30
0.0
 10
62.238255779
 20
123.3029147587
 30
0.0
 10
61.7868812546
 20
122.9897282566
 30
0.0
 10
61.5239586281
 20
122.7329377513
 30
0.0
 10
61.4039957718
 20
122.5945930455
 30
0.0
  0
SPLINE
  5
38F
100
AcDbEntity
  8
00_COMPONENTS
100
AcDbSpline
 62
7
  6
BYLAYER
 70
0
 71
3
 72
14
 73
10
 74
0
 42
0.0000001
 43
0.0000001
 44
0.0000000001
 40
0.0
 40
0.0
 40
0.0
 40
0.0
 40
0.2892809961
 40
0.4225474211
 40
0.5484958548
 40
0.6678951328
 40
0.7818696208
 40
0.8919526495
 40
1.0
 40
1.0
 40
1.0
 40
1.0
 10
67.4103987657
 20
47.9509155558
 30
0.0
 10
67.959087485
 20
48.2676992447
 30
0.0
 10
68.7275050772
 20
48.7967483476
 30
0.0
 10
69.5968437814
 20
49.6287872351
 30
0.0
 10
70.1259263978
 20
50.27015029
 30
0.0
 10
70.5442166389
 20
50.9396888758
 30
0.0
 10
70.8469678506
 20
51.6315327215
 30
0.0
 10
71.030443644
 20
52.338578431
 30
0.0
 10
71.0714847803
 20
52.8172846134
 30
0.0
 10
71.0714846595
 20
53.0539250562
 30
0.0
  0
SPLINE
  5
390
100
AcDbEntity
  8
00_COMPONENTS
100
AcDbSpline
 62
7
  6
BYLAYER
 70
0
 71
3
 72
11
 73
7
 74
0
 42
0.0000001
 43
0.0000001
 44
0.0000000001
 40
0.0
 40
0.0
 40
0.0
 40
0.0
 40
0.2358707736
 40
0.4778136442
 40
0.7311571364
 40
1.0
 40
1.0
 40
1.0
 40
1.0
 10
38.7277972764
 20
79.7773959029
 30
0.0
 10
38.7278137923
 20
79.3364267475
 30
0.0
 10
38.8183074726
 20
78.440714882
 30
0.0
 10
39.2208519069
 20
77.1261847563
 30
0.0
 10
39.8819328131
 20
75.8519734194
 30
0.0
 10
40.4683768314
 20
75.0660322816
 30
0.0
 10
40.7959985613
 20
74.6848728355
 30
0.0
  0
SPLINE
  5
391
100
AcDbEntity
  8
00_COMPONENTS
100
AcDbSpline
 62
7
  6
BYLAYER
 70
0
 71
3
 72
9
 73
5
 74
0
 42
0.0000001
 43
0.0000001
 44
0.0000000001
 40
0.0
 40
0.0
 40
0.0
 40
0.0
 40
0.5098045381
 40
1.0
 40
1.0
 40
1.0
 40
1.0
 10
61.0425442149
 20
68.4099621519
 30
0.0
 10
62.2637777233
 20
68.4984480074
 30
0.0
 10
64.6518554403
 20
68.8014848502
 30
0.0
 10
66.9906970433
 20
69.3767320088
 30
0.0
 10
68.1131217699
 20
69.7321029444
 30
0.0
  0
SPLINE
  5
392
100
AcDbEntity
  8
00_COMPONENTS
100
AcDbSpline
 62
7
  6
BYLAYER
 70
0
 71
3
 72
15
 73
11
 74
0
 42
0.0000001
 43
0.0000001
 44
0.0000000001
 40
0.0
 40
0.0
 40
0.0
 40
0.0
 40
0.1485651372
 40
0.2895100829
 40
0.4227290316
 40
0.548639536
 40
0.6680017659
 40
0.7819392484
 40
0.8919875144
 40
1.0
 40
1.0
 40
1.0
 40
1.0
 10
69.8852828066
 20
58.9770007842
 30
0.0
 10
70.2460879824
 20
59.1853105061
 30
0.0
 10
70.9328497966
 20
59.6206629693
 30
0.0
 10
71.8718271268
 20
60.3473387833
 30
0.0
 10
72.6839814618
 20
61.124730558
 30
0.0
 10
73.3611303076
 20
61.9456044975
 30
0.0
 10
73.8966076684
 20
62.8026146941
 30
0.0
 10
74.2840940245
 20
63.6881918155
 30
0.0
 10
74.5189324099
 20
64.5932122929
 30
0.0
 10
74.5714892324
 20
65.2059533769
 30
0.0
 10
74.5715086493
 20
65.5088528586
 30
0.0
  0
SPLINE
  5
393
100
AcDbEntity
  8
00_COMPONENTS
100
AcDbSpline
 62
7
  6
BYLAYER
 70
0
 71
3
 72
14
 73
10
 74
0
 42
0.0000001
 43
0.0000001
 44
0.0000000001
 40
0.0
 40
0.0
 40
0.0
 40
0.0
 40
0.1080472915
 40
0.2181313362
 40
0.3321065584
 40
0.4515018381
 40
0.5774629987
 40
0.7107284398
 40
1.0
 40
1.0
 40
1.0
 40
1.0
 10
42.5715457535
 20
65.5088528578
 30
0.0
 10
42.5715263371
 20
65.2059608661
 30
0.0
 10
42.6241800846
 20
64.5932422107
 30
0.0
 10
42.8588821477
 20
63.6882096395
 30
0.0
 10
43.2464850499
 20
62.8027136172
 30
0.0
 10
43.7817977418
 20
61.9456460811
 30
0.0
 10
44.459093492
 20
61.1247574034
 30
0.0
 10
45.5718023401
 20
60.0597571772
 30
0.0
 10
46.5553233146
 20
59.3825966561
 30
0.0
 10
47.2575982671
 20
58.9771264545
 30
0.0
  0
SPLINE
  5
394
100
AcDbEntity
  8
00_COMPONENTS
100
AcDbSpline
 62
7
  6
BYLAYER
 70
0
 71
3
 72
9
 73
5
 74
0
 42
0.0000001
 43
0.0000001
 44
0.0000000001
 40
0.0
 40
0.0
 40
0.0
 40
0.0
 40
0.2407367254
 40
1.0
 40
1.0
 40
1.0
 40
1.0
 10
70.9194307768
 20
66.4732633381
 30
0.0
 10
71.3556605668
 20
66.7251192214
 30
0.0
 10
73.1399772012
 20
67.8195332256
 30
0.0
 10
74.8130890637
 20
69.0880041622
 30
0.0
 10
76.034057316
 20
70.1044260414
 30
0.0
  0
SPLINE
  5
395
100
AcDbEntity
  8
00_COMPONENTS
100
AcDbSpline
 62
7
  6
BYLAYER
 70
0
 71
3
 72
15
 73
11
 74
0
 42
0.0000001
 43
0.0000001
 44
0.0000000001
 40
0.0
 40
0.0
 40
0.0
 40
0.0
 40
0.1141526899
 40
0.237322696
 40
0.3669718989
 40
0.4999968835
 40
0.6330210632
 40
0.7626719001
 40
0.8858403226
 40
1.0
 40
1.0
 40
1.0
 40
1.0
 10
47.4372175574
 20
58.8734321712
 30
0.0
 10
48.1994256383
 20
58.4333604124
 30
0.0
 10
49.86613231
 20
57.6572003755
 30
0.0
 10
52.5802916024
 20
56.8322104301
 30
0.0
 10
55.5188276915
 20
56.3243864709
 30
0.0
 10
58.5713484307
 20
56.1530599075
 30
0.0
 10
61.6238855894
 20
56.3243527222
 30
0.0
 10
64.5624147291
 20
56.832164322
 30
0.0
 10
67.2766610059
 20
57.6570519077
 30
0.0
 10
68.9434164201
 20
58.4332136346
 30
0.0
 10
69.7056769364
 20
58.8733023219
 30
0.0
  0
SPLINE
  5
396
100
AcDbEntity
  8
00_COMPONENTS
100
AcDbSpline
 62
7
  6
BYLAYER
 70
0
 71
3
 72
11
 73
7
 74
0
 42
0.0000001
 43
0.0000001
 44
0.0000000001
 40
0.0
 40
0.0
 40
0.0
 40
0.0
 40
0.2705035608
 40
0.5282977554
 40
0.7712300011
 40
1.0
 40
1.0
 40
1.0
 40
1.0
 10
41.1090573163
 20
70.104342092
 30
0.0
 10
41.932603259
 20
69.4187728243
 30
0.0
 10
43.5831061403
 20
68.1286065577
 30
0.0
 10
46.1463424985
 20
66.45751766
 30
0.0
 10
48.7247141485
 20
65.139972578
 30
0.0
 10
50.4758310192
 20
64.4764950145
 30
0.0
 10
51.3383955719
 20
64.198564503
 30
0.0
  0
SPLINE
  5
397
100
AcDbEntity
  8
00_COMPONENTS
100
AcDbSpline
 62
7
  6
BYLAYER
 70
0
 71
3
 72
11
 73
7
 74
0
 42
0.0000001
 43
0.0000001
 44
0.0000000001
 40
0.0
 40
0.0
 40
0.0
 40
0.0
 40
0.2494966225
 40
0.4999998887
 40
0.7505032133
 40
1.0
 40
1.0
 40
1.0
 40
1.0
 10
51.3383955719
 20
64.198564503
 30
0.0
 10
52.528791654
 20
63.9838199237
 30
0.0
 10
54.9318113105
 20
63.6413266479
 30
0.0
 10
58.5716003349
 20
63.4596820008
 30
0.0
 10
62.2113892747
 20
63.6413442253
 30
0.0
 10
64.6144083722
 20
63.983849013
 30
0.0
 10
65.8048042376
 20
64.198599276
 30
0.0
  0
SPLINE
  5
398
100
AcDbEntity
  8
00_COMPONENTS
100
AcDbSpline
 62
7
  6
BYLAYER
 70
0
 71
3
 72
9
 73
5
 74
0
 42
0.0000001
 43
0.0000001
 44
0.0000000001
 40
0.0
 40
0.0
 40
0.0
 40
0.0
 40
0.4849805309
 40
1.0
 40
1.0
 40
1.0
 40
1.0
 10
65.8048042376
 20
64.198599276
 30
0.0
 10
66.6673499448
 20
64.476530176
 30
0.0
 10
68.4182769267
 20
65.1399827752
 30
0.0
 10
70.0860121447
 20
65.9920917387
 30
0.0
 10
70.9194307768
 20
66.4732633381
 30
0.0
  0
SPLINE
  5
399
100
AcDbEntity
  8
00_COMPONENTS
100
AcDbSpline
 62
7
  6
BYLAYER
 70
0
 71
3
 72
25
 73
21
 74
0
 42
0.0000001
 43
0.0000001
 44
0.0000000001
 40
0.0
 40
0.0
 40
0.0
 40
0.0
 40
0.0213321529
 40
0.0428927699
 40
0.0648981762
 40
0.0875428208
 40
0.1353179364
 40
0.1872189762
 40
0.243656627
 40
0.3046041709
 40
0.3696913145
 40
0.4382880083
 40
0.5095741733
 40
0.5825986149
 40
0.656330764
 40
0.7297066848
 40
0.8016838704
 40
0.871273618
 40
0.9376203925
 40
1.0
 40
1.0
 40
1.0
 40
1.0
 10
46.0715697433
 20
53.0539249184
 30
0.0
 10
46.0715698339
 20
52.8765959273
 30
0.0
 10
46.0944063025
 20
52.5196228855
 30
0.0
 10
46.1970191005
 20
51.9886323395
 30
0.0
 10
46.3671366357
 20
51.4637608558
 30
0.0
 10
46.6880761862
 20
50.764052066
 30
0.0
 10
47.2639933941
 20
49.9165735298
 30
0.0
 10
48.1840208313
 20
48.9928871082
 30
0.0
 10
49.3241912495
 20
48.159713904
 30
0.0
 10
50.6600636599
 20
47.4331800242
 30
0.0
 10
52.1637091561
 20
46.8274120757
 30
0.0
 10
53.8035302491
 20
46.3548155183
 30
0.0
 10
55.5448730084
 20
46.025235629
 30
0.0
 10
57.3507490692
 20
45.8456478475
 30
0.0
 10
59.1826578525
 20
45.8198874453
 30
0.0
 10
61.0015427896
 20
45.9484566246
 30
0.0
 10
62.7685519311
 20
46.228683602
 30
0.0
 10
64.4463395135
 20
46.654542344
 30
0.0
 10
65.9988526322
 20
47.2171293748
 30
0.0
 10
66.9613236686
 20
47.6916434753
 30
0.0
 10
67.4103987657
 20
47.9509155558
 30
0.0
  0
SPLINE
  5
39A
100
AcDbEntity
  8
00_COMPONENTS
100
AcDbSpline
 62
7
  6
BYLAYER
 70
0
 71
3
 72
10
 73
6
 74
0
 42
0.0000001
 43
0.0000001
 44
0.0000000001
 40
0.0
 40
0.0
 40
0.0
 40
0.0
 40
0.5188837309
 40
0.7631178625
 40
1.0
 40
1.0
 40
1.0
 40
1.0
 10
76.3929228265
 20
74.7385980547
 30
0.0
 10
76.8579081307
 20
75.2868497099
 30
0.0
 10
77.4654310517
 20
76.1675444191
 30
0.0
 10
78.0216789096
 20
77.4396852724
 30
0.0
 10
78.2050716165
 20
78.0832523048
 30
0.0
 10
78.2722364881
 20
78.4044918035
 30
0.0
  0
SPLINE
  5
39B
100
AcDbEntity
  8
00_COMPONENTS
100
AcDbSpline
 62
7
  6
BYLAYER
 70
0
 71
3
 72
9
 73
5
 74
0
 42
0.0000001
 43
0.0000001
 44
0.0000000001
 40
0.0
 40
0.0
 40
0.0
 40
0.0
 40
0.2435583057
 40
1.0
 40
1.0
 40
1.0
 40
1.0
 10
47.7203960257
 20
69.9696926162
 30
0.0
 10
47.971369872
 20
69.8661942932
 30
0.0
 10
49.0096216408
 20
69.4603065148
 30
0.0
 10
50.0764859653
 20
69.1286534343
 30
0.0
 10
50.892399582
 20
68.9160755764
 30
0.0
  0
SPLINE
  5
39C
100
AcDbEntity
  8
00_COMPONENTS
100
AcDbSpline
 62
7
  6
BYLAYER
 70
0
 71
3
 72
9
 73
5
 74
0
 42
0.0000001
 43
0.0000001
 44
0.0000000001
 40
0.0
 40
0.0
 40
0.0
 40
0.0
 40
0.4949479895
 40
1.0
 40
1.0
 40
1.0
 40
1.0
 10
51.9691265236
 20
68.6585870129
 30
0.0
 10
53.3276367997
 20
68.3620418354
 30
0.0
 10
56.1185670421
 20
67.9624904989
 30
0.0
 10
58.9367324834
 20
67.9328247862
 30
0.0
 10
60.3534491142
 20
68.0112509403
 30
0.0
  0
SPLINE
  5
39D
100
AcDbEntity
  8
00_COMPONENTS
100
AcDbSpline
 62
7
  6
BYLAYER
 70
0
 71
3
 72
9
 73
5
 74
0
 42
0.0000001
 43
0.0000001
 44
0.0000000001
 40
0.0
 40
0.0
 40
0.0
 40
0.0
 40
0.2535219027
 40
1.0
 40
1.0
 40
1.0
 40
1.0
 10
60.3534491142
 20
68.0112509403
 30
0.0
 10
60.7640969501
 20
68.0339834542
 30
0.0
 10
62.3819277338
 20
68.1548351768
 30
0.0
 10
63.9909579041
 20
68.4003535064
 30
0.0
 10
65.1740732859
 20
68.6586187536
 30
0.0
  0
SPLINE
  5
39E
100
AcDbEntity
  8
00_COMPONENTS
100
AcDbSpline
 62
7
  6
BYLAYER
 70
0
 71
3
 72
9
 73
5
 74
0
 42
0.0000001
 43
0.0000001
 44
0.0000000001
 40
0.0
 40
0.0
 40
0.0
 40
0.0
 40
0.2578804251
 40
1.0
 40
1.0
 40
1.0
 40
1.0
 10
73.763120706
 20
72.4756238852
 30
0.0
 10
73.8916906503
 20
72.5795443157
 30
0.0
 10
74.3827744328
 20
72.9916128981
 30
0.0
 10
74.8429428906
 20
73.4411255316
 30
0.0
 10
75.1600699629
 20
73.7957552929
 30
0.0
  0
SPLINE
  5
39F
100
AcDbEntity
  8
00_COMPONENTS
100
AcDbSpline
 62
7
  6
BYLAYER
 70
0
 71
3
 72
9
 73
5
 74
0
 42
0.0000001
 43
0.0000001
 44
0.0000000001
 40
0.0
 40
0.0
 40
0.0
 40
0.0
 40
0.483986094
 40
1.0
 40
1.0
 40
1.0
 40
1.0
 10
77.7335366336
 20
78.0445566842
 30
0.0
 10
77.5225987672
 20
77.5920165928
 30
0.0
 10
76.9981798796
 20
76.6967575534
 30
0.0
 10
76.3374204342
 20
75.8990337902
 30
0.0
 10
75.970813161
 20
75.513065788
 30
0.0
  0
SPLINE
  5
3A0
100
AcDbEntity
  8
00_COMPONENTS
100
AcDbSpline
 62
7
  6
BYLAYER
 70
0
 71
3
 72
20
 73
16
 74
0
 42
0.0000001
 43
0.0000001
 44
0.0000000001
 40
0.0
 40
0.0
 40
0.0
 40
0.0
 40
0.0428305361
 40
0.0874285602
 40
0.1352285288
 40
0.1871559084
 40
0.2436208974
 40
0.3045983817
 40
0.369718691
 40
0.4383496532
 40
0.5825949453
 40
0.7296597221
 40
0.8711717409
 40
0.9375871002
 40
1.0
 40
1.0
 40
1.0
 40
1.0
 10
53.5715421785
 20
34.4455403359
 30
0.0
 10
53.5715301767
 20
34.3032079623
 30
0.0
 10
53.6096193205
 20
34.0114364228
 30
0.0
 10
53.7769046024
 20
33.5901266003
 30
0.0
 10
54.0484371839
 20
33.1907487724
 30
0.0
 10
54.4164490833
 20
32.8211952531
 30
0.0
 10
54.8724417036
 20
32.4879579866
 30
0.0
 10
55.4067192642
 20
32.1973291169
 30
0.0
 10
56.0081482072
 20
31.9550120699
 30
0.0
 10
56.8970939673
 20
31.6988809834
 30
0.0
 10
58.0885207181
 20
31.5317133419
 30
0.0
 10
59.5322884741
 20
31.5714868667
 30
0.0
 10
60.696435817
 20
31.8043265296
 30
0.0
 10
61.5423497041
 20
32.110812279
 30
0.0
 10
61.927455359
 20
32.3006332571
 30
0.0
 10
62.1070758271
 20
32.4043365638
 30
0.0
  0
SPLINE
  5
3A1
100
AcDbEntity
  8
00_COMPONENTS
100
AcDbSpline
 62
7
  6
BYLAYER
 70
0
 71
3
 72
11
 73
7
 74
0
 42
0.0000001
 43
0.0000001
 44
0.0000000001
 40
0.0
 40
0.0
 40
0.0
 40
0.0
 40
0.2473010411
 40
0.4999998358
 40
0.7526987139
 40
1.0
 40
1.0
 40
1.0
 40
1.0
 10
64.2080390346
 20
63.8962683524
 30
0.0
 10
63.2936780131
 20
63.6975376482
 30
0.0
 10
61.4206361861
 20
63.4015928955
 30
0.0
 10
58.5715709852
 20
63.2547914239
 30
0.0
 10
55.7225043975
 20
63.4015839413
 30
0.0
 10
53.8494603838
 20
63.6975227135
 30
0.0
 10
52.9350977681
 20
63.8962504465
 30
0.0
  0
SPLINE
  5
3A2
100
AcDbEntity
  8
00_COMPONENTS
100
AcDbSpline
 62
7
  6
BYLAYER
 70
0
 71
3
 72
9
 73
5
 74
0
 42
0.0000001
 43
0.0000001
 44
0.0000000001
 40
0.0
 40
0.0
 40
0.0
 40
0.0
 40
0.244031917
 40
1.0
 40
1.0
 40
1.0
 40
1.0
 10
68.1131217699
 20
70.9764526281
 30
0.0
 10
67.7634933206
 20
70.8657567514
 30
0.0
 10
66.321504045
 20
70.4417405856
 30
0.0
 10
64.8464072006
 20
70.1322786514
 30
0.0
 10
63.7237746763
 20
69.9580182776
 30
0.0
  0
SPLINE
  5
3A3
100
AcDbEntity
  8
00_COMPONENTS
100
AcDbSpline
 62
7
  6
BYLAYER
 70
0
 71
3
 72
18
 73
14
 74
0
 42
0.0000001
 43
0.0000001
 44
0.0000000001
 40
0.0
 40
0.0
 40
0.0
 40
0.0
 40
0.1527372725
 40
0.3014864655
 40
0.4433572597
 40
0.5759524305
 40
0.6382694178
 40
0.6977358334
 40
0.8079545937
 40
0.859074121
 40
0.907829902
 40
0.9546297067
 40
1.0
 40
1.0
 40
1.0
 40
1.0
 10
57.6545250097
 20
69.5773686602
 30
0.0
 10
56.4894759392
 20
69.6084763914
 30
0.0
 10
54.1910802847
 20
69.7867507062
 30
0.0
 10
50.8578384127
 20
70.4016138652
 30
0.0
 10
47.7612602434
 20
71.3435132775
 30
0.0
 10
45.4084683165
 20
72.3990874575
 30
0.0
 10
43.7369106824
 20
73.389876623
 30
0.0
 10
42.2917419316
 20
74.4141809943
 30
0.0
 10
41.0458569432
 20
75.5683396952
 30
0.0
 10
40.0673290043
 20
76.8422252693
 30
0.0
 10
39.4968310117
 20
77.8087797369
 30
0.0
 10
39.0769638918
 20
78.8022803054
 30
0.0
 10
38.8980334483
 20
79.4855852964
 30
0.0
 10
38.8361264732
 20
79.8262040273
 30
0.0
  0
SPLINE
  5
3A4
100
AcDbEntity
  8
00_COMPONENTS
100
AcDbSpline
 62
7
  6
BYLAYER
 70
0
 71
3
 72
15
 73
11
 74
0
 42
0.0000001
 43
0.0000001
 44
0.0000000001
 40
0.0
 40
0.0
 40
0.0
 40
0.0
 40
0.1145623156
 40
0.2378187445
 40
0.3672996693
 40
0.5000159451
 40
0.6327289567
 40
0.7622030386
 40
0.8854412202
 40
1.0
 40
1.0
 40
1.0
 40
1.0
 10
47.4349039813
 20
58.8763340705
 30
0.0
 10
48.204710785
 20
58.4454722087
 30
0.0
 10
49.8801955633
 20
57.6860340781
 30
0.0
 10
52.598221386
 20
56.878655813
 30
0.0
 10
55.5315645759
 20
56.3822938857
 30
0.0
 10
58.5741486431
 20
56.2151090988
 30
0.0
 10
61.6166521068
 20
56.3828730555
 30
0.0
 10
64.5496685836
 20
56.8798269032
 30
0.0
 10
67.2673464921
 20
57.6876314912
 30
0.0
 10
68.9424472018
 20
58.4475144961
 30
0.0
 10
69.7121290532
 20
58.8785438099
 30
0.0
  0
SPLINE
  5
3A5
100
AcDbEntity
  8
00_COMPONENTS
100
AcDbSpline
 62
7
  6
BYLAYER
 70
0
 71
3
 72
13
 73
9
 74
0
 42
0.0000001
 43
0.0000001
 44
0.0000000001
 40
0.0
 40
0.0
 40
0.0
 40
0.0
 40
0.1078065781
 40
0.2186879733
 40
0.4540232044
 40
0.5806304562
 40
0.7137848046
 40
1.0
 40
1.0
 40
1.0
 40
1.0
 10
71.0226054781
 20
54.8655670802
 30
0.0
 10
70.9902355119
 20
54.6549505397
 30
0.0
 10
70.8921629375
 20
54.2320453543
 30
0.0
 10
70.5664351334
 20
53.3932424114
 30
0.0
 10
70.0525138383
 20
52.5992271535
 30
0.0
 10
69.3939711593
 20
51.8740194134
 30
0.0
 10
68.5911409179
 20
51.1504883827
 30
0.0
 10
67.9003363862
 20
50.6832867358
 30
0.0
 10
67.4103987657
 20
50.4004228072
 30
0.0
  0
SPLINE
  5
3A6
100
AcDbEntity
  8
00_COMPONENTS
100
AcDbSpline
 62
7
  6
BYLAYER
 70
0
 71
3
 72
23
 73
19
 74
0
 42
0.0000001
 43
0.0000001
 44
0.0000000001
 40
0.0
 40
0.0
 40
0.0
 40
0.0
 40
0.0615452402
 40
0.1268871718
 40
0.1953669451
 40
0.26621872
 40
0.3385465208
 40
0.4114011329
 40
0.4838096035
 40
0.5548176448
 40
0.6235296442
 40
0.6891508657
 40
0.7510349824
 40
0.8087400597
 40
0.8620955243
 40
0.9112786045
 40
0.9568911016
 40
1.0
 40
1.0
 40
1.0
 40
1.0
 10
67.4103987657
 20
50.4004228072
 30
0.0
 10
66.9787263958
 20
50.1511981359
 30
0.0
 10
66.055729995
 20
49.6932756289
 30
0.0
 10
64.5691147974
 20
49.1442774046
 30
0.0
 10
62.9638709773
 20
48.7212995417
 30
0.0
 10
61.2720257096
 20
48.4325203887
 30
0.0
 10
59.5267136864
 20
48.2837025719
 30
0.0
 10
57.7625201912
 20
48.2777523918
 30
0.0
 10
56.0143313846
 20
48.4147979531
 30
0.0
 10
54.3167154219
 20
48.6921154301
 30
0.0
 10
52.7031560497
 20
49.1042505712
 30
0.0
 10
51.2053605286
 20
49.643186684
 30
0.0
 10
49.8526162136
 20
50.2986111839
 30
0.0
 10
48.6712484399
 20
51.0583369168
 30
0.0
 10
47.6843331194
 20
51.9086626078
 30
0.0
 10
46.9118787878
 20
52.8352866101
 30
0.0
 10
46.3717240765
 20
53.8216392895
 30
0.0
 10
46.1734872938
 20
54.5204825594
 30
0.0
 10
46.1204489694
 20
54.8655670825
 30
0.0
  0
SPLINE
  5
3A7
100
AcDbEntity
  8
00_COMPONENTS
100
AcDbSpline
 62
7
  6
BYLAYER
 70
0
 71
3
 72
12
 73
8
 74
0
 42
0.0000001
 43
0.0000001
 44
0.0000000001
 40
0.0
 40
0.0
 40
0.0
 40
0.0
 40
0.2895789626
 40
0.5486653741
 40
0.7816502635
 40
0.8918482306
 40
1.0
 40
1.0
 40
1.0
 40
1.0
 10
62.1070758271
 20
32.4043365638
 30
0.0
 10
62.3265429489
 20
32.5310452092
 30
0.0
 10
62.7246370695
 20
32.8052540048
 30
0.0
 10
63.2002797408
 20
33.3047816675
 30
0.0
 10
63.4555724147
 20
33.7755456862
 30
0.0
 10
63.5550745553
 20
34.1594112919
 30
0.0
 10
63.5715042434
 20
34.3508937824
 30
0.0
 10
63.5715122243
 20
34.4455403368
 30
0.0
  0
SPLINE
  5
3A8
100
AcDbEntity
  8
00_COMPONENTS_3
100
AcDbSpline
 62
7
  6
BYLAYER
 70
0
 71
3
 72
11
 73
7
 74
0
 42
0.0000001
 43
0.0000001
 44
0.0000000001
 40
0.0
 40
0.0
 40
0.0
 40
0.0
 40
0.2307768972
 40
0.4747170274
 40
0.731409246
 40
1.0
 40
1.0
 40
1.0
 40
1.0
 10
46.0455380709
 20
76.2306370723
 30
0.0
 10
46.3331355156
 20
75.9778074237
 30
0.0
 10
46.9545053983
 20
75.4909306948
 30
0.0
 10
47.9797247101
 20
74.8384206026
 30
0.0
 10
49.1138516179
 20
74.2496578951
 30
0.0
 10
49.9178949432
 20
73.9106401168
 30
0.0
 10
50.3345265501
 20
73.7523877465
 30
0.0
  0
ELLIPSE
  5
3A9
100
AcDbEntity
  8
00_COMPONENTS_1
100
AcDbEllipse
 62
7
  6
BYLAYER
 10
37.1154045222
 20
135.8890307552
 30
0.0
 11
1.6066066926
 21
2.7825934927
 31
0.0
 40
0.868896216
 41
-4.1212175638
 42
-3.730386412
  0
ELLIPSE
  5
3AA
100
AcDbEntity
  8
00_COMPONENTS_1
100
AcDbEllipse
 62
7
  6
BYLAYER
 10
34.0759480642
 20
137.6438813928
 30
0.0
 11
1.6066066926
 21
2.7825934927
 31
0.0
 40
0.868896216
 41
-1.7683280305
 42
-1.3732121943
  0
ELLIPSE
  5
3AB
100
AcDbEntity
  8
00_COMPONENTS_1
100
AcDbEllipse
 62
7
  6
BYLAYER
 10
37.1154045222
 20
135.8890307552
 30
0.0
 11
1.6066066926
 21
2.7825934927
 31
0.0
 40
0.868896216
 41
0.5888278944
 42
0.979677339
  0
ELLIPSE
  5
3AC
100
AcDbEntity
  8
00_COMPONENTS_1
100
AcDbEllipse
 62
7
  6
BYLAYER
 10
64.4331952604
 20
120.1174537196
 30
0.0
 11
1.6066066926
 21
2.7825934927
 31
0.0
 40
0.868896216
 41
0.1406258951
 42
0.979677339
  0
ELLIPSE
  5
3AD
100
AcDbEntity
  8
00_COMPONENTS_1
100
AcDbEllipse
 62
7
  6
BYLAYER
 10
63.7676098299
 20
120.5017615099
 30
0.0
 11
1.6066066926
 21
2.7825934927
 31
0.0
 40
0.868896216
 41
0.979677339
 42
2.1619677434
  0
ELLIPSE
  5
3AE
100
AcDbEntity
  8
00_COMPONENTS_1
100
AcDbEllipse
 62
7
  6
BYLAYER
 10
64.4331952604
 20
120.1174537196
 30
0.0
 11
1.6066066926
 21
2.7825934927
 31
0.0
 40
0.868896216
 41
2.1619677434
 42
3.0009546347
  0
ELLIPSE
  5
3AF
100
AcDbEntity
  8
00_COMPONENTS_1
100
AcDbEllipse
 62
7
  6
BYLAYER
 10
63.4594684269
 20
120.6796817832
 30
0.0
 11
1.6066066926
 21
2.7825934927
 31
0.0
 40
0.868896216
 41
1.3732646231
 42
1.7683804593
  0
ENDSEC
  0
SECTION
  2
OBJECTS
  0
DICTIONARY
  5
C
100
AcDbDictionary
280
0
281
1
  3
ACAD_GROUP
350
D
  3
ACAD_MLINESTYLE
350
17
  3
ACAD_LAYOUT
350
1A
  3
ACAD_PLOTSETTINGS
350
19
  3
ACAD_PLOTSTYLENAME
350
E
  0
DICTIONARY
  5
D
102
{ACAD_REACTORS
330
C
102
}
100
AcDbDictionary
280
0
281
1
  0
ACDBDICTIONARYWDFLT
  5
E
102
{ACAD_REACTORS
330
C
102
}
100
AcDbDictionary
281
1
  3
Normal
350
F
100
AcDbDictionaryWithDefault
340
F
  0
DICTIONARY
  5
17
102
{ACAD_REACTORS
330
C
102
}
100
AcDbDictionary
280
0
281
1
  3
Standard
350
18
  0
DICTIONARY
  5
19
102
{ACAD_REACTORS
330
C
102
}
100
AcDbDictionary
281
1
  0
DICTIONARY
  5
1A
102
{ACAD_REACTORS
330
C
102
}
100
AcDbDictionary
281
1
  3
Model
350
3B0
  3
Layout1
350
3B1
  0
ACDBPLACEHOLDER
  5
F
102
{ACAD_REACTORS
330
E
102
}
  0
MLINESTYLE
  5
18
102
{ACAD_REACTORS
330
17
102
}
100
AcDbMlineStyle
  2
STANDARD
 70
0
  3

 62
256
 51
90.0
 52
90.0
 71
2
 49
0.5
 62
256
  6
BYLAYER
 49
-0.5
 62
256
  6
BYLAYER
  0
LAYOUT
  5
3B0
102
{ACAD_REACTORS
330
1A
102
}
100
AcDbPlotSettings
  1

  2
none_device
  4

  6

 40
0.0
 41
0.0
 42
0.0
 43
0.0
 44
210.0
 45
297.0
 46
0.0
 47
0.0
 48
0.0
 49
0.0
140
0.0
141
0.0
142
1.0
143
1.0
 70
1024
 72
1
 73
0
 74
0
  7

 75
0
147
1.0
148
0.0
149
0.0
100
AcDbLayout
  1
Model
 70
0
 71
0
 10
0.0
 20
0.0
 11
210.0
 21
297.0
 12
0.0
 22
0.0
 32
0.0
 14
0.0
 24
0.0
 34
0.0
 15
0.0
 25
0.0
 35
0.0
146
0.0
 13
0.0
 23
0.0
 33
0.0
 16
1.0
 26
0.0
 36
0.0
 17
0.0
 27
1.0
 37
0.0
 76
0
330
219
345
0
346
0
  0
LAYOUT
  5
3B1
102
{ACAD_REACTORS
330
1A
102
}
100
AcDbPlotSettings
  1

  2
none_device
  4

  6

 40
0.0
 41
0.0
 42
0.0
 43
0.0
 44
210.0
 45
297.0
 46
0.0
 47
0.0
 48
0.0
 49
0.0
140
0.0
141
0.0
142
1.0
143
1.0
 70
0
 72
1
 73
0
 74
0
  7

 75
0
147
1.0
148
0.0
149
0.0
100
AcDbLayout
  1
Layout1
 70
0
 71
1
 10
0.0
 20
0.0
 11
210.0
 21
297.0
 12
0.0
 22
0.0
 32
0.0
 14
0.0
 24
0.0
 34
0.0
 15
0.0
 25
0.0
 35
0.0
146
0.0
 13
0.0
 23
0.0
 33
0.0
 16
1.0
 26
0.0
 36
0.0
 17
0.0
 27
1.0
 37
0.0
 76
0
330
21A
345
0
346
0
  0
ENDSEC
  0
EOF
