999
DXF file: C:\Users\sesa63760\Dev\_Creo\CAD\MCADID0004888_3D-CAD\drw0001_7.dxf
999
Pro/ENGINEER 2019471 by Parametric Technology Corporation
  0
SECTION
  2
HEADER
  9
$ACADVER
  1
AC1024
  9
$DWGCODEPAGE
  3
ANSI_1252
  9
$EXTMAX
 10
327.3923037818
 20
463.0262582057
 30
0.0
  9
$EXTMIN
 10
0.0
 20
0.0
 30
0.0
  9
$LIMMIN
 10
0.0
 20
0.0
  9
$LIMMAX
 10
327.3923037818
 20
463.0262582057
  9
$VIEWCTR
 10
163.6961518909
 20
231.5131291028
  9
$VIEWSIZE
 40
463.0262582057
  9
$CLAYER
  8
0
  9
$LTSCALE
 40
30.1824523867
  9
$CELTYPE
  6
BYLAYER
  9
$DIMSCALE
 40
1.0
  9
$DIMASZ
 40
3.897527426
  9
$DIMEXO
 40
1.0
  9
$DIMDLI
 40
20.8533307399
  9
$DIMEXE
 40
1.0
  9
$DIMCEN
 40
4.9389467542
  9
$DIMLFAC
 40
1.0
  9
$DIMBLK
  1
_FILLED
  9
$DIMALT
 70
0
  9
$DIMALTF
 40
0.0393700787
  9
$DIMTXT
 40
5.4565383964
  9
$DIMTOL
 70
1
  9
$DIMLIM
 70
0
  9
$DIMTFAC
 40
1.0
  9
$DIMTP
 40
0.01
  9
$DIMTM
 40
0.01
  9
$DIMGAP
 40
0.625
  9
$DIMDSEP
 70
46
  9
$AUNITS
 70
0
  9
$PDMODE
 70
3
  9
$PDSIZE
 40
0.3125
  9
$HANDSEED
  5
3B7
  9
$TILEMODE
 70
1
  9
$MEASUREMENT
 70
1
  9
$INSUNITS
 70
4
  0
ENDSEC
  0
SECTION
  2
CLASSES
  0
CLASS
  1
ACDBDICTIONARYWDFLT
  2
AcDbDictionaryWithDefault
  3
AutoCAD 2000
 90
0
 91
1
280
0
281
0
  0
CLASS
  1
ACDBPLACEHOLDER
  2
AcDbPlaceHolder
  3
AutoCAD 2000
 90
0
 91
1
280
0
281
0
  0
CLASS
  1
LAYOUT
  2
AcDbLayout
  3
AutoCAD 2000
 90
0
 91
0
280
0
281
0
  0
ENDSEC
  0
SECTION
  2
TABLES
  0
TABLE
  2
VPORT
  5
8
100
AcDbSymbolTable
 70
2
  0
VPORT
  5
1F4
100
AcDbSymbolTableRecord
100
AcDbViewportTableRecord
  2
*ACTIVE
 70
0
 10
0.0
 20
0.0
 11
1.0
 21
1.0
 12
163.6961518909
 22
231.5131291028
 13
0.0
 23
0.0
 14
1.0
 24
1.0
 15
0.0
 25
0.0
 16
0.0
 26
0.0
 36
1.0
 17
0.0
 27
0.0
 37
0.0
 40
463.0262582057
 41
0.7070707071
 42
50.0
 43
0.0
 44
0.0
 50
0.0
 51
0.0
 71
0
 72
100
 73
1
 74
1
 75
0
 76
0
 77
0
 78
0
  0
ENDTAB
  0
TABLE
  2
LTYPE
  5
5
100
AcDbSymbolTable
 70
6
  0
LTYPE
  5
14
100
AcDbSymbolTableRecord
100
AcDbLinetypeTableRecord
  2
BYBLOCK
 70
0
  3

 72
65
 73
0
 40
0.0
  0
LTYPE
  5
15
100
AcDbSymbolTableRecord
100
AcDbLinetypeTableRecord
  2
BYLAYER
 70
0
  3

 72
65
 73
0
 40
0.0
  0
LTYPE
  5
16
100
AcDbSymbolTableRecord
100
AcDbLinetypeTableRecord
  2
CONTINUOUS
 70
64
  3
Solid line
 72
65
 73
0
 40
0.0
  0
LTYPE
  5
1F5
100
AcDbSymbolTableRecord
100
AcDbLinetypeTableRecord
  2
CENTER
 70
64
  3
____ _ ____ _ ____ _ ____ _ ____ _ ____ _ ____
 72
65
 73
4
 40
0.6
 49
0.375
 74
0
 49
-0.075
 74
0
 49
0.075
 74
0
 49
-0.075
 74
0
  0
LTYPE
  5
1F6
100
AcDbSymbolTableRecord
100
AcDbLinetypeTableRecord
  2
HIDDEN
 70
64
  3
- - - - - - - - - - - - - - - - - - - -
 72
65
 73
2
 40
0.2
 49
0.1
 74
0
 49
-0.1
 74
0
  0
LTYPE
  5
1F7
100
AcDbSymbolTableRecord
100
AcDbLinetypeTableRecord
  2
PHANTOM
 70
64
  3
_____ _ _ _____ _ _ _____ _ _ _____
 72
65
 73
6
 40
0.8
 49
0.45
 74
0
 49
-0.05
 74
0
 49
0.1
 74
0
 49
-0.05
 74
0
 49
0.1
 74
0
 49
-0.05
 74
0
  0
LTYPE
  5
1F8
100
AcDbSymbolTableRecord
100
AcDbLinetypeTableRecord
  2
DOT
 70
64
  3
. . . . . . . . . . . . . . . . . . . .
 72
65
 73
2
 40
0.2
 49
0.1
 74
0
 49
-0.1
 74
0
  0
LTYPE
  5
1F9
100
AcDbSymbolTableRecord
100
AcDbLinetypeTableRecord
  2
DASHED
 70
64
  3
- - - - - - - - - - - - - - - - - - - -
 72
65
 73
2
 40
0.2
 49
0.1
 74
0
 49
-0.1
 74
0
  0
ENDTAB
  0
TABLE
  2
LAYER
  5
2
100
AcDbSymbolTable
 70
36
  0
LAYER
  5
10
100
AcDbSymbolTableRecord
100
AcDbLayerTableRecord
  2
0
 70
0
 62
7
  6
CONTINUOUS
370
-3
390
F
  0
LAYER
  5
1FA
100
AcDbSymbolTableRecord
100
AcDbLayerTableRecord
  2
DEFAULT_1
 70
0
 62
7
  6
CENTER
370
-3
390
F
  0
LAYER
  5
1FB
100
AcDbSymbolTableRecord
100
AcDbLayerTableRecord
  2
DEFAULT_2
 70
0
 62
7
  6
HIDDEN
370
-3
390
F
  0
LAYER
  5
1FC
100
AcDbSymbolTableRecord
100
AcDbLayerTableRecord
  2
DEFAULT_3
 70
0
 62
7
  6
PHANTOM
370
-3
390
F
  0
LAYER
  5
1FD
100
AcDbSymbolTableRecord
100
AcDbLayerTableRecord
  2
00_COMPONENTS
 70
0
 62
7
  6
CONTINUOUS
370
-3
390
F
  0
LAYER
  5
1FE
100
AcDbSymbolTableRecord
100
AcDbLayerTableRecord
  2
01_1_DEFAULT_DATUMS
 70
0
 62
7
  6
CONTINUOUS
370
-3
390
F
  0
LAYER
  5
1FF
100
AcDbSymbolTableRecord
100
AcDbLayerTableRecord
  2
01_PLANES
 70
0
 62
7
  6
CONTINUOUS
370
-3
390
F
  0
LAYER
  5
200
100
AcDbSymbolTableRecord
100
AcDbLayerTableRecord
  2
02_COORD_SYS
 70
0
 62
7
  6
CONTINUOUS
370
-3
390
F
  0
LAYER
  5
201
100
AcDbSymbolTableRecord
100
AcDbLayerTableRecord
  2
03_AXES
 70
0
 62
7
  6
CONTINUOUS
370
-3
390
F
  0
LAYER
  5
202
100
AcDbSymbolTableRecord
100
AcDbLayerTableRecord
  2
04_POINTS
 70
0
 62
7
  6
CONTINUOUS
370
-3
390
F
  0
LAYER
  5
203
100
AcDbSymbolTableRecord
100
AcDbLayerTableRecord
  2
05_CURVES
 70
0
 62
7
  6
CONTINUOUS
370
-3
390
F
  0
LAYER
  5
204
100
AcDbSymbolTableRecord
100
AcDbLayerTableRecord
  2
06_SURFS
 70
0
 62
7
  6
CONTINUOUS
370
-3
390
F
  0
LAYER
  5
205
100
AcDbSymbolTableRecord
100
AcDbLayerTableRecord
  2
07_COSMETICS
 70
0
 62
7
  6
CONTINUOUS
370
-3
390
F
  0
LAYER
  5
206
100
AcDbSymbolTableRecord
100
AcDbLayerTableRecord
  2
10_NOTES
 70
0
 62
7
  6
CONTINUOUS
370
-3
390
F
  0
LAYER
  5
207
100
AcDbSymbolTableRecord
100
AcDbLayerTableRecord
  2
11_NOTES_PUB
 70
0
 62
7
  6
CONTINUOUS
370
-3
390
F
  0
LAYER
  5
208
100
AcDbSymbolTableRecord
100
AcDbLayerTableRecord
  2
13_REF_GTOL
 70
0
 62
7
  6
CONTINUOUS
370
-3
390
F
  0
LAYER
  5
209
100
AcDbSymbolTableRecord
100
AcDbLayerTableRecord
  2
16_MISC
 70
0
 62
7
  6
CONTINUOUS
370
-3
390
F
  0
LAYER
  5
20A
100
AcDbSymbolTableRecord
100
AcDbLayerTableRecord
  2
17_NO_PRINT
 70
0
 62
7
  6
CONTINUOUS
370
-3
390
F
  0
LAYER
  5
20B
100
AcDbSymbolTableRecord
100
AcDbLayerTableRecord
  2
18_DATUM_CAMS_JOINTS
 70
0
 62
7
  6
CONTINUOUS
370
-3
390
F
  0
LAYER
  5
20C
100
AcDbSymbolTableRecord
100
AcDbLayerTableRecord
  2
19_DATUM_FUNCTIONAL
 70
0
 62
7
  6
CONTINUOUS
370
-3
390
F
  0
LAYER
  5
20D
100
AcDbSymbolTableRecord
100
AcDbLayerTableRecord
  2
20_DATUM_KINEMATIC_SCHEME
 70
0
 62
7
  6
CONTINUOUS
370
-3
390
F
  0
ENDTAB
  0
TABLE
  2
STYLE
  5
3
100
AcDbSymbolTable
 70
1
  0
STYLE
  5
11
100
AcDbSymbolTableRecord
100
AcDbTextStyleTableRecord
  2
STANDARD
 70
0
 40
0.0
 41
1.0
 50
0.0
 71
0
 42
0.2
  3
ARIAL.TTF
  4

  0
STYLE
  5
20E
100
AcDbSymbolTableRecord
100
AcDbTextStyleTableRecord
  2
TEXTSTYLE_1
 70
0
 40
0.0
 41
0.8
 50
0.0
 71
0
 42
0.2
  3
gdt
  4

  0
ENDTAB
  0
TABLE
  2
VIEW
  5
6
100
AcDbSymbolTable
 70
0
  0
ENDTAB
  0
TABLE
  2
UCS
  5
7
100
AcDbSymbolTable
 70
0
  0
ENDTAB
  0
TABLE
  2
APPID
  5
9
100
AcDbSymbolTable
 70
1
  0
APPID
  5
20F
100
AcDbSymbolTableRecord
100
AcDbRegAppTableRecord
  2
ACAD
 70
0
  0
ENDTAB
  0
TABLE
  2
BLOCK_RECORD
  5
1
100
AcDbSymbolTable
 70
0
  0
BLOCK_RECORD
  5
210
100
AcDbSymbolTableRecord
100
AcDbBlockTableRecord
  2
*Model_Space
  0
BLOCK_RECORD
  5
211
100
AcDbSymbolTableRecord
100
AcDbBlockTableRecord
  2
*Paper_Space
  0
BLOCK_RECORD
  5
212
100
AcDbSymbolTableRecord
100
AcDbBlockTableRecord
  2
_FILLED
  0
ENDTAB
  0
TABLE
  2
DIMSTYLE
  5
A
100
AcDbSymbolTable
 70
1
100
AcDbDimStyleTable
 71
0
  0
DIMSTYLE
105
213
100
AcDbSymbolTableRecord
100
AcDbDimStyleTableRecord
  2
STANDARD
 70
0
  3

  4

 40
1.0
 41
3.897527426
 42
1.0
 43
0.38
 44
1.0
 45
0.0
 46
0.0
 47
0.01
 48
0.01
140
5.4565383964
141
0.09
142
0.0
143
25.4
144
1.0
145
0.0
146
1.0
147
0.625
 71
1
 72
0
 73
0
 74
0
 75
0
 76
0
 77
1
 78
8
 79
2
170
0
171
1
172
0
173
0
174
0
175
0
176
0
177
0
178
0
270
2
179
2
271
2
272
2
273
2
274
2
275
0
280
0
281
0
282
0
283
1
284
8
285
0
286
0
287
3
288
0
340
11
278
46
341
212
342
212
343
212
344
212
  0
ENDTAB
  0
ENDSEC
  0
SECTION
  2
BLOCKS
  0
BLOCK
  5
20
100
AcDbEntity
  8
0
100
AcDbBlockBegin
  2
*Model_Space
 70
0
 10
0.0
 20
0.0
 30
0.0
  3
*Model_Space
  1

  0
ENDBLK
  5
21
100
AcDbEntity
  8
0
100
AcDbBlockEnd
  0
BLOCK
  5
1C
100
AcDbEntity
  8
0
100
AcDbBlockBegin
  2
*Paper_Space
 70
0
 10
0.0
 20
0.0
 30
0.0
  3
*Paper_Space
  1

  0
ENDBLK
  5
1D
100
AcDbEntity
  8
0
100
AcDbBlockEnd
  0
BLOCK
  5
214
100
AcDbEntity
  8
0
100
AcDbBlockBegin
  2
_FILLED
 70
64
 10
0.0
 20
0.0
  3
_FILLED
  1

  0
SOLID
  5
215
100
AcDbEntity
  8
0
  6
BYBLOCK
 62
0
100
AcDbTrace
 10
0.0
 20
0.0
 11
-1.0
 21
0.25
 12
-1.0
 22
-0.25
 13
-1.0
 23
-0.25
  0
ENDBLK
  5
216
100
AcDbEntity
  8
0
  6
BYBLOCK
 62
0
100
AcDbBlockEnd
  0
ENDSEC
  0
SECTION
  2
ENTITIES
  0
LINE
  5
217
100
AcDbEntity
  8
0
100
AcDbLine
 62
7
  6
BYLAYER
 10
34.762891497
 20
218.7475536588
 11
34.762891497
 21
223.7456629714
  0
LINE
  5
218
100
AcDbEntity
  8
0
100
AcDbLine
 62
7
  6
BYLAYER
 10
35.212891497
 20
236.3966083151
 11
35.212891497
 21
243.7966083151
  0
LINE
  5
219
100
AcDbEntity
  8
0
100
AcDbLine
 62
7
  6
BYLAYER
 10
37.692891497
 20
236.0266155206
 11
37.692891497
 21
238.5665456596
  0
LINE
  5
21A
100
AcDbEntity
  8
0
100
AcDbLine
 62
7
  6
BYLAYER
 10
37.762891497
 20
228.7966083151
 11
37.762891497
 21
236.0266155206
  0
LINE
  5
21B
100
AcDbEntity
  8
0
100
AcDbLine
 62
7
  6
BYLAYER
 10
37.762891497
 20
243.7966083151
 11
37.762891497
 21
249.7966806612
  0
LINE
  5
21C
100
AcDbEntity
  8
0
100
AcDbLine
 62
7
  6
BYLAYER
 10
39.662891497
 20
229.7141083156
 11
39.662891497
 21
231.5141083149
  0
LINE
  5
21D
100
AcDbEntity
  8
0
100
AcDbLine
 62
7
  6
BYLAYER
 10
39.662891497
 20
233.9863230315
 11
39.662891497
 21
234.0141083142
  0
LINE
  5
21E
100
AcDbEntity
  8
0
100
AcDbLine
 62
7
  6
BYLAYER
 10
39.662891497
 20
232.2141083155
 11
39.662891497
 21
233.9691083152
  0
LINE
  5
21F
100
AcDbEntity
  8
0
100
AcDbLine
 62
7
  6
BYLAYER
 10
39.662891497
 20
239.4965805901
 11
39.662891497
 21
242.4965805901
  0
LINE
  5
220
100
AcDbEntity
  8
0
100
AcDbLine
 62
7
  6
BYLAYER
 10
39.662891497
 20
243.7941083143
 11
39.662891497
 21
245.594108315
  0
LINE
  5
221
100
AcDbEntity
  8
0
100
AcDbLine
 62
7
  6
BYLAYER
 10
39.662891497
 20
252.2004529919
 11
39.662891497
 21
254.7700877032
  0
LINE
  5
222
100
AcDbEntity
  8
0
100
AcDbLine
 62
7
  6
BYLAYER
 10
39.662891497
 20
254.8174870896
 11
39.662891497
 21
255.4548434849
  0
LINE
  5
223
100
AcDbEntity
  8
0
100
AcDbLine
 62
7
  6
BYLAYER
 10
39.662891497
 20
255.4564862491
 11
39.662891497
 21
256.3313910057
  0
LINE
  5
224
100
AcDbEntity
  8
0
100
AcDbLine
 62
7
  6
BYLAYER
 10
39.662891497
 20
256.3331066438
 11
39.662891497
 21
263.2703854269
  0
LINE
  5
225
100
AcDbEntity
  8
0
100
AcDbLine
 62
7
  6
BYLAYER
 10
39.712891497
 20
234.7466083155
 11
39.712891497
 21
236.0265805901
  0
LINE
  5
226
100
AcDbEntity
  8
0
100
AcDbLine
 62
7
  6
BYLAYER
 10
39.712891497
 20
238.5665805901
 11
39.712891497
 21
239.4966052381
  0
LINE
  5
227
100
AcDbEntity
  8
0
100
AcDbLine
 62
7
  6
BYLAYER
 10
39.712891497
 20
242.4965805901
 11
39.712891497
 21
243.7941083151
  0
LINE
  5
228
100
AcDbEntity
  8
0
100
AcDbLine
 62
7
  6
BYLAYER
 10
39.762891497
 20
199.9966083151
 11
39.762891497
 21
265.1966083151
  0
LINE
  5
229
100
AcDbEntity
  8
0
100
AcDbLine
 62
7
  6
BYLAYER
 10
40.962891497
 20
201.1966083151
 11
40.962891497
 21
251.1966083151
  0
LINE
  5
22A
100
AcDbEntity
  8
0
100
AcDbLine
 62
7
  6
BYLAYER
 10
41.962891497
 20
248.6966083151
 11
41.962891497
 21
243.6966083151
  0
LINE
  5
22B
100
AcDbEntity
  8
0
100
AcDbLine
 62
7
  6
BYLAYER
 10
41.962891497
 20
231.6966083151
 11
41.962891497
 21
226.6966083151
  0
LINE
  5
22C
100
AcDbEntity
  8
0
100
AcDbLine
 62
7
  6
BYLAYER
 10
41.962891497
 20
225.6966083151
 11
41.962891497
 21
220.6966083151
  0
LINE
  5
22D
100
AcDbEntity
  8
0
100
AcDbLine
 62
7
  6
BYLAYER
 10
41.962891497
 20
208.6966083151
 11
41.962891497
 21
203.6966083151
  0
LINE
  5
22E
100
AcDbEntity
  8
0
100
AcDbLine
 62
7
  6
BYLAYER
 10
42.203658443
 20
265.2966083151
 11
42.203658443
 21
265.1966083151
  0
LINE
  5
22F
100
AcDbEntity
  8
0
100
AcDbLine
 62
7
  6
BYLAYER
 10
47.898282809
 20
265.2966083151
 11
47.898282809
 21
265.1966083151
  0
LINE
  5
230
100
AcDbEntity
  8
0
100
AcDbLine
 62
7
  6
BYLAYER
 10
48.08145868
 20
265.2966083151
 11
48.08145868
 21
265.1966083151
  0
LINE
  5
231
100
AcDbEntity
  8
0
100
AcDbLine
 62
7
  6
BYLAYER
 10
48.16446025
 20
265.2966083151
 11
48.16446025
 21
265.1966083151
  0
LINE
  5
232
100
AcDbEntity
  8
0
100
AcDbLine
 62
7
  6
BYLAYER
 10
48.247461817
 20
265.2966083151
 11
48.247461817
 21
265.1966083151
  0
LINE
  5
233
100
AcDbEntity
  8
0
100
AcDbLine
 62
7
  6
BYLAYER
 10
53.059961817
 20
265.2966083151
 11
53.059961817
 21
265.1966083151
  0
LINE
  5
234
100
AcDbEntity
  8
0
100
AcDbLine
 62
7
  6
BYLAYER
 10
57.028711817
 20
265.2966083151
 11
57.028711817
 21
265.1966083151
  0
LINE
  5
235
100
AcDbEntity
  8
0
100
AcDbLine
 62
7
  6
BYLAYER
 10
58.071680567
 20
265.2966083151
 11
58.071680567
 21
265.1966083151
  0
LINE
  5
236
100
AcDbEntity
  8
0
100
AcDbLine
 62
7
  6
BYLAYER
 10
58.837891497
 20
233.4376239409
 11
58.8378914969
 21
234.9333270645
  0
LINE
  5
237
100
AcDbEntity
  8
0
100
AcDbLine
 62
7
  6
BYLAYER
 10
59.2128914968
 20
233.5216081319
 11
59.2128914973
 21
234.9333270629
  0
LINE
  5
238
100
AcDbEntity
  8
0
100
AcDbLine
 62
7
  6
BYLAYER
 10
59.470118067
 20
265.2966083151
 11
59.470118067
 21
265.1966083151
  0
LINE
  5
239
100
AcDbEntity
  8
0
100
AcDbLine
 62
7
  6
BYLAYER
 10
61.337891497
 20
233.871608316
 11
61.337891497
 21
233.8243426895
  0
LINE
  5
23A
100
AcDbEntity
  8
0
100
AcDbLine
 62
7
  6
BYLAYER
 10
62.037891497
 20
234.4192645651
 11
62.0378914971
 21
233.3884051897
  0
LINE
  5
23B
100
AcDbEntity
  8
0
100
AcDbLine
 62
7
  6
BYLAYER
 10
62.366016497
 20
234.3817645652
 11
62.366016497
 21
234.4247333151
  0
LINE
  5
23C
100
AcDbEntity
  8
0
100
AcDbLine
 62
7
  6
BYLAYER
 10
62.3878914971
 20
233.3884051902
 11
62.387891497
 21
233.8356708104
  0
LINE
  5
23D
100
AcDbEntity
  8
0
100
AcDbLine
 62
7
  6
BYLAYER
 10
62.747461817
 20
265.2966083151
 11
62.747461817
 21
265.1966083151
  0
LINE
  5
23E
100
AcDbEntity
  8
0
100
AcDbLine
 62
7
  6
BYLAYER
 10
62.962891498
 20
233.3884051899
 11
62.9628914976
 21
233.9833270657
  0
LINE
  5
23F
100
AcDbEntity
  8
0
100
AcDbLine
 62
7
  6
BYLAYER
 10
63.312891497
 20
233.3884051833
 11
63.3128914971
 21
234.0524676876
  0
LINE
  5
240
100
AcDbEntity
  8
0
100
AcDbLine
 62
7
  6
BYLAYER
 10
64.414460249
 20
265.2966083151
 11
64.414460249
 21
265.1966083151
  0
LINE
  5
241
100
AcDbEntity
  8
0
100
AcDbLine
 62
7
  6
BYLAYER
 10
66.172272749
 20
265.2966083151
 11
66.172272749
 21
265.1966083151
  0
LINE
  5
242
100
AcDbEntity
  8
0
100
AcDbLine
 62
7
  6
BYLAYER
 10
61.6878914969
 20
233.6649676918
 11
61.6906258711
 21
234.0719989387
  0
LINE
  5
243
100
AcDbEntity
  8
0
100
AcDbLine
 62
7
  6
BYLAYER
 10
58.198438384
 20
234.9032489902
 11
57.9464852472
 21
233.771608315
  0
LINE
  5
244
100
AcDbEntity
  8
0
100
AcDbLine
 62
7
  6
BYLAYER
 10
58.239063374
 20
233.5184833182
 11
58.5589852369
 21
234.8208270241
  0
LINE
  5
245
100
AcDbEntity
  8
0
100
AcDbLine
 62
7
  6
BYLAYER
 10
57.086328837
 20
234.8305920899
 11
56.8042977474
 21
233.7716083156
  0
LINE
  5
246
100
AcDbEntity
  8
0
100
AcDbLine
 62
7
  6
BYLAYER
 10
57.0625008719
 20
233.5098895649
 11
57.3773446218
 21
234.6716083144
  0
LINE
  5
247
100
AcDbEntity
  8
0
100
AcDbLine
 62
7
  6
BYLAYER
 10
58.8034904211
 20
245.1966083151
 11
56.494089343
 21
241.1966083151
  0
LINE
  5
248
100
AcDbEntity
  8
0
100
AcDbLine
 62
7
  6
BYLAYER
 10
57.9464852472
 20
233.771608315
 11
57.662110251
 21
234.8305926748
  0
LINE
  5
249
100
AcDbEntity
  8
0
100
AcDbLine
 62
7
  6
BYLAYER
 10
57.3773446218
 20
234.6716083144
 11
57.6882820922
 21
233.5098896785
  0
LINE
  5
24A
100
AcDbEntity
  8
0
100
AcDbLine
 62
7
  6
BYLAYER
 10
56.1917977418
 20
234.8208270839
 11
56.5117196097
 21
233.5184833632
  0
LINE
  5
24B
100
AcDbEntity
  8
0
100
AcDbLine
 62
7
  6
BYLAYER
 10
56.8042977474
 20
233.7716083156
 11
56.5523446273
 21
234.9032489185
  0
LINE
  5
24C
100
AcDbEntity
  8
0
100
AcDbLine
 62
7
  6
BYLAYER
 10
67.9144602494
 20
265.2966083151
 11
67.9144602494
 21
265.1966083151
  0
LINE
  5
24D
100
AcDbEntity
  8
0
100
AcDbLine
 62
7
  6
BYLAYER
 10
68.0814586802
 20
265.2966083151
 11
68.0814586802
 21
265.1966083151
  0
LINE
  5
24E
100
AcDbEntity
  8
0
100
AcDbLine
 62
7
  6
BYLAYER
 10
64.8316414966
 20
233.9466083156
 11
65.1148446214
 21
234.7466083141
  0
LINE
  5
24F
100
AcDbEntity
  8
0
100
AcDbLine
 62
7
  6
BYLAYER
 10
64.6386727436
 20
233.4083270588
 11
64.7300789962
 21
233.6466083147
  0
LINE
  5
250
100
AcDbEntity
  8
0
100
AcDbLine
 62
7
  6
BYLAYER
 10
64.7835946288
 20
234.803639581
 11
64.2941415217
 21
233.5477802537
  0
LINE
  5
251
100
AcDbEntity
  8
0
100
AcDbLine
 62
7
  6
BYLAYER
 10
63.422292573
 20
237.1966083151
 11
65.7316936511
 21
241.1966083151
  0
LINE
  5
252
100
AcDbEntity
  8
0
100
AcDbLine
 62
7
  6
BYLAYER
 10
56.494089343
 20
241.1966083151
 11
58.8034904211
 21
237.1966083151
  0
LINE
  5
253
100
AcDbEntity
  8
0
100
AcDbLine
 62
7
  6
BYLAYER
 10
65.9542977466
 20
233.558327066
 11
65.4542977471
 21
234.8059833152
  0
LINE
  5
254
100
AcDbEntity
  8
0
100
AcDbLine
 62
7
  6
BYLAYER
 10
65.5078133708
 20
233.6466083147
 11
65.5992196146
 21
233.4134052072
  0
LINE
  5
255
100
AcDbEntity
  8
0
100
AcDbLine
 62
7
  6
BYLAYER
 10
65.1148446214
 20
234.7466083141
 11
65.4035164967
 21
233.9466083156
  0
LINE
  5
256
100
AcDbEntity
  8
0
100
AcDbLine
 62
7
  6
BYLAYER
 10
65.7316936511
 20
241.1966083151
 11
63.422292573
 21
245.1966083151
  0
LINE
  5
257
100
AcDbEntity
  8
0
100
AcDbLine
 62
7
  6
BYLAYER
 10
293.762891497
 20
199.9966083151
 11
39.762891497
 21
199.9966083151
  0
LINE
  5
258
100
AcDbEntity
  8
0
100
AcDbLine
 62
7
  6
BYLAYER
 10
292.562891497
 20
201.1966083151
 11
40.962891497
 21
201.1966083151
  0
LINE
  5
259
100
AcDbEntity
  8
0
100
AcDbLine
 62
7
  6
BYLAYER
 10
185.462891497
 20
202.1966083151
 11
190.462891497
 21
202.1966083151
  0
LINE
  5
25A
100
AcDbEntity
  8
0
100
AcDbLine
 62
7
  6
BYLAYER
 10
249.162891497
 20
202.1966083151
 11
254.162891497
 21
202.1966083151
  0
LINE
  5
25B
100
AcDbEntity
  8
0
100
AcDbLine
 62
7
  6
BYLAYER
 10
41.962891497
 20
203.6966083151
 11
40.962891497
 21
203.6966083151
  0
LINE
  5
25C
100
AcDbEntity
  8
0
100
AcDbLine
 62
7
  6
BYLAYER
 10
291.562891497
 20
203.6966083151
 11
292.562891497
 21
203.6966083151
  0
LINE
  5
25D
100
AcDbEntity
  8
0
100
AcDbLine
 62
7
  6
BYLAYER
 10
41.962891497
 20
208.6966083151
 11
40.962891497
 21
208.6966083151
  0
LINE
  5
25E
100
AcDbEntity
  8
0
100
AcDbLine
 62
7
  6
BYLAYER
 10
291.562891497
 20
208.6966083151
 11
292.562891497
 21
208.6966083151
  0
LINE
  5
25F
100
AcDbEntity
  8
0
100
AcDbLine
 62
7
  6
BYLAYER
 10
156.0378914971
 20
233.9216083147
 11
156.0378914968
 21
233.6083270654
  0
LINE
  5
260
100
AcDbEntity
  8
0
100
AcDbLine
 62
7
  6
BYLAYER
 10
156.3878914967
 20
233.6177020691
 11
156.3878914965
 21
233.9876239397
  0
LINE
  5
261
100
AcDbEntity
  8
0
100
AcDbLine
 62
7
  6
BYLAYER
 10
156.1034904207
 20
245.1966083151
 11
153.7940893426
 21
241.1966083151
  0
LINE
  5
262
100
AcDbEntity
  8
0
100
AcDbLine
 62
7
  6
BYLAYER
 10
39.762891497
 20
218.7466083151
 11
34.762891497
 21
218.7466083151
  0
LINE
  5
263
100
AcDbEntity
  8
0
100
AcDbLine
 62
7
  6
BYLAYER
 10
41.962891497
 20
220.6966083151
 11
40.962891497
 21
220.6966083151
  0
LINE
  5
264
100
AcDbEntity
  8
0
100
AcDbLine
 62
7
  6
BYLAYER
 10
291.562891497
 20
220.6966083151
 11
292.562891497
 21
220.6966083151
  0
LINE
  5
265
100
AcDbEntity
  8
0
100
AcDbLine
 62
7
  6
BYLAYER
 10
39.762891497
 20
223.7466083151
 11
34.762891497
 21
223.7466083151
  0
LINE
  5
266
100
AcDbEntity
  8
0
100
AcDbLine
 62
7
  6
BYLAYER
 10
156.7878914979
 20
234.883717691
 11
156.7878914979
 21
233.4055926906
  0
LINE
  5
267
100
AcDbEntity
  8
0
100
AcDbLine
 62
7
  6
BYLAYER
 10
157.1628914979
 20
233.407155191
 11
157.1628914979
 21
233.9466083156
  0
LINE
  5
268
100
AcDbEntity
  8
0
100
AcDbLine
 62
7
  6
BYLAYER
 10
157.1628914979
 20
234.2466083145
 11
157.1628914979
 21
234.8216083158
  0
LINE
  5
269
100
AcDbEntity
  8
0
100
AcDbLine
 62
7
  6
BYLAYER
 10
158.5878914965
 20
234.8837176909
 11
158.5878914965
 21
233.4083270648
  0
LINE
  5
26A
100
AcDbEntity
  8
0
100
AcDbLine
 62
7
  6
BYLAYER
 10
158.9628914965
 20
233.4075458155
 11
158.9628914965
 21
234.0216083148
  0
LINE
  5
26B
100
AcDbEntity
  8
0
100
AcDbLine
 62
7
  6
BYLAYER
 10
158.9628914965
 20
234.2966083151
 11
158.9628914965
 21
234.8216083158
  0
LINE
  5
26C
100
AcDbEntity
  8
0
100
AcDbLine
 62
7
  6
BYLAYER
 10
160.7222925733
 20
237.1966083151
 11
163.0316936515
 21
241.1966083151
  0
LINE
  5
26D
100
AcDbEntity
  8
0
100
AcDbLine
 62
7
  6
BYLAYER
 10
41.962891497
 20
225.6966083151
 11
40.962891497
 21
225.6966083151
  0
LINE
  5
26E
100
AcDbEntity
  8
0
100
AcDbLine
 62
7
  6
BYLAYER
 10
291.562891497
 20
225.6966083151
 11
292.562891497
 21
225.6966083151
  0
LINE
  5
26F
100
AcDbEntity
  8
0
100
AcDbLine
 62
7
  6
BYLAYER
 10
41.962891497
 20
226.6966083151
 11
40.962891497
 21
226.6966083151
  0
LINE
  5
270
100
AcDbEntity
  8
0
100
AcDbLine
 62
7
  6
BYLAYER
 10
291.562891497
 20
226.6966083151
 11
292.562891497
 21
226.6966083151
  0
LINE
  5
271
100
AcDbEntity
  8
0
100
AcDbLine
 62
7
  6
BYLAYER
 10
37.762891497
 20
228.7966083151
 11
39.762891497
 21
228.7966083151
  0
LINE
  5
272
100
AcDbEntity
  8
0
100
AcDbLine
 62
7
  6
BYLAYER
 10
39.662891497
 20
229.7141083156
 11
39.762891497
 21
229.7141083156
  0
LINE
  5
273
100
AcDbEntity
  8
0
100
AcDbLine
 62
7
  6
BYLAYER
 10
39.762891497
 20
229.9261005031
 11
39.662891497
 21
229.9261005031
  0
LINE
  5
274
100
AcDbEntity
  8
0
100
AcDbLine
 62
7
  6
BYLAYER
 10
39.662891497
 20
230.4116083154
 11
39.762891497
 21
230.4116083154
  0
LINE
  5
275
100
AcDbEntity
  8
0
100
AcDbLine
 62
7
  6
BYLAYER
 10
39.662891497
 20
230.4966083145
 11
37.762891497
 21
230.4966083145
  0
LINE
  5
276
100
AcDbEntity
  8
0
100
AcDbLine
 62
7
  6
BYLAYER
 10
39.662891497
 20
230.9487958153
 11
39.762891497
 21
230.9487958153
  0
LINE
  5
277
100
AcDbEntity
  8
0
100
AcDbLine
 62
7
  6
BYLAYER
 10
39.662891497
 20
231.43746769
 11
39.762891497
 21
231.43746769
  0
LINE
  5
278
100
AcDbEntity
  8
0
100
AcDbLine
 62
7
  6
BYLAYER
 10
39.662891497
 20
231.4691083146
 11
39.762891497
 21
231.4691083146
  0
LINE
  5
279
100
AcDbEntity
  8
0
100
AcDbLine
 62
7
  6
BYLAYER
 10
39.662891497
 20
231.5141083149
 11
39.762891497
 21
231.5141083149
  0
LINE
  5
27A
100
AcDbEntity
  8
0
100
AcDbLine
 62
7
  6
BYLAYER
 10
41.962891497
 20
231.6966083151
 11
40.962891497
 21
231.6966083151
  0
LINE
  5
27B
100
AcDbEntity
  8
0
100
AcDbLine
 62
7
  6
BYLAYER
 10
291.562891497
 20
231.6966083151
 11
292.562891497
 21
231.6966083151
  0
LINE
  5
27C
100
AcDbEntity
  8
0
100
AcDbLine
 62
7
  6
BYLAYER
 10
39.662891497
 20
232.2141083155
 11
39.762891497
 21
232.2141083155
  0
LINE
  5
27D
100
AcDbEntity
  8
0
100
AcDbLine
 62
7
  6
BYLAYER
 10
39.762891497
 20
232.4106317526
 11
39.662891497
 21
232.4106317526
  0
LINE
  5
27E
100
AcDbEntity
  8
0
100
AcDbLine
 62
7
  6
BYLAYER
 10
39.662891497
 20
232.6802801901
 11
39.762891497
 21
232.6802801901
  0
LINE
  5
27F
100
AcDbEntity
  8
0
100
AcDbLine
 62
7
  6
BYLAYER
 10
276.510547747
 20
233.1966083151
 11
275.923828998
 21
233.1966083151
  0
LINE
  5
280
100
AcDbEntity
  8
0
100
AcDbLine
 62
7
  6
BYLAYER
 10
271.306641497
 20
233.1966083151
 11
270.367578996
 21
233.1966083151
  0
LINE
  5
281
100
AcDbEntity
  8
0
100
AcDbLine
 62
7
  6
BYLAYER
 10
60.006641497
 20
233.1966083151
 11
59.067578996
 21
233.1966083151
  0
LINE
  5
282
100
AcDbEntity
  8
0
100
AcDbLine
 62
7
  6
BYLAYER
 10
39.662891497
 20
233.2051630031
 11
39.762891497
 21
233.2051630031
  0
LINE
  5
283
100
AcDbEntity
  8
0
100
AcDbLine
 62
7
  6
BYLAYER
 10
39.662891497
 20
233.338053628
 11
39.762891497
 21
233.338053628
  0
LINE
  5
284
100
AcDbEntity
  8
0
100
AcDbLine
 62
7
  6
BYLAYER
 10
276.487500872
 20
233.4966083147
 11
276.062891497
 21
233.4966083147
  0
LINE
  5
285
100
AcDbEntity
  8
0
100
AcDbLine
 62
7
  6
BYLAYER
 10
39.662891497
 20
233.5191083152
 11
39.762891497
 21
233.5191083152
  0
LINE
  5
286
100
AcDbEntity
  8
0
100
AcDbLine
 62
7
  6
BYLAYER
 10
271.3066414984
 20
233.5216083156
 11
270.5128914968
 21
233.521608315
  0
LINE
  5
287
100
AcDbEntity
  8
0
100
AcDbLine
 62
7
  6
BYLAYER
 10
60.0066425093
 20
233.5216081325
 11
59.2128914968
 21
233.5216081319
  0
LINE
  5
288
100
AcDbEntity
  8
0
100
AcDbLine
 62
7
  6
BYLAYER
 10
64.7300789962
 20
233.6466083147
 11
65.5078133708
 21
233.6466083147
  0
LINE
  5
289
100
AcDbEntity
  8
0
100
AcDbLine
 62
7
  6
BYLAYER
 10
39.662891497
 20
233.6991083158
 11
39.762891497
 21
233.6991083158
  0
LINE
  5
28A
100
AcDbEntity
  8
0
100
AcDbLine
 62
7
  6
BYLAYER
 10
39.662891497
 20
233.8348114401
 11
39.762891497
 21
233.8348114401
  0
LINE
  5
28B
100
AcDbEntity
  8
0
100
AcDbLine
 62
7
  6
BYLAYER
 10
159.5507821217
 20
233.6762958139
 11
159.7078133718
 21
233.4180926911
  0
LINE
  5
28C
100
AcDbEntity
  8
0
100
AcDbLine
 62
7
  6
BYLAYER
 10
153.7940893426
 20
241.1966083151
 11
156.1034904207
 21
237.1966083151
  0
LINE
  5
28D
100
AcDbEntity
  8
0
100
AcDbLine
 62
7
  6
BYLAYER
 10
155.7316414948
 20
233.9216083151
 11
156.0378914971
 21
233.9216083147
  0
LINE
  5
28E
100
AcDbEntity
  8
0
100
AcDbLine
 62
7
  6
BYLAYER
 10
64.831641497
 20
233.9466083156
 11
65.403516497
 21
233.9466083156
  0
LINE
  5
28F
100
AcDbEntity
  8
0
100
AcDbLine
 62
7
  6
BYLAYER
 10
157.1628914979
 20
233.9466083156
 11
157.5160164964
 21
233.9466083156
  0
LINE
  5
290
100
AcDbEntity
  8
0
100
AcDbLine
 62
7
  6
BYLAYER
 10
39.662891497
 20
233.9691083152
 11
39.762891497
 21
233.9691083152
  0
LINE
  5
291
100
AcDbEntity
  8
0
100
AcDbLine
 62
7
  6
BYLAYER
 10
39.662891497
 20
234.0141083142
 11
39.762891497
 21
234.0141083142
  0
LINE
  5
292
100
AcDbEntity
  8
0
100
AcDbLine
 62
7
  6
BYLAYER
 10
158.9628914965
 20
234.0216083148
 11
159.0980477479
 21
234.0216083148
  0
LINE
  5
293
100
AcDbEntity
  8
0
100
AcDbLine
 62
7
  6
BYLAYER
 10
276.062891497
 20
234.0466083154
 11
276.474219621
 21
234.0466083154
  0
LINE
  5
294
100
AcDbEntity
  8
0
100
AcDbLine
 62
7
  6
BYLAYER
 10
156.1238290018
 20
234.221608315
 11
155.6812508724
 21
234.2216083154
  0
LINE
  5
295
100
AcDbEntity
  8
0
100
AcDbLine
 62
7
  6
BYLAYER
 10
157.4226571229
 20
234.2466083145
 11
157.1628914979
 21
234.2466083145
  0
LINE
  5
296
100
AcDbEntity
  8
0
100
AcDbLine
 62
7
  6
BYLAYER
 10
159.3085946215
 20
234.2966083151
 11
158.9628914965
 21
234.2966083151
  0
LINE
  5
297
100
AcDbEntity
  8
0
100
AcDbLine
 62
7
  6
BYLAYER
 10
276.425000872
 20
234.3216083158
 11
276.062891497
 21
234.3216083158
  0
LINE
  5
298
100
AcDbEntity
  8
0
100
AcDbLine
 62
7
  6
BYLAYER
 10
157.1628914979
 20
234.8216083158
 11
157.422657118
 21
234.8216083158
  0
LINE
  5
299
100
AcDbEntity
  8
0
100
AcDbLine
 62
7
  6
BYLAYER
 10
158.9628914965
 20
234.8216083158
 11
159.3191414806
 21
234.8216083158
  0
LINE
  5
29A
100
AcDbEntity
  8
0
100
AcDbLine
 62
7
  6
BYLAYER
 10
276.062891497
 20
234.8216083158
 11
276.383985247
 21
234.8216083158
  0
LINE
  5
29B
100
AcDbEntity
  8
0
100
AcDbLine
 62
7
  6
BYLAYER
 10
276.545703997
 20
235.1216083147
 11
275.923828998
 21
235.1216083147
  0
LINE
  5
29C
100
AcDbEntity
  8
0
100
AcDbLine
 62
7
  6
BYLAYER
 10
159.4464852378
 20
235.1216083147
 11
158.8230477492
 21
235.1216083147
  0
LINE
  5
29D
100
AcDbEntity
  8
0
100
AcDbLine
 62
7
  6
BYLAYER
 10
157.5195321138
 20
235.1216083147
 11
157.0296883725
 21
235.1216083147
  0
LINE
  5
29E
100
AcDbEntity
  8
0
100
AcDbLine
 62
7
  6
BYLAYER
 10
37.692891497
 20
236.0265805901
 11
39.762891497
 21
236.0265805901
  0
LINE
  5
29F
100
AcDbEntity
  8
0
100
AcDbLine
 62
7
  6
BYLAYER
 10
35.212891497
 20
236.3966083151
 11
37.692891497
 21
236.3966083151
  0
LINE
  5
2A0
100
AcDbEntity
  8
0
100
AcDbLine
 62
7
  6
BYLAYER
 10
58.8034904211
 20
237.1966083151
 11
63.422292573
 21
237.1966083151
  0
LINE
  5
2A1
100
AcDbEntity
  8
0
100
AcDbLine
 62
7
  6
BYLAYER
 10
156.1034904207
 20
237.1966083151
 11
160.7222925733
 21
237.1966083151
  0
LINE
  5
2A2
100
AcDbEntity
  8
0
100
AcDbLine
 62
7
  6
BYLAYER
 10
270.1034904211
 20
237.1966083151
 11
274.722292573
 21
237.1966083151
  0
LINE
  5
2A3
100
AcDbEntity
  8
0
100
AcDbLine
 62
7
  6
BYLAYER
 10
37.692891497
 20
238.3966083151
 11
35.212891497
 21
238.3966083151
  0
LINE
  5
2A4
100
AcDbEntity
  8
0
100
AcDbLine
 62
7
  6
BYLAYER
 10
37.692891497
 20
238.5665805901
 11
39.762891497
 21
238.5665805901
  0
LINE
  5
2A5
100
AcDbEntity
  8
0
100
AcDbLine
 62
7
  6
BYLAYER
 10
39.662891497
 20
239.4966052381
 11
39.762891497
 21
239.4966052381
  0
LINE
  5
2A6
100
AcDbEntity
  8
0
100
AcDbLine
 62
7
  6
BYLAYER
 10
35.212891497
 20
241.7966083151
 11
39.662891497
 21
241.7966083151
  0
LINE
  5
2A7
100
AcDbEntity
  8
0
100
AcDbLine
 62
7
  6
BYLAYER
 10
39.762891497
 20
241.9965805901
 11
39.662891497
 21
241.9965805901
  0
LINE
  5
2A8
100
AcDbEntity
  8
0
100
AcDbLine
 62
7
  6
BYLAYER
 10
39.662891497
 20
242.4965805901
 11
39.762891497
 21
242.4965805901
  0
LINE
  5
2A9
100
AcDbEntity
  8
0
100
AcDbLine
 62
7
  6
BYLAYER
 10
163.0316936515
 20
241.1966083151
 11
160.7222925733
 21
245.1966083151
  0
LINE
  5
2AA
100
AcDbEntity
  8
0
100
AcDbLine
 62
7
  6
BYLAYER
 10
41.962891497
 20
243.6966083151
 11
40.962891497
 21
243.6966083151
  0
LINE
  5
2AB
100
AcDbEntity
  8
0
100
AcDbLine
 62
7
  6
BYLAYER
 10
291.562891497
 20
243.6966083151
 11
292.562891497
 21
243.6966083151
  0
LINE
  5
2AC
100
AcDbEntity
  8
0
100
AcDbLine
 62
7
  6
BYLAYER
 10
39.662891497
 20
243.7941083143
 11
39.762891497
 21
243.7941083143
  0
LINE
  5
2AD
100
AcDbEntity
  8
0
100
AcDbLine
 62
7
  6
BYLAYER
 10
39.662891497
 20
243.7966083151
 11
35.212891497
 21
243.7966083151
  0
LINE
  5
2AE
100
AcDbEntity
  8
0
100
AcDbLine
 62
7
  6
BYLAYER
 10
39.662891497
 20
244.3555536272
 11
39.762891497
 21
244.3555536272
  0
LINE
  5
2AF
100
AcDbEntity
  8
0
100
AcDbLine
 62
7
  6
BYLAYER
 10
39.662891497
 20
244.9018817524
 11
39.762891497
 21
244.9018817524
  0
LINE
  5
2B0
100
AcDbEntity
  8
0
100
AcDbLine
 62
7
  6
BYLAYER
 10
39.662891497
 20
245.0105145646
 11
39.762891497
 21
245.0105145646
  0
LINE
  5
2B1
100
AcDbEntity
  8
0
100
AcDbLine
 62
7
  6
BYLAYER
 10
39.662891497
 20
245.1729364397
 11
39.762891497
 21
245.1729364397
  0
LINE
  5
2B2
100
AcDbEntity
  8
0
100
AcDbLine
 62
7
  6
BYLAYER
 10
274.722292573
 20
245.1966083151
 11
270.1034904211
 21
245.1966083151
  0
LINE
  5
2B3
100
AcDbEntity
  8
0
100
AcDbLine
 62
7
  6
BYLAYER
 10
160.7222925733
 20
245.1966083151
 11
156.1034904207
 21
245.1966083151
  0
LINE
  5
2B4
100
AcDbEntity
  8
0
100
AcDbLine
 62
7
  6
BYLAYER
 10
63.422292573
 20
245.1966083151
 11
58.8034904211
 21
245.1966083151
  0
LINE
  5
2B5
100
AcDbEntity
  8
0
100
AcDbLine
 62
7
  6
BYLAYER
 10
39.662891497
 20
245.594108315
 11
39.762891497
 21
245.594108315
  0
LINE
  5
2B6
100
AcDbEntity
  8
0
100
AcDbLine
 62
7
  6
BYLAYER
 10
37.762891497
 20
248.0966806612
 11
39.762891497
 21
248.0966806612
  0
LINE
  5
2B7
100
AcDbEntity
  8
0
100
AcDbLine
 62
7
  6
BYLAYER
 10
41.962891497
 20
248.6966083151
 11
40.962891497
 21
248.6966083151
  0
LINE
  5
2B8
100
AcDbEntity
  8
0
100
AcDbLine
 62
7
  6
BYLAYER
 10
291.562891497
 20
248.6966083151
 11
292.562891497
 21
248.6966083151
  0
LINE
  5
2B9
100
AcDbEntity
  8
0
100
AcDbLine
 62
7
  6
BYLAYER
 10
39.762891497
 20
249.7966806612
 11
37.762891497
 21
249.7966806612
  0
LINE
  5
2BA
100
AcDbEntity
  8
0
100
AcDbLine
 62
7
  6
BYLAYER
 10
40.962891497
 20
251.1966083151
 11
292.562891497
 21
251.1966083151
  0
LINE
  5
2BB
100
AcDbEntity
  8
0
100
AcDbLine
 62
7
  6
BYLAYER
 10
185.462891497
 20
202.1966083151
 11
185.462891497
 21
201.1966083151
  0
LINE
  5
2BC
100
AcDbEntity
  8
0
100
AcDbLine
 62
7
  6
BYLAYER
 10
190.462891497
 20
202.1966083151
 11
190.462891497
 21
201.1966083151
  0
LINE
  5
2BD
100
AcDbEntity
  8
0
100
AcDbLine
 62
7
  6
BYLAYER
 10
39.662891497
 20
252.1981181841
 11
39.762891497
 21
252.1981181841
  0
LINE
  5
2BE
100
AcDbEntity
  8
0
100
AcDbLine
 62
7
  6
BYLAYER
 10
39.662891497
 20
253.0980297586
 11
39.762891497
 21
253.0980297586
  0
LINE
  5
2BF
100
AcDbEntity
  8
0
100
AcDbLine
 62
7
  6
BYLAYER
 10
39.662891497
 20
253.0993346819
 11
39.762891497
 21
253.0993346819
  0
LINE
  5
2C0
100
AcDbEntity
  8
0
100
AcDbLine
 62
7
  6
BYLAYER
 10
39.762891497
 20
253.2296811299
 11
39.662891497
 21
253.2296811299
  0
LINE
  5
2C1
100
AcDbEntity
  8
0
100
AcDbLine
 62
7
  6
BYLAYER
 10
39.662891497
 20
253.6708705011
 11
39.762891497
 21
253.6708705011
  0
LINE
  5
2C2
100
AcDbEntity
  8
0
100
AcDbLine
 62
7
  6
BYLAYER
 10
39.762891497
 20
254.8174870896
 11
39.662891497
 21
254.8174870896
  0
LINE
  5
2C3
100
AcDbEntity
  8
0
100
AcDbLine
 62
7
  6
BYLAYER
 10
39.662891497
 20
255.3007642064
 11
39.762891497
 21
255.3007642064
  0
LINE
  5
2C4
100
AcDbEntity
  8
0
100
AcDbLine
 62
7
  6
BYLAYER
 10
39.762891497
 20
255.4564862491
 11
39.662891497
 21
255.4564862491
  0
LINE
  5
2C5
100
AcDbEntity
  8
0
100
AcDbLine
 62
7
  6
BYLAYER
 10
39.762891497
 20
255.4572293589
 11
39.662891497
 21
255.4572293589
  0
LINE
  5
2C6
100
AcDbEntity
  8
0
100
AcDbLine
 62
7
  6
BYLAYER
 10
39.662891497
 20
255.8399954356
 11
39.762891497
 21
255.8399954356
  0
LINE
  5
2C7
100
AcDbEntity
  8
0
100
AcDbLine
 62
7
  6
BYLAYER
 10
39.662891497
 20
255.8859668631
 11
39.762891497
 21
255.8859668631
  0
LINE
  5
2C8
100
AcDbEntity
  8
0
100
AcDbLine
 62
7
  6
BYLAYER
 10
39.662891497
 20
256.2298054484
 11
39.762891497
 21
256.2298054484
  0
LINE
  5
2C9
100
AcDbEntity
  8
0
100
AcDbLine
 62
7
  6
BYLAYER
 10
39.762891497
 20
256.3331066438
 11
39.662891497
 21
256.3331066438
  0
LINE
  5
2CA
100
AcDbEntity
  8
0
100
AcDbLine
 62
7
  6
BYLAYER
 10
39.662891497
 20
256.5877342776
 11
39.762891497
 21
256.5877342776
  0
LINE
  5
2CB
100
AcDbEntity
  8
0
100
AcDbLine
 62
7
  6
BYLAYER
 10
39.662891497
 20
257.2076053581
 11
39.762891497
 21
257.2076053581
  0
LINE
  5
2CC
100
AcDbEntity
  8
0
100
AcDbLine
 62
7
  6
BYLAYER
 10
39.662891497
 20
257.2088072344
 11
39.762891497
 21
257.2088072344
  0
LINE
  5
2CD
100
AcDbEntity
  8
0
100
AcDbLine
 62
7
  6
BYLAYER
 10
39.662891497
 20
257.2873058095
 11
39.762891497
 21
257.2873058095
  0
LINE
  5
2CE
100
AcDbEntity
  8
0
100
AcDbLine
 62
7
  6
BYLAYER
 10
39.662891497
 20
259.0145503006
 11
39.762891497
 21
259.0145503006
  0
LINE
  5
2CF
100
AcDbEntity
  8
0
100
AcDbLine
 62
7
  6
BYLAYER
 10
39.762891497
 20
259.8883285024
 11
39.662891497
 21
259.8883285024
  0
LINE
  5
2D0
100
AcDbEntity
  8
0
100
AcDbLine
 62
7
  6
BYLAYER
 10
39.662891497
 20
260.9983470515
 11
39.762891497
 21
260.9983470515
  0
LINE
  5
2D1
100
AcDbEntity
  8
0
100
AcDbLine
 62
7
  6
BYLAYER
 10
39.762891497
 20
261.3629741
 11
39.662891497
 21
261.3629741
  0
LINE
  5
2D2
100
AcDbEntity
  8
0
100
AcDbLine
 62
7
  6
BYLAYER
 10
39.662891497
 20
263.1966083175
 11
39.762891497
 21
263.1966083175
  0
LINE
  5
2D3
100
AcDbEntity
  8
0
100
AcDbLine
 62
7
  6
BYLAYER
 10
39.762891497
 20
263.2613402316
 11
39.662891497
 21
263.2613402316
  0
LINE
  5
2D4
100
AcDbEntity
  8
0
100
AcDbLine
 62
7
  6
BYLAYER
 10
293.762891497
 20
265.1966083151
 11
39.762891497
 21
265.1966083151
  0
LINE
  5
2D5
100
AcDbEntity
  8
0
100
AcDbLine
 62
7
  6
BYLAYER
 10
42.203658443
 20
265.2966083151
 11
68.0814586802
 21
265.2966083151
  0
LINE
  5
2D6
100
AcDbEntity
  8
0
100
AcDbLine
 62
7
  6
BYLAYER
 10
249.162891497
 20
202.1966083151
 11
249.162891497
 21
201.1966083151
  0
LINE
  5
2D7
100
AcDbEntity
  8
0
100
AcDbLine
 62
7
  6
BYLAYER
 10
254.162891497
 20
202.1966083151
 11
254.162891497
 21
201.1966083151
  0
LINE
  5
2D8
100
AcDbEntity
  8
0
100
AcDbLine
 62
7
  6
BYLAYER
 10
270.1034904211
 20
245.1966083151
 11
267.794089343
 21
241.1966083151
  0
LINE
  5
2D9
100
AcDbEntity
  8
0
100
AcDbLine
 62
7
  6
BYLAYER
 10
274.722292573
 20
237.1966083151
 11
277.0316936511
 21
241.1966083151
  0
LINE
  5
2DA
100
AcDbEntity
  8
0
100
AcDbLine
 62
7
  6
BYLAYER
 10
267.794089343
 20
241.1966083151
 11
270.1034904211
 21
237.1966083151
  0
LINE
  5
2DB
100
AcDbEntity
  8
0
100
AcDbLine
 62
7
  6
BYLAYER
 10
270.137891497
 20
233.4376239409
 11
270.1378914969
 21
234.9333270645
  0
LINE
  5
2DC
100
AcDbEntity
  8
0
100
AcDbLine
 62
7
  6
BYLAYER
 10
270.5128914968
 20
233.521608315
 11
270.5128914973
 21
234.9333270629
  0
LINE
  5
2DD
100
AcDbEntity
  8
0
100
AcDbLine
 62
7
  6
BYLAYER
 10
269.498438384
 20
234.9032489902
 11
269.2464852472
 21
233.771608315
  0
LINE
  5
2DE
100
AcDbEntity
  8
0
100
AcDbLine
 62
7
  6
BYLAYER
 10
269.539063374
 20
233.5184833182
 11
269.8589852369
 21
234.8208270241
  0
LINE
  5
2DF
100
AcDbEntity
  8
0
100
AcDbLine
 62
7
  6
BYLAYER
 10
268.386328837
 20
234.8305920899
 11
268.1042977474
 21
233.7716083156
  0
LINE
  5
2E0
100
AcDbEntity
  8
0
100
AcDbLine
 62
7
  6
BYLAYER
 10
268.3625008719
 20
233.5098895649
 11
268.6773446218
 21
234.6716083144
  0
LINE
  5
2E1
100
AcDbEntity
  8
0
100
AcDbLine
 62
7
  6
BYLAYER
 10
277.0316936511
 20
241.1966083151
 11
274.722292573
 21
245.1966083151
  0
LINE
  5
2E2
100
AcDbEntity
  8
0
100
AcDbLine
 62
7
  6
BYLAYER
 10
269.2464852472
 20
233.771608315
 11
268.9621102511
 21
234.8305926747
  0
LINE
  5
2E3
100
AcDbEntity
  8
0
100
AcDbLine
 62
7
  6
BYLAYER
 10
268.6773446218
 20
234.6716083144
 11
268.9882820922
 21
233.5098896785
  0
LINE
  5
2E4
100
AcDbEntity
  8
0
100
AcDbLine
 62
7
  6
BYLAYER
 10
267.4917977418
 20
234.8208270839
 11
267.8117196097
 21
233.5184833632
  0
LINE
  5
2E5
100
AcDbEntity
  8
0
100
AcDbLine
 62
7
  6
BYLAYER
 10
268.1042977474
 20
233.7716083156
 11
267.8523446273
 21
234.9032489185
  0
LINE
  5
2E6
100
AcDbEntity
  8
0
100
AcDbLine
 62
7
  6
BYLAYER
 10
272.637891497
 20
233.871608316
 11
272.637891497
 21
233.8243426895
  0
LINE
  5
2E7
100
AcDbEntity
  8
0
100
AcDbLine
 62
7
  6
BYLAYER
 10
273.337891497
 20
234.4192645651
 11
273.3378914971
 21
233.3884051897
  0
LINE
  5
2E8
100
AcDbEntity
  8
0
100
AcDbLine
 62
7
  6
BYLAYER
 10
273.666016497
 20
234.3817645652
 11
273.666016497
 21
234.4247333151
  0
LINE
  5
2E9
100
AcDbEntity
  8
0
100
AcDbLine
 62
7
  6
BYLAYER
 10
273.6878914971
 20
233.3884051902
 11
273.687891497
 21
233.8356708104
  0
LINE
  5
2EA
100
AcDbEntity
  8
0
100
AcDbLine
 62
7
  6
BYLAYER
 10
274.262891498
 20
233.3884051899
 11
274.2628914976
 21
233.9833270657
  0
LINE
  5
2EB
100
AcDbEntity
  8
0
100
AcDbLine
 62
7
  6
BYLAYER
 10
274.612891497
 20
233.3884051833
 11
274.6128914971
 21
234.0524676876
  0
LINE
  5
2EC
100
AcDbEntity
  8
0
100
AcDbLine
 62
7
  6
BYLAYER
 10
275.687891497
 20
234.8825458154
 11
275.687891497
 21
233.4356708151
  0
LINE
  5
2ED
100
AcDbEntity
  8
0
100
AcDbLine
 62
7
  6
BYLAYER
 10
276.062891497
 20
233.4966083147
 11
276.062891497
 21
234.0466083154
  0
LINE
  5
2EE
100
AcDbEntity
  8
0
100
AcDbLine
 62
7
  6
BYLAYER
 10
276.062891497
 20
234.3216083158
 11
276.062891497
 21
234.8216083158
  0
LINE
  5
2EF
100
AcDbEntity
  8
0
100
AcDbLine
 62
7
  6
BYLAYER
 10
272.9878914969
 20
233.6649676918
 11
272.9906258711
 21
234.0719989387
  0
LINE
  5
2F0
100
AcDbEntity
  8
0
100
AcDbLine
 62
7
  6
BYLAYER
 10
291.562891497
 20
203.6966083151
 11
291.562891497
 21
208.6966083151
  0
LINE
  5
2F1
100
AcDbEntity
  8
0
100
AcDbLine
 62
7
  6
BYLAYER
 10
291.562891497
 20
220.6966083151
 11
291.562891497
 21
225.6966083151
  0
LINE
  5
2F2
100
AcDbEntity
  8
0
100
AcDbLine
 62
7
  6
BYLAYER
 10
291.562891497
 20
226.6966083151
 11
291.562891497
 21
231.6966083151
  0
LINE
  5
2F3
100
AcDbEntity
  8
0
100
AcDbLine
 62
7
  6
BYLAYER
 10
291.562891497
 20
243.6966083151
 11
291.562891497
 21
248.6966083151
  0
LINE
  5
2F4
100
AcDbEntity
  8
0
100
AcDbLine
 62
7
  6
BYLAYER
 10
292.562891497
 20
251.1966083151
 11
292.562891497
 21
201.1966083151
  0
LINE
  5
2F5
100
AcDbEntity
  8
0
100
AcDbLine
 62
7
  6
BYLAYER
 10
293.762891497
 20
199.9966083151
 11
293.762891497
 21
265.1966083151
  0
ARC
  5
2F6
100
AcDbEntity
  8
0
100
AcDbCircle
 62
7
  6
BYLAYER
 10
159.4956862405
 20
234.568250207
 40
0.242279981
100
AcDbArc
 50
358.5769440927
 51
68.1293951793
  0
CIRCLE
  5
2F7
100
AcDbEntity
  8
0
100
AcDbCircle
 62
7
  6
BYLAYER
 10
61.112891497
 20
241.1966083151
 40
5.75
  0
CIRCLE
  5
2F8
100
AcDbEntity
  8
0
100
AcDbCircle
 62
7
  6
BYLAYER
 10
158.412891497
 20
241.1966083151
 40
5.75
  0
CIRCLE
  5
2F9
100
AcDbEntity
  8
0
100
AcDbCircle
 62
7
  6
BYLAYER
 10
61.112891497
 20
241.1966083151
 40
5.0999999996
  0
CIRCLE
  5
2FA
100
AcDbEntity
  8
0
100
AcDbCircle
 62
7
  6
BYLAYER
 10
158.412891497
 20
241.1966083151
 40
5.1
  0
CIRCLE
  5
2FB
100
AcDbEntity
  8
0
100
AcDbCircle
 62
7
  6
BYLAYER
 10
61.112891497
 20
241.1966083151
 40
3.05
  0
CIRCLE
  5
2FC
100
AcDbEntity
  8
0
100
AcDbCircle
 62
7
  6
BYLAYER
 10
158.412891497
 20
241.1966083151
 40
3.05
  0
CIRCLE
  5
2FD
100
AcDbEntity
  8
0
100
AcDbCircle
 62
7
  6
BYLAYER
 10
61.112891497
 20
241.1966083151
 40
2.4499999993
  0
CIRCLE
  5
2FE
100
AcDbEntity
  8
0
100
AcDbCircle
 62
7
  6
BYLAYER
 10
158.412891497
 20
241.1966083151
 40
2.4499999993
  0
CIRCLE
  5
2FF
100
AcDbEntity
  8
0
100
AcDbCircle
 62
7
  6
BYLAYER
 10
61.112891497
 20
241.1966083151
 40
0.4499999993
  0
CIRCLE
  5
300
100
AcDbEntity
  8
0
100
AcDbCircle
 62
7
  6
BYLAYER
 10
158.412891497
 20
241.1966083151
 40
0.4499999993
  0
ARC
  5
301
100
AcDbEntity
  8
0
100
AcDbCircle
 62
7
  6
BYLAYER
 10
276.778450347
 20
233.7341090483
 40
0.5095071781
100
AcDbArc
 50
293.0727332724
 51
0.9224261234
  0
ARC
  5
302
100
AcDbEntity
  8
0
100
AcDbCircle
 62
7
  6
BYLAYER
 10
276.730426685
 20
234.6344803668
 40
0.4656685612
100
AcDbArc
 50
359.9530446467
 51
59.7747471474
  0
ARC
  5
303
100
AcDbEntity
  8
0
100
AcDbCircle
 62
7
  6
BYLAYER
 10
276.576939302
 20
234.5760768832
 40
0.2332365175
100
AcDbArc
 50
328.6727946637
 51
0.7255145997
  0
CIRCLE
  5
304
100
AcDbEntity
  8
0
100
AcDbCircle
 62
7
  6
BYLAYER
 10
272.412891497
 20
241.1966083151
 40
5.75
  0
CIRCLE
  5
305
100
AcDbEntity
  8
0
100
AcDbCircle
 62
7
  6
BYLAYER
 10
272.412891497
 20
241.1966083151
 40
5.0999999996
  0
CIRCLE
  5
306
100
AcDbEntity
  8
0
100
AcDbCircle
 62
7
  6
BYLAYER
 10
272.412891497
 20
241.1966083151
 40
3.05
  0
CIRCLE
  5
307
100
AcDbEntity
  8
0
100
AcDbCircle
 62
7
  6
BYLAYER
 10
272.412891497
 20
241.1966083151
 40
2.4499999993
  0
CIRCLE
  5
308
100
AcDbEntity
  8
0
100
AcDbCircle
 62
7
  6
BYLAYER
 10
272.412891497
 20
241.1966083151
 40
0.4499999993
  0
SPLINE
  5
309
100
AcDbEntity
  8
0
100
AcDbSpline
 62
7
  6
BYLAYER
 70
0
 71
3
 72
9
 73
5
 74
0
 42
0.0000001
 43
0.0000001
 44
0.0000000001
 40
0.0
 40
0.0
 40
0.0
 40
0.0
 40
0.4001272441
 40
1.0
 40
1.0
 40
1.0
 40
1.0
 10
269.8589852365
 20
234.8208270242
 30
0.0
 10
269.864279768
 20
234.8435992266
 30
0.0
 10
269.8775585815
 20
234.9004834636
 30
0.0
 10
269.8862003337
 20
234.9584664526
 30
0.0
 10
269.887891497
 20
234.9934833143
 30
0.0
  0
SPLINE
  5
30A
100
AcDbEntity
  8
0
100
AcDbSpline
 62
7
  6
BYLAYER
 70
0
 71
3
 72
10
 73
6
 74
0
 42
0.0000001
 43
0.0000001
 44
0.0000000001
 40
0.0
 40
0.0
 40
0.0
 40
0.0
 40
0.3086392552
 40
0.9217347447
 40
1.0
 40
1.0
 40
1.0
 40
1.0
 10
269.887891497
 20
234.9934833143
 30
0.0
 10
269.8868362237
 20
235.0123948361
 30
0.0
 10
269.8815408197
 20
235.0694644579
 30
0.0
 10
269.8405924174
 20
235.1213124897
 30
0.0
 10
269.804575576
 20
235.1445166866
 30
0.0
 10
269.8004096937
 20
235.1469688321
 30
0.0
  0
SPLINE
  5
30B
100
AcDbEntity
  8
0
100
AcDbSpline
 62
7
  6
BYLAYER
 70
0
 71
3
 72
9
 73
5
 74
0
 42
0.0000001
 43
0.0000001
 44
0.0000000001
 40
0.0
 40
0.0
 40
0.0
 40
0.0
 40
0.4275049391
 40
1.0
 40
1.0
 40
1.0
 40
1.0
 10
269.8004096937
 20
235.1469688321
 30
0.0
 10
269.7881464327
 20
235.154187303
 30
0.0
 10
269.757664673
 20
235.1675316795
 30
0.0
 10
269.7243990697
 20
235.1708248384
 30
0.0
 10
269.705469623
 20
235.1716083157
 30
0.0
  0
SPLINE
  5
30C
100
AcDbEntity
  8
0
100
AcDbSpline
 62
7
  6
BYLAYER
 70
0
 71
3
 72
13
 73
9
 74
0
 42
0.0000001
 43
0.0000001
 44
0.0000000001
 40
0.0
 40
0.0
 40
0.0
 40
0.0
 40
0.2982323897
 40
0.3985079909
 40
0.598736107
 40
0.6990504869
 40
0.7993648668
 40
1.0
 40
1.0
 40
1.0
 40
1.0
 10
269.705469623
 20
235.1716083157
 30
0.0
 10
269.6682176997
 20
235.1704456995
 30
0.0
 10
269.6152227797
 20
235.1603541308
 30
0.0
 10
269.5635071201
 20
235.104987384
 30
0.0
 10
269.537818498
 20
235.0612705178
 30
0.0
 10
269.524492184
 20
235.0128842556
 30
0.0
 10
269.5115629058
 20
234.9645123318
 30
0.0
 10
269.5035619394
 20
234.9277705412
 30
0.0
 10
269.4984383826
 20
234.9032489905
 30
0.0
  0
SPLINE
  5
30D
100
AcDbEntity
  8
0
100
AcDbSpline
 62
7
  6
BYLAYER
 70
0
 71
3
 72
14
 73
10
 74
0
 42
0.0000001
 43
0.0000001
 44
0.0000000001
 40
0.0
 40
0.0
 40
0.0
 40
0.0
 40
0.1383095216
 40
0.338473457
 40
0.5381292812
 40
0.6998697693
 40
0.7998466963
 40
0.8999233482
 40
1.0
 40
1.0
 40
1.0
 40
1.0
 10
268.9621102511
 20
234.8305926748
 30
0.0
 10
268.9562107082
 20
234.8524082582
 30
0.0
 10
268.9412732408
 20
234.9056618887
 30
0.0
 10
268.9179464814
 20
234.9904055468
 30
0.0
 10
268.8813345892
 20
235.0754475263
 30
0.0
 10
268.8275044819
 20
235.1308683737
 30
0.0
 10
268.7746255255
 20
235.1583966793
 30
0.0
 10
268.7264161557
 20
235.1697073654
 30
0.0
 10
268.693700146
 20
235.1710239984
 30
0.0
 10
268.677344621
 20
235.1716083157
 30
0.0
  0
SPLINE
  5
30E
100
AcDbEntity
  8
0
100
AcDbSpline
 62
7
  6
BYLAYER
 70
0
 71
3
 72
13
 73
9
 74
0
 42
0.0000001
 43
0.0000001
 44
0.0000000001
 40
0.0
 40
0.0
 40
0.0
 40
0.0
 40
0.1382222069
 40
0.2998066901
 40
0.3999053077
 40
0.5995884678
 40
0.7997794267
 40
1.0
 40
1.0
 40
1.0
 40
1.0
 10
268.677344621
 20
235.1716083157
 30
0.0
 10
268.6545463677
 20
235.1710797719
 30
0.0
 10
268.6050784823
 20
235.1679548227
 30
0.0
 10
268.5421581853
 20
235.1430099424
 30
0.0
 10
268.4851633147
 20
235.0917252138
 30
0.0
 10
268.4396381076
 20
235.0215603703
 30
0.0
 10
268.412392814
 20
234.9259222719
 30
0.0
 10
268.3947200601
 20
234.8624940225
 30
0.0
 10
268.3863288381
 20
234.8305920896
 30
0.0
  0
SPLINE
  5
30F
100
AcDbEntity
  8
0
100
AcDbSpline
 62
7
  6
BYLAYER
 70
0
 71
3
 72
13
 73
9
 74
0
 42
0.0000001
 43
0.0000001
 44
0.0000000001
 40
0.0
 40
0.0
 40
0.0
 40
0.0
 40
0.2884154675
 40
0.4885714286
 40
0.6194289915
 40
0.7003060895
 40
0.8002616324
 40
1.0
 40
1.0
 40
1.0
 40
1.0
 10
267.8523446268
 20
234.9032489184
 30
0.0
 10
267.8443872086
 20
234.9386123726
 30
0.0
 10
267.830804145
 20
234.9987178386
 30
0.0
 10
267.8041474358
 20
235.071682332
 30
0.0
 10
267.7813084581
 20
235.1190040444
 30
0.0
 10
267.7519540856
 20
235.1457368939
 30
0.0
 10
267.7087828943
 20
235.1676870432
 30
0.0
 10
267.6704086554
 20
235.1708670262
 30
0.0
 10
267.645313372
 20
235.1716083157
 30
0.0
  0
SPLINE
  5
310
100
AcDbEntity
  8
0
100
AcDbSpline
 62
7
  6
BYLAYER
 70
0
 71
3
 72
12
 73
8
 74
0
 42
0.0000001
 43
0.0000001
 44
0.0000000001
 40
0.0
 40
0.0
 40
0.0
 40
0.0
 40
0.2000045452
 40
0.400024278
 40
0.6000547825
 40
0.8000648755
 40
1.0
 40
1.0
 40
1.0
 40
1.0
 10
267.645313372
 20
235.1716083157
 30
0.0
 10
267.626379592
 20
235.1708122654
 30
0.0
 10
267.588248084
 20
235.1674681524
 30
0.0
 10
267.5363797234
 20
235.1414833055
 30
0.0
 10
267.4951175649
 20
235.1016405918
 30
0.0
 10
267.4673862447
 20
235.0505794062
 30
0.0
 10
267.4636491464
 20
235.0124192848
 30
0.0
 10
267.462891498
 20
234.9934833143
 30
0.0
  0
SPLINE
  5
311
100
AcDbEntity
  8
0
100
AcDbSpline
 62
7
  6
BYLAYER
 70
0
 71
3
 72
9
 73
5
 74
0
 42
0.0000001
 43
0.0000001
 44
0.0000000001
 40
0.0
 40
0.0
 40
0.0
 40
0.0
 40
0.2041369055
 40
1.0
 40
1.0
 40
1.0
 40
1.0
 10
267.462891498
 20
234.9934833143
 30
0.0
 10
267.463430413
 20
234.981799461
 30
0.0
 10
267.4659941091
 20
234.9249385951
 30
0.0
 10
267.4811441793
 20
234.8651580232
 30
0.0
 10
267.4917977415
 20
234.8208270838
 30
0.0
  0
SPLINE
  5
312
100
AcDbEntity
  8
0
100
AcDbSpline
 62
7
  6
BYLAYER
 70
0
 71
3
 72
11
 73
7
 74
0
 42
0.0000001
 43
0.0000001
 44
0.0000000001
 40
0.0
 40
0.0
 40
0.0
 40
0.0
 40
0.5282307503
 40
0.6934754305
 40
0.7957698858
 40
1.0
 40
1.0
 40
1.0
 40
1.0
 10
267.8117196099
 20
233.5184833633
 30
0.0
 10
267.832064542
 20
233.4369517595
 30
0.0
 10
267.854323681
 20
233.3121199741
 30
0.0
 10
267.9371804468
 20
233.2147006231
 30
0.0
 10
268.0037541429
 20
233.1775193067
 30
0.0
 10
268.0534464914
 20
233.1723425528
 30
0.0
 10
268.085938373
 20
233.1716083158
 30
0.0
  0
SPLINE
  5
313
100
AcDbEntity
  8
0
100
AcDbSpline
 62
7
  6
BYLAYER
 70
0
 71
3
 72
14
 73
10
 74
0
 42
0.0000001
 43
0.0000001
 44
0.0000000001
 40
0.0
 40
0.0
 40
0.0
 40
0.0
 40
0.1000574017
 40
0.2001148035
 40
0.3001425972
 40
0.4001703909
 40
0.5996976879
 40
0.7998424061
 40
1.0
 40
1.0
 40
1.0
 40
1.0
 10
268.085938373
 20
233.1716083158
 30
0.0
 10
268.1019557547
 20
233.1721129553
 30
0.0
 10
268.134055063
 20
233.1733224734
 30
0.0
 10
268.1808537576
 20
233.1862540168
 30
0.0
 10
268.2229954886
 20
233.2101874914
 30
0.0
 10
268.269811424
 20
233.2545150207
 30
0.0
 10
268.3104425295
 20
233.3247521772
 30
0.0
 10
268.3356447202
 20
233.4177058265
 30
0.0
 10
268.3536813603
 20
233.4790993629
 30
0.0
 10
268.3625008719
 20
233.5098895649
 30
0.0
  0
SPLINE
  5
314
100
AcDbEntity
  8
0
100
AcDbSpline
 62
7
  6
BYLAYER
 70
0
 71
3
 72
13
 73
9
 74
0
 42
0.0000001
 43
0.0000001
 44
0.0000000001
 40
0.0
 40
0.0
 40
0.0
 40
0.0
 40
0.338454829
 40
0.5381923348
 40
0.6998899536
 40
0.7998605202
 40
0.8999302601
 40
1.0
 40
1.0
 40
1.0
 40
1.0
 10
268.9882820909
 20
233.5098896781
 30
0.0
 10
269.0031351931
 20
233.457760144
 30
0.0
 10
269.0251123091
 20
233.3747317576
 30
0.0
 10
269.0660389471
 20
233.2689461816
 30
0.0
 10
269.119171458
 20
233.2150349188
 30
0.0
 10
269.1697378004
 20
233.1860917232
 30
0.0
 10
269.2167207216
 20
233.173408458
 30
0.0
 10
269.2488080854
 20
233.1720986827
 30
0.0
 10
269.264844622
 20
233.1716083157
 30
0.0
  0
SPLINE
  5
315
100
AcDbEntity
  8
0
100
AcDbSpline
 62
7
  6
BYLAYER
 70
0
 71
3
 72
13
 73
9
 74
0
 42
0.0000001
 43
0.0000001
 44
0.0000000001
 40
0.0
 40
0.0
 40
0.0
 40
0.0
 40
0.1382681916
 40
0.2997337776
 40
0.3998204591
 40
0.5995227042
 40
0.7997587934
 40
1.0
 40
1.0
 40
1.0
 40
1.0
 10
269.264844622
 20
233.1716083157
 30
0.0
 10
269.287375452
 20
233.172267041
 30
0.0
 10
269.336508823
 20
233.174653471
 30
0.0
 10
269.3977500714
 20
233.2022701902
 30
0.0
 10
269.4513062668
 20
233.2559840143
 30
0.0
 10
269.4901885671
 20
233.3288903089
 30
0.0
 10
269.5142211956
 20
233.4239037954
 30
0.0
 10
269.5311298387
 20
233.4868482466
 30
0.0
 10
269.5390633739
 20
233.5184833182
 30
0.0
  0
SPLINE
  5
316
100
AcDbEntity
  8
0
100
AcDbSpline
 62
7
  6
BYLAYER
 70
0
 71
3
 72
12
 73
8
 74
0
 42
0.0000001
 43
0.0000001
 44
0.0000000001
 40
0.0
 40
0.0
 40
0.0
 40
0.0
 40
0.1386322048
 40
0.498885591
 40
0.5992000687
 40
0.7994525977
 40
1.0
 40
1.0
 40
1.0
 40
1.0
 10
270.137891497
 20
233.4376239404
 30
0.0
 10
270.1384942154
 20
233.4198615091
 30
0.0
 10
270.1403500737
 20
233.3564726884
 30
0.0
 10
270.1625381402
 20
233.2767281726
 30
0.0
 10
270.2281500991
 20
233.2211183427
 30
0.0
 10
270.2904208007
 20
233.1995495018
 30
0.0
 10
270.3418682383
 20
233.1973681425
 30
0.0
 10
270.3675789944
 20
233.1966083148
 30
0.0
  0
SPLINE
  5
317
100
AcDbEntity
  8
0
100
AcDbSpline
 62
7
  6
BYLAYER
 70
0
 71
3
 72
11
 73
7
 74
0
 42
0.0000001
 43
0.0000001
 44
0.0000000001
 40
0.0
 40
0.0
 40
0.0
 40
0.0
 40
0.2007810224
 40
0.5991536154
 40
0.7995178345
 40
1.0
 40
1.0
 40
1.0
 40
1.0
 10
271.3066414988
 20
233.1966083149
 30
0.0
 10
271.3257929016
 20
233.1971997267
 30
0.0
 10
271.382863851
 20
233.199036061
 30
0.0
 10
271.4573819092
 20
233.2328103309
 30
0.0
 10
271.498129197
 20
233.3002099478
 30
0.0
 10
271.502227307
 20
233.3388037918
 30
0.0
 10
271.503125872
 20
233.3579364406
 30
0.0
  0
SPLINE
  5
318
100
AcDbEntity
  8
0
100
AcDbSpline
 62
7
  6
BYLAYER
 70
0
 71
3
 72
11
 73
7
 74
0
 42
0.0000001
 43
0.0000001
 44
0.0000000001
 40
0.0
 40
0.0
 40
0.0
 40
0.0
 40
0.3101427315
 40
0.6203285935
 40
0.9305401612
 40
1.0
 40
1.0
 40
1.0
 40
1.0
 10
271.503125872
 20
233.3579364406
 30
0.0
 10
271.502233882
 20
233.3771001309
 30
0.0
 10
271.4974528337
 20
233.4157087502
 30
0.0
 10
271.4664640277
 20
233.466022039
 30
0.0
 10
271.4319999862
 20
233.4922943196
 30
0.0
 10
271.4107476861
 20
233.5023596574
 30
0.0
 10
271.4067966979
 20
233.5040585988
 30
0.0
  0
SPLINE
  5
319
100
AcDbEntity
  8
0
100
AcDbSpline
 62
7
  6
BYLAYER
 70
0
 71
3
 72
9
 73
5
 74
0
 42
0.0000001
 43
0.0000001
 44
0.0000000001
 40
0.0
 40
0.0
 40
0.0
 40
0.0
 40
0.4370219269
 40
1.0
 40
1.0
 40
1.0
 40
1.0
 10
271.4067966979
 20
233.5040585988
 30
0.0
 10
271.3930808017
 20
233.5099564913
 30
0.0
 10
271.3599602859
 20
233.519522964
 30
0.0
 10
271.3258312863
 20
233.5211017402
 30
0.0
 10
271.3066414984
 20
233.5216083159
 30
0.0
  0
SPLINE
  5
31A
100
AcDbEntity
  8
0
100
AcDbSpline
 62
7
  6
BYLAYER
 70
0
 71
3
 72
12
 73
8
 74
0
 42
0.0000001
 43
0.0000001
 44
0.0000000001
 40
0.0
 40
0.0
 40
0.0
 40
0.0
 40
0.2002149132
 40
0.4005065529
 40
0.600356699
 40
0.8001388452
 40
1.0
 40
1.0
 40
1.0
 40
1.0
 10
270.5128914971
 20
234.9333270629
 30
0.0
 10
270.5124136004
 20
234.9563213367
 30
0.0
 10
270.5104456415
 20
235.002251055
 30
0.0
 10
270.4927808275
 20
235.069866491
 30
0.0
 10
270.4530842929
 20
235.1279399852
 30
0.0
 10
270.3926092081
 20
235.1651444563
 30
0.0
 10
270.3464024354
 20
235.1706972615
 30
0.0
 10
270.323438372
 20
235.1716083145
 30
0.0
  0
SPLINE
  5
31B
100
AcDbEntity
  8
0
100
AcDbSpline
 62
7
  6
BYLAYER
 70
0
 71
3
 72
12
 73
8
 74
0
 42
0.0000001
 43
0.0000001
 44
0.0000000001
 40
0.0
 40
0.0
 40
0.0
 40
0.0
 40
0.1999877155
 40
0.399809686
 40
0.5996129921
 40
0.7997723304
 40
1.0
 40
1.0
 40
1.0
 40
1.0
 10
270.323438372
 20
235.1716083145
 30
0.0
 10
270.3007425687
 20
235.1702548245
 30
0.0
 10
270.2546262503
 20
235.1655624274
 30
0.0
 10
270.1959443392
 20
235.1262882708
 30
0.0
 10
270.1578654247
 20
235.068390771
 30
0.0
 10
270.1401617436
 20
235.0016074632
 30
0.0
 10
270.1384734287
 20
234.9560789557
 30
0.0
 10
270.137891497
 20
234.933327064
 30
0.0
  0
SPLINE
  5
31C
100
AcDbEntity
  8
0
100
AcDbSpline
 62
7
  6
BYLAYER
 70
0
 71
3
 72
9
 73
5
 74
0
 42
0.0000001
 43
0.0000001
 44
0.0000000001
 40
0.0
 40
0.0
 40
0.0
 40
0.0
 40
0.5673038336
 40
1.0
 40
1.0
 40
1.0
 40
1.0
 10
273.337891497
 20
233.3884051897
 30
0.0
 10
273.3385960954
 20
233.3676065496
 30
0.0
 10
273.3402640682
 20
233.3308181806
 30
0.0
 10
273.3495120668
 20
233.2951757574
 30
0.0
 10
273.355364845
 20
233.2803426784
 30
0.0
  0
SPLINE
  5
31D
100
AcDbEntity
  8
0
100
AcDbSpline
 62
7
  6
BYLAYER
 70
0
 71
3
 72
10
 73
6
 74
0
 42
0.0000001
 43
0.0000001
 44
0.0000000001
 40
0.0
 40
0.0
 40
0.0
 40
0.0
 40
0.0736712428
 40
0.6894533453
 40
1.0
 40
1.0
 40
1.0
 40
1.0
 10
273.355364845
 20
233.2803426784
 30
0.0
 10
273.3571821294
 20
233.2757370158
 30
0.0
 10
273.3758594656
 20
233.2331665212
 30
0.0
 10
273.4272641435
 20
233.1800628329
 30
0.0
 10
273.4901672047
 20
233.1726692322
 30
0.0
 10
273.510938373
 20
233.1716083149
 30
0.0
  0
SPLINE
  5
31E
100
AcDbEntity
  8
0
100
AcDbSpline
 62
7
  6
BYLAYER
 70
0
 71
3
 72
12
 73
8
 74
0
 42
0.0000001
 43
0.0000001
 44
0.0000000001
 40
0.0
 40
0.0
 40
0.0
 40
0.0
 40
0.1999626027
 40
0.3997794762
 40
0.5996256246
 40
0.7997859499
 40
1.0
 40
1.0
 40
1.0
 40
1.0
 10
273.510938373
 20
233.1716083149
 30
0.0
 10
273.5319902364
 20
233.1727376764
 30
0.0
 10
273.5745143188
 20
233.1773096459
 30
0.0
 10
273.6301211642
 20
233.2111879721
 30
0.0
 10
273.6679088754
 20
233.2633898205
 30
0.0
 10
273.685405745
 20
233.325136379
 30
0.0
 10
273.6872559987
 20
233.3673178257
 30
0.0
 10
273.687891497
 20
233.3884051902
 30
0.0
  0
SPLINE
  5
31F
100
AcDbEntity
  8
0
100
AcDbSpline
 62
7
  6
BYLAYER
 70
0
 71
3
 72
11
 73
7
 74
0
 42
0.0000001
 43
0.0000001
 44
0.0000000001
 40
0.0
 40
0.0
 40
0.0
 40
0.0
 40
0.2000254503
 40
0.6000474287
 40
0.8000558376
 40
1.0
 40
1.0
 40
1.0
 40
1.0
 10
273.687891497
 20
233.8356708104
 30
0.0
 10
273.6879890887
 20
233.8556848159
 30
0.0
 10
273.6881997932
 20
233.915726266
 30
0.0
 10
273.6915946688
 20
233.9957580448
 30
0.0
 10
273.700324182
 20
234.0754063862
 30
0.0
 10
273.7091699604
 20
234.1145287971
 30
0.0
 10
273.714844622
 20
234.1337176906
 30
0.0
  0
SPLINE
  5
320
100
AcDbEntity
  8
0
100
AcDbSpline
 62
7
  6
BYLAYER
 70
0
 71
3
 72
12
 73
8
 74
0
 42
0.0000001
 43
0.0000001
 44
0.0000000001
 40
0.0
 40
0.0
 40
0.0
 40
0.0
 40
0.2000203472
 40
0.4000411739
 40
0.600026524
 40
0.8000129763
 40
1.0
 40
1.0
 40
1.0
 40
1.0
 10
273.714844622
 20
234.1337176906
 30
0.0
 10
273.724933057
 20
234.1576168181
 30
0.0
 10
273.7467139662
 20
234.2049451276
 30
0.0
 10
273.7974052341
 20
234.2652552943
 30
0.0
 10
273.8610947781
 20
234.3106641462
 30
0.0
 10
273.9336315216
 20
234.3414966255
 30
0.0
 10
273.985805182
 20
234.3455389983
 30
0.0
 10
274.011719622
 20
234.3466083156
 30
0.0
  0
SPLINE
  5
321
100
AcDbEntity
  8
0
100
AcDbSpline
 62
7
  6
BYLAYER
 70
0
 71
3
 72
14
 73
10
 74
0
 42
0.0000001
 43
0.0000001
 44
0.0000000001
 40
0.0
 40
0.0
 40
0.0
 40
0.0
 40
0.174247129
 40
0.328166805
 40
0.4234425395
 40
0.6084668834
 40
0.704135809
 40
0.7998047345
 40
1.0
 40
1.0
 40
1.0
 40
1.0
 10
274.011719622
 20
234.3466083156
 30
0.0
 10
274.0413199204
 20
234.3458436246
 30
0.0
 10
274.0973115967
 20
234.3419903488
 30
0.0
 10
274.1652691625
 20
234.3125580429
 30
0.0
 10
274.2162143136
 20
234.2575163334
 30
0.0
 10
274.2381081164
 20
234.1959333743
 30
0.0
 10
274.2520972185
 20
234.13369045
 30
0.0
 10
274.2609301738
 20
234.0676333744
 30
0.0
 10
274.2625589196
 20
234.0173393825
 30
0.0
 10
274.262891498
 20
233.9833270687
 30
0.0
  0
SPLINE
  5
322
100
AcDbEntity
  8
0
100
AcDbSpline
 62
7
  6
BYLAYER
 70
0
 71
3
 72
12
 73
8
 74
0
 42
0.0000001
 43
0.0000001
 44
0.0000000001
 40
0.0
 40
0.0
 40
0.0
 40
0.0
 40
0.2002214572
 40
0.4003404454
 40
0.6002776369
 40
0.8000886084
 40
1.0
 40
1.0
 40
1.0
 40
1.0
 10
274.2628914981
 20
233.3884051886
 30
0.0
 10
274.2636031414
 20
233.3674158426
 30
0.0
 10
274.2654483305
 20
233.3253772208
 30
0.0
 10
274.283660798
 20
233.2641559027
 30
0.0
 10
274.3210474803
 20
233.2122016045
 30
0.0
 10
274.375673365
 20
233.1772445141
 30
0.0
 10
274.4180957314
 20
233.1726259552
 30
0.0
 10
274.439063373
 20
233.1716083149
 30
0.0
  0
SPLINE
  5
323
100
AcDbEntity
  8
0
100
AcDbSpline
 62
7
  6
BYLAYER
 70
0
 71
3
 72
12
 73
8
 74
0
 42
0.0000001
 43
0.0000001
 44
0.0000000001
 40
0.0
 40
0.0
 40
0.0
 40
0.0
 40
0.1999439988
 40
0.3997425268
 40
0.5996111942
 40
0.799778393
 40
1.0
 40
1.0
 40
1.0
 40
1.0
 10
274.439063373
 20
233.1716083149
 30
0.0
 10
274.4599456964
 20
233.1727254101
 30
0.0
 10
274.5022475739
 20
233.1772574816
 30
0.0
 10
274.556590646
 20
233.2122331485
 30
0.0
 10
274.5936286022
 20
233.264235217
 30
0.0
 10
274.6103361234
 20
233.325674987
 30
0.0
 10
274.6122145128
 20
233.367489346
 30
0.0
 10
274.6128914978
 20
233.3884051833
 30
0.0
  0
SPLINE
  5
324
100
AcDbEntity
  8
0
100
AcDbSpline
 62
7
  6
BYLAYER
 70
0
 71
3
 72
10
 73
6
 74
0
 42
0.0000001
 43
0.0000001
 44
0.0000000001
 40
0.0
 40
0.0
 40
0.0
 40
0.0
 40
0.6112600619
 40
0.8056493874
 40
1.0
 40
1.0
 40
1.0
 40
1.0
 10
274.612891497
 20
234.0524676876
 30
0.0
 10
274.6122589187
 20
234.1242536507
 30
0.0
 10
274.6140188583
 20
234.2085111605
 30
0.0
 10
274.5862038194
 20
234.3247765731
 30
0.0
 10
274.567845226
 20
234.3665186694
 30
0.0
 10
274.557422746
 20
234.3868426896
 30
0.0
  0
SPLINE
  5
325
100
AcDbEntity
  8
0
100
AcDbSpline
 62
7
  6
BYLAYER
 70
0
 71
3
 72
11
 73
7
 74
0
 42
0.0000001
 43
0.0000001
 44
0.0000000001
 40
0.0
 40
0.0
 40
0.0
 40
0.0
 40
0.1988401216
 40
0.3977363914
 40
0.5966780155
 40
1.0
 40
1.0
 40
1.0
 40
1.0
 10
274.557422746
 20
234.3868426896
 30
0.0
 10
274.5410965927
 20
234.4166777864
 30
0.0
 10
274.504964389
 20
234.4749360826
 30
0.0
 10
274.4268247052
 20
234.5421873539
 30
0.0
 10
274.3036428658
 20
234.6062434446
 30
0.0
 10
274.2032785487
 20
234.6193844855
 30
0.0
 10
274.134375872
 20
234.621608316
 30
0.0
  0
SPLINE
  5
326
100
AcDbEntity
  8
0
100
AcDbSpline
 62
7
  6
BYLAYER
 70
0
 71
3
 72
10
 73
6
 74
0
 42
0.0000001
 43
0.0000001
 44
0.0000000001
 40
0.0
 40
0.0
 40
0.0
 40
0.0
 40
0.1966800869
 40
0.6007474555
 40
1.0
 40
1.0
 40
1.0
 40
1.0
 10
274.134375872
 20
234.621608316
 30
0.0
 10
274.0978818137
 20
234.620708751
 30
0.0
 10
273.9853692097
 20
234.6144968822
 30
0.0
 10
273.8151573985
 20
234.5471328228
 30
0.0
 10
273.7126992387
 20
234.4392895615
 30
0.0
 10
273.666016497
 20
234.3817645652
 30
0.0
  0
SPLINE
  5
327
100
AcDbEntity
  8
0
100
AcDbSpline
 62
7
  6
BYLAYER
 70
0
 71
3
 72
12
 73
8
 74
0
 42
0.0000001
 43
0.0000001
 44
0.0000000001
 40
0.0
 40
0.0
 40
0.0
 40
0.0
 40
0.3992616581
 40
0.5993684838
 40
0.6996262166
 40
0.7998839495
 40
1.0
 40
1.0
 40
1.0
 40
1.0
 10
273.666016497
 20
234.4247333151
 30
0.0
 10
273.6647290287
 20
234.4631047431
 30
0.0
 10
273.6569362891
 20
234.522602083
 30
0.0
 10
273.6152749238
 20
234.5774125265
 30
0.0
 10
273.5843597355
 20
234.6007235859
 30
0.0
 10
273.5490472606
 20
234.616948684
 30
0.0
 10
273.5200053277
 20
234.6207098597
 30
0.0
 10
273.500782121
 20
234.621608316
 30
0.0
  0
SPLINE
  5
328
100
AcDbEntity
  8
0
100
AcDbSpline
 62
7
  6
BYLAYER
 70
0
 71
3
 72
11
 73
7
 74
0
 42
0.0000001
 43
0.0000001
 44
0.0000000001
 40
0.0
 40
0.0
 40
0.0
 40
0.0
 40
0.2005374436
 40
0.4008861604
 40
0.7991995087
 40
1.0
 40
1.0
 40
1.0
 40
1.0
 10
273.500782121
 20
234.621608316
 30
0.0
 10
273.4811412244
 20
234.6207429433
 30
0.0
 10
273.4415013244
 20
234.6170551287
 30
0.0
 10
273.3717900377
 20
234.5753714684
 30
0.0
 10
273.3403099974
 20
234.4972975513
 30
0.0
 10
273.3384569637
 20
234.438924576
 30
0.0
 10
273.337891497
 20
234.4192645651
 30
0.0
  0
SPLINE
  5
329
100
AcDbEntity
  8
0
100
AcDbSpline
 62
7
  6
BYLAYER
 70
0
 71
3
 72
12
 73
8
 74
0
 42
0.0000001
 43
0.0000001
 44
0.0000000001
 40
0.0
 40
0.0
 40
0.0
 40
0.0
 40
0.1370031967
 40
0.2970349481
 40
0.3962103896
 40
0.594166977
 40
1.0
 40
1.0
 40
1.0
 40
1.0
 10
155.5078133724
 20
234.0696551901
 30
0.0
 10
155.5084765084
 20
234.0555506418
 30
0.0
 10
155.5099042574
 20
234.0247945871
 30
0.0
 10
155.5273548423
 20
233.9863761989
 30
0.0
 10
155.5617520576
 20
233.9534073125
 30
0.0
 10
155.6307826712
 20
233.9249798561
 30
0.0
 10
155.6898651704
 20
233.9223274276
 30
0.0
 10
155.7316414948
 20
233.9216083149
 30
0.0
  0
SPLINE
  5
32A
100
AcDbEntity
  8
0
100
AcDbSpline
 62
7
  6
BYLAYER
 70
0
 71
3
 72
10
 73
6
 74
0
 42
0.0000001
 43
0.0000001
 44
0.0000000001
 40
0.0
 40
0.0
 40
0.0
 40
0.0
 40
0.1990710193
 40
0.6111579344
 40
1.0
 40
1.0
 40
1.0
 40
1.0
 10
156.0378914968
 20
233.6083270654
 30
0.0
 10
156.0066854091
 20
233.5923628484
 30
0.0
 10
155.9086716936
 20
233.5441040164
 30
0.0
 10
155.7559096332
 20
233.4873216976
 30
0.0
 10
155.604400655
 20
233.4729949528
 30
0.0
 10
155.5359383718
 20
233.4716083156
 30
0.0
  0
SPLINE
  5
32B
100
AcDbEntity
  8
0
100
AcDbSpline
 62
7
  6
BYLAYER
 70
0
 71
3
 72
12
 73
8
 74
0
 42
0.0000001
 43
0.0000001
 44
0.0000000001
 40
0.0
 40
0.0
 40
0.0
 40
0.0
 40
0.1301342142
 40
0.2916909692
 40
0.6179455002
 40
0.7959016194
 40
1.0
 40
1.0
 40
1.0
 40
1.0
 10
155.5359383718
 20
233.4716083156
 30
0.0
 10
155.4899495813
 20
233.4725501053
 30
0.0
 10
155.3936118952
 20
233.4780157655
 30
0.0
 10
155.1786307958
 20
233.5470090519
 30
0.0
 10
155.0130033373
 20
233.7412048895
 30
0.0
 10
154.9469502445
 20
233.9806013681
 30
0.0
 10
154.9389341632
 20
234.1092507098
 30
0.0
 10
154.937891497
 20
234.18137394
 30
0.0
  0
SPLINE
  5
32C
100
AcDbEntity
  8
0
100
AcDbSpline
 62
7
  6
BYLAYER
 70
0
 71
3
 72
13
 73
9
 74
0
 42
0.0000001
 43
0.0000001
 44
0.0000000001
 40
0.0
 40
0.0
 40
0.0
 40
0.0
 40
0.0715782469
 40
0.2628910369
 40
0.4473997555
 40
0.622527251
 40
0.7950026355
 40
1.0
 40
1.0
 40
1.0
 40
1.0
 10
154.937891497
 20
234.18137394
 30
0.0
 10
154.9382188174
 20
234.2058246707
 30
0.0
 10
154.9394178346
 20
234.2943735721
 30
0.0
 10
154.9670528182
 20
234.4597419932
 30
0.0
 10
155.0409981402
 20
234.6294473601
 30
0.0
 10
155.1596111802
 20
234.7648985846
 30
0.0
 10
155.332937037
 20
234.8571075408
 30
0.0
 10
155.4553959116
 20
234.8695637506
 30
0.0
 10
155.5253914972
 20
234.8716083159
 30
0.0
  0
SPLINE
  5
32D
100
AcDbEntity
  8
0
100
AcDbSpline
 62
7
  6
BYLAYER
 70
0
 71
3
 72
13
 73
9
 74
0
 42
0.0000001
 43
0.0000001
 44
0.0000000001
 40
0.0
 40
0.0
 40
0.0
 40
0.0
 40
0.2035473909
 40
0.4017176818
 40
0.6031149103
 40
0.7023317013
 40
0.8015484924
 40
1.0
 40
1.0
 40
1.0
 40
1.0
 10
155.5253914972
 20
234.8716083159
 30
0.0
 10
155.5667644726
 20
234.8708628499
 30
0.0
 10
155.6441234555
 20
234.8680193067
 30
0.0
 10
155.7645814369
 20
234.8289058918
 30
0.0
 10
155.8470646853
 20
234.7731065098
 30
0.0
 10
155.9011363709
 20
234.711573982
 30
0.0
 10
155.9489032066
 20
234.646678874
 30
0.0
 10
155.9827928099
 20
234.596498766
 30
0.0
 10
156.0046883715
 20
234.5626239395
 30
0.0
  0
SPLINE
  5
32E
100
AcDbEntity
  8
0
100
AcDbSpline
 62
7
  6
BYLAYER
 70
0
 71
3
 72
10
 73
6
 74
0
 42
0.0000001
 43
0.0000001
 44
0.0000000001
 40
0.0
 40
0.0
 40
0.0
 40
0.0
 40
0.3996265539
 40
0.7995366497
 40
1.0
 40
1.0
 40
1.0
 40
1.0
 10
156.0046883715
 20
234.5626239395
 30
0.0
 10
156.0188162234
 20
234.5451972643
 30
0.0
 10
156.0499310369
 20
234.5124815511
 30
0.0
 10
156.1032016629
 20
234.4894970369
 30
0.0
 10
156.1368189509
 20
234.4872355644
 30
0.0
 10
156.1480477477
 20
234.4864520644
 30
0.0
  0
SPLINE
  5
32F
100
AcDbEntity
  8
0
100
AcDbSpline
 62
7
  6
BYLAYER
 70
0
 71
3
 72
11
 73
7
 74
0
 42
0.0000001
 43
0.0000001
 44
0.0000000001
 40
0.0
 40
0.0
 40
0.0
 40
0.0
 40
0.2004641094
 40
0.400967963
 40
0.7994925423
 40
1.0
 40
1.0
 40
1.0
 40
1.0
 10
156.1480477477
 20
234.4864520644
 30
0.0
 10
156.1668743029
 20
234.4872597732
 30
0.0
 10
156.2049338902
 20
234.4907811852
 30
0.0
 10
156.2722535395
 20
234.5262653565
 30
0.0
 10
156.323278413
 20
234.5885028152
 30
0.0
 10
156.3289598705
 20
234.6453804959
 30
0.0
 10
156.3300789973
 20
234.6641864397
 30
0.0
  0
SPLINE
  5
330
100
AcDbEntity
  8
0
100
AcDbSpline
 62
7
  6
BYLAYER
 70
0
 71
3
 72
14
 73
10
 74
0
 42
0.0000001
 43
0.0000001
 44
0.0000000001
 40
0.0
 40
0.0
 40
0.0
 40
0.0
 40
0.0659689258
 40
0.1319378522
 40
0.2533135247
 40
0.4107004314
 40
0.6008230882
 40
0.7965685918
 40
1.0
 40
1.0
 40
1.0
 40
1.0
 10
156.3300789973
 20
234.6641864397
 30
0.0
 10
156.3287784513
 20
234.6870118072
 30
0.0
 10
156.3224408089
 20
234.7324937861
 30
0.0
 10
156.2892283886
 20
234.8147618988
 30
0.0
 10
156.2257380322
 20
234.9127366925
 30
0.0
 10
156.1122226519
 20
235.021106149
 30
0.0
 10
155.9500706507
 20
235.1071577377
 30
0.0
 10
155.746641671
 20
235.1643776315
 30
0.0
 10
155.6196554642
 20
235.1704109286
 30
0.0
 10
155.549219622
 20
235.1716083148
 30
0.0
  0
SPLINE
  5
331
100
AcDbEntity
  8
0
100
AcDbSpline
 62
7
  6
BYLAYER
 70
0
 71
3
 72
13
 73
9
 74
0
 42
0.0000001
 43
0.0000001
 44
0.0000000001
 40
0.0
 40
0.0
 40
0.0
 40
0.0
 40
0.1114989975
 40
0.2583982988
 40
0.3876384047
 40
0.5197904746
 40
0.7962988051
 40
1.0
 40
1.0
 40
1.0
 40
1.0
 10
155.549219622
 20
235.1716083148
 30
0.0
 10
155.4896190682
 20
235.1703785541
 30
0.0
 10
155.3508860014
 20
235.1650872003
 30
0.0
 10
155.1496370243
 20
235.1205294455
 30
0.0
 10
154.9415833387
 20
235.0235970555
 30
0.0
 10
154.7161313563
 20
234.8384775418
 30
0.0
 10
154.5615041821
 20
234.5299869181
 30
0.0
 10
154.5403161586
 20
234.2804947495
 30
0.0
 10
154.5378914966
 20
234.171608315
 30
0.0
  0
SPLINE
  5
332
100
AcDbEntity
  8
0
100
AcDbSpline
 62
7
  6
BYLAYER
 70
0
 71
3
 72
14
 73
10
 74
0
 42
0.0000001
 43
0.0000001
 44
0.0000000001
 40
0.0
 40
0.0
 40
0.0
 40
0.0
 40
0.2239892445
 40
0.3683699364
 40
0.5128771362
 40
0.6578164793
 40
0.8001395941
 40
0.900069797
 40
1.0
 40
1.0
 40
1.0
 40
1.0
 10
154.5378914966
 20
234.171608315
 30
0.0
 10
154.5404230595
 20
234.0527206892
 30
0.0
 10
154.5598301708
 20
233.859069348
 30
0.0
 10
154.6678040286
 20
233.6047579579
 30
0.0
 10
154.809575392
 20
233.4222578365
 30
0.0
 10
154.991917966
 20
233.2879389932
 30
0.0
 10
155.1925688962
 20
233.2107190208
 30
0.0
 10
155.3701778777
 20
233.1768185144
 30
0.0
 10
155.4766464635
 20
233.1727599946
 30
0.0
 10
155.529688372
 20
233.1716083148
 30
0.0
  0
SPLINE
  5
333
100
AcDbEntity
  8
0
100
AcDbSpline
 62
7
  6
BYLAYER
 70
0
 71
3
 72
10
 73
6
 74
0
 42
0.0000001
 43
0.0000001
 44
0.0000000001
 40
0.0
 40
0.0
 40
0.0
 40
0.0
 40
0.2017605516
 40
0.5966667699
 40
1.0
 40
1.0
 40
1.0
 40
1.0
 10
155.529688372
 20
233.1716083148
 30
0.0
 10
155.5780718422
 20
233.17246317
 30
0.0
 10
155.7200693367
 20
233.1760422706
 30
0.0
 10
155.9667793415
 20
233.2268761485
 30
0.0
 10
156.1386720224
 20
233.3072631497
 30
0.0
 10
156.2246102474
 20
233.3516864394
 30
0.0
  0
SPLINE
  5
334
100
AcDbEntity
  8
0
100
AcDbSpline
 62
7
  6
BYLAYER
 70
0
 71
3
 72
10
 73
6
 74
0
 42
0.0000001
 43
0.0000001
 44
0.0000000001
 40
0.0
 40
0.0
 40
0.0
 40
0.0
 40
0.401166494
 40
0.7991699658
 40
1.0
 40
1.0
 40
1.0
 40
1.0
 10
156.2246102474
 20
233.3516864394
 30
0.0
 10
156.2629483248
 20
233.3743560699
 30
0.0
 10
156.3435158747
 20
233.4196817379
 30
0.0
 10
156.3868803144
 20
233.528934701
 30
0.0
 10
156.3877261673
 20
233.5954058464
 30
0.0
 10
156.3878914965
 20
233.6177020691
 30
0.0
  0
SPLINE
  5
335
100
AcDbEntity
  8
0
100
AcDbSpline
 62
7
  6
BYLAYER
 70
0
 71
3
 72
13
 73
9
 74
0
 42
0.0000001
 43
0.0000001
 44
0.0000000001
 40
0.0
 40
0.0
 40
0.0
 40
0.0
 40
0.3376347078
 40
0.4993339908
 40
0.5994508594
 40
0.7995628649
 40
0.8997814388
 40
1.0
 40
1.0
 40
1.0
 40
1.0
 10
156.3878914964
 20
233.9876239397
 30
0.0
 10
156.3865460874
 20
234.0340459649
 30
0.0
 10
156.3826100663
 20
234.1062834825
 30
0.0
 10
156.3299364748
 20
234.173017611
 30
0.0
 10
156.2755191474
 20
234.2073231386
 30
0.0
 10
156.2198880794
 20
234.2157546151
 30
0.0
 10
156.1652308537
 20
234.2213509205
 30
0.0
 10
156.1376152818
 20
234.2215548558
 30
0.0
 10
156.1238290018
 20
234.2216083155
 30
0.0
  0
SPLINE
  5
336
100
AcDbEntity
  8
0
100
AcDbSpline
 62
7
  6
BYLAYER
 70
0
 71
3
 72
12
 73
8
 74
0
 42
0.0000001
 43
0.0000001
 44
0.0000000001
 40
0.0
 40
0.0
 40
0.0
 40
0.0
 40
0.2001503512
 40
0.4002299961
 40
0.6002335322
 40
0.8001373849
 40
1.0
 40
1.0
 40
1.0
 40
1.0
 10
155.6812508724
 20
234.2216083155
 30
0.0
 10
155.6639959477
 20
234.2209652855
 30
0.0
 10
155.629381025
 20
234.2189535684
 30
0.0
 10
155.5799818271
 20
234.2006916341
 30
0.0
 10
155.5393625691
 20
234.1673597781
 30
0.0
 10
155.512308841
 20
234.1216772808
 30
0.0
 10
155.5084679568
 20
234.0869064414
 30
0.0
 10
155.5078133724
 20
234.0696551901
 30
0.0
  0
SPLINE
  5
337
100
AcDbEntity
  8
0
100
AcDbSpline
 62
7
  6
BYLAYER
 70
0
 71
3
 72
12
 73
8
 74
0
 42
0.0000001
 43
0.0000001
 44
0.0000000001
 40
0.0
 40
0.0
 40
0.0
 40
0.0
 40
0.1971178609
 40
0.3940139166
 40
0.4925599138
 40
0.591105911
 40
1.0
 40
1.0
 40
1.0
 40
1.0
 10
161.1867196218
 20
234.8966083155
 30
0.0
 10
161.2191256464
 20
234.8960376802
 30
0.0
 10
161.2839127665
 20
234.8930873282
 30
0.0
 10
161.3635595768
 20
234.8736628775
 30
0.0
 10
161.4206215049
 20
234.8421896744
 30
0.0
 10
161.4945753227
 20
234.7732379189
 30
0.0
 10
161.5330978108
 20
234.7070833693
 30
0.0
 10
161.5625008726
 20
234.6466083155
 30
0.0
  0
SPLINE
  5
338
100
AcDbEntity
  8
0
100
AcDbSpline
 62
7
  6
BYLAYER
 70
0
 71
3
 72
11
 73
7
 74
0
 42
0.0000001
 43
0.0000001
 44
0.0000000001
 40
0.0
 40
0.0
 40
0.0
 40
0.0
 40
0.4001023294
 40
0.6000114779
 40
0.7998187307
 40
1.0
 40
1.0
 40
1.0
 40
1.0
 10
161.5625008726
 20
234.6466083155
 30
0.0
 10
161.5785940311
 20
234.6210441588
 30
0.0
 10
161.6032314103
 20
234.5828914825
 30
0.0
 10
161.6475962477
 20
234.54061385
 30
0.0
 10
161.6912857625
 20
234.524825175
 30
0.0
 10
161.7216163449
 20
234.5237877161
 30
0.0
 10
161.7367196222
 20
234.5231708159
 30
0.0
  0
SPLINE
  5
339
100
AcDbEntity
  8
0
100
AcDbSpline
 62
7
  6
BYLAYER
 70
0
 71
3
 72
11
 73
7
 74
0
 42
0.0000001
 43
0.0000001
 44
0.0000000001
 40
0.0
 40
0.0
 40
0.0
 40
0.0
 40
0.2003707275
 40
0.4006403504
 40
0.799605802
 40
1.0
 40
1.0
 40
1.0
 40
1.0
 10
161.7367196222
 20
234.5231708159
 30
0.0
 10
161.7549568216
 20
234.5242251999
 30
0.0
 10
161.7920745908
 20
234.527738363
 30
0.0
 10
161.8550495051
 20
234.5672277081
 30
0.0
 10
161.8989889666
 20
234.630549993
 30
0.0
 10
161.9048821541
 20
234.6853981338
 30
0.0
 10
161.9058602461
 20
234.7036395651
 30
0.0
  0
SPLINE
  5
33A
100
AcDbEntity
  8
0
100
AcDbSpline
 62
7
  6
BYLAYER
 70
0
 71
3
 72
16
 73
12
 74
0
 42
0.0000001
 43
0.0000001
 44
0.0000000001
 40
0.0
 40
0.0
 40
0.0
 40
0.0
 40
0.0473256214
 40
0.0946512428
 40
0.1698267775
 40
0.2450023122
 40
0.3246732024
 40
0.4043440927
 40
0.595653704
 40
0.7934053743
 40
1.0
 40
1.0
 40
1.0
 40
1.0
 10
161.9058602461
 20
234.7036395651
 30
0.0
 10
161.9053748315
 20
234.7183098998
 30
0.0
 10
161.9041901043
 20
234.7477063503
 30
0.0
 10
161.8919858314
 20
234.7991497143
 30
0.0
 10
161.8700593516
 20
234.8566090694
 30
0.0
 10
161.8325821738
 20
234.9176702461
 30
0.0
 10
161.7849553493
 20
234.9728106858
 30
0.0
 10
161.7034838505
 20
235.0457779318
 30
0.0
 10
161.5786538024
 20
235.1154054753
 30
0.0
 10
161.3939224053
 20
235.1659686759
 30
0.0
 10
161.2800462668
 20
235.1705348747
 30
0.0
 10
161.2160164966
 20
235.1716083159
 30
0.0
  0
SPLINE
  5
33B
100
AcDbEntity
  8
0
100
AcDbSpline
 62
7
  6
BYLAYER
 70
0
 71
3
 72
18
 73
14
 74
0
 42
0.0000001
 43
0.0000001
 44
0.0000000001
 40
0.0
 40
0.0
 40
0.0
 40
0.0
 40
0.0650633686
 40
0.4532767088
 40
0.5453082463
 40
0.5913562151
 40
0.6374041839
 40
0.7167291557
 40
0.7960541276
 40
0.8470412625
 40
0.8980283974
 40
0.9490141987
 40
1.0
 40
1.0
 40
1.0
 40
1.0
 10
161.2160164966
 20
235.1716083159
 30
0.0
 10
161.1944202792
 20
235.1711026381
 30
0.0
 10
161.0455727891
 20
235.1684766699
 30
0.0
 10
160.8404737876
 20
235.1282561765
 30
0.0
 10
160.6939682412
 20
235.0352561693
 30
0.0
 10
160.6459312039
 20
234.9971614782
 30
0.0
 10
160.6059320889
 20
234.9565733479
 30
0.0
 10
160.563392728
 20
234.9032994445
 30
0.0
 10
160.5298655206
 20
234.8418807779
 30
0.0
 10
160.5091462295
 20
234.7852797932
 30
0.0
 10
160.4963937393
 20
234.736069286
 30
0.0
 10
160.489094261
 20
234.6856714668
 30
0.0
 10
160.4880723064
 20
234.6518207524
 30
0.0
 10
160.4878914961
 20
234.6348895654
 30
0.0
  0
SPLINE
  5
33C
100
AcDbEntity
  8
0
100
AcDbSpline
 62
7
  6
BYLAYER
 70
0
 71
3
 72
15
 73
11
 74
0
 42
0.0000001
 43
0.0000001
 44
0.0000000001
 40
0.0
 40
0.0
 40
0.0
 40
0.0
 40
0.0929428227
 40
0.173959749
 40
0.2549766753
 40
0.4180524296
 40
0.605412103
 40
0.702959135
 40
0.800506167
 40
1.0
 40
1.0
 40
1.0
 40
1.0
 10
160.4878914961
 20
234.6348895654
 30
0.0
 10
160.4883178787
 20
234.6054731741
 30
0.0
 10
160.4914907578
 20
234.5503478772
 30
0.0
 10
160.5091107521
 20
234.4713076825
 30
0.0
 10
160.5504847948
 20
234.3758516557
 30
0.0
 10
160.6352914052
 20
234.2720513835
 30
0.0
 10
160.756809018
 20
234.1927561345
 30
0.0
 10
160.8688292646
 20
234.1472200745
 30
0.0
 10
160.9863777251
 20
234.1046988182
 30
0.0
 10
161.0777754185
 20
234.0820920611
 30
0.0
 10
161.1390633722
 20
234.0669208151
 30
0.0
  0
SPLINE
  5
33D
100
AcDbEntity
  8
0
100
AcDbSpline
 62
7
  6
BYLAYER
 70
0
 71
3
 72
14
 73
10
 74
0
 42
0.0000001
 43
0.0000001
 44
0.0000000001
 40
0.0
 40
0.0
 40
0.0
 40
0.0
 40
0.0888852201
 40
0.4846191915
 40
0.5853660178
 40
0.6861128442
 40
0.8177381871
 40
0.8992901838
 40
1.0
 40
1.0
 40
1.0
 40
1.0
 10
161.1390633722
 20
234.0669208151
 30
0.0
 10
161.1568112968
 20
234.0628703081
 30
0.0
 10
161.2529587906
 20
234.040534012
 30
0.0
 10
161.3767129673
 20
234.0146199064
 30
0.0
 10
161.4865707607
 20
233.9610601375
 30
0.0
 10
161.5429832343
 20
233.9221625727
 30
0.0
 10
161.5862175192
 20
233.8728077554
 30
0.0
 10
161.609262518
 20
233.8117248342
 30
0.0
 10
161.6119448139
 20
233.7742732502
 30
0.0
 10
161.6128914961
 20
233.7536395659
 30
0.0
  0
SPLINE
  5
33E
100
AcDbEntity
  8
0
100
AcDbSpline
 62
7
  6
BYLAYER
 70
0
 71
3
 72
16
 73
12
 74
0
 42
0.0000001
 43
0.0000001
 44
0.0000000001
 40
0.0
 40
0.0
 40
0.0
 40
0.0
 40
0.0999478467
 40
0.1998932854
 40
0.2998930431
 40
0.3998928007
 40
0.4999265823
 40
0.5999603638
 40
0.7998915831
 40
0.8999457916
 40
1.0
 40
1.0
 40
1.0
 40
1.0
 10
161.6128914961
 20
233.7536395659
 30
0.0
 10
161.6125100553
 20
233.7354094301
 30
0.0
 10
161.6092335001
 20
233.6988577785
 30
0.0
 10
161.5894606881
 20
233.6472888527
 30
0.0
 10
161.5585828124
 20
233.601654717
 30
0.0
 10
161.518466124
 20
233.5641070856
 30
0.0
 10
161.4736656959
 20
233.5324513506
 30
0.0
 10
161.4079327473
 20
233.5003383235
 30
0.0
 10
161.3369579677
 20
233.4814011721
 30
0.0
 10
161.2644894567
 20
233.4726024669
 30
0.0
 10
161.2280029053
 20
233.4718296508
 30
0.0
 10
161.2097664969
 20
233.4716083148
 30
0.0
  0
SPLINE
  5
33F
100
AcDbEntity
  8
0
100
AcDbSpline
 62
7
  6
BYLAYER
 70
0
 71
3
 72
15
 73
11
 74
0
 42
0.0000001
 43
0.0000001
 44
0.0000000001
 40
0.0
 40
0.0
 40
0.0
 40
0.0
 40
0.1999908926
 40
0.3000394401
 40
0.4000879876
 40
0.5998527287
 40
0.6998734559
 40
0.7998941831
 40
0.8999470915
 40
1.0
 40
1.0
 40
1.0
 40
1.0
 10
161.2097664969
 20
233.4716083148
 30
0.0
 10
161.1729783286
 20
233.47215452
 30
0.0
 10
161.1177247477
 20
233.4752108479
 30
0.0
 10
161.0456610418
 20
233.4916100034
 30
0.0
 10
160.9776570366
 20
233.5199856319
 30
0.0
 10
160.9156222191
 20
233.5620562882
 30
0.0
 10
160.869438261
 20
233.6197210388
 30
0.0
 10
160.8405250182
 20
233.66675067
 30
0.0
 10
160.8148485774
 20
233.7156781787
 30
0.0
 10
160.8004516188
 20
233.7495510041
 30
0.0
 10
160.7933602472
 20
233.7665301898
 30
0.0
  0
SPLINE
  5
340
100
AcDbEntity
  8
0
100
AcDbSpline
 62
7
  6
BYLAYER
 70
0
 71
3
 72
11
 73
7
 74
0
 42
0.0000001
 43
0.0000001
 44
0.0000000001
 40
0.0
 40
0.0
 40
0.0
 40
0.0
 40
0.2003490554
 40
0.5999850706
 40
0.799989911
 40
1.0
 40
1.0
 40
1.0
 40
1.0
 10
160.7933602472
 20
233.7665301898
 30
0.0
 10
160.7872713978
 20
233.781979138
 30
0.0
 10
160.7682705221
 20
233.827693958
 30
0.0
 10
160.730336002
 20
233.8849340432
 30
0.0
 10
160.6710668442
 20
233.9180217471
 30
0.0
 10
160.6376860394
 20
233.9217712841
 30
0.0
 10
160.6210946226
 20
233.9223895651
 30
0.0
  0
SPLINE
  5
341
100
AcDbEntity
  8
0
100
AcDbSpline
 62
7
  6
BYLAYER
 70
0
 71
3
 72
12
 73
8
 74
0
 42
0.0000001
 43
0.0000001
 44
0.0000000001
 40
0.0
 40
0.0
 40
0.0
 40
0.0
 40
0.199958588
 40
0.3999280667
 40
0.5999856341
 40
0.7999775728
 40
1.0
 40
1.0
 40
1.0
 40
1.0
 10
160.6210946226
 20
233.9223895651
 30
0.0
 10
160.6030198076
 20
233.9216196144
 30
0.0
 10
160.5665938124
 20
233.9182796979
 30
0.0
 10
160.5176404549
 20
233.8920420824
 30
0.0
 10
160.4801544946
 20
233.8520672663
 30
0.0
 10
160.4554369544
 20
233.8026272648
 30
0.0
 10
160.4520900006
 20
233.766234349
 30
0.0
 10
160.4511727476
 20
233.7481708153
 30
0.0
  0
SPLINE
  5
342
100
AcDbEntity
  8
0
100
AcDbSpline
 62
7
  6
BYLAYER
 70
0
 71
3
 72
10
 73
6
 74
0
 42
0.0000001
 43
0.0000001
 44
0.0000000001
 40
0.0
 40
0.0
 40
0.0
 40
0.0
 40
0.2565696862
 40
0.5131393742
 40
1.0
 40
1.0
 40
1.0
 40
1.0
 10
160.4511727476
 20
233.7481708153
 30
0.0
 10
160.4521276533
 20
233.7292702225
 30
0.0
 10
160.4539550451
 20
233.6914206003
 30
0.0
 10
160.4695049379
 20
233.6191149632
 30
0.0
 10
160.4909405492
 20
233.5681133677
 30
0.0
 10
160.5072217081
 20
233.5362421746
 30
0.0
  0
SPLINE
  5
343
100
AcDbEntity
  8
0
100
AcDbSpline
 62
7
  6
BYLAYER
 70
0
 71
3
 72
10
 73
6
 74
0
 42
0.0000001
 43
0.0000001
 44
0.0000000001
 40
0.0
 40
0.0
 40
0.0
 40
0.0
 40
0.0164348594
 40
0.6757299802
 40
1.0
 40
1.0
 40
1.0
 40
1.0
 10
160.5072217081
 20
233.5362421746
 30
0.0
 10
160.508091064
 20
233.5345403665
 30
0.0
 10
160.5440981784
 20
233.4647486476
 30
0.0
 10
160.6126271099
 20
233.372503647
 30
0.0
 10
160.7071410836
 20
233.3053810943
 30
0.0
 10
160.738672747
 20
233.2844989395
 30
0.0
  0
SPLINE
  5
344
100
AcDbEntity
  8
0
100
AcDbSpline
 62
7
  6
BYLAYER
 70
0
 71
3
 72
10
 73
6
 74
0
 42
0.0000001
 43
0.0000001
 44
0.0000000001
 40
0.0
 40
0.0
 40
0.0
 40
0.0
 40
0.1955481616
 40
0.6047885797
 40
1.0
 40
1.0
 40
1.0
 40
1.0
 10
160.738672747
 20
233.2844989395
 30
0.0
 10
160.7672925131
 20
233.268078696
 30
0.0
 10
160.859727475
 20
233.220835751
 30
0.0
 10
161.0114173315
 20
233.1813730659
 30
0.0
 10
161.1478039568
 20
233.1728667484
 30
0.0
 10
161.2144539961
 20
233.1716083159
 30
0.0
  0
SPLINE
  5
345
100
AcDbEntity
  8
0
100
AcDbSpline
 62
7
  6
BYLAYER
 70
0
 71
3
 72
16
 73
12
 74
0
 42
0.0000001
 43
0.0000001
 44
0.0000000001
 40
0.0
 40
0.0
 40
0.0
 40
0.0
 40
0.0989215619
 40
0.2965053189
 40
0.4681587525
 40
0.5499377666
 40
0.6317167807
 40
0.7142655789
 40
0.7968143771
 40
0.8977236191
 40
1.0
 40
1.0
 40
1.0
 40
1.0
 10
161.2144539961
 20
233.1716083159
 30
0.0
 10
161.2516986754
 20
233.1719590212
 30
0.0
 10
161.355400761
 20
233.174989004
 30
0.0
 10
161.5367473047
 20
233.2071755578
 30
0.0
 10
161.687203398
 20
233.2754835576
 30
0.0
 10
161.7908522708
 20
233.3494311242
 30
0.0
 10
161.8562401539
 20
233.4154852492
 30
0.0
 10
161.9104459675
 20
233.4913935714
 30
0.0
 10
161.9541330694
 20
233.5823967133
 30
0.0
 10
161.9821821513
 20
233.6850329485
 30
0.0
 10
161.9870501098
 20
233.7569340016
 30
0.0
 10
161.9878914961
 20
233.7954364401
 30
0.0
  0
SPLINE
  5
346
100
AcDbEntity
  8
0
100
AcDbSpline
 62
7
  6
BYLAYER
 70
0
 71
3
 72
13
 73
9
 74
0
 42
0.0000001
 43
0.0000001
 44
0.0000000001
 40
0.0
 40
0.0
 40
0.0
 40
0.0
 40
0.1534966413
 40
0.3172674743
 40
0.4773026195
 40
0.6382530577
 40
0.8016149895
 40
1.0
 40
1.0
 40
1.0
 40
1.0
 10
161.9878914961
 20
233.7954364401
 30
0.0
 10
161.9866807865
 20
233.8488744274
 30
0.0
 10
161.9794231464
 20
233.9533766074
 30
0.0
 10
161.9090648537
 20
234.106027369
 30
0.0
 10
161.7840854892
 20
234.222100711
 30
0.0
 10
161.6255384208
 20
234.3006760315
 30
0.0
 10
161.4608536316
 20
234.3540568034
 30
0.0
 10
161.3366725646
 20
234.3863107706
 30
0.0
 10
161.2695321231
 20
234.4024676904
 30
0.0
  0
SPLINE
  5
347
100
AcDbEntity
  8
0
100
AcDbSpline
 62
7
  6
BYLAYER
 70
0
 71
3
 72
15
 73
11
 74
0
 42
0.0000001
 43
0.0000001
 44
0.0000000001
 40
0.0
 40
0.0
 40
0.0
 40
0.0
 40
0.087576756
 40
0.2861694922
 40
0.591415135
 40
0.6906824537
 40
0.7556726125
 40
0.8206627714
 40
0.9008708996
 40
1.0
 40
1.0
 40
1.0
 40
1.0
 10
161.2695321231
 20
234.4024676904
 30
0.0
 10
161.2538720419
 20
234.4062167106
 30
0.0
 10
161.2028284968
 20
234.4185701863
 30
0.0
 10
161.0962033721
 20
234.4451075247
 30
0.0
 10
160.9954216279
 20
234.4774637149
 30
0.0
 10
160.9206526856
 20
234.5223131856
 30
0.0
 10
160.8884905164
 20
234.549741829
 30
0.0
 10
160.863313622
 20
234.5792759213
 30
0.0
 10
160.8420470282
 20
234.6196352173
 30
0.0
 10
160.8385335158
 20
234.6529808575
 30
0.0
 10
160.8378914976
 20
234.6712176897
 30
0.0
  0
SPLINE
  5
348
100
AcDbEntity
  8
0
100
AcDbSpline
 62
7
  6
BYLAYER
 70
0
 71
3
 72
13
 73
9
 74
0
 42
0.0000001
 43
0.0000001
 44
0.0000000001
 40
0.0
 40
0.0
 40
0.0
 40
0.0
 40
0.116109065
 40
0.2153441171
 40
0.3061547084
 40
0.3969652996
 40
0.5954213452
 40
1.0
 40
1.0
 40
1.0
 40
1.0
 10
160.8378914976
 20
234.6712176897
 30
0.0
 10
160.8387220431
 20
234.6890860305
 30
0.0
 10
160.8426987231
 20
234.7224852566
 30
0.0
 10
160.8645139552
 20
234.7650872236
 30
0.0
 10
160.892557677
 20
234.7983456538
 30
0.0
 10
160.9376921978
 20
234.8358213742
 30
0.0
 10
161.0342148062
 20
234.8870190724
 30
0.0
 10
161.1244063604
 20
234.8945690482
 30
0.0
 10
161.1867196218
 20
234.8966083155
 30
0.0
  0
SPLINE
  5
349
100
AcDbEntity
  8
0
100
AcDbSpline
 62
7
  6
BYLAYER
 70
0
 71
3
 72
9
 73
5
 74
0
 42
0.0000001
 43
0.0000001
 44
0.0000000001
 40
0.0
 40
0.0
 40
0.0
 40
0.0
 40
0.4001272441
 40
1.0
 40
1.0
 40
1.0
 40
1.0
 10
58.5589852365
 20
234.8208270242
 30
0.0
 10
58.564279768
 20
234.8435992266
 30
0.0
 10
58.5775585815
 20
234.9004834636
 30
0.0
 10
58.5862003337
 20
234.9584664526
 30
0.0
 10
58.587891497
 20
234.9934833143
 30
0.0
  0
SPLINE
  5
34A
100
AcDbEntity
  8
0
100
AcDbSpline
 62
7
  6
BYLAYER
 70
0
 71
3
 72
10
 73
6
 74
0
 42
0.0000001
 43
0.0000001
 44
0.0000000001
 40
0.0
 40
0.0
 40
0.0
 40
0.0
 40
0.3086392552
 40
0.9217347447
 40
1.0
 40
1.0
 40
1.0
 40
1.0
 10
58.587891497
 20
234.9934833143
 30
0.0
 10
58.5868362237
 20
235.0123948361
 30
0.0
 10
58.5815408197
 20
235.0694644579
 30
0.0
 10
58.5405924175
 20
235.1213124897
 30
0.0
 10
58.504575576
 20
235.1445166866
 30
0.0
 10
58.5004096937
 20
235.1469688321
 30
0.0
  0
SPLINE
  5
34B
100
AcDbEntity
  8
0
100
AcDbSpline
 62
7
  6
BYLAYER
 70
0
 71
3
 72
9
 73
5
 74
0
 42
0.0000001
 43
0.0000001
 44
0.0000000001
 40
0.0
 40
0.0
 40
0.0
 40
0.0
 40
0.4275049391
 40
1.0
 40
1.0
 40
1.0
 40
1.0
 10
58.5004096937
 20
235.1469688321
 30
0.0
 10
58.4881464327
 20
235.154187303
 30
0.0
 10
58.457664673
 20
235.1675316795
 30
0.0
 10
58.4243990697
 20
235.1708248384
 30
0.0
 10
58.405469623
 20
235.1716083157
 30
0.0
  0
SPLINE
  5
34C
100
AcDbEntity
  8
0
100
AcDbSpline
 62
7
  6
BYLAYER
 70
0
 71
3
 72
13
 73
9
 74
0
 42
0.0000001
 43
0.0000001
 44
0.0000000001
 40
0.0
 40
0.0
 40
0.0
 40
0.0
 40
0.2982323897
 40
0.3985079909
 40
0.598736107
 40
0.6990504869
 40
0.7993648668
 40
1.0
 40
1.0
 40
1.0
 40
1.0
 10
58.405469623
 20
235.1716083157
 30
0.0
 10
58.3682176997
 20
235.1704456995
 30
0.0
 10
58.3152227797
 20
235.1603541308
 30
0.0
 10
58.2635071201
 20
235.104987384
 30
0.0
 10
58.237818498
 20
235.0612705178
 30
0.0
 10
58.224492184
 20
235.0128842556
 30
0.0
 10
58.2115629058
 20
234.9645123318
 30
0.0
 10
58.2035619394
 20
234.9277705412
 30
0.0
 10
58.1984383826
 20
234.9032489905
 30
0.0
  0
SPLINE
  5
34D
100
AcDbEntity
  8
0
100
AcDbSpline
 62
7
  6
BYLAYER
 70
0
 71
3
 72
14
 73
10
 74
0
 42
0.0000001
 43
0.0000001
 44
0.0000000001
 40
0.0
 40
0.0
 40
0.0
 40
0.0
 40
0.1383095216
 40
0.338473457
 40
0.5381292812
 40
0.6998697693
 40
0.7998466963
 40
0.8999233482
 40
1.0
 40
1.0
 40
1.0
 40
1.0
 10
57.6621102511
 20
234.8305926748
 30
0.0
 10
57.6562107082
 20
234.8524082582
 30
0.0
 10
57.6412732408
 20
234.9056618887
 30
0.0
 10
57.6179464814
 20
234.9904055468
 30
0.0
 10
57.5813345892
 20
235.0754475263
 30
0.0
 10
57.5275044819
 20
235.1308683737
 30
0.0
 10
57.4746255255
 20
235.1583966793
 30
0.0
 10
57.4264161557
 20
235.1697073654
 30
0.0
 10
57.393700146
 20
235.1710239984
 30
0.0
 10
57.377344621
 20
235.1716083157
 30
0.0
  0
SPLINE
  5
34E
100
AcDbEntity
  8
0
100
AcDbSpline
 62
7
  6
BYLAYER
 70
0
 71
3
 72
13
 73
9
 74
0
 42
0.0000001
 43
0.0000001
 44
0.0000000001
 40
0.0
 40
0.0
 40
0.0
 40
0.0
 40
0.1382222069
 40
0.2998066901
 40
0.3999053077
 40
0.5995884678
 40
0.7997794267
 40
1.0
 40
1.0
 40
1.0
 40
1.0
 10
57.377344621
 20
235.1716083157
 30
0.0
 10
57.3545463677
 20
235.1710797719
 30
0.0
 10
57.3050784823
 20
235.1679548227
 30
0.0
 10
57.2421581853
 20
235.1430099424
 30
0.0
 10
57.1851633147
 20
235.0917252138
 30
0.0
 10
57.1396381076
 20
235.0215603703
 30
0.0
 10
57.112392814
 20
234.9259222719
 30
0.0
 10
57.0947200601
 20
234.8624940225
 30
0.0
 10
57.0863288381
 20
234.8305920896
 30
0.0
  0
SPLINE
  5
34F
100
AcDbEntity
  8
0
100
AcDbSpline
 62
7
  6
BYLAYER
 70
0
 71
3
 72
13
 73
9
 74
0
 42
0.0000001
 43
0.0000001
 44
0.0000000001
 40
0.0
 40
0.0
 40
0.0
 40
0.0
 40
0.2884154675
 40
0.4885714286
 40
0.6194289915
 40
0.7003060895
 40
0.8002616324
 40
1.0
 40
1.0
 40
1.0
 40
1.0
 10
56.5523446268
 20
234.9032489184
 30
0.0
 10
56.5443872086
 20
234.9386123726
 30
0.0
 10
56.530804145
 20
234.9987178386
 30
0.0
 10
56.5041474358
 20
235.071682332
 30
0.0
 10
56.4813084581
 20
235.1190040444
 30
0.0
 10
56.4519540856
 20
235.1457368939
 30
0.0
 10
56.4087828943
 20
235.1676870432
 30
0.0
 10
56.3704086554
 20
235.1708670262
 30
0.0
 10
56.345313372
 20
235.1716083157
 30
0.0
  0
SPLINE
  5
350
100
AcDbEntity
  8
0
100
AcDbSpline
 62
7
  6
BYLAYER
 70
0
 71
3
 72
12
 73
8
 74
0
 42
0.0000001
 43
0.0000001
 44
0.0000000001
 40
0.0
 40
0.0
 40
0.0
 40
0.0
 40
0.2000045452
 40
0.400024278
 40
0.6000547825
 40
0.8000648755
 40
1.0
 40
1.0
 40
1.0
 40
1.0
 10
56.345313372
 20
235.1716083157
 30
0.0
 10
56.326379592
 20
235.1708122654
 30
0.0
 10
56.288248084
 20
235.1674681524
 30
0.0
 10
56.2363797234
 20
235.1414833055
 30
0.0
 10
56.1951175649
 20
235.1016405918
 30
0.0
 10
56.1673862447
 20
235.0505794062
 30
0.0
 10
56.1636491464
 20
235.0124192848
 30
0.0
 10
56.162891498
 20
234.9934833143
 30
0.0
  0
SPLINE
  5
351
100
AcDbEntity
  8
0
100
AcDbSpline
 62
7
  6
BYLAYER
 70
0
 71
3
 72
9
 73
5
 74
0
 42
0.0000001
 43
0.0000001
 44
0.0000000001
 40
0.0
 40
0.0
 40
0.0
 40
0.0
 40
0.204136906
 40
1.0
 40
1.0
 40
1.0
 40
1.0
 10
56.162891498
 20
234.9934833143
 30
0.0
 10
56.163430413
 20
234.981799461
 30
0.0
 10
56.1659941091
 20
234.9249385953
 30
0.0
 10
56.1811441793
 20
234.865158023
 30
0.0
 10
56.1917977415
 20
234.8208270838
 30
0.0
  0
SPLINE
  5
352
100
AcDbEntity
  8
0
100
AcDbSpline
 62
7
  6
BYLAYER
 70
0
 71
3
 72
11
 73
7
 74
0
 42
0.0000001
 43
0.0000001
 44
0.0000000001
 40
0.0
 40
0.0
 40
0.0
 40
0.0
 40
0.5282307503
 40
0.6934754305
 40
0.7957698858
 40
1.0
 40
1.0
 40
1.0
 40
1.0
 10
56.5117196099
 20
233.5184833633
 30
0.0
 10
56.532064542
 20
233.4369517595
 30
0.0
 10
56.554323681
 20
233.3121199741
 30
0.0
 10
56.6371804468
 20
233.2147006231
 30
0.0
 10
56.7037541429
 20
233.1775193067
 30
0.0
 10
56.7534464914
 20
233.1723425528
 30
0.0
 10
56.785938373
 20
233.1716083158
 30
0.0
  0
SPLINE
  5
353
100
AcDbEntity
  8
0
100
AcDbSpline
 62
7
  6
BYLAYER
 70
0
 71
3
 72
14
 73
10
 74
0
 42
0.0000001
 43
0.0000001
 44
0.0000000001
 40
0.0
 40
0.0
 40
0.0
 40
0.0
 40
0.1000574017
 40
0.2001148035
 40
0.3001425972
 40
0.4001703909
 40
0.5996976879
 40
0.7998424061
 40
1.0
 40
1.0
 40
1.0
 40
1.0
 10
56.785938373
 20
233.1716083158
 30
0.0
 10
56.8019557547
 20
233.1721129553
 30
0.0
 10
56.834055063
 20
233.1733224734
 30
0.0
 10
56.8808537576
 20
233.1862540168
 30
0.0
 10
56.9229954886
 20
233.2101874914
 30
0.0
 10
56.969811424
 20
233.2545150207
 30
0.0
 10
57.0104425295
 20
233.3247521772
 30
0.0
 10
57.0356447202
 20
233.4177058265
 30
0.0
 10
57.0536813603
 20
233.4790993629
 30
0.0
 10
57.0625008719
 20
233.5098895649
 30
0.0
  0
SPLINE
  5
354
100
AcDbEntity
  8
0
100
AcDbSpline
 62
7
  6
BYLAYER
 70
0
 71
3
 72
13
 73
9
 74
0
 42
0.0000001
 43
0.0000001
 44
0.0000000001
 40
0.0
 40
0.0
 40
0.0
 40
0.0
 40
0.338454829
 40
0.5381923348
 40
0.6998899536
 40
0.7998605202
 40
0.8999302601
 40
1.0
 40
1.0
 40
1.0
 40
1.0
 10
57.6882820909
 20
233.5098896781
 30
0.0
 10
57.7031351931
 20
233.457760144
 30
0.0
 10
57.7251123091
 20
233.3747317576
 30
0.0
 10
57.7660389471
 20
233.2689461816
 30
0.0
 10
57.819171458
 20
233.2150349188
 30
0.0
 10
57.8697378004
 20
233.1860917232
 30
0.0
 10
57.9167207216
 20
233.173408458
 30
0.0
 10
57.9488080854
 20
233.1720986827
 30
0.0
 10
57.964844622
 20
233.1716083157
 30
0.0
  0
SPLINE
  5
355
100
AcDbEntity
  8
0
100
AcDbSpline
 62
7
  6
BYLAYER
 70
0
 71
3
 72
13
 73
9
 74
0
 42
0.0000001
 43
0.0000001
 44
0.0000000001
 40
0.0
 40
0.0
 40
0.0
 40
0.0
 40
0.1382681916
 40
0.2997337776
 40
0.3998204591
 40
0.5995227042
 40
0.7997587934
 40
1.0
 40
1.0
 40
1.0
 40
1.0
 10
57.964844622
 20
233.1716083157
 30
0.0
 10
57.987375452
 20
233.172267041
 30
0.0
 10
58.036508823
 20
233.174653471
 30
0.0
 10
58.0977500714
 20
233.2022701902
 30
0.0
 10
58.1513062668
 20
233.2559840143
 30
0.0
 10
58.1901885671
 20
233.3288903089
 30
0.0
 10
58.2142211956
 20
233.4239037954
 30
0.0
 10
58.2311298387
 20
233.4868482466
 30
0.0
 10
58.2390633739
 20
233.5184833182
 30
0.0
  0
SPLINE
  5
356
100
AcDbEntity
  8
0
100
AcDbSpline
 62
7
  6
BYLAYER
 70
0
 71
3
 72
12
 73
8
 74
0
 42
0.0000001
 43
0.0000001
 44
0.0000000001
 40
0.0
 40
0.0
 40
0.0
 40
0.0
 40
0.1386322048
 40
0.498885591
 40
0.5992000687
 40
0.7994525977
 40
1.0
 40
1.0
 40
1.0
 40
1.0
 10
58.837891497
 20
233.4376239404
 30
0.0
 10
58.8384942154
 20
233.4198615091
 30
0.0
 10
58.8403500737
 20
233.3564726884
 30
0.0
 10
58.8625381402
 20
233.2767281726
 30
0.0
 10
58.9281500991
 20
233.2211183427
 30
0.0
 10
58.9904208007
 20
233.1995495018
 30
0.0
 10
59.0418682383
 20
233.1973681425
 30
0.0
 10
59.0675789944
 20
233.1966083148
 30
0.0
  0
SPLINE
  5
357
100
AcDbEntity
  8
0
100
AcDbSpline
 62
7
  6
BYLAYER
 70
0
 71
3
 72
11
 73
7
 74
0
 42
0.0000001
 43
0.0000001
 44
0.0000000001
 40
0.0
 40
0.0
 40
0.0
 40
0.0
 40
0.2007810224
 40
0.5991536154
 40
0.7995178345
 40
1.0
 40
1.0
 40
1.0
 40
1.0
 10
60.0066414988
 20
233.1966083149
 30
0.0
 10
60.0257929016
 20
233.1971997267
 30
0.0
 10
60.082863851
 20
233.199036061
 30
0.0
 10
60.1573819092
 20
233.2328103309
 30
0.0
 10
60.198129197
 20
233.3002099478
 30
0.0
 10
60.202227307
 20
233.3388037918
 30
0.0
 10
60.203125872
 20
233.3579364406
 30
0.0
  0
SPLINE
  5
358
100
AcDbEntity
  8
0
100
AcDbSpline
 62
7
  6
BYLAYER
 70
0
 71
3
 72
11
 73
7
 74
0
 42
0.0000001
 43
0.0000001
 44
0.0000000001
 40
0.0
 40
0.0
 40
0.0
 40
0.0
 40
0.3101427364
 40
0.6203286034
 40
0.930540176
 40
1.0
 40
1.0
 40
1.0
 40
1.0
 10
60.203125872
 20
233.3579364406
 30
0.0
 10
60.202233882
 20
233.3771001309
 30
0.0
 10
60.1974528337
 20
233.4157087502
 30
0.0
 10
60.1664640277
 20
233.466022039
 30
0.0
 10
60.131999987
 20
233.492294319
 30
0.0
 10
60.1107476879
 20
233.5023596565
 30
0.0
 10
60.1067967006
 20
233.5040585976
 30
0.0
  0
SPLINE
  5
359
100
AcDbEntity
  8
0
100
AcDbSpline
 62
7
  6
BYLAYER
 70
0
 71
3
 72
9
 73
5
 74
0
 42
0.0000001
 43
0.0000001
 44
0.0000000001
 40
0.0
 40
0.0
 40
0.0
 40
0.0
 40
0.437026281
 40
1.0
 40
1.0
 40
1.0
 40
1.0
 10
60.1067967006
 20
233.5040585976
 30
0.0
 10
60.0930808036
 20
233.5099564908
 30
0.0
 10
60.0599606156
 20
233.519522869
 30
0.0
 10
60.0258319638
 20
233.5211017088
 30
0.0
 10
60.0066425135
 20
233.5216082891
 30
0.0
  0
SPLINE
  5
35A
100
AcDbEntity
  8
0
100
AcDbSpline
 62
7
  6
BYLAYER
 70
0
 71
3
 72
12
 73
8
 74
0
 42
0.0000001
 43
0.0000001
 44
0.0000000001
 40
0.0
 40
0.0
 40
0.0
 40
0.0
 40
0.2002149132
 40
0.4005065529
 40
0.600356699
 40
0.8001388452
 40
1.0
 40
1.0
 40
1.0
 40
1.0
 10
59.2128914971
 20
234.9333270629
 30
0.0
 10
59.2124136004
 20
234.9563213367
 30
0.0
 10
59.2104456415
 20
235.002251055
 30
0.0
 10
59.1927808275
 20
235.069866491
 30
0.0
 10
59.1530842929
 20
235.1279399852
 30
0.0
 10
59.0926092081
 20
235.1651444563
 30
0.0
 10
59.0464024354
 20
235.1706972615
 30
0.0
 10
59.023438372
 20
235.1716083145
 30
0.0
  0
SPLINE
  5
35B
100
AcDbEntity
  8
0
100
AcDbSpline
 62
7
  6
BYLAYER
 70
0
 71
3
 72
12
 73
8
 74
0
 42
0.0000001
 43
0.0000001
 44
0.0000000001
 40
0.0
 40
0.0
 40
0.0
 40
0.0
 40
0.1999877155
 40
0.399809686
 40
0.5996129921
 40
0.7997723304
 40
1.0
 40
1.0
 40
1.0
 40
1.0
 10
59.023438372
 20
235.1716083145
 30
0.0
 10
59.0007425687
 20
235.1702548245
 30
0.0
 10
58.9546262503
 20
235.1655624274
 30
0.0
 10
58.8959443392
 20
235.1262882708
 30
0.0
 10
58.8578654247
 20
235.068390771
 30
0.0
 10
58.8401617436
 20
235.0016074632
 30
0.0
 10
58.8384734287
 20
234.9560789557
 30
0.0
 10
58.837891497
 20
234.933327064
 30
0.0
  0
SPLINE
  5
35C
100
AcDbEntity
  8
0
100
AcDbSpline
 62
7
  6
BYLAYER
 70
0
 71
3
 72
9
 73
5
 74
0
 42
0.0000001
 43
0.0000001
 44
0.0000000001
 40
0.0
 40
0.0
 40
0.0
 40
0.0
 40
0.5673038336
 40
1.0
 40
1.0
 40
1.0
 40
1.0
 10
62.037891497
 20
233.3884051897
 30
0.0
 10
62.0385960954
 20
233.3676065496
 30
0.0
 10
62.0402640682
 20
233.3308181806
 30
0.0
 10
62.0495120668
 20
233.2951757574
 30
0.0
 10
62.055364845
 20
233.2803426784
 30
0.0
  0
SPLINE
  5
35D
100
AcDbEntity
  8
0
100
AcDbSpline
 62
7
  6
BYLAYER
 70
0
 71
3
 72
10
 73
6
 74
0
 42
0.0000001
 43
0.0000001
 44
0.0000000001
 40
0.0
 40
0.0
 40
0.0
 40
0.0
 40
0.0736712428
 40
0.6894533453
 40
1.0
 40
1.0
 40
1.0
 40
1.0
 10
62.055364845
 20
233.2803426784
 30
0.0
 10
62.0571821294
 20
233.2757370158
 30
0.0
 10
62.0758594656
 20
233.2331665212
 30
0.0
 10
62.1272641435
 20
233.1800628329
 30
0.0
 10
62.1901672047
 20
233.1726692322
 30
0.0
 10
62.210938373
 20
233.1716083149
 30
0.0
  0
SPLINE
  5
35E
100
AcDbEntity
  8
0
100
AcDbSpline
 62
7
  6
BYLAYER
 70
0
 71
3
 72
12
 73
8
 74
0
 42
0.0000001
 43
0.0000001
 44
0.0000000001
 40
0.0
 40
0.0
 40
0.0
 40
0.0
 40
0.1999626027
 40
0.3997794762
 40
0.5996256246
 40
0.7997859499
 40
1.0
 40
1.0
 40
1.0
 40
1.0
 10
62.210938373
 20
233.1716083149
 30
0.0
 10
62.2319902364
 20
233.1727376764
 30
0.0
 10
62.2745143188
 20
233.1773096459
 30
0.0
 10
62.3301211642
 20
233.2111879721
 30
0.0
 10
62.3679088754
 20
233.2633898205
 30
0.0
 10
62.385405745
 20
233.325136379
 30
0.0
 10
62.3872559987
 20
233.3673178257
 30
0.0
 10
62.387891497
 20
233.3884051902
 30
0.0
  0
SPLINE
  5
35F
100
AcDbEntity
  8
0
100
AcDbSpline
 62
7
  6
BYLAYER
 70
0
 71
3
 72
11
 73
7
 74
0
 42
0.0000001
 43
0.0000001
 44
0.0000000001
 40
0.0
 40
0.0
 40
0.0
 40
0.0
 40
0.2000254503
 40
0.6000474287
 40
0.8000558376
 40
1.0
 40
1.0
 40
1.0
 40
1.0
 10
62.387891497
 20
233.8356708104
 30
0.0
 10
62.3879890887
 20
233.8556848159
 30
0.0
 10
62.3881997932
 20
233.915726266
 30
0.0
 10
62.3915946688
 20
233.9957580448
 30
0.0
 10
62.400324182
 20
234.0754063862
 30
0.0
 10
62.4091699604
 20
234.1145287971
 30
0.0
 10
62.414844622
 20
234.1337176906
 30
0.0
  0
SPLINE
  5
360
100
AcDbEntity
  8
0
100
AcDbSpline
 62
7
  6
BYLAYER
 70
0
 71
3
 72
12
 73
8
 74
0
 42
0.0000001
 43
0.0000001
 44
0.0000000001
 40
0.0
 40
0.0
 40
0.0
 40
0.0
 40
0.2000203472
 40
0.4000411739
 40
0.600026524
 40
0.8000129763
 40
1.0
 40
1.0
 40
1.0
 40
1.0
 10
62.414844622
 20
234.1337176906
 30
0.0
 10
62.424933057
 20
234.1576168181
 30
0.0
 10
62.4467139662
 20
234.2049451276
 30
0.0
 10
62.4974052341
 20
234.2652552943
 30
0.0
 10
62.5610947781
 20
234.3106641462
 30
0.0
 10
62.6336315216
 20
234.3414966255
 30
0.0
 10
62.685805182
 20
234.3455389983
 30
0.0
 10
62.711719622
 20
234.3466083156
 30
0.0
  0
SPLINE
  5
361
100
AcDbEntity
  8
0
100
AcDbSpline
 62
7
  6
BYLAYER
 70
0
 71
3
 72
14
 73
10
 74
0
 42
0.0000001
 43
0.0000001
 44
0.0000000001
 40
0.0
 40
0.0
 40
0.0
 40
0.0
 40
0.174247129
 40
0.328166805
 40
0.4234425395
 40
0.6084668834
 40
0.704135809
 40
0.7998047345
 40
1.0
 40
1.0
 40
1.0
 40
1.0
 10
62.711719622
 20
234.3466083156
 30
0.0
 10
62.7413199204
 20
234.3458436246
 30
0.0
 10
62.7973115967
 20
234.3419903488
 30
0.0
 10
62.8652691625
 20
234.3125580429
 30
0.0
 10
62.9162143136
 20
234.2575163334
 30
0.0
 10
62.9381081164
 20
234.1959333743
 30
0.0
 10
62.9520972185
 20
234.13369045
 30
0.0
 10
62.9609301738
 20
234.0676333744
 30
0.0
 10
62.9625589196
 20
234.0173393825
 30
0.0
 10
62.962891498
 20
233.9833270687
 30
0.0
  0
SPLINE
  5
362
100
AcDbEntity
  8
0
100
AcDbSpline
 62
7
  6
BYLAYER
 70
0
 71
3
 72
12
 73
8
 74
0
 42
0.0000001
 43
0.0000001
 44
0.0000000001
 40
0.0
 40
0.0
 40
0.0
 40
0.0
 40
0.2002214572
 40
0.4003404454
 40
0.6002776369
 40
0.8000886084
 40
1.0
 40
1.0
 40
1.0
 40
1.0
 10
62.9628914981
 20
233.3884051886
 30
0.0
 10
62.9636031414
 20
233.3674158426
 30
0.0
 10
62.9654483305
 20
233.3253772208
 30
0.0
 10
62.983660798
 20
233.2641559027
 30
0.0
 10
63.0210474803
 20
233.2122016045
 30
0.0
 10
63.075673365
 20
233.1772445141
 30
0.0
 10
63.1180957314
 20
233.1726259552
 30
0.0
 10
63.139063373
 20
233.1716083149
 30
0.0
  0
SPLINE
  5
363
100
AcDbEntity
  8
0
100
AcDbSpline
 62
7
  6
BYLAYER
 70
0
 71
3
 72
12
 73
8
 74
0
 42
0.0000001
 43
0.0000001
 44
0.0000000001
 40
0.0
 40
0.0
 40
0.0
 40
0.0
 40
0.1999439988
 40
0.3997425268
 40
0.5996111942
 40
0.799778393
 40
1.0
 40
1.0
 40
1.0
 40
1.0
 10
63.139063373
 20
233.1716083149
 30
0.0
 10
63.1599456964
 20
233.1727254101
 30
0.0
 10
63.2022475739
 20
233.1772574816
 30
0.0
 10
63.256590646
 20
233.2122331485
 30
0.0
 10
63.2936286022
 20
233.264235217
 30
0.0
 10
63.3103361234
 20
233.325674987
 30
0.0
 10
63.3122145128
 20
233.367489346
 30
0.0
 10
63.3128914978
 20
233.3884051833
 30
0.0
  0
SPLINE
  5
364
100
AcDbEntity
  8
0
100
AcDbSpline
 62
7
  6
BYLAYER
 70
0
 71
3
 72
10
 73
6
 74
0
 42
0.0000001
 43
0.0000001
 44
0.0000000001
 40
0.0
 40
0.0
 40
0.0
 40
0.0
 40
0.6112600566
 40
0.8056493847
 40
1.0
 40
1.0
 40
1.0
 40
1.0
 10
63.312891497
 20
234.0524676876
 30
0.0
 10
63.3122589187
 20
234.1242536492
 30
0.0
 10
63.3140188571
 20
234.2085111627
 30
0.0
 10
63.2862038195
 20
234.324776573
 30
0.0
 10
63.267845226
 20
234.3665186694
 30
0.0
 10
63.257422746
 20
234.3868426896
 30
0.0
  0
SPLINE
  5
365
100
AcDbEntity
  8
0
100
AcDbSpline
 62
7
  6
BYLAYER
 70
0
 71
3
 72
11
 73
7
 74
0
 42
0.0000001
 43
0.0000001
 44
0.0000000001
 40
0.0
 40
0.0
 40
0.0
 40
0.0
 40
0.1988401216
 40
0.3977363914
 40
0.5966780155
 40
1.0
 40
1.0
 40
1.0
 40
1.0
 10
63.257422746
 20
234.3868426896
 30
0.0
 10
63.2410965927
 20
234.4166777864
 30
0.0
 10
63.204964389
 20
234.4749360826
 30
0.0
 10
63.1268247052
 20
234.5421873539
 30
0.0
 10
63.0036428658
 20
234.6062434446
 30
0.0
 10
62.9032785487
 20
234.6193844855
 30
0.0
 10
62.834375872
 20
234.621608316
 30
0.0
  0
SPLINE
  5
366
100
AcDbEntity
  8
0
100
AcDbSpline
 62
7
  6
BYLAYER
 70
0
 71
3
 72
10
 73
6
 74
0
 42
0.0000001
 43
0.0000001
 44
0.0000000001
 40
0.0
 40
0.0
 40
0.0
 40
0.0
 40
0.1966800869
 40
0.6007474551
 40
1.0
 40
1.0
 40
1.0
 40
1.0
 10
62.834375872
 20
234.621608316
 30
0.0
 10
62.7978818137
 20
234.620708751
 30
0.0
 10
62.6853692097
 20
234.6144968822
 30
0.0
 10
62.5151573984
 20
234.5471328226
 30
0.0
 10
62.4126992387
 20
234.4392895615
 30
0.0
 10
62.366016497
 20
234.3817645652
 30
0.0
  0
SPLINE
  5
367
100
AcDbEntity
  8
0
100
AcDbSpline
 62
7
  6
BYLAYER
 70
0
 71
3
 72
12
 73
8
 74
0
 42
0.0000001
 43
0.0000001
 44
0.0000000001
 40
0.0
 40
0.0
 40
0.0
 40
0.0
 40
0.3992616581
 40
0.5993684838
 40
0.6996262166
 40
0.7998839495
 40
1.0
 40
1.0
 40
1.0
 40
1.0
 10
62.366016497
 20
234.4247333151
 30
0.0
 10
62.3647290287
 20
234.4631047431
 30
0.0
 10
62.3569362891
 20
234.522602083
 30
0.0
 10
62.3152749238
 20
234.5774125265
 30
0.0
 10
62.2843597355
 20
234.6007235859
 30
0.0
 10
62.2490472606
 20
234.616948684
 30
0.0
 10
62.2200053277
 20
234.6207098597
 30
0.0
 10
62.200782121
 20
234.621608316
 30
0.0
  0
SPLINE
  5
368
100
AcDbEntity
  8
0
100
AcDbSpline
 62
7
  6
BYLAYER
 70
0
 71
3
 72
11
 73
7
 74
0
 42
0.0000001
 43
0.0000001
 44
0.0000000001
 40
0.0
 40
0.0
 40
0.0
 40
0.0
 40
0.2005374436
 40
0.4008861604
 40
0.7991995087
 40
1.0
 40
1.0
 40
1.0
 40
1.0
 10
62.200782121
 20
234.621608316
 30
0.0
 10
62.1811412244
 20
234.6207429433
 30
0.0
 10
62.1415013244
 20
234.6170551287
 30
0.0
 10
62.0717900377
 20
234.5753714684
 30
0.0
 10
62.0403099974
 20
234.4972975513
 30
0.0
 10
62.0384569637
 20
234.438924576
 30
0.0
 10
62.037891497
 20
234.4192645651
 30
0.0
  0
SPLINE
  5
369
100
AcDbEntity
  8
0
100
AcDbSpline
 62
7
  6
BYLAYER
 70
0
 71
3
 72
10
 73
6
 74
0
 42
0.0000001
 43
0.0000001
 44
0.0000000001
 40
0.0
 40
0.0
 40
0.0
 40
0.0
 40
0.1980870199
 40
0.5959105092
 40
1.0
 40
1.0
 40
1.0
 40
1.0
 10
272.589453997
 20
233.5759051899
 30
0.0
 10
272.5750743787
 20
233.5552575476
 30
0.0
 10
272.5265114642
 20
233.4965056089
 30
0.0
 10
272.4096998166
 20
233.4361272229
 30
0.0
 10
272.3122204354
 20
233.4230470164
 30
0.0
 10
272.260938372
 20
233.4216083149
 30
0.0
  0
SPLINE
  5
36A
100
AcDbEntity
  8
0
100
AcDbSpline
 62
7
  6
BYLAYER
 70
0
 71
3
 72
12
 73
8
 74
0
 42
0.0000001
 43
0.0000001
 44
0.0000000001
 40
0.0
 40
0.0
 40
0.0
 40
0.0
 40
0.2001309853
 40
0.4002806835
 40
0.600299177
 40
0.8001483316
 40
1.0
 40
1.0
 40
1.0
 40
1.0
 10
272.260938372
 20
233.4216083149
 30
0.0
 10
272.2395811287
 20
233.4222527712
 30
0.0
 10
272.1968059011
 20
233.4246771738
 30
0.0
 10
272.1352457359
 20
233.4460936114
 30
0.0
 10
272.08391299
 20
233.4852381765
 30
0.0
 10
272.0446835464
 20
233.5381511243
 30
0.0
 10
272.039222523
 20
233.5815553152
 30
0.0
 10
272.037891498
 20
233.6028583152
 30
0.0
  0
SPLINE
  5
36B
100
AcDbEntity
  8
0
100
AcDbSpline
 62
7
  6
BYLAYER
 70
0
 71
3
 72
15
 73
11
 74
0
 42
0.0000001
 43
0.0000001
 44
0.0000000001
 40
0.0
 40
0.0
 40
0.0
 40
0.0
 40
0.0606860922
 40
0.1213486555
 40
0.2079373003
 40
0.3071486283
 40
0.4063599563
 40
0.6049116392
 40
0.7938035155
 40
1.0
 40
1.0
 40
1.0
 40
1.0
 10
272.037891498
 20
233.6028583152
 30
0.0
 10
272.0384672597
 20
233.617196406
 30
0.0
 10
272.0404066608
 20
233.6459241489
 30
0.0
 10
272.061059515
 20
233.6919657226
 30
0.0
 10
272.1058445649
 20
233.7306202573
 30
0.0
 10
272.1651064656
 20
233.7634649504
 30
0.0
 10
272.2569863793
 20
233.7845319946
 30
0.0
 10
272.368473751
 20
233.8074453392
 30
0.0
 10
272.5088203284
 20
233.8350593744
 30
0.0
 10
272.5916339804
 20
233.8565597083
 30
0.0
 10
272.637891497
 20
233.871608316
 30
0.0
  0
SPLINE
  5
36C
100
AcDbEntity
  8
0
100
AcDbSpline
 62
7
  6
BYLAYER
 70
0
 71
3
 72
12
 73
8
 74
0
 42
0.0000001
 43
0.0000001
 44
0.0000000001
 40
0.0
 40
0.0
 40
0.0
 40
0.0
 40
0.2000489972
 40
0.4001188155
 40
0.6001469058
 40
0.8001143413
 40
1.0
 40
1.0
 40
1.0
 40
1.0
 10
272.637891497
 20
233.8243426895
 30
0.0
 10
272.6377412504
 20
233.807266051
 30
0.0
 10
272.6371383028
 20
233.7731215516
 30
0.0
 10
272.6335305865
 20
233.7219675942
 30
0.0
 10
272.6258362186
 20
233.671295503
 30
0.0
 10
272.6130082441
 20
233.6215286786
 30
0.0
 10
272.5981415654
 20
233.5906034094
 30
0.0
 10
272.589453997
 20
233.5759051899
 30
0.0
  0
SPLINE
  5
36D
100
AcDbEntity
  8
0
100
AcDbSpline
 62
7
  6
BYLAYER
 70
0
 71
3
 72
19
 73
15
 74
0
 42
0.0000001
 43
0.0000001
 44
0.0000000001
 40
0.0
 40
0.0
 40
0.0
 40
0.0
 40
0.0109032859
 40
0.1098871184
 40
0.2088709508
 40
0.2831087201
 40
0.3573464894
 40
0.4302885267
 40
0.503230564
 40
0.6511932338
 40
0.7257268155
 40
0.8002603973
 40
0.9001301986
 40
1.0
 40
1.0
 40
1.0
 40
1.0
 10
272.990625871
 20
234.0719989387
 30
0.0
 10
272.9906047494
 20
234.0755163796
 30
0.0
 10
272.9904332456
 20
234.110966704
 30
0.0
 10
272.9875445346
 20
234.1783173347
 30
0.0
 10
272.9759456007
 20
234.2655783934
 30
0.0
 10
272.9554276932
 20
234.3428393
 30
0.0
 10
272.9286121061
 20
234.4093873474
 30
0.0
 10
272.8885330587
 20
234.4685807585
 30
0.0
 10
272.8185943343
 20
234.5341625159
 30
0.0
 10
272.7329154937
 20
234.5744398836
 30
0.0
 10
272.6399500549
 20
234.5993563137
 30
0.0
 10
272.5606064278
 20
234.6118731821
 30
0.0
 10
272.4724461222
 20
234.6202028896
 30
0.0
 10
272.4079995347
 20
234.621442076
 30
0.0
 10
272.375782123
 20
234.621608316
 30
0.0
  0
SPLINE
  5
36E
100
AcDbEntity
  8
0
100
AcDbSpline
 62
7
  6
BYLAYER
 70
0
 71
3
 72
12
 73
8
 74
0
 42
0.0000001
 43
0.0000001
 44
0.0000000001
 40
0.0
 40
0.0
 40
0.0
 40
0.0
 40
0.1564411274
 40
0.5672227017
 40
0.7449587144
 40
0.9017699324
 40
1.0
 40
1.0
 40
1.0
 40
1.0
 10
272.375782123
 20
234.621608316
 30
0.0
 10
272.332584208
 20
234.6208697532
 30
0.0
 10
272.1739752227
 20
234.6156853127
 30
0.0
 10
271.9874938671
 20
234.5679094492
 30
0.0
 10
271.8217646056
 20
234.4365615639
 30
0.0
 10
271.7608002593
 20
234.329794836
 30
0.0
 10
271.7518931827
 20
234.2592676304
 30
0.0
 10
271.750391496
 20
234.2321551899
 30
0.0
  0
SPLINE
  5
36F
100
AcDbEntity
  8
0
100
AcDbSpline
 62
7
  6
BYLAYER
 70
0
 71
3
 72
12
 73
8
 74
0
 42
0.0000001
 43
0.0000001
 44
0.0000000001
 40
0.0
 40
0.0
 40
0.0
 40
0.0
 40
0.1999611966
 40
0.3998621715
 40
0.5999687116
 40
0.7999958618
 40
1.0
 40
1.0
 40
1.0
 40
1.0
 10
271.750391496
 20
234.2321551899
 30
0.0
 10
271.7511384927
 20
234.2171940934
 30
0.0
 10
271.7540023038
 20
234.1869570559
 30
0.0
 10
271.7770655903
 20
234.1470776741
 30
0.0
 10
271.811002042
 20
234.1170246618
 30
0.0
 10
271.8521624046
 20
234.0971094377
 30
0.0
 10
271.8822993297
 20
234.0944830892
 30
0.0
 10
271.897266498
 20
234.0938739395
 30
0.0
  0
SPLINE
  5
370
100
AcDbEntity
  8
0
100
AcDbSpline
 62
7
  6
BYLAYER
 70
0
 71
3
 72
19
 73
15
 74
0
 42
0.0000001
 43
0.0000001
 44
0.0000000001
 40
0.0
 40
0.0
 40
0.0
 40
0.0
 40
0.0665141493
 40
0.115471182
 40
0.1318173739
 40
0.1520095164
 40
0.1722016589
 40
0.2719125938
 40
0.3989116141
 40
0.4986046505
 40
0.5982976869
 40
0.6979622815
 40
0.7976268761
 40
1.0
 40
1.0
 40
1.0
 40
1.0
 10
271.897266498
 20
234.0938739395
 30
0.0
 10
271.910386623
 20
234.0941173748
 30
0.0
 10
271.9330282163
 20
234.0951897788
 30
0.0
 10
271.9587848103
 20
234.1010745
 30
0.0
 10
271.973809199
 20
234.1087655634
 30
0.0
 10
271.9822757511
 20
234.1162620383
 30
0.0
 10
272.000068345
 20
234.1374139758
 30
0.0
 10
272.026801316
 20
234.1781474696
 30
0.0
 10
272.0605428823
 20
234.2329013214
 30
0.0
 10
272.1010628839
 20
234.2831106318
 30
0.0
 10
272.1462568167
 20
234.3215786935
 30
0.0
 10
272.1986997661
 20
234.3492416357
 30
0.0
 10
272.2763886818
 20
234.3689173602
 30
0.0
 10
272.333963393
 20
234.3708648027
 30
0.0
 10
272.373828998
 20
234.371608316
 30
0.0
  0
SPLINE
  5
371
100
AcDbEntity
  8
0
100
AcDbSpline
 62
7
  6
BYLAYER
 70
0
 71
3
 72
14
 73
10
 74
0
 42
0.0000001
 43
0.0000001
 44
0.0000000001
 40
0.0
 40
0.0
 40
0.0
 40
0.0
 40
0.0875070721
 40
0.2857272808
 40
0.3506683189
 40
0.4156093569
 40
0.4957425196
 40
0.5949566535
 40
1.0
 40
1.0
 40
1.0
 40
1.0
 10
272.373828998
 20
234.371608316
 30
0.0
 10
272.386883093
 20
234.3713703807
 30
0.0
 10
272.4294834676
 20
234.3704992917
 30
0.0
 10
272.48166326
 20
234.3629240468
 30
0.0
 10
272.5281050574
 20
234.3469827065
 30
0.0
 10
272.5555899977
 20
234.3315256208
 30
0.0
 10
272.5828371768
 20
234.3067839196
 30
0.0
 10
272.6263797536
 20
234.229345815
 30
0.0
 10
272.634110802
 20
234.1569462836
 30
0.0
 10
272.637891497
 20
234.0966083156
 30
0.0
  0
SPLINE
  5
372
100
AcDbEntity
  8
0
100
AcDbSpline
 62
7
  6
BYLAYER
 70
0
 71
3
 72
12
 73
8
 74
0
 42
0.0000001
 43
0.0000001
 44
0.0000000001
 40
0.0
 40
0.0
 40
0.0
 40
0.0
 40
0.4152404453
 40
0.8050789736
 40
0.9025390736
 40
0.9512695368
 40
1.0
 40
1.0
 40
1.0
 40
1.0
 10
272.637891497
 20
234.0966083156
 30
0.0
 10
272.5523616387
 20
234.0712792544
 30
0.0
 10
272.4088133299
 20
234.0306265159
 30
0.0
 10
272.2113525091
 20
233.9887940267
 30
0.0
 10
272.0992899146
 20
233.9644521287
 30
0.0
 10
272.0583107598
 20
233.9557066491
 30
0.0
 10
272.0379401944
 20
233.9508931557
 30
0.0
 10
272.027735246
 20
233.9485614402
 30
0.0
  0
SPLINE
  5
373
100
AcDbEntity
  8
0
100
AcDbSpline
 62
7
  6
BYLAYER
 70
0
 71
3
 72
15
 73
11
 74
0
 42
0.0000001
 43
0.0000001
 44
0.0000000001
 40
0.0
 40
0.0
 40
0.0
 40
0.0
 40
0.2026746468
 40
0.4018647893
 40
0.5015666232
 40
0.601268457
 40
0.7009335941
 40
0.8005987313
 40
0.9002993656
 40
1.0
 40
1.0
 40
1.0
 40
1.0
 10
272.027735246
 20
233.9485614402
 30
0.0
 10
271.9910792427
 20
233.9398147272
 30
0.0
 10
271.9217108679
 20
233.9193860714
 30
0.0
 10
271.8393913536
 20
233.8714159647
 30
0.0
 10
271.7846344244
 20
233.8213011001
 30
0.0
 10
271.7494656136
 20
233.777954525
 30
0.0
 10
271.7212900584
 20
233.7297769279
 30
0.0
 10
271.701736004
 20
233.6775460538
 30
0.0
 10
271.6896370123
 20
233.6230117411
 30
0.0
 10
271.6884872594
 20
233.5858375558
 30
0.0
 10
271.687891496
 20
233.5673114406
 30
0.0
  0
SPLINE
  5
374
100
AcDbEntity
  8
0
100
AcDbSpline
 62
7
  6
BYLAYER
 70
0
 71
3
 72
11
 73
7
 74
0
 42
0.0000001
 43
0.0000001
 44
0.0000000001
 40
0.0
 40
0.0
 40
0.0
 40
0.0
 40
0.3103959171
 40
0.6207918341
 40
0.931135327
 40
1.0
 40
1.0
 40
1.0
 40
1.0
 10
271.687891496
 20
233.5673114406
 30
0.0
 10
271.6887222394
 20
233.5448513236
 30
0.0
 10
271.691244882
 20
233.4998738066
 30
0.0
 10
271.7095900354
 20
233.4344785271
 30
0.0
 10
271.7314514631
 20
233.3894378408
 30
0.0
 10
271.7458966841
 20
233.3660847184
 30
0.0
 10
271.7485998136
 20
233.36189482
 30
0.0
  0
SPLINE
  5
375
100
AcDbEntity
  8
0
100
AcDbSpline
 62
7
  6
BYLAYER
 70
0
 71
3
 72
10
 73
6
 74
0
 42
0.0000001
 43
0.0000001
 44
0.0000000001
 40
0.0
 40
0.0
 40
0.0
 40
0.0
 40
0.1150656351
 40
0.4102991681
 40
1.0
 40
1.0
 40
1.0
 40
1.0
 10
271.7485998136
 20
233.36189482
 30
0.0
 10
271.7580785275
 20
233.3472026465
 30
0.0
 10
271.7953790108
 20
233.2970521525
 30
0.0
 10
271.9166198504
 20
233.2001726687
 30
0.0
 10
272.053455211
 20
233.1744679561
 30
0.0
 10
272.142969621
 20
233.1716083149
 30
0.0
  0
SPLINE
  5
376
100
AcDbEntity
  8
0
100
AcDbSpline
 62
7
  6
BYLAYER
 70
0
 71
3
 72
10
 73
6
 74
0
 42
0.0000001
 43
0.0000001
 44
0.0000000001
 40
0.0
 40
0.0
 40
0.0
 40
0.0
 40
0.2009433529
 40
0.5927023521
 40
1.0
 40
1.0
 40
1.0
 40
1.0
 10
272.142969621
 20
233.1716083149
 30
0.0
 10
272.1812575777
 20
233.1727499944
 30
0.0
 10
272.2935241619
 20
233.1768170698
 30
0.0
 10
272.4851134955
 20
233.2497690594
 30
0.0
 10
272.6012259037
 20
233.338193129
 30
0.0
 10
272.661719622
 20
233.3868426895
 30
0.0
  0
SPLINE
  5
377
100
AcDbEntity
  8
0
100
AcDbSpline
 62
7
  6
BYLAYER
 70
0
 71
3
 72
12
 73
8
 74
0
 42
0.0000001
 43
0.0000001
 44
0.0000000001
 40
0.0
 40
0.0
 40
0.0
 40
0.0
 40
0.2020198555
 40
0.5962130999
 40
0.797999787
 40
0.8989998935
 40
1.0
 40
1.0
 40
1.0
 40
1.0
 10
272.661719622
 20
233.3868426895
 30
0.0
 10
272.6725963937
 20
233.3682656578
 30
0.0
 10
272.7048230581
 20
233.3143434865
 30
0.0
 10
272.7575078315
 20
233.2415255726
 30
0.0
 10
272.8133256206
 20
233.1924902976
 30
0.0
 10
272.8531919193
 20
233.1743983505
 30
0.0
 10
272.8747965814
 20
233.1724506706
 30
0.0
 10
272.885547748
 20
233.1716083149
 30
0.0
  0
SPLINE
  5
378
100
AcDbEntity
  8
0
100
AcDbSpline
 62
7
  6
BYLAYER
 70
0
 71
3
 72
11
 73
7
 74
0
 42
0.0000001
 43
0.0000001
 44
0.0000000001
 40
0.0
 40
0.0
 40
0.0
 40
0.0
 40
0.2003878164
 40
0.400900311
 40
0.7999451581
 40
1.0
 40
1.0
 40
1.0
 40
1.0
 10
272.885547748
 20
233.1716083149
 30
0.0
 10
272.9018331797
 20
233.1723147319
 30
0.0
 10
272.9347257019
 20
233.1753760891
 30
0.0
 10
272.9935709342
 20
233.2038216125
 30
0.0
 10
273.044879081
 20
233.2508452709
 30
0.0
 10
273.0540032544
 20
233.2998892579
 30
0.0
 10
273.055078996
 20
233.3161395649
 30
0.0
  0
SPLINE
  5
379
100
AcDbEntity
  8
0
100
AcDbSpline
 62
7
  6
BYLAYER
 70
0
 71
3
 72
11
 73
7
 74
0
 42
0.0000001
 43
0.0000001
 44
0.0000000001
 40
0.0
 40
0.0
 40
0.0
 40
0.0
 40
0.3075420774
 40
0.6152851822
 40
0.9230555782
 40
1.0
 40
1.0
 40
1.0
 40
1.0
 10
273.055078996
 20
233.3161395649
 30
0.0
 10
273.0533914127
 20
233.3398514501
 30
0.0
 10
273.0422164791
 20
233.3863723268
 30
0.0
 10
273.0218099121
 20
233.4543123131
 30
0.0
 10
273.0069793415
 20
233.506408841
 30
0.0
 10
273.0010806576
 20
233.5348463623
 30
0.0
 10
272.9999887446
 20
233.5405221133
 30
0.0
  0
SPLINE
  5
37A
100
AcDbEntity
  8
0
100
AcDbSpline
 62
7
  6
BYLAYER
 70
0
 71
3
 72
8
 73
4
 74
0
 42
0.0000001
 43
0.0000001
 44
0.0000000001
 40
0.0
 40
0.0
 40
0.0
 40
0.0
 40
1.0
 40
1.0
 40
1.0
 40
1.0
 10
272.9999887446
 20
233.5405221133
 30
0.0
 10
272.9920924607
 20
233.5815669053
 30
0.0
 10
272.9887901891
 20
233.6219914121
 30
0.0
 10
272.987891497
 20
233.6649676918
 30
0.0
  0
SPLINE
  5
37B
100
AcDbEntity
  8
0
100
AcDbSpline
 62
7
  6
BYLAYER
 70
0
 71
3
 72
11
 73
7
 74
0
 42
0.0000001
 43
0.0000001
 44
0.0000000001
 40
0.0
 40
0.0
 40
0.0
 40
0.0
 40
0.2004390667
 40
0.400770186
 40
0.7992207455
 40
1.0
 40
1.0
 40
1.0
 40
1.0
 10
276.7761727465
 20
234.4548114395
 30
0.0
 10
276.7624275383
 20
234.4322433105
 30
0.0
 10
276.731618052
 20
234.388107414
 30
0.0
 10
276.6378789727
 20
234.3352466653
 30
0.0
 10
276.5298482135
 20
234.323485655
 30
0.0
 10
276.4514388937
 20
234.3218140986
 30
0.0
 10
276.425000872
 20
234.3216083158
 30
0.0
  0
SPLINE
  5
37C
100
AcDbEntity
  8
0
100
AcDbSpline
 62
7
  6
BYLAYER
 70
0
 71
3
 72
16
 73
12
 74
0
 42
0.0000001
 43
0.0000001
 44
0.0000000001
 40
0.0
 40
0.0
 40
0.0
 40
0.0
 40
0.104327012
 40
0.3042951781
 40
0.404289193
 40
0.5042832078
 40
0.6282669515
 40
0.7986592181
 40
0.8985960856
 40
0.9985329532
 40
1.0
 40
1.0
 40
1.0
 40
1.0
 10
276.383985247
 20
234.8216083158
 30
0.0
 10
276.4035181654
 20
234.8214734685
 30
0.0
 10
276.4604858193
 20
234.8208014121
 30
0.0
 10
276.5360685078
 20
234.815427868
 30
0.0
 10
276.6101649051
 20
234.8038161291
 30
0.0
 10
276.6688920122
 20
234.7889603346
 30
0.0
 10
276.7388557449
 20
234.76214998
 30
0.0
 10
276.7890124009
 20
234.7027418247
 30
0.0
 10
276.807709307
 20
234.6352047969
 30
0.0
 10
276.809813733
 20
234.5974727987
 30
0.0
 10
276.8101675051
 20
234.5784806546
 30
0.0
 10
276.8101724796
 20
234.5782058916
 30
0.0
  0
SPLINE
  5
37D
100
AcDbEntity
  8
0
100
AcDbSpline
 62
7
  6
BYLAYER
 70
0
 71
3
 72
14
 73
10
 74
0
 42
0.0000001
 43
0.0000001
 44
0.0000000001
 40
0.0
 40
0.0
 40
0.0
 40
0.0
 40
0.3595272926
 40
0.4581332298
 40
0.556739167
 40
0.7087149092
 40
0.8028754771
 40
0.9014377386
 40
1.0
 40
1.0
 40
1.0
 40
1.0
 10
276.474219621
 20
234.0466083154
 30
0.0
 10
276.5426259444
 20
234.0454209874
 30
0.0
 10
276.6210639089
 20
234.0417992631
 30
0.0
 10
276.7244422155
 20
234.012818581
 30
0.0
 10
276.7851551657
 20
233.9855800533
 30
0.0
 10
276.8371432529
 20
233.9431516007
 30
0.0
 10
276.8707651226
 20
233.8858766861
 30
0.0
 10
276.8850957679
 20
233.8317866487
 30
0.0
 10
276.8875163737
 20
233.7942797126
 30
0.0
 10
276.887891497
 20
233.7755145651
 30
0.0
  0
SPLINE
  5
37E
100
AcDbEntity
  8
0
100
AcDbSpline
 62
7
  6
BYLAYER
 70
0
 71
3
 72
15
 73
11
 74
0
 42
0.0000001
 43
0.0000001
 44
0.0000000001
 40
0.0
 40
0.0
 40
0.0
 40
0.0
 40
0.1374269732
 40
0.2179066964
 40
0.2983864196
 40
0.3978529421
 40
0.4973243888
 40
0.5967958354
 40
0.7957421519
 40
1.0
 40
1.0
 40
1.0
 40
1.0
 10
276.887891497
 20
233.7755145651
 30
0.0
 10
276.887252792
 20
233.7499860834
 30
0.0
 10
276.8841344565
 20
233.7092392986
 30
0.0
 10
276.8658139885
 20
233.6565802126
 30
0.0
 10
276.8415553526
 20
233.6143961558
 30
0.0
 10
276.8051692296
 20
233.5765764891
 30
0.0
 10
276.7581119806
 20
233.5466079752
 30
0.0
 10
276.6898973612
 20
233.5180715352
 30
0.0
 10
276.5961030385
 20
233.4995116651
 30
0.0
 10
276.5254368954
 20
233.4971877272
 30
0.0
 10
276.487500872
 20
233.4966083147
 30
0.0
  0
SPLINE
  5
37F
100
AcDbEntity
  8
0
100
AcDbSpline
 62
7
  6
BYLAYER
 70
0
 71
3
 72
11
 73
7
 74
0
 42
0.0000001
 43
0.0000001
 44
0.0000000001
 40
0.0
 40
0.0
 40
0.0
 40
0.0
 40
0.1972543944
 40
0.3944740346
 40
0.7990676338
 40
1.0
 40
1.0
 40
1.0
 40
1.0
 10
276.903907121
 20
234.2079364393
 30
0.0
 10
276.9367426477
 20
234.2241472103
 30
0.0
 10
277.001842236
 20
234.257806027
 30
0.0
 10
277.1169184718
 20
234.354929747
 30
0.0
 10
277.1869818272
 20
234.4860806262
 30
0.0
 10
277.1947274384
 20
234.5968130692
 30
0.0
 10
277.196108853
 20
234.6341006643
 30
0.0
  0
SPLINE
  5
380
100
AcDbEntity
  8
0
100
AcDbSpline
 62
7
  6
BYLAYER
 70
0
 71
3
 72
10
 73
6
 74
0
 42
0.0000001
 43
0.0000001
 44
0.0000000001
 40
0.0
 40
0.0
 40
0.0
 40
0.0
 40
0.2000678174
 40
0.4001533447
 40
1.0
 40
1.0
 40
1.0
 40
1.0
 10
276.9648446221
 20
235.036842691
 30
0.0
 10
276.9397945607
 20
235.0512127469
 30
0.0
 10
276.8884480031
 20
235.0781421935
 30
0.0
 10
276.7488089357
 20
235.1175641508
 30
0.0
 10
276.6322539287
 20
235.1206470015
 30
0.0
 10
276.545703997
 20
235.1216083147
 30
0.0
  0
SPLINE
  5
381
100
AcDbEntity
  8
0
100
AcDbSpline
 62
7
  6
BYLAYER
 70
0
 71
3
 72
11
 73
7
 74
0
 42
0.0000001
 43
0.0000001
 44
0.0000000001
 40
0.0
 40
0.0
 40
0.0
 40
0.0
 40
0.1374598296
 40
0.3362136801
 40
0.594572051
 40
1.0
 40
1.0
 40
1.0
 40
1.0
 10
275.923828998
 20
235.1216083147
 30
0.0
 10
275.9058886364
 20
235.1210808799
 30
0.0
 10
275.8621183574
 20
235.1194997374
 30
0.0
 10
275.7848540139
 20
235.1038613931
 30
0.0
 10
275.6938411701
 20
235.0241163053
 30
0.0
 10
275.689324657
 20
234.9354675842
 30
0.0
 10
275.687891497
 20
234.8825458154
 30
0.0
  0
SPLINE
  5
382
100
AcDbEntity
  8
0
100
AcDbSpline
 62
7
  6
BYLAYER
 70
0
 71
3
 72
13
 73
9
 74
0
 42
0.0000001
 43
0.0000001
 44
0.0000000001
 40
0.0
 40
0.0
 40
0.0
 40
0.0
 40
0.1386474793
 40
0.4987040817
 40
0.598946172
 40
0.6992338046
 40
0.7995214371
 40
1.0
 40
1.0
 40
1.0
 40
1.0
 10
275.687891497
 20
233.4356708151
 30
0.0
 10
275.6884596687
 20
233.4177176444
 30
0.0
 10
275.6903548011
 20
233.3537401628
 30
0.0
 10
275.714360969
 20
233.2730443333
 30
0.0
 10
275.7723827213
 20
233.2276548176
 30
0.0
 10
275.8081655506
 20
233.2116146247
 30
0.0
 10
275.8588582212
 20
233.1995679014
 30
0.0
 10
275.8978694726
 20
233.1968869269
 30
0.0
 10
275.9238290023
 20
233.1966083158
 30
0.0
  0
SPLINE
  5
383
100
AcDbEntity
  8
0
100
AcDbSpline
 62
7
  6
BYLAYER
 70
0
 71
3
 72
11
 73
7
 74
0
 42
0.0000001
 43
0.0000001
 44
0.0000000001
 40
0.0
 40
0.0
 40
0.0
 40
0.0
 40
0.2020360716
 40
0.4040826281
 40
0.6061119563
 40
1.0
 40
1.0
 40
1.0
 40
1.0
 10
276.5105477219
 20
233.1966083157
 30
0.0
 10
276.5422651953
 20
233.1966869453
 30
0.0
 10
276.6056457659
 20
233.1973374235
 30
0.0
 10
276.7009176891
 20
233.2030165636
 30
0.0
 10
276.8243154593
 20
233.2163045857
 30
0.0
 10
276.9207386929
 20
233.2423065886
 30
0.0
 10
276.9781258713
 20
233.2653583155
 30
0.0
  0
SPLINE
  5
384
100
AcDbEntity
  8
0
100
AcDbSpline
 62
7
  6
BYLAYER
 70
0
 71
3
 72
15
 73
11
 74
0
 42
0.0000001
 43
0.0000001
 44
0.0000000001
 40
0.0
 40
0.0
 40
0.0
 40
0.0
 40
0.0059842591
 40
0.1044653054
 40
0.2029463517
 40
0.301394588
 40
0.3998428242
 40
0.5964929316
 40
0.7958103638
 40
1.0
 40
1.0
 40
1.0
 40
1.0
 10
277.2879870106
 20
233.738342279
 30
0.0
 10
277.287955315
 20
233.7396651297
 30
0.0
 10
277.2874016678
 20
233.7627615459
 30
0.0
 10
277.2860969935
 20
233.8077318662
 30
0.0
 10
277.2737522901
 20
233.8721385508
 30
0.0
 10
277.2532740306
 20
233.9343552461
 30
0.0
 10
277.2126449714
 20
234.0117745893
 30
0.0
 10
277.1382310972
 20
234.0942168406
 30
0.0
 10
277.0248152862
 20
234.1648898968
 30
0.0
 10
276.946779341
 20
234.1937206161
 30
0.0
 10
276.903907121
 20
234.2079364393
 30
0.0
  0
SPLINE
  5
385
100
AcDbEntity
  8
0
100
AcDbSpline
 62
7
  6
BYLAYER
 70
0
 71
3
 72
11
 73
7
 74
0
 42
0.0000001
 43
0.0000001
 44
0.0000000001
 40
0.0
 40
0.0
 40
0.0
 40
0.0
 40
0.1373607394
 40
0.2978488108
 40
0.5937579915
 40
1.0
 40
1.0
 40
1.0
 40
1.0
 10
157.8378914968
 20
234.5352801899
 30
0.0
 10
157.8369837532
 20
234.5086790481
 30
0.0
 10
157.8333965787
 20
234.4509112285
 30
0.0
 10
157.7878951301
 20
234.3411858898
 30
0.0
 10
157.6318085289
 20
234.2515510596
 30
0.0
 10
157.5013079114
 20
234.2481315705
 30
0.0
 10
157.4226571229
 20
234.2466083145
 30
0.0
  0
SPLINE
  5
386
100
AcDbEntity
  8
0
100
AcDbSpline
 62
7
  6
BYLAYER
 70
0
 71
3
 72
11
 73
7
 74
0
 42
0.0000001
 43
0.0000001
 44
0.0000000001
 40
0.0
 40
0.0
 40
0.0
 40
0.0
 40
0.1955929946
 40
0.8044076593
 40
0.9022038296
 40
1.0
 40
1.0
 40
1.0
 40
1.0
 10
157.422657118
 20
234.8216083156
 30
0.0
 10
157.4466005308
 20
234.8214097623
 30
0.0
 10
157.5460185323
 20
234.8195618244
 30
0.0
 10
157.6483114905
 20
234.8073388313
 30
0.0
 10
157.7370736262
 20
234.7618370741
 30
0.0
 10
157.7551206379
 20
234.7459932168
 30
0.0
 10
157.7640633714
 20
234.7380145653
 30
0.0
  0
SPLINE
  5
387
100
AcDbEntity
  8
0
100
AcDbSpline
 62
7
  6
BYLAYER
 70
0
 71
3
 72
10
 73
6
 74
0
 42
0.0000001
 43
0.0000001
 44
0.0000000001
 40
0.0
 40
0.0
 40
0.0
 40
0.0
 40
0.2002844503
 40
0.6000058457
 40
1.0
 40
1.0
 40
1.0
 40
1.0
 10
157.7640633714
 20
234.7380145653
 30
0.0
 10
157.7736381258
 20
234.726767494
 30
0.0
 10
157.8024670454
 20
234.6931597238
 30
0.0
 10
157.8321899434
 20
234.6237280277
 30
0.0
 10
157.8366460523
 20
234.5647295144
 30
0.0
 10
157.8378914968
 20
234.5352801899
 30
0.0
  0
SPLINE
  5
388
100
AcDbEntity
  8
0
100
AcDbSpline
 62
7
  6
BYLAYER
 70
0
 71
3
 72
12
 73
8
 74
0
 42
0.0000001
 43
0.0000001
 44
0.0000000001
 40
0.0
 40
0.0
 40
0.0
 40
0.0
 40
0.1386068896
 40
0.3389898316
 40
0.5994218208
 40
0.7995633694
 40
1.0
 40
1.0
 40
1.0
 40
1.0
 10
157.0296883725
 20
235.1216083145
 30
0.0
 10
157.0115596091
 20
235.1210547732
 30
0.0
 10
156.967267032
 20
235.1195808937
 30
0.0
 10
156.889458939
 20
235.103907676
 30
0.0
 10
156.8170075075
 20
235.0473663194
 30
0.0
 10
156.7914833601
 20
234.9621057944
 30
0.0
 10
156.7881687006
 20
234.9099334355
 30
0.0
 10
156.7878914979
 20
234.883717691
 30
0.0
  0
SPLINE
  5
389
100
AcDbEntity
  8
0
100
AcDbSpline
 62
7
  6
BYLAYER
 70
0
 71
3
 72
11
 73
7
 74
0
 42
0.0000001
 43
0.0000001
 44
0.0000000001
 40
0.0
 40
0.0
 40
0.0
 40
0.0
 40
0.2009818949
 40
0.4018485541
 40
0.7992554827
 40
1.0
 40
1.0
 40
1.0
 40
1.0
 10
156.7878914979
 20
233.4055926906
 30
0.0
 10
156.7885247195
 20
233.3829814371
 30
0.0
 10
156.7902862828
 20
233.3376114683
 30
0.0
 10
156.8150906884
 20
233.2504156615
 30
0.0
 10
156.8850753994
 20
233.1794905214
 30
0.0
 10
156.9536039586
 20
233.1728928225
 30
0.0
 10
156.9761727472
 20
233.1716083153
 30
0.0
  0
SPLINE
  5
38A
100
AcDbEntity
  8
0
100
AcDbSpline
 62
7
  6
BYLAYER
 70
0
 71
3
 72
11
 73
7
 74
0
 42
0.0000001
 43
0.0000001
 44
0.0000000001
 40
0.0
 40
0.0
 40
0.0
 40
0.0
 40
0.2006107871
 40
0.5982131609
 40
0.7990492769
 40
1.0
 40
1.0
 40
1.0
 40
1.0
 10
156.9761727472
 20
233.1716083153
 30
0.0
 10
156.9986817559
 20
233.1729042716
 30
0.0
 10
157.0667753553
 20
233.1811622056
 30
0.0
 10
157.1359793991
 20
233.2522200473
 30
0.0
 10
157.160093234
 20
233.339394095
 30
0.0
 10
157.1620848269
 20
233.3846080752
 30
0.0
 10
157.1628914979
 20
233.407155191
 30
0.0
  0
SPLINE
  5
38B
100
AcDbEntity
  8
0
100
AcDbSpline
 62
7
  6
BYLAYER
 70
0
 71
3
 72
14
 73
10
 74
0
 42
0.0000001
 43
0.0000001
 44
0.0000000001
 40
0.0
 40
0.0
 40
0.0
 40
0.0
 40
0.1186405405
 40
0.3053835109
 40
0.4718213692
 40
0.6343407009
 40
0.7982388954
 40
0.8991194477
 40
1.0
 40
1.0
 40
1.0
 40
1.0
 10
157.5160164964
 20
233.9466083156
 30
0.0
 10
157.5579408112
 20
233.9472325298
 30
0.0
 10
157.6632342397
 20
233.9491622821
 30
0.0
 10
157.8457068026
 20
233.9809944486
 30
0.0
 10
158.0105005338
 20
234.0521837372
 30
0.0
 10
158.1430511972
 20
234.1739490477
 30
0.0
 10
158.2077043167
 20
234.3088636206
 30
0.0
 10
158.2343524149
 20
234.4365589465
 30
0.0
 10
158.2372116108
 20
234.5078278472
 30
0.0
 10
158.2378914972
 20
234.5434833145
 30
0.0
  0
SPLINE
  5
38C
100
AcDbEntity
  8
0
100
AcDbSpline
 62
7
  6
BYLAYER
 70
0
 71
3
 72
13
 73
9
 74
0
 42
0.0000001
 43
0.0000001
 44
0.0000000001
 40
0.0
 40
0.0
 40
0.0
 40
0.0
 40
0.0992395619
 40
0.1984791238
 40
0.6033585401
 40
0.8015279925
 40
0.9007639963
 40
1.0
 40
1.0
 40
1.0
 40
1.0
 10
158.2378914972
 20
234.5434833145
 30
0.0
 10
158.2373954566
 20
234.567465136
 30
0.0
 10
158.2362967617
 20
234.6154182593
 30
0.0
 10
158.214260564
 20
234.7603328869
 30
0.0
 10
158.1443378384
 20
234.9138116438
 30
0.0
 10
158.0084032756
 20
235.0216227801
 30
0.0
 10
157.9227140442
 20
235.0650277194
 30
0.0
 10
157.8768573516
 20
235.0794628273
 30
0.0
 10
157.8539071214
 20
235.0864520645
 30
0.0
  0
SPLINE
  5
38D
100
AcDbEntity
  8
0
100
AcDbSpline
 62
7
  6
BYLAYER
 70
0
 71
3
 72
12
 73
8
 74
0
 42
0.0000001
 43
0.0000001
 44
0.0000000001
 40
0.0
 40
0.0
 40
0.0
 40
0.0
 40
0.1999752874
 40
0.3999609778
 40
0.599971791
 40
0.7999915629
 40
1.0
 40
1.0
 40
1.0
 40
1.0
 10
157.8539071214
 20
235.0864520645
 30
0.0
 10
157.8322527639
 20
235.09250252
 30
0.0
 10
157.788449584
 20
235.1028632784
 30
0.0
 10
157.7216007011
 20
235.1122421419
 30
0.0
 10
157.6543741728
 20
235.1178577247
 30
0.0
 10
157.5869869656
 20
235.1212661633
 30
0.0
 10
157.5420169147
 20
235.1216196239
 30
0.0
 10
157.5195321138
 20
235.1216083145
 30
0.0
  0
SPLINE
  5
38E
100
AcDbEntity
  8
0
100
AcDbSpline
 62
7
  6
BYLAYER
 70
0
 71
3
 72
11
 73
7
 74
0
 42
0.0000001
 43
0.0000001
 44
0.0000000001
 40
0.0
 40
0.0
 40
0.0
 40
0.0
 40
0.2000354731
 40
0.6000775844
 40
0.8001085589
 40
1.0
 40
1.0
 40
1.0
 40
1.0
 10
159.3191414806
 20
234.8216083155
 30
0.0
 10
159.3371129111
 20
234.8215904356
 30
0.0
 10
159.3910147959
 20
234.8211154427
 30
0.0
 10
159.4628833125
 20
234.8179111116
 30
0.0
 10
159.5342577027
 20
234.8086192786
 30
0.0
 10
159.5690681579
 20
234.7992588447
 30
0.0
 10
159.5859383713
 20
234.7930926899
 30
0.0
  0
SPLINE
  5
38F
100
AcDbEntity
  8
0
100
AcDbSpline
 62
7
  6
BYLAYER
 70
0
 71
3
 72
13
 73
9
 74
0
 42
0.0000001
 43
0.0000001
 44
0.0000000001
 40
0.0
 40
0.0
 40
0.0
 40
0.0
 40
0.0057320769
 40
0.1137741439
 40
0.2352563273
 40
0.3104277522
 40
0.5841446751
 40
1.0
 40
1.0
 40
1.0
 40
1.0
 10
159.7380017371
 20
234.5656452741
 30
0.0
 10
159.7379657115
 20
234.5645081265
 30
0.0
 10
159.7372388637
 20
234.5419334034
 30
0.0
 10
159.7349410643
 20
234.4951498785
 30
0.0
 10
159.7145658554
 20
234.4369039699
 30
0.0
 10
159.6578762246
 20
234.361624708
 30
0.0
 10
159.5051220344
 20
234.2990938925
 30
0.0
 10
159.3910846782
 20
234.2978239634
 30
0.0
 10
159.3085946215
 20
234.2966083151
 30
0.0
  0
SPLINE
  5
390
100
AcDbEntity
  8
0
100
AcDbSpline
 62
7
  6
BYLAYER
 70
0
 71
3
 72
12
 73
8
 74
0
 42
0.0000001
 43
0.0000001
 44
0.0000000001
 40
0.0
 40
0.0
 40
0.0
 40
0.0
 40
0.2000575478
 40
0.4000220605
 40
0.5999837926
 40
0.8001426647
 40
1.0
 40
1.0
 40
1.0
 40
1.0
 10
159.9835946222
 20
233.1716083151
 30
0.0
 10
160.001613028
 20
233.1718612084
 30
0.0
 10
160.0376923419
 20
233.1750806569
 30
0.0
 10
160.0889771306
 20
233.1941835296
 30
0.0
 10
160.1323141947
 20
233.2272761785
 30
0.0
 10
160.1643919692
 20
233.2726464219
 30
0.0
 10
160.1704104861
 20
233.3087308492
 30
0.0
 10
160.1722664979
 20
233.3266864394
 30
0.0
  0
SPLINE
  5
391
100
AcDbEntity
  8
0
100
AcDbSpline
 62
7
  6
BYLAYER
 70
0
 71
3
 72
10
 73
6
 74
0
 42
0.0000001
 43
0.0000001
 44
0.0000000001
 40
0.0
 40
0.0
 40
0.0
 40
0.0
 40
0.1681062982
 40
0.3362125965
 40
1.0
 40
1.0
 40
1.0
 40
1.0
 10
160.1722664979
 20
233.3266864394
 30
0.0
 10
160.1707446973
 20
233.3421480117
 30
0.0
 10
160.1647462858
 20
233.3726497195
 30
0.0
 10
160.1326628245
 20
233.4602166792
 30
0.0
 10
160.1024772268
 20
233.5237844368
 30
0.0
 10
160.0751536933
 20
233.5738457037
 30
0.0
  0
SPLINE
  5
392
100
AcDbEntity
  8
0
100
AcDbSpline
 62
7
  6
BYLAYER
 70
0
 71
3
 72
13
 73
9
 74
0
 42
0.0000001
 43
0.0000001
 44
0.0000000001
 40
0.0
 40
0.0
 40
0.0
 40
0.0
 40
0.166385604
 40
0.3059383363
 40
0.4454910686
 40
0.720947597
 40
0.8604737985
 40
1.0
 40
1.0
 40
1.0
 40
1.0
 10
160.0751536933
 20
233.5738457037
 30
0.0
 10
160.0586594093
 20
233.6040659806
 30
0.0
 10
160.0261613924
 20
233.6591900739
 30
0.0
 10
159.9719346522
 20
233.7439552089
 30
0.0
 10
159.8990475439
 20
233.8422868567
 30
0.0
 10
159.8166802452
 20
233.939067863
 30
0.0
 10
159.7235251647
 20
234.0197677911
 30
0.0
 10
159.6700948667
 20
234.0518232557
 30
0.0
 10
159.6429696229
 20
234.0669208144
 30
0.0
  0
SPLINE
  5
393
100
AcDbEntity
  8
0
100
AcDbSpline
 62
7
  6
BYLAYER
 70
0
 71
3
 72
12
 73
8
 74
0
 42
0.0000001
 43
0.0000001
 44
0.0000000001
 40
0.0
 40
0.0
 40
0.0
 40
0.0
 40
0.2118046918
 40
0.4149618683
 40
0.6082089185
 40
0.8048036745
 40
1.0
 40
1.0
 40
1.0
 40
1.0
 10
159.6429696229
 20
234.0669208144
 30
0.0
 10
159.6979522387
 20
234.0793789427
 30
0.0
 10
159.8016653246
 20
234.1080853125
 30
0.0
 10
159.9437280637
 20
234.1774760798
 30
0.0
 10
160.063042644
 20
234.2915254966
 30
0.0
 10
160.1263824734
 20
234.4304776574
 30
0.0
 10
160.1368700416
 20
234.5403545201
 30
0.0
 10
160.1378914972
 20
234.5923114394
 30
0.0
  0
SPLINE
  5
394
100
AcDbEntity
  8
0
100
AcDbSpline
 62
7
  6
BYLAYER
 70
0
 71
3
 72
14
 73
10
 74
0
 42
0.0000001
 43
0.0000001
 44
0.0000000001
 40
0.0
 40
0.0
 40
0.0
 40
0.0
 40
0.200635158
 40
0.4012393763
 40
0.5016119579
 40
0.6019845396
 40
0.7992308807
 40
0.8996154404
 40
1.0
 40
1.0
 40
1.0
 40
1.0
 10
160.1378914972
 20
234.5923114394
 30
0.0
 10
160.1367831225
 20
234.6320585419
 30
0.0
 10
160.1304359697
 20
234.7117111505
 30
0.0
 10
160.0983814864
 20
234.8069455217
 30
0.0
 10
160.0589839441
 20
234.876276998
 30
0.0
 10
160.013377438
 20
234.9402982644
 30
0.0
 10
159.952750646
 20
234.9961108253
 30
0.0
 10
159.8868623628
 20
235.0389985253
 30
0.0
 10
159.8505751137
 20
235.0556476133
 30
0.0
 10
159.8324227479
 20
235.0637958155
 30
0.0
  0
SPLINE
  5
395
100
AcDbEntity
  8
0
100
AcDbSpline
 62
7
  6
BYLAYER
 70
0
 71
3
 72
10
 73
6
 74
0
 42
0.0000001
 43
0.0000001
 44
0.0000000001
 40
0.0
 40
0.0
 40
0.0
 40
0.0
 40
0.1983536791
 40
0.3967506361
 40
1.0
 40
1.0
 40
1.0
 40
1.0
 10
159.8324227479
 20
235.0637958155
 30
0.0
 10
159.8084699131
 20
235.0744799938
 30
0.0
 10
159.7595260076
 20
235.0935535956
 30
0.0
 10
159.6290459164
 20
235.1202659128
 30
0.0
 10
159.5262163842
 20
235.1209304786
 30
0.0
 10
159.4464852378
 20
235.1216083145
 30
0.0
  0
SPLINE
  5
396
100
AcDbEntity
  8
0
100
AcDbSpline
 62
7
  6
BYLAYER
 70
0
 71
3
 72
11
 73
7
 74
0
 42
0.0000001
 43
0.0000001
 44
0.0000000001
 40
0.0
 40
0.0
 40
0.0
 40
0.0
 40
0.1389030982
 40
0.4993905443
 40
0.7990268268
 40
1.0
 40
1.0
 40
1.0
 40
1.0
 10
158.8230477492
 20
235.1216083144
 30
0.0
 10
158.8051984518
 20
235.1210816761
 30
0.0
 10
158.7416649489
 20
235.119477232
 30
0.0
 10
158.6346393363
 20
235.0840971005
 30
0.0
 10
158.5907871951
 20
234.9734241857
 30
0.0
 10
158.588740063
 20
234.9095314959
 30
0.0
 10
158.5878914965
 20
234.8837176909
 30
0.0
  0
SPLINE
  5
397
100
AcDbEntity
  8
0
100
AcDbSpline
 62
7
  6
BYLAYER
 70
0
 71
3
 72
11
 73
7
 74
0
 42
0.0000001
 43
0.0000001
 44
0.0000000001
 40
0.0
 40
0.0
 40
0.0
 40
0.0
 40
0.3997359686
 40
0.5998087834
 40
0.7997396678
 40
1.0
 40
1.0
 40
1.0
 40
1.0
 10
158.5878914965
 20
233.4083270648
 30
0.0
 10
158.5893254788
 20
233.3626975913
 30
0.0
 10
158.5950141312
 20
233.2920669537
 30
0.0
 10
158.6465953801
 20
233.2140094629
 30
0.0
 10
158.7069349119
 20
233.1765364982
 30
0.0
 10
158.7533163449
 20
233.1727885391
 30
0.0
 10
158.7761727476
 20
233.1716083151
 30
0.0
  0
SPLINE
  5
398
100
AcDbEntity
  8
0
100
AcDbSpline
 62
7
  6
BYLAYER
 70
0
 71
3
 72
12
 73
8
 74
0
 42
0.0000001
 43
0.0000001
 44
0.0000000001
 40
0.0
 40
0.0
 40
0.0
 40
0.0
 40
0.1999250344
 40
0.3997971064
 40
0.5995719444
 40
0.7997609213
 40
1.0
 40
1.0
 40
1.0
 40
1.0
 10
158.7761727476
 20
233.1716083151
 30
0.0
 10
158.7988687326
 20
233.1726410516
 30
0.0
 10
158.8447142288
 20
233.1777197013
 30
0.0
 10
158.9043115387
 20
233.2150886138
 30
0.0
 10
158.943512205
 20
233.2724388499
 30
0.0
 10
158.9606632549
 20
233.3393699426
 30
0.0
 10
158.9623372406
 20
233.3848146043
 30
0.0
 10
158.9628914965
 20
233.4075458155
 30
0.0
  0
SPLINE
  5
399
100
AcDbEntity
  8
0
100
AcDbSpline
 62
7
  6
BYLAYER
 70
0
 71
3
 72
13
 73
9
 74
0
 42
0.0000001
 43
0.0000001
 44
0.0000000001
 40
0.0
 40
0.0
 40
0.0
 40
0.0
 40
0.1001097776
 40
0.2002195552
 40
0.3997857544
 40
0.4998793077
 40
0.5999728609
 40
1.0
 40
1.0
 40
1.0
 40
1.0
 10
159.0980477479
 20
234.0216083148
 30
0.0
 10
159.1182427174
 20
234.0213989361
 30
0.0
 10
159.1586122299
 20
234.0201940226
 30
0.0
 10
159.2386506854
 20
234.0086023528
 30
0.0
 10
159.3143740209
 20
233.9756488081
 30
0.0
 10
159.3750682023
 20
233.9220795032
 30
0.0
 10
159.4572121537
 20
233.8330408567
 30
0.0
 10
159.5093985537
 20
233.7455360671
 30
0.0
 10
159.5507821217
 20
233.6762958139
 30
0.0
  0
SPLINE
  5
39A
100
AcDbEntity
  8
0
100
AcDbSpline
 62
7
  6
BYLAYER
 70
0
 71
3
 72
14
 73
10
 74
0
 42
0.0000001
 43
0.0000001
 44
0.0000000001
 40
0.0
 40
0.0
 40
0.0
 40
0.0
 40
0.2000400719
 40
0.4000730929
 40
0.5999681853
 40
0.699974264
 40
0.7999803427
 40
0.8999901714
 40
1.0
 40
1.0
 40
1.0
 40
1.0
 10
159.7078133718
 20
233.4180926911
 30
0.0
 10
159.7213148853
 20
233.3958453412
 30
0.0
 10
159.7484073083
 20
233.351378785
 30
0.0
 10
159.7902077732
 20
233.2855713234
 30
0.0
 10
159.8304832556
 20
233.233821427
 30
0.0
 10
159.8718538691
 20
233.201758497
 30
0.0
 10
159.9062766064
 20
233.1829168812
 30
0.0
 10
159.9445666006
 20
233.1733052206
 30
0.0
 10
159.9705796458
 20
233.1720298938
 30
0.0
 10
159.9835946222
 20
233.1716083151
 30
0.0
  0
SPLINE
  5
39B
100
AcDbEntity
  8
0
100
AcDbSpline
 62
7
  6
BYLAYER
 70
0
 71
3
 72
10
 73
6
 74
0
 42
0.0000001
 43
0.0000001
 44
0.0000000001
 40
0.0
 40
0.0
 40
0.0
 40
0.0
 40
0.1980870199
 40
0.5959105091
 40
1.0
 40
1.0
 40
1.0
 40
1.0
 10
61.289453997
 20
233.5759051899
 30
0.0
 10
61.2750743787
 20
233.5552575476
 30
0.0
 10
61.2265114642
 20
233.4965056089
 30
0.0
 10
61.1096998166
 20
233.4361272229
 30
0.0
 10
61.0122204354
 20
233.4230470164
 30
0.0
 10
60.960938372
 20
233.4216083149
 30
0.0
  0
SPLINE
  5
39C
100
AcDbEntity
  8
0
100
AcDbSpline
 62
7
  6
BYLAYER
 70
0
 71
3
 72
12
 73
8
 74
0
 42
0.0000001
 43
0.0000001
 44
0.0000000001
 40
0.0
 40
0.0
 40
0.0
 40
0.0
 40
0.2001309853
 40
0.4002806835
 40
0.600299177
 40
0.8001483316
 40
1.0
 40
1.0
 40
1.0
 40
1.0
 10
60.960938372
 20
233.4216083149
 30
0.0
 10
60.9395811287
 20
233.4222527712
 30
0.0
 10
60.8968059011
 20
233.4246771738
 30
0.0
 10
60.8352457359
 20
233.4460936114
 30
0.0
 10
60.78391299
 20
233.4852381765
 30
0.0
 10
60.7446835464
 20
233.5381511243
 30
0.0
 10
60.739222523
 20
233.5815553152
 30
0.0
 10
60.737891498
 20
233.6028583152
 30
0.0
  0
SPLINE
  5
39D
100
AcDbEntity
  8
0
100
AcDbSpline
 62
7
  6
BYLAYER
 70
0
 71
3
 72
15
 73
11
 74
0
 42
0.0000001
 43
0.0000001
 44
0.0000000001
 40
0.0
 40
0.0
 40
0.0
 40
0.0
 40
0.0606860922
 40
0.1213486555
 40
0.2079373002
 40
0.3071486281
 40
0.4063599561
 40
0.6049116389
 40
0.7938035151
 40
1.0
 40
1.0
 40
1.0
 40
1.0
 10
60.737891498
 20
233.6028583152
 30
0.0
 10
60.7384672597
 20
233.617196406
 30
0.0
 10
60.7404066608
 20
233.6459241489
 30
0.0
 10
60.761059515
 20
233.6919657226
 30
0.0
 10
60.8058445649
 20
233.7306202573
 30
0.0
 10
60.8651064656
 20
233.7634649504
 30
0.0
 10
60.9569863793
 20
233.7845319946
 30
0.0
 10
61.068473751
 20
233.8074453392
 30
0.0
 10
61.2088203285
 20
233.8350593744
 30
0.0
 10
61.2916339804
 20
233.8565597083
 30
0.0
 10
61.337891497
 20
233.871608316
 30
0.0
  0
SPLINE
  5
39E
100
AcDbEntity
  8
0
100
AcDbSpline
 62
7
  6
BYLAYER
 70
0
 71
3
 72
12
 73
8
 74
0
 42
0.0000001
 43
0.0000001
 44
0.0000000001
 40
0.0
 40
0.0
 40
0.0
 40
0.0
 40
0.2000489972
 40
0.4001188155
 40
0.6001469058
 40
0.8001143413
 40
1.0
 40
1.0
 40
1.0
 40
1.0
 10
61.337891497
 20
233.8243426895
 30
0.0
 10
61.3377412504
 20
233.807266051
 30
0.0
 10
61.3371383028
 20
233.7731215516
 30
0.0
 10
61.3335305865
 20
233.7219675942
 30
0.0
 10
61.3258362186
 20
233.671295503
 30
0.0
 10
61.3130082441
 20
233.6215286786
 30
0.0
 10
61.2981415654
 20
233.5906034094
 30
0.0
 10
61.289453997
 20
233.5759051899
 30
0.0
  0
SPLINE
  5
39F
100
AcDbEntity
  8
0
100
AcDbSpline
 62
7
  6
BYLAYER
 70
0
 71
3
 72
19
 73
15
 74
0
 42
0.0000001
 43
0.0000001
 44
0.0000000001
 40
0.0
 40
0.0
 40
0.0
 40
0.0
 40
0.0109032859
 40
0.1098871184
 40
0.2088709508
 40
0.2831087201
 40
0.3573464894
 40
0.4302885267
 40
0.503230564
 40
0.6511932338
 40
0.7257268155
 40
0.8002603972
 40
0.9001301986
 40
1.0
 40
1.0
 40
1.0
 40
1.0
 10
61.690625871
 20
234.0719989387
 30
0.0
 10
61.6906047494
 20
234.0755163796
 30
0.0
 10
61.6904332456
 20
234.110966704
 30
0.0
 10
61.6875445346
 20
234.1783173347
 30
0.0
 10
61.6759456007
 20
234.2655783934
 30
0.0
 10
61.6554276932
 20
234.3428393
 30
0.0
 10
61.6286121061
 20
234.4093873474
 30
0.0
 10
61.5885330587
 20
234.4685807586
 30
0.0
 10
61.5185943343
 20
234.5341625158
 30
0.0
 10
61.4329154936
 20
234.5744398836
 30
0.0
 10
61.3399500549
 20
234.5993563137
 30
0.0
 10
61.2606064278
 20
234.6118731821
 30
0.0
 10
61.1724461222
 20
234.6202028896
 30
0.0
 10
61.1079995347
 20
234.621442076
 30
0.0
 10
61.075782123
 20
234.621608316
 30
0.0
  0
SPLINE
  5
3A0
100
AcDbEntity
  8
0
100
AcDbSpline
 62
7
  6
BYLAYER
 70
0
 71
3
 72
12
 73
8
 74
0
 42
0.0000001
 43
0.0000001
 44
0.0000000001
 40
0.0
 40
0.0
 40
0.0
 40
0.0
 40
0.1564411276
 40
0.5672227011
 40
0.744958714
 40
0.9017699322
 40
1.0
 40
1.0
 40
1.0
 40
1.0
 10
61.075782123
 20
234.621608316
 30
0.0
 10
61.032584208
 20
234.6208697532
 30
0.0
 10
60.8739752231
 20
234.6156853128
 30
0.0
 10
60.6874938659
 20
234.5679094489
 30
0.0
 10
60.5217646057
 20
234.4365615639
 30
0.0
 10
60.4608002593
 20
234.329794836
 30
0.0
 10
60.4518931827
 20
234.2592676304
 30
0.0
 10
60.450391496
 20
234.2321551899
 30
0.0
  0
SPLINE
  5
3A1
100
AcDbEntity
  8
0
100
AcDbSpline
 62
7
  6
BYLAYER
 70
0
 71
3
 72
12
 73
8
 74
0
 42
0.0000001
 43
0.0000001
 44
0.0000000001
 40
0.0
 40
0.0
 40
0.0
 40
0.0
 40
0.1999611966
 40
0.3998621715
 40
0.5999687116
 40
0.7999958618
 40
1.0
 40
1.0
 40
1.0
 40
1.0
 10
60.450391496
 20
234.2321551899
 30
0.0
 10
60.4511384927
 20
234.2171940934
 30
0.0
 10
60.4540023038
 20
234.1869570559
 30
0.0
 10
60.4770655903
 20
234.1470776741
 30
0.0
 10
60.511002042
 20
234.1170246618
 30
0.0
 10
60.5521624046
 20
234.0971094377
 30
0.0
 10
60.5822993297
 20
234.0944830892
 30
0.0
 10
60.597266498
 20
234.0938739395
 30
0.0
  0
SPLINE
  5
3A2
100
AcDbEntity
  8
0
100
AcDbSpline
 62
7
  6
BYLAYER
 70
0
 71
3
 72
19
 73
15
 74
0
 42
0.0000001
 43
0.0000001
 44
0.0000000001
 40
0.0
 40
0.0
 40
0.0
 40
0.0
 40
0.0665141493
 40
0.115471182
 40
0.1318173739
 40
0.1520095164
 40
0.1722016589
 40
0.2719125938
 40
0.3989116141
 40
0.4986046505
 40
0.5982976869
 40
0.6979622815
 40
0.7976268761
 40
1.0
 40
1.0
 40
1.0
 40
1.0
 10
60.597266498
 20
234.0938739395
 30
0.0
 10
60.610386623
 20
234.0941173748
 30
0.0
 10
60.6330282163
 20
234.0951897788
 30
0.0
 10
60.6587848103
 20
234.1010745
 30
0.0
 10
60.673809199
 20
234.1087655634
 30
0.0
 10
60.6822757511
 20
234.1162620383
 30
0.0
 10
60.700068345
 20
234.1374139758
 30
0.0
 10
60.726801316
 20
234.1781474696
 30
0.0
 10
60.7605428823
 20
234.2329013214
 30
0.0
 10
60.8010628839
 20
234.2831106318
 30
0.0
 10
60.8462568167
 20
234.3215786935
 30
0.0
 10
60.8986997661
 20
234.3492416357
 30
0.0
 10
60.9763886818
 20
234.3689173602
 30
0.0
 10
61.033963393
 20
234.3708648027
 30
0.0
 10
61.073828998
 20
234.371608316
 30
0.0
  0
SPLINE
  5
3A3
100
AcDbEntity
  8
0
100
AcDbSpline
 62
7
  6
BYLAYER
 70
0
 71
3
 72
14
 73
10
 74
0
 42
0.0000001
 43
0.0000001
 44
0.0000000001
 40
0.0
 40
0.0
 40
0.0
 40
0.0
 40
0.0875070721
 40
0.2857272808
 40
0.3506683189
 40
0.4156093569
 40
0.4957425196
 40
0.5949566535
 40
1.0
 40
1.0
 40
1.0
 40
1.0
 10
61.073828998
 20
234.371608316
 30
0.0
 10
61.086883093
 20
234.3713703807
 30
0.0
 10
61.1294834676
 20
234.3704992917
 30
0.0
 10
61.18166326
 20
234.3629240468
 30
0.0
 10
61.2281050574
 20
234.3469827065
 30
0.0
 10
61.2555899977
 20
234.3315256208
 30
0.0
 10
61.2828371768
 20
234.3067839196
 30
0.0
 10
61.3263797536
 20
234.229345815
 30
0.0
 10
61.334110802
 20
234.1569462836
 30
0.0
 10
61.337891497
 20
234.0966083156
 30
0.0
  0
SPLINE
  5
3A4
100
AcDbEntity
  8
0
100
AcDbSpline
 62
7
  6
BYLAYER
 70
0
 71
3
 72
12
 73
8
 74
0
 42
0.0000001
 43
0.0000001
 44
0.0000000001
 40
0.0
 40
0.0
 40
0.0
 40
0.0
 40
0.4152404443
 40
0.8050789732
 40
0.9025390734
 40
0.9512695367
 40
1.0
 40
1.0
 40
1.0
 40
1.0
 10
61.337891497
 20
234.0966083156
 30
0.0
 10
61.2523616387
 20
234.0712792544
 30
0.0
 10
61.1088133297
 20
234.0306265157
 30
0.0
 10
60.9113525091
 20
233.9887940267
 30
0.0
 10
60.7992899146
 20
233.9644521287
 30
0.0
 10
60.7583107598
 20
233.9557066491
 30
0.0
 10
60.7379401944
 20
233.9508931557
 30
0.0
 10
60.727735246
 20
233.9485614402
 30
0.0
  0
SPLINE
  5
3A5
100
AcDbEntity
  8
0
100
AcDbSpline
 62
7
  6
BYLAYER
 70
0
 71
3
 72
15
 73
11
 74
0
 42
0.0000001
 43
0.0000001
 44
0.0000000001
 40
0.0
 40
0.0
 40
0.0
 40
0.0
 40
0.2026746468
 40
0.4018647893
 40
0.5015666232
 40
0.601268457
 40
0.7009335941
 40
0.8005987313
 40
0.9002993656
 40
1.0
 40
1.0
 40
1.0
 40
1.0
 10
60.727735246
 20
233.9485614402
 30
0.0
 10
60.6910792427
 20
233.9398147272
 30
0.0
 10
60.6217108679
 20
233.9193860714
 30
0.0
 10
60.5393913536
 20
233.8714159647
 30
0.0
 10
60.4846344244
 20
233.8213011001
 30
0.0
 10
60.4494656136
 20
233.777954525
 30
0.0
 10
60.4212900584
 20
233.7297769279
 30
0.0
 10
60.401736004
 20
233.6775460538
 30
0.0
 10
60.3896370123
 20
233.6230117411
 30
0.0
 10
60.3884872594
 20
233.5858375558
 30
0.0
 10
60.387891496
 20
233.5673114406
 30
0.0
  0
SPLINE
  5
3A6
100
AcDbEntity
  8
0
100
AcDbSpline
 62
7
  6
BYLAYER
 70
0
 71
3
 72
11
 73
7
 74
0
 42
0.0000001
 43
0.0000001
 44
0.0000000001
 40
0.0
 40
0.0
 40
0.0
 40
0.0
 40
0.3103959169
 40
0.6207918338
 40
0.9311353265
 40
1.0
 40
1.0
 40
1.0
 40
1.0
 10
60.387891496
 20
233.5673114406
 30
0.0
 10
60.3887222394
 20
233.5448513236
 30
0.0
 10
60.391244882
 20
233.4998738066
 30
0.0
 10
60.4095900354
 20
233.4344785271
 30
0.0
 10
60.4314514631
 20
233.3894378408
 30
0.0
 10
60.4458966841
 20
233.3660847183
 30
0.0
 10
60.4485998137
 20
233.3618948199
 30
0.0
  0
SPLINE
  5
3A7
100
AcDbEntity
  8
0
100
AcDbSpline
 62
7
  6
BYLAYER
 70
0
 71
3
 72
10
 73
6
 74
0
 42
0.0000001
 43
0.0000001
 44
0.0000000001
 40
0.0
 40
0.0
 40
0.0
 40
0.0
 40
0.1150656349
 40
0.4102991679
 40
1.0
 40
1.0
 40
1.0
 40
1.0
 10
60.4485998137
 20
233.3618948199
 30
0.0
 10
60.4580785275
 20
233.3472026464
 30
0.0
 10
60.4953790108
 20
233.2970521525
 30
0.0
 10
60.6166198504
 20
233.2001726688
 30
0.0
 10
60.753455211
 20
233.1744679561
 30
0.0
 10
60.842969621
 20
233.1716083149
 30
0.0
  0
SPLINE
  5
3A8
100
AcDbEntity
  8
0
100
AcDbSpline
 62
7
  6
BYLAYER
 70
0
 71
3
 72
10
 73
6
 74
0
 42
0.0000001
 43
0.0000001
 44
0.0000000001
 40
0.0
 40
0.0
 40
0.0
 40
0.0
 40
0.2009433528
 40
0.5927023519
 40
1.0
 40
1.0
 40
1.0
 40
1.0
 10
60.842969621
 20
233.1716083149
 30
0.0
 10
60.8812575777
 20
233.1727499944
 30
0.0
 10
60.9935241618
 20
233.1768170698
 30
0.0
 10
61.1851134965
 20
233.2497690597
 30
0.0
 10
61.3012259037
 20
233.3381931288
 30
0.0
 10
61.361719622
 20
233.3868426895
 30
0.0
  0
SPLINE
  5
3A9
100
AcDbEntity
  8
0
100
AcDbSpline
 62
7
  6
BYLAYER
 70
0
 71
3
 72
12
 73
8
 74
0
 42
0.0000001
 43
0.0000001
 44
0.0000000001
 40
0.0
 40
0.0
 40
0.0
 40
0.0
 40
0.2020198551
 40
0.5962131006
 40
0.7979997873
 40
0.8989998937
 40
1.0
 40
1.0
 40
1.0
 40
1.0
 10
61.361719622
 20
233.3868426895
 30
0.0
 10
61.3725963937
 20
233.3682656578
 30
0.0
 10
61.4048230584
 20
233.3143434863
 30
0.0
 10
61.4575078314
 20
233.2415255727
 30
0.0
 10
61.5133256206
 20
233.1924902976
 30
0.0
 10
61.5531919193
 20
233.1743983505
 30
0.0
 10
61.5747965814
 20
233.1724506706
 30
0.0
 10
61.585547748
 20
233.1716083149
 30
0.0
  0
SPLINE
  5
3AA
100
AcDbEntity
  8
0
100
AcDbSpline
 62
7
  6
BYLAYER
 70
0
 71
3
 72
11
 73
7
 74
0
 42
0.0000001
 43
0.0000001
 44
0.0000000001
 40
0.0
 40
0.0
 40
0.0
 40
0.0
 40
0.2003878164
 40
0.400900311
 40
0.7999451581
 40
1.0
 40
1.0
 40
1.0
 40
1.0
 10
61.585547748
 20
233.1716083149
 30
0.0
 10
61.6018331797
 20
233.1723147319
 30
0.0
 10
61.6347257019
 20
233.1753760891
 30
0.0
 10
61.6935709342
 20
233.2038216125
 30
0.0
 10
61.744879081
 20
233.2508452709
 30
0.0
 10
61.7540032544
 20
233.2998892579
 30
0.0
 10
61.755078996
 20
233.3161395649
 30
0.0
  0
SPLINE
  5
3AB
100
AcDbEntity
  8
0
100
AcDbSpline
 62
7
  6
BYLAYER
 70
0
 71
3
 72
11
 73
7
 74
0
 42
0.0000001
 43
0.0000001
 44
0.0000000001
 40
0.0
 40
0.0
 40
0.0
 40
0.0
 40
0.3075420774
 40
0.6152851822
 40
0.9230555783
 40
1.0
 40
1.0
 40
1.0
 40
1.0
 10
61.755078996
 20
233.3161395649
 30
0.0
 10
61.7533914127
 20
233.3398514501
 30
0.0
 10
61.7422164791
 20
233.3863723268
 30
0.0
 10
61.7218099121
 20
233.4543123131
 30
0.0
 10
61.7069793415
 20
233.506408841
 30
0.0
 10
61.7010806576
 20
233.5348463623
 30
0.0
 10
61.6999887446
 20
233.5405221133
 30
0.0
  0
SPLINE
  5
3AC
100
AcDbEntity
  8
0
100
AcDbSpline
 62
7
  6
BYLAYER
 70
0
 71
3
 72
8
 73
4
 74
0
 42
0.0000001
 43
0.0000001
 44
0.0000000001
 40
0.0
 40
0.0
 40
0.0
 40
0.0
 40
1.0
 40
1.0
 40
1.0
 40
1.0
 10
61.6999887446
 20
233.5405221133
 30
0.0
 10
61.6920924607
 20
233.5815669052
 30
0.0
 10
61.6887901891
 20
233.6219914121
 30
0.0
 10
61.687891497
 20
233.6649676918
 30
0.0
  0
SPLINE
  5
3AD
100
AcDbEntity
  8
0
100
AcDbSpline
 62
7
  6
BYLAYER
 70
0
 71
3
 72
14
 73
10
 74
0
 42
0.0000001
 43
0.0000001
 44
0.0000000001
 40
0.0
 40
0.0
 40
0.0
 40
0.0
 40
0.2036960743
 40
0.303358691
 40
0.4030213078
 40
0.502655105
 40
0.6022889021
 40
0.796624947
 40
1.0
 40
1.0
 40
1.0
 40
1.0
 10
65.4542977471
 20
234.8059833152
 30
0.0
 10
65.4413544887
 20
234.8403776248
 30
0.0
 10
65.4216308505
 20
234.8914114711
 30
0.0
 10
65.3958868342
 20
234.9594595874
 30
0.0
 10
65.3723579417
 20
235.0080359168
 30
0.0
 10
65.3456328763
 20
235.0550546925
 30
0.0
 10
65.301857931
 20
235.1110497441
 30
0.0
 10
65.2239426814
 20
235.1639795945
 30
0.0
 10
65.154279953
 20
235.1706587622
 30
0.0
 10
65.117578998
 20
235.171608315
 30
0.0
  0
SPLINE
  5
3AE
100
AcDbEntity
  8
0
100
AcDbSpline
 62
7
  6
BYLAYER
 70
0
 71
3
 72
14
 73
10
 74
0
 42
0.0000001
 43
0.0000001
 44
0.0000000001
 40
0.0
 40
0.0
 40
0.0
 40
0.0
 40
0.1369027964
 40
0.2968414194
 40
0.3959154843
 40
0.5976329214
 40
0.8017093481
 40
0.900854689
 40
1.0
 40
1.0
 40
1.0
 40
1.0
 10
65.117578998
 20
235.171608315
 30
0.0
 10
65.0927504747
 20
235.1709606432
 30
0.0
 10
65.0384821358
 20
235.167508244
 30
0.0
 10
64.9717872169
 20
235.1371683784
 30
0.0
 10
64.9074899654
 20
235.0824737595
 30
0.0
 10
64.8613826177
 20
235.0036400474
 30
0.0
 10
64.8294254278
 20
234.9224522927
 30
0.0
 10
64.8026654707
 20
234.8539850354
 30
0.0
 10
64.7900597785
 20
234.8204126171
 30
0.0
 10
64.7835946289
 20
234.803639581
 30
0.0
  0
SPLINE
  5
3AF
100
AcDbEntity
  8
0
100
AcDbSpline
 62
7
  6
BYLAYER
 70
0
 71
3
 72
10
 73
6
 74
0
 42
0.0000001
 43
0.0000001
 44
0.0000000001
 40
0.0
 40
0.0
 40
0.0
 40
0.0
 40
0.4000647202
 40
0.7999794075
 40
1.0
 40
1.0
 40
1.0
 40
1.0
 10
64.2941415222
 20
233.5477802534
 30
0.0
 10
64.2837766877
 20
233.5220260358
 30
0.0
 10
64.2644286163
 20
233.470212726
 30
0.0
 10
64.2405670085
 20
233.4042242615
 30
0.0
 10
64.2384475754
 20
233.3624514075
 30
0.0
 10
64.237891497
 20
233.3485614408
 30
0.0
  0
SPLINE
  5
3B0
100
AcDbEntity
  8
0
100
AcDbSpline
 62
7
  6
BYLAYER
 70
0
 71
3
 72
12
 73
8
 74
0
 42
0.0000001
 43
0.0000001
 44
0.0000000001
 40
0.0
 40
0.0
 40
0.0
 40
0.0
 40
0.1998600464
 40
0.3998332239
 40
0.6000164726
 40
0.8000423366
 40
1.0
 40
1.0
 40
1.0
 40
1.0
 10
64.237891497
 20
233.3485614408
 30
0.0
 10
64.2389825287
 20
233.3297847516
 30
0.0
 10
64.2438183858
 20
233.291830834
 30
0.0
 10
64.2747963713
 20
233.2432290821
 30
0.0
 10
64.3157624621
 20
233.204088401
 30
0.0
 10
64.3664585144
 20
233.1768351057
 30
0.0
 10
64.404264717
 20
233.1726610962
 30
0.0
 10
64.423047747
 20
233.171608315
 30
0.0
  0
SPLINE
  5
3B1
100
AcDbEntity
  8
0
100
AcDbSpline
 62
7
  6
BYLAYER
 70
0
 71
3
 72
12
 73
8
 74
0
 42
0.0000001
 43
0.0000001
 44
0.0000000001
 40
0.0
 40
0.0
 40
0.0
 40
0.0
 40
0.1359987853
 40
0.2949594198
 40
0.39334531
 40
0.5901369968
 40
1.0
 40
1.0
 40
1.0
 40
1.0
 10
64.423047747
 20
233.171608315
 30
0.0
 10
64.4390621654
 20
233.1722470785
 30
0.0
 10
64.4737283234
 20
233.1739518558
 30
0.0
 10
64.5188477009
 20
233.1903526435
 30
0.0
 10
64.5570301676
 20
233.2287142647
 30
0.0
 10
64.5963244237
 20
233.3041314404
 30
0.0
 10
64.6210814095
 20
233.363399124
 30
0.0
 10
64.6386727437
 20
233.4083270587
 30
0.0
  0
SPLINE
  5
3B2
100
AcDbEntity
  8
0
100
AcDbSpline
 62
7
  6
BYLAYER
 70
0
 71
3
 72
14
 73
10
 74
0
 42
0.0000001
 43
0.0000001
 44
0.0000000001
 40
0.0
 40
0.0
 40
0.0
 40
0.0
 40
0.2001313349
 40
0.4002604243
 40
0.5003035019
 40
0.6003465795
 40
0.7998813243
 40
0.8999406621
 40
1.0
 40
1.0
 40
1.0
 40
1.0
 10
65.5992196148
 20
233.4134052073
 30
0.0
 10
65.6084769172
 20
233.3915865338
 30
0.0
 10
65.6272895861
 20
233.3480922405
 30
0.0
 10
65.6515975584
 20
233.2939931949
 30
0.0
 10
65.6744260986
 20
233.2524473194
 30
0.0
 10
65.7018167067
 20
233.2135395853
 30
0.0
 10
65.7423014413
 20
233.1859232665
 30
0.0
 10
65.788138099
 20
233.1728161756
 30
0.0
 10
65.8119555337
 20
233.1720579517
 30
0.0
 10
65.823828997
 20
233.171608315
 30
0.0
  0
SPLINE
  5
3B3
100
AcDbEntity
  8
0
100
AcDbSpline
 62
7
  6
BYLAYER
 70
0
 71
3
 72
12
 73
8
 74
0
 42
0.0000001
 43
0.0000001
 44
0.0000000001
 40
0.0
 40
0.0
 40
0.0
 40
0.0
 40
0.199996385
 40
0.4000257751
 40
0.6001634023
 40
0.8001745384
 40
1.0
 40
1.0
 40
1.0
 40
1.0
 10
65.823828997
 20
233.171608315
 30
0.0
 10
65.8429590987
 20
233.1725812677
 30
0.0
 10
65.8815221768
 20
233.1762606556
 30
0.0
 10
65.9334041723
 20
233.2036566953
 30
0.0
 10
65.9749908499
 20
233.2436950943
 30
0.0
 10
66.0060977006
 20
233.2933229878
 30
0.0
 10
66.0117284804
 20
233.3317936331
 30
0.0
 10
66.012891497
 20
233.3509051904
 30
0.0
  0
SPLINE
  5
3B4
100
AcDbEntity
  8
0
100
AcDbSpline
 62
7
  6
BYLAYER
 70
0
 71
3
 72
10
 73
6
 74
0
 42
0.0000001
 43
0.0000001
 44
0.0000000001
 40
0.0
 40
0.0
 40
0.0
 40
0.0
 40
0.1999170903
 40
0.5999219313
 40
1.0
 40
1.0
 40
1.0
 40
1.0
 10
66.012891497
 20
233.3509051904
 30
0.0
 10
66.0125428054
 20
233.3653375441
 30
0.0
 10
66.0074036867
 20
233.4084824876
 30
0.0
 10
65.9859653502
 20
233.477752296
 30
0.0
 10
65.9650152668
 20
233.5315129518
 30
0.0
 10
65.9542977466
 20
233.558327066
 30
0.0
  0
ENDSEC
  0
SECTION
  2
OBJECTS
  0
DICTIONARY
  5
C
100
AcDbDictionary
280
0
281
1
  3
ACAD_GROUP
350
D
  3
ACAD_MLINESTYLE
350
17
  3
ACAD_LAYOUT
350
1A
  3
ACAD_PLOTSETTINGS
350
19
  3
ACAD_PLOTSTYLENAME
350
E
  0
DICTIONARY
  5
D
102
{ACAD_REACTORS
330
C
102
}
100
AcDbDictionary
280
0
281
1
  0
ACDBDICTIONARYWDFLT
  5
E
102
{ACAD_REACTORS
330
C
102
}
100
AcDbDictionary
281
1
  3
Normal
350
F
100
AcDbDictionaryWithDefault
340
F
  0
DICTIONARY
  5
17
102
{ACAD_REACTORS
330
C
102
}
100
AcDbDictionary
280
0
281
1
  3
Standard
350
18
  0
DICTIONARY
  5
19
102
{ACAD_REACTORS
330
C
102
}
100
AcDbDictionary
281
1
  0
DICTIONARY
  5
1A
102
{ACAD_REACTORS
330
C
102
}
100
AcDbDictionary
281
1
  3
Model
350
3B5
  3
Layout1
350
3B6
  0
ACDBPLACEHOLDER
  5
F
102
{ACAD_REACTORS
330
E
102
}
  0
MLINESTYLE
  5
18
102
{ACAD_REACTORS
330
17
102
}
100
AcDbMlineStyle
  2
STANDARD
 70
0
  3

 62
256
 51
90.0
 52
90.0
 71
2
 49
0.5
 62
256
  6
BYLAYER
 49
-0.5
 62
256
  6
BYLAYER
  0
LAYOUT
  5
3B5
102
{ACAD_REACTORS
330
1A
102
}
100
AcDbPlotSettings
  1

  2
none_device
  4

  6

 40
0.0
 41
0.0
 42
0.0
 43
0.0
 44
210.0
 45
297.0
 46
0.0
 47
0.0
 48
0.0
 49
0.0
140
0.0
141
0.0
142
1.0
143
1.0
 70
1024
 72
1
 73
0
 74
0
  7

 75
0
147
1.0
148
0.0
149
0.0
100
AcDbLayout
  1
Model
 70
0
 71
0
 10
0.0
 20
0.0
 11
210.0
 21
297.0
 12
0.0
 22
0.0
 32
0.0
 14
0.0
 24
0.0
 34
0.0
 15
0.0
 25
0.0
 35
0.0
146
0.0
 13
0.0
 23
0.0
 33
0.0
 16
1.0
 26
0.0
 36
0.0
 17
0.0
 27
1.0
 37
0.0
 76
0
330
210
345
0
346
0
  0
LAYOUT
  5
3B6
102
{ACAD_REACTORS
330
1A
102
}
100
AcDbPlotSettings
  1

  2
none_device
  4

  6

 40
0.0
 41
0.0
 42
0.0
 43
0.0
 44
210.0
 45
297.0
 46
0.0
 47
0.0
 48
0.0
 49
0.0
140
0.0
141
0.0
142
1.0
143
1.0
 70
0
 72
1
 73
0
 74
0
  7

 75
0
147
1.0
148
0.0
149
0.0
100
AcDbLayout
  1
Layout1
 70
0
 71
1
 10
0.0
 20
0.0
 11
210.0
 21
297.0
 12
0.0
 22
0.0
 32
0.0
 14
0.0
 24
0.0
 34
0.0
 15
0.0
 25
0.0
 35
0.0
146
0.0
 13
0.0
 23
0.0
 33
0.0
 16
1.0
 26
0.0
 36
0.0
 17
0.0
 27
1.0
 37
0.0
 76
0
330
211
345
0
346
0
  0
ENDSEC
  0
EOF
