999
DXF file: C:\Users\sesa63760\Dev\_Creo\CAD\MCADID0001897_3D-CAD\drw0001_7.dxf
999
Pro/ENGINEER 2019471 by Parametric Technology Corporation
  0
SECTION
  2
HEADER
  9
$ACADVER
  1
AC1024
  9
$DWGCODEPAGE
  3
ANSI_1252
  9
$EXTMAX
 10
99.8609729682
 20
141.2319474836
 30
0.0
  9
$EXTMIN
 10
0.0
 20
0.0
 30
0.0
  9
$LIMMIN
 10
0.0
 20
0.0
  9
$LIMMAX
 10
99.8609729682
 20
141.2319474836
  9
$VIEWCTR
 10
49.9304864841
 20
70.6159737418
  9
$VIEWSIZE
 40
141.2319474836
  9
$CLAYER
  8
0
  9
$LTSCALE
 40
9.2062306508
  9
$CELTYPE
  6
BYLAYER
  9
$DIMSCALE
 40
1.0
  9
$DIMASZ
 40
1.1888211068
  9
$DIMEXO
 40
1.0
  9
$DIMDLI
 40
6.3606684496
  9
$DIMEXE
 40
1.0
  9
$DIMCEN
 40
1.5064741065
  9
$DIMLFAC
 40
1.0
  9
$DIMBLK
  1
_FILLED
  9
$DIMALT
 70
0
  9
$DIMALTF
 40
0.0393700787
  9
$DIMTXT
 40
1.6643495495
  9
$DIMTOL
 70
1
  9
$DIMLIM
 70
0
  9
$DIMTFAC
 40
1.0
  9
$DIMTP
 40
0.01
  9
$DIMTM
 40
0.01
  9
$DIMGAP
 40
0.625
  9
$DIMDSEP
 70
46
  9
$AUNITS
 70
0
  9
$PDMODE
 70
3
  9
$PDSIZE
 40
0.3125
  9
$HANDSEED
  5
6A5
  9
$TILEMODE
 70
1
  9
$MEASUREMENT
 70
1
  9
$INSUNITS
 70
4
  0
ENDSEC
  0
SECTION
  2
CLASSES
  0
CLASS
  1
ACDBDICTIONARYWDFLT
  2
AcDbDictionaryWithDefault
  3
AutoCAD 2000
 90
0
 91
1
280
0
281
0
  0
CLASS
  1
ACDBPLACEHOLDER
  2
AcDbPlaceHolder
  3
AutoCAD 2000
 90
0
 91
1
280
0
281
0
  0
CLASS
  1
LAYOUT
  2
AcDbLayout
  3
AutoCAD 2000
 90
0
 91
0
280
0
281
0
  0
ENDSEC
  0
SECTION
  2
TABLES
  0
TABLE
  2
VPORT
  5
8
100
AcDbSymbolTable
 70
2
  0
VPORT
  5
1F4
100
AcDbSymbolTableRecord
100
AcDbViewportTableRecord
  2
*ACTIVE
 70
0
 10
0.0
 20
0.0
 11
1.0
 21
1.0
 12
49.9304864841
 22
70.6159737418
 13
0.0
 23
0.0
 14
1.0
 24
1.0
 15
0.0
 25
0.0
 16
0.0
 26
0.0
 36
1.0
 17
0.0
 27
0.0
 37
0.0
 40
141.2319474836
 41
0.7070707071
 42
50.0
 43
0.0
 44
0.0
 50
0.0
 51
0.0
 71
0
 72
100
 73
1
 74
1
 75
0
 76
0
 77
0
 78
0
  0
ENDTAB
  0
TABLE
  2
LTYPE
  5
5
100
AcDbSymbolTable
 70
6
  0
LTYPE
  5
14
100
AcDbSymbolTableRecord
100
AcDbLinetypeTableRecord
  2
BYBLOCK
 70
0
  3

 72
65
 73
0
 40
0.0
  0
LTYPE
  5
15
100
AcDbSymbolTableRecord
100
AcDbLinetypeTableRecord
  2
BYLAYER
 70
0
  3

 72
65
 73
0
 40
0.0
  0
LTYPE
  5
16
100
AcDbSymbolTableRecord
100
AcDbLinetypeTableRecord
  2
CONTINUOUS
 70
64
  3
Solid line
 72
65
 73
0
 40
0.0
  0
LTYPE
  5
1F5
100
AcDbSymbolTableRecord
100
AcDbLinetypeTableRecord
  2
CENTER
 70
64
  3
____ _ ____ _ ____ _ ____ _ ____ _ ____ _ ____
 72
65
 73
4
 40
0.6
 49
0.375
 74
0
 49
-0.075
 74
0
 49
0.075
 74
0
 49
-0.075
 74
0
  0
LTYPE
  5
1F6
100
AcDbSymbolTableRecord
100
AcDbLinetypeTableRecord
  2
HIDDEN
 70
64
  3
- - - - - - - - - - - - - - - - - - - -
 72
65
 73
2
 40
0.2
 49
0.1
 74
0
 49
-0.1
 74
0
  0
LTYPE
  5
1F7
100
AcDbSymbolTableRecord
100
AcDbLinetypeTableRecord
  2
PHANTOM
 70
64
  3
_____ _ _ _____ _ _ _____ _ _ _____
 72
65
 73
6
 40
0.8
 49
0.45
 74
0
 49
-0.05
 74
0
 49
0.1
 74
0
 49
-0.05
 74
0
 49
0.1
 74
0
 49
-0.05
 74
0
  0
LTYPE
  5
1F8
100
AcDbSymbolTableRecord
100
AcDbLinetypeTableRecord
  2
DOT
 70
64
  3
. . . . . . . . . . . . . . . . . . . .
 72
65
 73
2
 40
0.2
 49
0.1
 74
0
 49
-0.1
 74
0
  0
LTYPE
  5
1F9
100
AcDbSymbolTableRecord
100
AcDbLinetypeTableRecord
  2
DASHED
 70
64
  3
- - - - - - - - - - - - - - - - - - - -
 72
65
 73
2
 40
0.2
 49
0.1
 74
0
 49
-0.1
 74
0
  0
ENDTAB
  0
TABLE
  2
LAYER
  5
2
100
AcDbSymbolTable
 70
36
  0
LAYER
  5
10
100
AcDbSymbolTableRecord
100
AcDbLayerTableRecord
  2
0
 70
0
 62
7
  6
CONTINUOUS
370
-3
390
F
  0
LAYER
  5
1FA
100
AcDbSymbolTableRecord
100
AcDbLayerTableRecord
  2
DEFAULT_1
 70
0
 62
7
  6
CENTER
370
-3
390
F
  0
LAYER
  5
1FB
100
AcDbSymbolTableRecord
100
AcDbLayerTableRecord
  2
DEFAULT_2
 70
0
 62
8
  6
HIDDEN
370
-3
390
F
  0
LAYER
  5
1FC
100
AcDbSymbolTableRecord
100
AcDbLayerTableRecord
  2
DEFAULT_3
 70
0
 62
7
  6
PHANTOM
370
-3
390
F
  0
LAYER
  5
1FD
100
AcDbSymbolTableRecord
100
AcDbLayerTableRecord
  2
00_COMPONENTS
 70
0
 62
7
  6
CONTINUOUS
370
-3
390
F
  0
LAYER
  5
1FE
100
AcDbSymbolTableRecord
100
AcDbLayerTableRecord
  2
01_1_DEFAULT_DATUMS
 70
0
 62
7
  6
CONTINUOUS
370
-3
390
F
  0
LAYER
  5
1FF
100
AcDbSymbolTableRecord
100
AcDbLayerTableRecord
  2
01_PLANES
 70
0
 62
7
  6
CONTINUOUS
370
-3
390
F
  0
LAYER
  5
200
100
AcDbSymbolTableRecord
100
AcDbLayerTableRecord
  2
02_COORD_SYS
 70
0
 62
7
  6
CONTINUOUS
370
-3
390
F
  0
LAYER
  5
201
100
AcDbSymbolTableRecord
100
AcDbLayerTableRecord
  2
03_AXES
 70
0
 62
7
  6
CONTINUOUS
370
-3
390
F
  0
LAYER
  5
202
100
AcDbSymbolTableRecord
100
AcDbLayerTableRecord
  2
04_POINTS
 70
0
 62
7
  6
CONTINUOUS
370
-3
390
F
  0
LAYER
  5
203
100
AcDbSymbolTableRecord
100
AcDbLayerTableRecord
  2
05_CURVES
 70
0
 62
7
  6
CONTINUOUS
370
-3
390
F
  0
LAYER
  5
204
100
AcDbSymbolTableRecord
100
AcDbLayerTableRecord
  2
06_SURFS
 70
0
 62
7
  6
CONTINUOUS
370
-3
390
F
  0
LAYER
  5
205
100
AcDbSymbolTableRecord
100
AcDbLayerTableRecord
  2
07_COSMETICS
 70
0
 62
7
  6
CONTINUOUS
370
-3
390
F
  0
LAYER
  5
206
100
AcDbSymbolTableRecord
100
AcDbLayerTableRecord
  2
10_NOTES
 70
0
 62
7
  6
CONTINUOUS
370
-3
390
F
  0
LAYER
  5
207
100
AcDbSymbolTableRecord
100
AcDbLayerTableRecord
  2
11_NOTES_PUB
 70
0
 62
7
  6
CONTINUOUS
370
-3
390
F
  0
LAYER
  5
208
100
AcDbSymbolTableRecord
100
AcDbLayerTableRecord
  2
13_REF_GTOL
 70
0
 62
7
  6
CONTINUOUS
370
-3
390
F
  0
LAYER
  5
209
100
AcDbSymbolTableRecord
100
AcDbLayerTableRecord
  2
16_MISC
 70
0
 62
7
  6
CONTINUOUS
370
-3
390
F
  0
LAYER
  5
20A
100
AcDbSymbolTableRecord
100
AcDbLayerTableRecord
  2
17_NO_PRINT
 70
0
 62
7
  6
CONTINUOUS
370
-3
390
F
  0
LAYER
  5
20B
100
AcDbSymbolTableRecord
100
AcDbLayerTableRecord
  2
18_DATUM_CAMS_JOINTS
 70
0
 62
7
  6
CONTINUOUS
370
-3
390
F
  0
LAYER
  5
20C
100
AcDbSymbolTableRecord
100
AcDbLayerTableRecord
  2
19_DATUM_FUNCTIONAL
 70
0
 62
7
  6
CONTINUOUS
370
-3
390
F
  0
LAYER
  5
20D
100
AcDbSymbolTableRecord
100
AcDbLayerTableRecord
  2
20_DATUM_KINEMATIC_SCHEME
 70
0
 62
7
  6
CONTINUOUS
370
-3
390
F
  0
ENDTAB
  0
TABLE
  2
STYLE
  5
3
100
AcDbSymbolTable
 70
1
  0
STYLE
  5
11
100
AcDbSymbolTableRecord
100
AcDbTextStyleTableRecord
  2
STANDARD
 70
0
 40
0.0
 41
0.8
 50
0.0
 71
0
 42
0.2
  3
txt
  4

  0
STYLE
  5
20E
100
AcDbSymbolTableRecord
100
AcDbTextStyleTableRecord
  2
TEXTSTYLE_1
 70
0
 40
0.0
 41
0.8
 50
0.0
 71
0
 42
0.2
  3
gdt
  4

  0
ENDTAB
  0
TABLE
  2
VIEW
  5
6
100
AcDbSymbolTable
 70
0
  0
ENDTAB
  0
TABLE
  2
UCS
  5
7
100
AcDbSymbolTable
 70
0
  0
ENDTAB
  0
TABLE
  2
APPID
  5
9
100
AcDbSymbolTable
 70
1
  0
APPID
  5
20F
100
AcDbSymbolTableRecord
100
AcDbRegAppTableRecord
  2
ACAD
 70
0
  0
ENDTAB
  0
TABLE
  2
BLOCK_RECORD
  5
1
100
AcDbSymbolTable
 70
0
  0
BLOCK_RECORD
  5
210
100
AcDbSymbolTableRecord
100
AcDbBlockTableRecord
  2
*Model_Space
  0
BLOCK_RECORD
  5
211
100
AcDbSymbolTableRecord
100
AcDbBlockTableRecord
  2
*Paper_Space
  0
BLOCK_RECORD
  5
212
100
AcDbSymbolTableRecord
100
AcDbBlockTableRecord
  2
_FILLED
  0
ENDTAB
  0
TABLE
  2
DIMSTYLE
  5
A
100
AcDbSymbolTable
 70
1
100
AcDbDimStyleTable
 71
0
  0
DIMSTYLE
105
213
100
AcDbSymbolTableRecord
100
AcDbDimStyleTableRecord
  2
STANDARD
 70
0
  3

  4

 40
1.0
 41
1.1888211068
 42
1.0
 43
0.38
 44
1.0
 45
0.0
 46
0.0
 47
0.01
 48
0.01
140
1.6643495495
141
0.09
142
0.0
143
25.4
144
1.0
145
0.0
146
1.0
147
0.625
 71
1
 72
0
 73
0
 74
0
 75
0
 76
0
 77
1
 78
8
 79
2
170
0
171
1
172
0
173
0
174
0
175
0
176
0
177
0
178
0
270
2
179
2
271
2
272
2
273
2
274
2
275
0
280
0
281
0
282
0
283
1
284
8
285
0
286
0
287
3
288
0
340
11
278
46
341
212
342
212
343
212
344
212
  0
ENDTAB
  0
ENDSEC
  0
SECTION
  2
BLOCKS
  0
BLOCK
  5
20
100
AcDbEntity
  8
0
100
AcDbBlockBegin
  2
*Model_Space
 70
0
 10
0.0
 20
0.0
 30
0.0
  3
*Model_Space
  1

  0
ENDBLK
  5
21
100
AcDbEntity
  8
0
100
AcDbBlockEnd
  0
BLOCK
  5
1C
100
AcDbEntity
  8
0
100
AcDbBlockBegin
  2
*Paper_Space
 70
0
 10
0.0
 20
0.0
 30
0.0
  3
*Paper_Space
  1

  0
ENDBLK
  5
1D
100
AcDbEntity
  8
0
100
AcDbBlockEnd
  0
BLOCK
  5
214
100
AcDbEntity
  8
0
100
AcDbBlockBegin
  2
_FILLED
 70
64
 10
0.0
 20
0.0
  3
_FILLED
  1

  0
SOLID
  5
215
100
AcDbEntity
  8
0
  6
BYBLOCK
 62
0
100
AcDbTrace
 10
0.0
 20
0.0
 11
-1.0
 21
0.25
 12
-1.0
 22
-0.25
 13
-1.0
 23
-0.25
  0
ENDBLK
  5
216
100
AcDbEntity
  8
0
  6
BYBLOCK
 62
0
100
AcDbBlockEnd
  0
ENDSEC
  0
SECTION
  2
ENTITIES
  0
LINE
  5
217
100
AcDbEntity
  8
0
100
AcDbLine
 62
7
  6
CONTINUOUS
 10
10.6033530049
 20
84.1117067834
 11
10.6033530049
 21
57.8117067834
  0
LINE
  5
218
100
AcDbEntity
  8
0
100
AcDbLine
 62
7
  6
CONTINUOUS
 10
10.9033530049
 20
57.5117067834
 11
10.9033530049
 21
58.9617067832
  0
LINE
  5
219
100
AcDbEntity
  8
0
100
AcDbLine
 62
7
  6
CONTINUOUS
 10
10.9033530049
 20
63.7617067835
 11
10.9033530049
 21
65.3617067832
  0
LINE
  5
21A
100
AcDbEntity
  8
0
100
AcDbLine
 62
7
  6
CONTINUOUS
 10
10.9033530049
 20
70.1617067835
 11
10.9033530049
 21
71.7617067832
  0
LINE
  5
21B
100
AcDbEntity
  8
0
100
AcDbLine
 62
7
  6
CONTINUOUS
 10
10.9033530049
 20
76.5617067835
 11
10.9033530049
 21
78.1617067832
  0
LINE
  5
21C
100
AcDbEntity
  8
0
100
AcDbLine
 62
7
  6
CONTINUOUS
 10
10.9033530049
 20
82.9617067835
 11
10.9033530049
 21
84.4117067834
  0
LINE
  5
21D
100
AcDbEntity
  8
0
100
AcDbLine
 62
7
  6
CONTINUOUS
 10
11.1533530049
 20
82.7617067834
 11
11.1533530049
 21
82.5617067834
  0
LINE
  5
21E
100
AcDbEntity
  8
0
100
AcDbLine
 62
7
  6
CONTINUOUS
 10
11.1533530049
 20
59.3617067834
 11
11.1533530049
 21
59.1617067834
  0
LINE
  5
21F
100
AcDbEntity
  8
0
100
AcDbLine
 62
7
  6
CONTINUOUS
 10
11.8533530049
 20
59.1617067834
 11
11.8533530049
 21
59.3617067834
  0
LINE
  5
220
100
AcDbEntity
  8
0
100
AcDbLine
 62
7
  6
CONTINUOUS
 10
11.8533530049
 20
82.5617067834
 11
11.8533530049
 21
82.7617067834
  0
LINE
  5
221
100
AcDbEntity
  8
0
100
AcDbLine
 62
7
  6
CONTINUOUS
 10
11.9533530049
 20
82.7617067834
 11
11.9533530049
 21
82.5617067834
  0
LINE
  5
222
100
AcDbEntity
  8
0
100
AcDbLine
 62
7
  6
CONTINUOUS
 10
11.9533530049
 20
59.3617067834
 11
11.9533530049
 21
59.1617067834
  0
LINE
  5
223
100
AcDbEntity
  8
0
100
AcDbLine
 62
7
  6
CONTINUOUS
 10
12.6533530049
 20
59.1617067834
 11
12.6533530049
 21
59.3617067834
  0
LINE
  5
224
100
AcDbEntity
  8
0
100
AcDbLine
 62
7
  6
CONTINUOUS
 10
12.6533530049
 20
82.5617067834
 11
12.6533530049
 21
82.7617067834
  0
LINE
  5
225
100
AcDbEntity
  8
0
100
AcDbLine
 62
7
  6
CONTINUOUS
 10
13.1033530049
 20
58.9617067834
 11
13.1033530049
 21
63.7617067834
  0
LINE
  5
226
100
AcDbEntity
  8
0
100
AcDbLine
 62
7
  6
CONTINUOUS
 10
13.1033530049
 20
65.3617067834
 11
13.1033530049
 21
70.1617067834
  0
LINE
  5
227
100
AcDbEntity
  8
0
100
AcDbLine
 62
7
  6
CONTINUOUS
 10
13.1033530049
 20
71.7617067834
 11
13.1033530049
 21
76.5617067834
  0
LINE
  5
228
100
AcDbEntity
  8
0
100
AcDbLine
 62
7
  6
CONTINUOUS
 10
13.1033530049
 20
78.1617067834
 11
13.1033530049
 21
82.9617067834
  0
LINE
  5
229
100
AcDbEntity
  8
0
100
AcDbLine
 62
7
  6
CONTINUOUS
 10
15.522802653
 20
60.2100554183
 11
15.1197373461
 21
60.9010969209
  0
LINE
  5
22A
100
AcDbEntity
  8
0
100
AcDbLine
 62
7
  6
CONTINUOUS
 10
15.2924977218
 20
61.0018632476
 11
15.6955630287
 21
60.310821745
  0
LINE
  5
22B
100
AcDbEntity
  8
0
100
AcDbLine
 62
7
  6
CONTINUOUS
 10
17.6011841983
 20
59.0284903022
 11
16.6097480704
 21
60.7282731908
  0
LINE
  5
22C
100
AcDbEntity
  8
0
100
AcDbLine
 62
7
  6
CONTINUOUS
 10
16.1059164368
 20
61.5920750691
 11
15.1144803088
 21
63.2918579577
  0
LINE
  5
22D
100
AcDbEntity
  8
0
100
AcDbLine
 62
7
  6
CONTINUOUS
 10
18.2922257009
 20
59.4315556091
 11
17.300789573
 21
61.1313384977
  0
LINE
  5
22E
100
AcDbEntity
  8
0
100
AcDbLine
 62
7
  6
CONTINUOUS
 10
16.7969579394
 20
61.995140376
 11
15.8055218115
 21
63.6949232646
  0
LINE
  5
22F
100
AcDbEntity
  8
0
100
AcDbLine
 62
7
  6
CONTINUOUS
 10
19.5033530049
 20
84.1117067834
 11
19.5033530049
 21
82.9617067835
  0
LINE
  5
230
100
AcDbEntity
  8
0
100
AcDbLine
 62
7
  6
CONTINUOUS
 10
19.5033530049
 20
78.1617067832
 11
19.5033530049
 21
63.7617067835
  0
LINE
  5
231
100
AcDbEntity
  8
0
100
AcDbLine
 62
7
  6
CONTINUOUS
 10
19.5033530049
 20
58.9617067832
 11
19.5033530049
 21
57.8117067834
  0
LINE
  5
232
100
AcDbEntity
  8
0
100
AcDbLine
 62
7
  6
CONTINUOUS
 10
19.8033530049
 20
57.5117067834
 11
19.8033530049
 21
58.9617067832
  0
LINE
  5
233
100
AcDbEntity
  8
0
100
AcDbLine
 62
7
  6
CONTINUOUS
 10
19.8033530049
 20
63.7617067835
 11
19.8033530049
 21
78.1617067832
  0
LINE
  5
234
100
AcDbEntity
  8
0
100
AcDbLine
 62
7
  6
CONTINUOUS
 10
19.8033530049
 20
82.9617067835
 11
19.8033530049
 21
84.4117067834
  0
LINE
  5
235
100
AcDbEntity
  8
0
100
AcDbLine
 62
7
  6
CONTINUOUS
 10
18.114208288
 20
61.7215503191
 11
17.7111429811
 21
62.4125918217
  0
LINE
  5
236
100
AcDbEntity
  8
0
100
AcDbLine
 62
7
  6
CONTINUOUS
 10
17.8839033567
 20
62.5133581485
 11
18.2869686636
 21
61.8223166458
  0
LINE
  5
237
100
AcDbEntity
  8
0
100
AcDbLine
 62
7
  6
CONTINUOUS
 10
15.522802653
 20
66.6100554183
 11
15.1197373461
 21
67.3010969209
  0
LINE
  5
238
100
AcDbEntity
  8
0
100
AcDbLine
 62
7
  6
CONTINUOUS
 10
15.2924977218
 20
67.4018632476
 11
15.6955630287
 21
66.710821745
  0
LINE
  5
239
100
AcDbEntity
  8
0
100
AcDbLine
 62
7
  6
CONTINUOUS
 10
17.6011841983
 20
65.4284903022
 11
16.6097480704
 21
67.1282731908
  0
LINE
  5
23A
100
AcDbEntity
  8
0
100
AcDbLine
 62
7
  6
CONTINUOUS
 10
16.1059164368
 20
67.9920750691
 11
15.1144803088
 21
69.6918579577
  0
LINE
  5
23B
100
AcDbEntity
  8
0
100
AcDbLine
 62
7
  6
CONTINUOUS
 10
20.0533530049
 20
82.7617067834
 11
20.0533530049
 21
82.5617067834
  0
LINE
  5
23C
100
AcDbEntity
  8
0
100
AcDbLine
 62
7
  6
CONTINUOUS
 10
20.0533530049
 20
59.3617067834
 11
20.0533530049
 21
59.1617067834
  0
LINE
  5
23D
100
AcDbEntity
  8
0
100
AcDbLine
 62
7
  6
CONTINUOUS
 10
20.7533530049
 20
59.1617067834
 11
20.7533530049
 21
59.3617067834
  0
LINE
  5
23E
100
AcDbEntity
  8
0
100
AcDbLine
 62
7
  6
CONTINUOUS
 10
20.7533530049
 20
82.5617067834
 11
20.7533530049
 21
82.7617067834
  0
LINE
  5
23F
100
AcDbEntity
  8
0
100
AcDbLine
 62
7
  6
CONTINUOUS
 10
20.8533530049
 20
82.7617067834
 11
20.8533530049
 21
82.5617067834
  0
LINE
  5
240
100
AcDbEntity
  8
0
100
AcDbLine
 62
7
  6
CONTINUOUS
 10
20.8533530049
 20
59.3617067834
 11
20.8533530049
 21
59.1617067834
  0
LINE
  5
241
100
AcDbEntity
  8
0
100
AcDbLine
 62
7
  6
CONTINUOUS
 10
21.5533530049
 20
59.1617067834
 11
21.5533530049
 21
59.3617067834
  0
LINE
  5
242
100
AcDbEntity
  8
0
100
AcDbLine
 62
7
  6
CONTINUOUS
 10
21.5533530049
 20
82.5617067834
 11
21.5533530049
 21
82.7617067834
  0
LINE
  5
243
100
AcDbEntity
  8
0
100
AcDbLine
 62
7
  6
CONTINUOUS
 10
22.0033530049
 20
58.9617067834
 11
22.0033530049
 21
63.7617067834
  0
LINE
  5
244
100
AcDbEntity
  8
0
100
AcDbLine
 62
7
  6
CONTINUOUS
 10
22.0033530049
 20
78.1617067834
 11
22.0033530049
 21
82.9617067834
  0
LINE
  5
245
100
AcDbEntity
  8
0
100
AcDbLine
 62
7
  6
CONTINUOUS
 10
18.2922257009
 20
65.8315556091
 11
17.300789573
 21
67.5313384977
  0
LINE
  5
246
100
AcDbEntity
  8
0
100
AcDbLine
 62
7
  6
CONTINUOUS
 10
16.7969579394
 20
68.395140376
 11
15.8055218115
 21
70.0949232646
  0
LINE
  5
247
100
AcDbEntity
  8
0
100
AcDbLine
 62
7
  6
CONTINUOUS
 10
18.114208288
 20
68.1215503191
 11
17.7111429811
 21
68.8125918217
  0
LINE
  5
248
100
AcDbEntity
  8
0
100
AcDbLine
 62
7
  6
CONTINUOUS
 10
17.8839033567
 20
68.9133581485
 11
18.2869686636
 21
68.2223166458
  0
LINE
  5
249
100
AcDbEntity
  8
0
100
AcDbLine
 62
7
  6
CONTINUOUS
 10
15.522802653
 20
73.0100554183
 11
15.1197373461
 21
73.7010969209
  0
LINE
  5
24A
100
AcDbEntity
  8
0
100
AcDbLine
 62
7
  6
CONTINUOUS
 10
15.2924977218
 20
73.8018632476
 11
15.6955630287
 21
73.110821745
  0
LINE
  5
24B
100
AcDbEntity
  8
0
100
AcDbLine
 62
7
  6
CONTINUOUS
 10
17.6011841983
 20
71.8284903022
 11
16.6097480704
 21
73.5282731908
  0
LINE
  5
24C
100
AcDbEntity
  8
0
100
AcDbLine
 62
7
  6
CONTINUOUS
 10
16.1059164368
 20
74.3920750691
 11
15.1144803088
 21
76.0918579577
  0
LINE
  5
24D
100
AcDbEntity
  8
0
100
AcDbLine
 62
7
  6
CONTINUOUS
 10
24.422802653
 20
60.2100554183
 11
24.0197373462
 21
60.9010969209
  0
LINE
  5
24E
100
AcDbEntity
  8
0
100
AcDbLine
 62
7
  6
CONTINUOUS
 10
23.2033530049
 20
77.4117067834
 11
23.2033530049
 21
64.5117067834
  0
LINE
  5
24F
100
AcDbEntity
  8
0
100
AcDbLine
 62
7
  6
CONTINUOUS
 10
15.1197373461
 20
80.1010969209
 11
16.0699194123
 21
80.6553117179
  0
LINE
  5
250
100
AcDbEntity
  8
0
100
AcDbLine
 62
7
  6
CONTINUOUS
 10
16.9337212906
 20
81.1591433515
 11
17.8839033567
 21
81.7133581485
  0
LINE
  5
251
100
AcDbEntity
  8
0
100
AcDbLine
 62
7
  6
CONTINUOUS
 10
18.2869686636
 20
81.0223166458
 11
17.3367865975
 21
80.4681018489
  0
LINE
  5
252
100
AcDbEntity
  8
0
100
AcDbLine
 62
7
  6
CONTINUOUS
 10
16.4729847192
 20
79.9642702152
 11
15.522802653
 21
79.4100554183
  0
LINE
  5
253
100
AcDbEntity
  8
0
100
AcDbLine
 62
7
  6
CONTINUOUS
 10
24.1924977218
 20
61.0018632476
 11
24.5955630287
 21
60.310821745
  0
LINE
  5
254
100
AcDbEntity
  8
0
100
AcDbLine
 62
7
  6
CONTINUOUS
 10
18.2922257009
 20
72.2315556091
 11
17.300789573
 21
73.9313384977
  0
LINE
  5
255
100
AcDbEntity
  8
0
100
AcDbLine
 62
7
  6
CONTINUOUS
 10
16.7969579394
 20
74.795140376
 11
15.8055218115
 21
76.4949232646
  0
LINE
  5
256
100
AcDbEntity
  8
0
100
AcDbLine
 62
7
  6
CONTINUOUS
 10
26.5011841983
 20
59.0284903022
 11
25.5097480704
 21
60.7282731908
  0
LINE
  5
257
100
AcDbEntity
  8
0
100
AcDbLine
 62
7
  6
CONTINUOUS
 10
25.0059164368
 20
61.5920750691
 11
24.0144803088
 21
63.2918579577
  0
LINE
  5
258
100
AcDbEntity
  8
0
100
AcDbLine
 62
7
  6
CONTINUOUS
 10
18.114208288
 20
74.5215503191
 11
17.7111429811
 21
75.2125918217
  0
LINE
  5
259
100
AcDbEntity
  8
0
100
AcDbLine
 62
7
  6
CONTINUOUS
 10
17.8839033567
 20
75.3133581485
 11
18.2869686636
 21
74.6223166458
  0
LINE
  5
25A
100
AcDbEntity
  8
0
100
AcDbLine
 62
7
  6
CONTINUOUS
 10
15.522802653
 20
79.4100554183
 11
15.1197373461
 21
80.1010969209
  0
LINE
  5
25B
100
AcDbEntity
  8
0
100
AcDbLine
 62
7
  6
CONTINUOUS
 10
27.192225701
 20
59.4315556091
 11
26.200789573
 21
61.1313384977
  0
LINE
  5
25C
100
AcDbEntity
  8
0
100
AcDbLine
 62
7
  6
CONTINUOUS
 10
25.6969579394
 20
61.995140376
 11
24.7055218115
 21
63.6949232646
  0
LINE
  5
25D
100
AcDbEntity
  8
0
100
AcDbLine
 62
7
  6
CONTINUOUS
 10
15.2924977218
 20
80.2018632476
 11
15.6955630287
 21
79.510821745
  0
LINE
  5
25E
100
AcDbEntity
  8
0
100
AcDbLine
 62
7
  6
CONTINUOUS
 10
27.014208288
 20
61.7215503191
 11
26.6111429811
 21
62.4125918217
  0
LINE
  5
25F
100
AcDbEntity
  8
0
100
AcDbLine
 62
7
  6
CONTINUOUS
 10
17.6011841983
 20
78.2284903022
 11
16.6097480704
 21
79.9282731908
  0
LINE
  5
260
100
AcDbEntity
  8
0
100
AcDbLine
 62
7
  6
CONTINUOUS
 10
16.1059164368
 20
80.7920750691
 11
15.1144803088
 21
82.4918579577
  0
LINE
  5
261
100
AcDbEntity
  8
0
100
AcDbLine
 62
7
  6
CONTINUOUS
 10
26.7839033567
 20
62.5133581485
 11
27.1869686636
 21
61.8223166458
  0
LINE
  5
262
100
AcDbEntity
  8
0
100
AcDbLine
 62
7
  6
CONTINUOUS
 10
18.2922257009
 20
78.6315556091
 11
17.300789573
 21
80.3313384977
  0
LINE
  5
263
100
AcDbEntity
  8
0
100
AcDbLine
 62
7
  6
CONTINUOUS
 10
16.7969579394
 20
81.195140376
 11
15.8055218115
 21
82.8949232646
  0
LINE
  5
264
100
AcDbEntity
  8
0
100
AcDbLine
 62
7
  6
CONTINUOUS
 10
18.114208288
 20
80.9215503191
 11
17.7111429811
 21
81.6125918217
  0
LINE
  5
265
100
AcDbEntity
  8
0
100
AcDbLine
 62
7
  6
CONTINUOUS
 10
17.8839033567
 20
81.7133581485
 11
18.2869686636
 21
81.0223166458
  0
LINE
  5
266
100
AcDbEntity
  8
0
100
AcDbLine
 62
7
  6
CONTINUOUS
 10
28.7033530049
 20
75.1117067834
 11
28.7033530049
 21
74.5117067834
  0
LINE
  5
267
100
AcDbEntity
  8
0
100
AcDbLine
 62
7
  6
CONTINUOUS
 10
28.7033530049
 20
66.8117067834
 11
28.7033530049
 21
67.4117067834
  0
LINE
  5
268
100
AcDbEntity
  8
0
100
AcDbLine
 62
7
  6
CONTINUOUS
 10
28.8533530049
 20
66.8117067834
 11
28.8533530049
 21
67.3117067834
  0
LINE
  5
269
100
AcDbEntity
  8
0
100
AcDbLine
 62
7
  6
CONTINUOUS
 10
28.8533530049
 20
74.6117067834
 11
28.8533530049
 21
75.1117067834
  0
LINE
  5
26A
100
AcDbEntity
  8
0
100
AcDbLine
 62
7
  6
CONTINUOUS
 10
29.0033530049
 20
75.0117067834
 11
29.0033530049
 21
74.6117067834
  0
LINE
  5
26B
100
AcDbEntity
  8
0
100
AcDbLine
 62
7
  6
CONTINUOUS
 10
29.0033530049
 20
67.3117067834
 11
29.0033530049
 21
66.9117067834
  0
LINE
  5
26C
100
AcDbEntity
  8
0
100
AcDbLine
 62
7
  6
CONTINUOUS
 10
29.2033530049
 20
72.1117067834
 11
29.2033530049
 21
69.8117067834
  0
LINE
  5
26D
100
AcDbEntity
  8
0
100
AcDbLine
 62
7
  6
CONTINUOUS
 10
29.2033530049
 20
66.9117067834
 11
29.2033530049
 21
67.3117067834
  0
LINE
  5
26E
100
AcDbEntity
  8
0
100
AcDbLine
 62
7
  6
CONTINUOUS
 10
29.2033530049
 20
74.6117067834
 11
29.2033530049
 21
75.0117067834
  0
LINE
  5
26F
100
AcDbEntity
  8
0
100
AcDbLine
 62
7
  6
CONTINUOUS
 10
29.4033530049
 20
84.4117067834
 11
29.4033530049
 21
77.4117067834
  0
LINE
  5
270
100
AcDbEntity
  8
0
100
AcDbLine
 62
7
  6
CONTINUOUS
 10
29.4033530049
 20
64.5117067834
 11
29.4033530049
 21
57.5117067834
  0
LINE
  5
271
100
AcDbEntity
  8
0
100
AcDbLine
 62
7
  6
CONTINUOUS
 10
29.7033530049
 20
57.8117067834
 11
29.7033530049
 21
64.5117067834
  0
LINE
  5
272
100
AcDbEntity
  8
0
100
AcDbLine
 62
7
  6
CONTINUOUS
 10
29.7033530049
 20
77.4117067834
 11
29.7033530049
 21
84.1117067834
  0
LINE
  5
273
100
AcDbEntity
  8
0
100
AcDbLine
 62
7
  6
CONTINUOUS
 10
30.4033530049
 20
75.0117067834
 11
30.4033530049
 21
74.6117067834
  0
LINE
  5
274
100
AcDbEntity
  8
0
100
AcDbLine
 62
7
  6
CONTINUOUS
 10
30.4033530049
 20
67.3117067834
 11
30.4033530049
 21
66.9117067834
  0
LINE
  5
275
100
AcDbEntity
  8
0
100
AcDbLine
 62
7
  6
CONTINUOUS
 10
30.4533530049
 20
67.3117067833
 11
30.4533530049
 21
67.4117067834
  0
LINE
  5
276
100
AcDbEntity
  8
0
100
AcDbLine
 62
7
  6
CONTINUOUS
 10
30.4533530049
 20
74.5117067834
 11
30.4533530049
 21
74.6117067834
  0
LINE
  5
277
100
AcDbEntity
  8
0
100
AcDbLine
 62
7
  6
CONTINUOUS
 10
30.6033530049
 20
66.9117067834
 11
30.6033530049
 21
67.3117067834
  0
LINE
  5
278
100
AcDbEntity
  8
0
100
AcDbLine
 62
7
  6
CONTINUOUS
 10
30.6033530049
 20
74.6117067834
 11
30.6033530049
 21
75.0117067834
  0
LINE
  5
279
100
AcDbEntity
  8
0
100
AcDbLine
 62
7
  6
CONTINUOUS
 10
30.7533530049
 20
75.1117067834
 11
30.7533530049
 21
74.6117067834
  0
LINE
  5
27A
100
AcDbEntity
  8
0
100
AcDbLine
 62
7
  6
CONTINUOUS
 10
30.7533530049
 20
66.8117067834
 11
30.7533530049
 21
67.3117067834
  0
LINE
  5
27B
100
AcDbEntity
  8
0
100
AcDbLine
 62
7
  6
CONTINUOUS
 10
30.9033530049
 20
67.4117067834
 11
30.9033530049
 21
66.8117067834
  0
LINE
  5
27C
100
AcDbEntity
  8
0
100
AcDbLine
 62
7
  6
CONTINUOUS
 10
30.9033530049
 20
74.5117067834
 11
30.9033530049
 21
75.1117067834
  0
LINE
  5
27D
100
AcDbEntity
  8
0
100
AcDbLine
 62
7
  6
CONTINUOUS
 10
34.4208430701
 20
83.9543044558
 11
34.0000159862
 21
82.9762752443
  0
LINE
  5
27E
100
AcDbEntity
  8
0
100
AcDbLine
 62
7
  6
CONTINUOUS
 10
24.0197373462
 20
80.1010969209
 11
24.9699194123
 21
80.6553117179
  0
LINE
  5
27F
100
AcDbEntity
  8
0
100
AcDbLine
 62
7
  6
CONTINUOUS
 10
25.8337212906
 20
81.1591433515
 11
26.7839033567
 21
81.7133581485
  0
LINE
  5
280
100
AcDbEntity
  8
0
100
AcDbLine
 62
7
  6
CONTINUOUS
 10
27.1869686636
 20
81.0223166458
 11
26.2367865975
 21
80.4681018489
  0
LINE
  5
281
100
AcDbEntity
  8
0
100
AcDbLine
 62
7
  6
CONTINUOUS
 10
25.3729847192
 20
79.9642702152
 11
24.422802653
 21
79.4100554183
  0
LINE
  5
282
100
AcDbEntity
  8
0
100
AcDbLine
 62
7
  6
CONTINUOUS
 10
15.1197373461
 20
73.7010969209
 11
16.0699194123
 21
74.2553117179
  0
LINE
  5
283
100
AcDbEntity
  8
0
100
AcDbLine
 62
7
  6
CONTINUOUS
 10
16.9337212906
 20
74.7591433515
 11
17.8839033567
 21
75.3133581485
  0
LINE
  5
284
100
AcDbEntity
  8
0
100
AcDbLine
 62
7
  6
CONTINUOUS
 10
18.2869686636
 20
74.6223166458
 11
17.3367865975
 21
74.0681018489
  0
LINE
  5
285
100
AcDbEntity
  8
0
100
AcDbLine
 62
7
  6
CONTINUOUS
 10
16.4729847192
 20
73.5642702152
 11
15.522802653
 21
73.0100554183
  0
LINE
  5
286
100
AcDbEntity
  8
0
100
AcDbLine
 62
7
  6
CONTINUOUS
 10
34.0000159862
 20
59.051642854
 11
34.4225470586
 21
58.0777359543
  0
LINE
  5
287
100
AcDbEntity
  8
0
100
AcDbLine
 62
7
  6
CONTINUOUS
 10
24.422802653
 20
79.4100554183
 11
24.0197373462
 21
80.1010969209
  0
LINE
  5
288
100
AcDbEntity
  8
0
100
AcDbLine
 62
7
  6
CONTINUOUS
 10
24.1924977218
 20
80.2018632476
 11
24.5955630287
 21
79.510821745
  0
LINE
  5
289
100
AcDbEntity
  8
0
100
AcDbLine
 62
7
  6
CONTINUOUS
 10
26.5011841983
 20
78.2284903022
 11
25.5097480704
 21
79.9282731908
  0
LINE
  5
28A
100
AcDbEntity
  8
0
100
AcDbLine
 62
7
  6
CONTINUOUS
 10
25.0059164368
 20
80.7920750691
 11
24.0144803088
 21
82.4918579577
  0
LINE
  5
28B
100
AcDbEntity
  8
0
100
AcDbLine
 62
7
  6
CONTINUOUS
 10
34.0000159862
 20
82.9762752443
 11
34.0000159862
 21
81.9761923766
  0
LINE
  5
28C
100
AcDbEntity
  8
0
100
AcDbLine
 62
7
  6
CONTINUOUS
 10
34.0000159862
 20
59.051642854
 11
34.0000159862
 21
60.0557588019
  0
LINE
  5
28D
100
AcDbEntity
  8
0
100
AcDbLine
 62
7
  6
CONTINUOUS
 10
34.1104597589
 20
80.7129312354
 11
34.1104597589
 21
61.2105356459
  0
LINE
  5
28E
100
AcDbEntity
  8
0
100
AcDbLine
 62
7
  6
CONTINUOUS
 10
34.2644388647
 20
72.8159755892
 11
34.2644388647
 21
69.2159755892
  0
LINE
  5
28F
100
AcDbEntity
  8
0
100
AcDbLine
 62
7
  6
CONTINUOUS
 10
34.3104292976
 20
61.2105352783
 11
34.3104292976
 21
69.2159755892
  0
LINE
  5
290
100
AcDbEntity
  8
0
100
AcDbLine
 62
7
  6
CONTINUOUS
 10
34.3104292976
 20
72.8159755892
 11
34.3104292976
 21
80.7129316031
  0
LINE
  5
291
100
AcDbEntity
  8
0
100
AcDbLine
 62
7
  6
CONTINUOUS
 10
34.8103531452
 20
60.5106418918
 11
34.8103531452
 21
60.7106114307
  0
LINE
  5
292
100
AcDbEntity
  8
0
100
AcDbLine
 62
7
  6
CONTINUOUS
 10
34.8103531452
 20
81.2128554507
 11
34.8103531452
 21
81.4128249894
  0
LINE
  5
293
100
AcDbEntity
  8
0
100
AcDbLine
 62
7
  6
CONTINUOUS
 10
34.8994138436
 20
69.2159755892
 11
34.8994138436
 21
72.8159755892
  0
LINE
  5
294
100
AcDbEntity
  8
0
100
AcDbLine
 62
7
  6
CONTINUOUS
 10
34.0615246505
 20
61.1616075148
 11
34.0615246505
 21
80.7618593668
  0
LINE
  5
295
100
AcDbEntity
  8
0
100
AcDbLine
 62
7
  6
CONTINUOUS
 10
15.1197373461
 20
67.3010969209
 11
16.0699194123
 21
67.8553117179
  0
LINE
  5
296
100
AcDbEntity
  8
0
100
AcDbLine
 62
7
  6
CONTINUOUS
 10
16.9337212906
 20
68.3591433515
 11
17.8839033567
 21
68.9133581485
  0
LINE
  5
297
100
AcDbEntity
  8
0
100
AcDbLine
 62
7
  6
CONTINUOUS
 10
18.2869686636
 20
68.2223166458
 11
17.3367865975
 21
67.6681018489
  0
LINE
  5
298
100
AcDbEntity
  8
0
100
AcDbLine
 62
7
  6
CONTINUOUS
 10
16.4729847192
 20
67.1642702152
 11
15.522802653
 21
66.6100554183
  0
LINE
  5
299
100
AcDbEntity
  8
0
100
AcDbLine
 62
7
  6
CONTINUOUS
 10
27.192225701
 20
78.6315556091
 11
26.200789573
 21
80.3313384977
  0
LINE
  5
29A
100
AcDbEntity
  8
0
100
AcDbLine
 62
7
  6
CONTINUOUS
 10
25.6969579394
 20
81.195140376
 11
24.7055218115
 21
82.8949232646
  0
LINE
  5
29B
100
AcDbEntity
  8
0
100
AcDbLine
 62
7
  6
CONTINUOUS
 10
27.014208288
 20
80.9215503191
 11
26.6111429811
 21
81.6125918217
  0
LINE
  5
29C
100
AcDbEntity
  8
0
100
AcDbLine
 62
7
  6
CONTINUOUS
 10
26.7839033567
 20
81.7133581485
 11
27.1869686636
 21
81.0223166458
  0
LINE
  5
29D
100
AcDbEntity
  8
0
100
AcDbLine
 62
7
  6
CONTINUOUS
 10
37.8650613119
 20
68.3659755892
 11
37.8333452362
 21
69.0651096393
  0
LINE
  5
29E
100
AcDbEntity
  8
0
100
AcDbLine
 62
7
  6
CONTINUOUS
 10
37.8333450565
 20
81.2651136449
 11
37.8650613119
 21
80.5659755892
  0
LINE
  5
29F
100
AcDbEntity
  8
0
100
AcDbLine
 62
7
  6
CONTINUOUS
 10
36.6115197856
 20
76.6086753831
 11
36.6072074648
 21
77.0017334407
  0
LINE
  5
2A0
100
AcDbEntity
  8
0
100
AcDbLine
 62
7
  6
CONTINUOUS
 10
36.5919354462
 20
67.8029970537
 11
36.5919354462
 21
69.2159755892
  0
LINE
  5
2A1
100
AcDbEntity
  8
0
100
AcDbLine
 62
7
  6
CONTINUOUS
 10
36.5919354462
 20
72.8159755892
 11
36.5919354462
 21
80.1204698277
  0
LINE
  5
2A2
100
AcDbEntity
  8
0
100
AcDbLine
 62
7
  6
CONTINUOUS
 10
36.6072074648
 20
77.4617334407
 11
36.6072074648
 21
77.0017334407
  0
LINE
  5
2A3
100
AcDbEntity
  8
0
100
AcDbLine
 62
7
  6
CONTINUOUS
 10
36.6181160496
 20
76.608674743
 11
36.6181160496
 21
75.0768233108
  0
LINE
  5
2A4
100
AcDbEntity
  8
0
100
AcDbLine
 62
7
  6
CONTINUOUS
 10
36.6181160496
 20
73.6466435705
 11
36.6181160496
 21
72.8159755892
  0
LINE
  5
2A5
100
AcDbEntity
  8
0
100
AcDbLine
 62
7
  6
CONTINUOUS
 10
36.7064354462
 20
79.7204603085
 11
36.7064354462
 21
72.8159755892
  0
LINE
  5
2A6
100
AcDbEntity
  8
0
100
AcDbLine
 62
7
  6
CONTINUOUS
 10
36.7064354462
 20
69.2159755892
 11
36.7064354462
 21
69.0204603085
  0
LINE
  5
2A7
100
AcDbEntity
  8
0
100
AcDbLine
 62
7
  6
CONTINUOUS
 10
36.9281159238
 20
83.8230076437
 11
36.9281159238
 21
81.8228583718
  0
LINE
  5
2A8
100
AcDbEntity
  8
0
100
AcDbLine
 62
7
  6
CONTINUOUS
 10
36.9281159238
 20
58.2089435348
 11
36.9281159238
 21
60.2090928066
  0
LINE
  5
2A9
100
AcDbEntity
  8
0
100
AcDbLine
 62
7
  6
CONTINUOUS
 10
37.2102701779
 20
63.27044127
 11
37.2102701779
 21
66.2617524792
  0
LINE
  5
2AA
100
AcDbEntity
  8
0
100
AcDbLine
 62
7
  6
CONTINUOUS
 10
37.3133530049
 20
63.0117067833
 11
37.3133530049
 21
66.5117067834
  0
LINE
  5
2AB
100
AcDbEntity
  8
0
100
AcDbLine
 62
7
  6
CONTINUOUS
 10
37.3633530049
 20
66.0617067834
 11
37.3633530049
 21
63.4617067834
  0
LINE
  5
2AC
100
AcDbEntity
  8
0
100
AcDbLine
 62
7
  6
CONTINUOUS
 10
37.4133530049
 20
62.8727441853
 11
37.4133530049
 21
62.9117067834
  0
LINE
  5
2AD
100
AcDbEntity
  8
0
100
AcDbLine
 62
7
  6
CONTINUOUS
 10
37.4133530049
 20
66.6117067834
 11
37.4133530049
 21
66.6594495639
  0
LINE
  5
2AE
100
AcDbEntity
  8
0
100
AcDbLine
 62
7
  6
CONTINUOUS
 10
37.7399445547
 20
72.8159755892
 11
37.7399445547
 21
69.2159755892
  0
LINE
  5
2AF
100
AcDbEntity
  8
0
100
AcDbLine
 62
7
  6
CONTINUOUS
 10
37.7766958664
 20
60.5610813778
 11
37.7766958664
 21
81.4708698006
  0
LINE
  5
2B0
100
AcDbEntity
  8
0
100
AcDbLine
 62
7
  6
CONTINUOUS
 10
37.8196965184
 20
68.8134958961
 11
37.8196965162
 21
61.018454816
  0
LINE
  5
2B1
100
AcDbEntity
  8
0
100
AcDbLine
 62
7
  6
CONTINUOUS
 10
37.8196965157
 20
73.2183846634
 11
37.8196965157
 21
81.0135328756
  0
LINE
  5
2B2
100
AcDbEntity
  8
0
100
AcDbLine
 62
7
  6
CONTINUOUS
 10
37.8650613119
 20
80.5659755892
 11
37.8650613119
 21
73.6659755892
  0
LINE
  5
2B3
100
AcDbEntity
  8
0
100
AcDbLine
 62
7
  6
CONTINUOUS
 10
37.8650613119
 20
61.4659755892
 11
37.8650613119
 21
68.3659755892
  0
LINE
  5
2B4
100
AcDbEntity
  8
0
100
AcDbLine
 62
7
  6
CONTINUOUS
 10
37.9033530049
 20
58.6134691304
 11
37.9033530049
 21
83.122125031
  0
LINE
  5
2B5
100
AcDbEntity
  8
0
100
AcDbLine
 62
7
  6
CONTINUOUS
 10
38.1033530049
 20
59.222125031
 11
38.1033530049
 21
82.822125031
  0
LINE
  5
2B6
100
AcDbEntity
  8
0
100
AcDbLine
 62
7
  6
CONTINUOUS
 10
37.8650613119
 20
73.6659755892
 11
37.83334815
 21
72.9669057244
  0
LINE
  5
2B7
100
AcDbEntity
  8
0
100
AcDbLine
 62
7
  6
CONTINUOUS
 10
37.833345202
 20
60.7668407395
 11
37.8650613119
 21
61.4659755892
  0
LINE
  5
2B8
100
AcDbEntity
  8
0
100
AcDbLine
 62
7
  6
CONTINUOUS
 10
73.9225602258
 20
61.0483890917
 11
72.8241541621
 21
60.9891934888
  0
LINE
  5
2B9
100
AcDbEntity
  8
0
100
AcDbLine
 62
7
  6
CONTINUOUS
 10
71.8256031952
 20
60.9353793044
 11
70.7271971316
 21
60.8761837015
  0
LINE
  5
2BA
100
AcDbEntity
  8
0
100
AcDbLine
 62
7
  6
CONTINUOUS
 10
34.4225470586
 20
58.0777359543
 11
36.9281159238
 21
58.2089435348
  0
LINE
  5
2BB
100
AcDbEntity
  8
0
100
AcDbLine
 62
7
  6
CONTINUOUS
 10
10.9033530049
 20
57.5117067834
 11
48.1533530049
 21
57.5117067834
  0
LINE
  5
2BC
100
AcDbEntity
  8
0
100
AcDbLine
 62
7
  6
CONTINUOUS
 10
52.0533530049
 20
57.5117067834
 11
89.3033530049
 21
57.5117067834
  0
LINE
  5
2BD
100
AcDbEntity
  8
0
100
AcDbLine
 62
7
  6
CONTINUOUS
 10
51.8297462071
 20
57.6117067834
 11
51.7533530067
 21
57.6117067834
  0
LINE
  5
2BE
100
AcDbEntity
  8
0
100
AcDbLine
 62
7
  6
CONTINUOUS
 10
48.4533530067
 20
57.6117067834
 11
48.3769598026
 21
57.6117067834
  0
LINE
  5
2BF
100
AcDbEntity
  8
0
100
AcDbLine
 62
7
  6
CONTINUOUS
 10
89.6033530049
 20
57.8117067834
 11
51.7533530049
 21
57.8117067834
  0
LINE
  5
2C0
100
AcDbEntity
  8
0
100
AcDbLine
 62
7
  6
CONTINUOUS
 10
48.4533530049
 20
57.8117067834
 11
10.6033530049
 21
57.8117067834
  0
LINE
  5
2C1
100
AcDbEntity
  8
0
100
AcDbLine
 62
7
  6
CONTINUOUS
 10
54.1384198357
 20
57.9158263174
 11
43.6072159263
 21
57.9158263174
  0
LINE
  5
2C2
100
AcDbEntity
  8
0
100
AcDbLine
 62
7
  6
CONTINUOUS
 10
39.5033530049
 20
58.3501685534
 11
44.3033530049
 21
58.3501685534
  0
LINE
  5
2C3
100
AcDbEntity
  8
0
100
AcDbLine
 62
7
  6
CONTINUOUS
 10
37.9033530049
 20
58.6134691304
 11
43.253307578
 21
58.6134691304
  0
LINE
  5
2C4
100
AcDbEntity
  8
0
100
AcDbLine
 62
7
  6
CONTINUOUS
 10
55.2052855315
 20
58.7159755892
 11
60.6052844656
 21
58.7159755892
  0
LINE
  5
2C5
100
AcDbEntity
  8
0
100
AcDbLine
 62
7
  6
CONTINUOUS
 10
10.6033530049
 20
58.9617067834
 11
13.1033530049
 21
58.9617067834
  0
LINE
  5
2C6
100
AcDbEntity
  8
0
100
AcDbLine
 62
7
  6
CONTINUOUS
 10
19.5033530049
 20
58.9617067834
 11
22.0033530049
 21
58.9617067833
  0
LINE
  5
2C7
100
AcDbEntity
  8
0
100
AcDbLine
 62
7
  6
CONTINUOUS
 10
75.9033530049
 20
58.9617067833
 11
78.4033530049
 21
58.9617067834
  0
LINE
  5
2C8
100
AcDbEntity
  8
0
100
AcDbLine
 62
7
  6
CONTINUOUS
 10
87.1033530049
 20
58.9617067833
 11
89.6033530049
 21
58.9617067834
  0
LINE
  5
2C9
100
AcDbEntity
  8
0
100
AcDbLine
 62
7
  6
CONTINUOUS
 10
89.0533530049
 20
59.1617067834
 11
87.5533530049
 21
59.1617067834
  0
LINE
  5
2CA
100
AcDbEntity
  8
0
100
AcDbLine
 62
7
  6
CONTINUOUS
 10
77.8533530049
 20
59.1617067834
 11
76.3533530049
 21
59.1617067834
  0
LINE
  5
2CB
100
AcDbEntity
  8
0
100
AcDbLine
 62
7
  6
CONTINUOUS
 10
21.5533530049
 20
59.1617067834
 11
20.0533530049
 21
59.1617067834
  0
LINE
  5
2CC
100
AcDbEntity
  8
0
100
AcDbLine
 62
7
  6
CONTINUOUS
 10
12.6533530049
 20
59.1617067834
 11
11.1533530049
 21
59.1617067834
  0
LINE
  5
2CD
100
AcDbEntity
  8
0
100
AcDbLine
 62
7
  6
CONTINUOUS
 10
42.9033530049
 20
59.222125031
 11
38.1033530049
 21
59.222125031
  0
LINE
  5
2CE
100
AcDbEntity
  8
0
100
AcDbLine
 62
7
  6
CONTINUOUS
 10
11.0033530049
 20
59.3617067834
 11
13.1033530049
 21
59.3617067834
  0
LINE
  5
2CF
100
AcDbEntity
  8
0
100
AcDbLine
 62
7
  6
CONTINUOUS
 10
19.9033530049
 20
59.3617067834
 11
22.0033530049
 21
59.3617067834
  0
LINE
  5
2D0
100
AcDbEntity
  8
0
100
AcDbLine
 62
7
  6
CONTINUOUS
 10
75.9033530049
 20
59.3617067834
 11
78.0033530049
 21
59.3617067834
  0
LINE
  5
2D1
100
AcDbEntity
  8
0
100
AcDbLine
 62
7
  6
CONTINUOUS
 10
87.1033530049
 20
59.3617067834
 11
89.2033530049
 21
59.3617067834
  0
LINE
  5
2D2
100
AcDbEntity
  8
0
100
AcDbLine
 62
7
  6
CONTINUOUS
 10
56.1033530049
 20
59.4117067834
 11
59.1033530049
 21
59.4117067834
  0
LINE
  5
2D3
100
AcDbEntity
  8
0
100
AcDbLine
 62
7
  6
CONTINUOUS
 10
38.1033530049
 20
59.422125031
 11
42.9033530049
 21
59.422125031
  0
LINE
  5
2D4
100
AcDbEntity
  8
0
100
AcDbLine
 62
7
  6
CONTINUOUS
 10
56.1033530049
 20
59.9587382835
 11
55.7533530049
 21
59.9587382835
  0
LINE
  5
2D5
100
AcDbEntity
  8
0
100
AcDbLine
 62
7
  6
CONTINUOUS
 10
29.7033530049
 20
60.0117067834
 11
34.0000159862
 21
60.0117067834
  0
LINE
  5
2D6
100
AcDbEntity
  8
0
100
AcDbLine
 62
7
  6
CONTINUOUS
 10
53.4698357372
 20
60.0117067834
 11
68.2033530049
 21
60.0117067834
  0
LINE
  5
2D7
100
AcDbEntity
  8
0
100
AcDbLine
 62
7
  6
CONTINUOUS
 10
43.6072159263
 20
57.9158263174
 11
40.5029797111
 21
57.9300104589
  0
LINE
  5
2D8
100
AcDbEntity
  8
0
100
AcDbLine
 62
7
  6
CONTINUOUS
 10
38.533465109
 20
57.9390097333
 11
38.403172981
 21
57.9396050753
  0
LINE
  5
2D9
100
AcDbEntity
  8
0
100
AcDbLine
 62
7
  6
CONTINUOUS
 10
34.4225470586
 20
58.0777359543
 11
38.403172981
 21
57.9396050753
  0
LINE
  5
2DA
100
AcDbEntity
  8
0
100
AcDbLine
 62
7
  6
CONTINUOUS
 10
44.1853391768
 20
58.5612507046
 11
54.0033530049
 21
57.9799703589
  0
LINE
  5
2DB
100
AcDbEntity
  8
0
100
AcDbLine
 62
7
  6
CONTINUOUS
 10
39.5033530049
 20
83.681782625
 11
39.5033530049
 21
83.5872114921
  0
LINE
  5
2DC
100
AcDbEntity
  8
0
100
AcDbLine
 62
7
  6
CONTINUOUS
 10
39.5033530049
 20
58.4447396495
 11
39.5033530049
 21
58.3501685534
  0
LINE
  5
2DD
100
AcDbEntity
  8
0
100
AcDbLine
 62
7
  6
CONTINUOUS
 10
15.1197373461
 20
60.9010969209
 11
16.0699194123
 21
61.4553117179
  0
LINE
  5
2DE
100
AcDbEntity
  8
0
100
AcDbLine
 62
7
  6
CONTINUOUS
 10
16.9337212906
 20
61.9591433515
 11
17.8839033567
 21
62.5133581485
  0
LINE
  5
2DF
100
AcDbEntity
  8
0
100
AcDbLine
 62
7
  6
CONTINUOUS
 10
18.2869686636
 20
61.8223166458
 11
17.3367865975
 21
61.2681018489
  0
LINE
  5
2E0
100
AcDbEntity
  8
0
100
AcDbLine
 62
7
  6
CONTINUOUS
 10
16.4729847192
 20
60.7642702152
 11
15.522802653
 21
60.2100554183
  0
LINE
  5
2E1
100
AcDbEntity
  8
0
100
AcDbLine
 62
7
  6
CONTINUOUS
 10
70.684145784
 20
61.675024475
 11
71.7825518476
 21
61.7342200779
  0
LINE
  5
2E2
100
AcDbEntity
  8
0
100
AcDbLine
 62
7
  6
CONTINUOUS
 10
72.7811028146
 20
61.7880342624
 11
73.8795088782
 21
61.8472298653
  0
LINE
  5
2E3
100
AcDbEntity
  8
0
100
AcDbLine
 62
7
  6
CONTINUOUS
 10
36.9281159238
 20
60.2090928066
 11
34.0000159862
 21
60.0557588019
  0
LINE
  5
2E4
100
AcDbEntity
  8
0
100
AcDbLine
 62
7
  6
CONTINUOUS
 10
68.2033530049
 20
60.3117130388
 11
52.801035167
 21
60.3117148049
  0
LINE
  5
2E5
100
AcDbEntity
  8
0
100
AcDbLine
 62
7
  6
CONTINUOUS
 10
37.1755128849
 20
60.3117123696
 11
29.7033530049
 21
60.3117053336
  0
LINE
  5
2E6
100
AcDbEntity
  8
0
100
AcDbLine
 62
7
  6
CONTINUOUS
 10
34.7379843466
 20
60.4617067834
 11
37.5371219299
 21
60.4617067834
  0
LINE
  5
2E7
100
AcDbEntity
  8
0
100
AcDbLine
 62
7
  6
CONTINUOUS
 10
45.8691895857
 20
60.4617067834
 11
60.5850861932
 21
60.4617067834
  0
LINE
  5
2E8
100
AcDbEntity
  8
0
100
AcDbLine
 62
7
  6
CONTINUOUS
 10
51.9286971685
 20
60.4827137879
 11
60.5406397418
 21
60.4827137881
  0
LINE
  5
2E9
100
AcDbEntity
  8
0
100
AcDbLine
 62
7
  6
CONTINUOUS
 10
34.8103531452
 20
60.5106418919
 11
37.6550955091
 21
60.5106418919
  0
LINE
  5
2EA
100
AcDbEntity
  8
0
100
AcDbLine
 62
7
  6
CONTINUOUS
 10
45.0426597108
 20
60.5106418918
 11
50.3286971681
 21
60.5106418917
  0
LINE
  5
2EB
100
AcDbEntity
  8
0
100
AcDbLine
 62
7
  6
CONTINUOUS
 10
60.541128324
 20
60.682925689
 11
52.0115291249
 21
60.683013588
  0
LINE
  5
2EC
100
AcDbEntity
  8
0
100
AcDbLine
 62
7
  6
CONTINUOUS
 10
50.4701185268
 20
60.7106114307
 11
44.1907204109
 21
60.7106114307
  0
LINE
  5
2ED
100
AcDbEntity
  8
0
100
AcDbLine
 62
7
  6
CONTINUOUS
 10
37.7766958664
 20
60.7106114307
 11
34.8103531452
 21
60.7106114307
  0
LINE
  5
2EE
100
AcDbEntity
  8
0
100
AcDbLine
 62
7
  6
CONTINUOUS
 10
37.8447596232
 20
61.018454816
 11
37.8196965162
 21
61.018454816
  0
LINE
  5
2EF
100
AcDbEntity
  8
0
100
AcDbLine
 62
7
  6
CONTINUOUS
 10
61.2405328783
 20
61.1826071744
 11
61.0405633395
 21
61.1826071744
  0
LINE
  5
2F0
100
AcDbEntity
  8
0
100
AcDbLine
 62
7
  6
CONTINUOUS
 10
34.3104292976
 20
61.2105352783
 11
34.1104597589
 21
61.2105352783
  0
LINE
  5
2F1
100
AcDbEntity
  8
0
100
AcDbLine
 62
7
  6
CONTINUOUS
 10
58.2197512531
 20
61.6617410564
 11
53.4075336382
 21
61.6617410564
  0
LINE
  5
2F2
100
AcDbEntity
  8
0
100
AcDbLine
 62
7
  6
CONTINUOUS
 10
54.1075293328
 20
62.3556323649
 11
57.5197555584
 21
62.3556323649
  0
LINE
  5
2F3
100
AcDbEntity
  8
0
100
AcDbLine
 62
7
  6
CONTINUOUS
 10
54.4167240199
 20
62.5687497382
 11
57.2027293481
 21
62.5687497382
  0
LINE
  5
2F4
100
AcDbEntity
  8
0
100
AcDbLine
 62
7
  6
CONTINUOUS
 10
57.3027142741
 20
62.6687345078
 11
54.3167392463
 21
62.6687345078
  0
LINE
  5
2F5
100
AcDbEntity
  8
0
100
AcDbLine
 62
7
  6
CONTINUOUS
 10
37.7766958664
 20
62.7704603085
 11
37.7102511394
 21
62.7704603085
  0
LINE
  5
2F6
100
AcDbEntity
  8
0
100
AcDbLine
 62
7
  6
CONTINUOUS
 10
37.7766958664
 20
62.9117067834
 11
37.4133530049
 21
62.9117067834
  0
LINE
  5
2F7
100
AcDbEntity
  8
0
100
AcDbLine
 62
7
  6
CONTINUOUS
 10
58.9115008127
 20
61.6117421408
 11
60.320266515
 21
61.6029609625
  0
LINE
  5
2F8
100
AcDbEntity
  8
0
100
AcDbLine
 62
7
  6
CONTINUOUS
 10
51.9286971685
 20
60.4827137879
 11
50.3286971681
 21
60.5106418917
  0
LINE
  5
2F9
100
AcDbEntity
  8
0
100
AcDbLine
 62
7
  6
CONTINUOUS
 10
50.4701185268
 20
60.7106114307
 11
52.011532863
 21
60.683013588
  0
LINE
  5
2FA
100
AcDbEntity
  8
0
100
AcDbLine
 62
7
  6
CONTINUOUS
 10
54.0033530049
 20
59.9801196307
 11
44.1907204109
 21
60.5610813778
  0
LINE
  5
2FB
100
AcDbEntity
  8
0
100
AcDbLine
 62
7
  6
CONTINUOUS
 10
42.9033530049
 20
82.822125031
 11
42.9033530049
 21
59.222125031
  0
LINE
  5
2FC
100
AcDbEntity
  8
0
100
AcDbLine
 62
7
  6
CONTINUOUS
 10
43.253307578
 20
83.122125031
 11
43.253307578
 21
58.6134691304
  0
LINE
  5
2FD
100
AcDbEntity
  8
0
100
AcDbLine
 62
7
  6
CONTINUOUS
 10
43.2680491704
 20
58.6130690426
 11
43.2680491704
 21
83.2584162692
  0
LINE
  5
2FE
100
AcDbEntity
  8
0
100
AcDbLine
 62
7
  6
CONTINUOUS
 10
43.2971232112
 20
58.6100748286
 11
43.2971232112
 21
83.4213035096
  0
LINE
  5
2FF
100
AcDbEntity
  8
0
100
AcDbLine
 62
7
  6
CONTINUOUS
 10
43.3949586198
 20
58.6080923811
 11
43.3949586198
 21
83.4238587973
  0
LINE
  5
300
100
AcDbEntity
  8
0
100
AcDbLine
 62
7
  6
CONTINUOUS
 10
43.4960115734
 20
58.6021094912
 11
43.4960115734
 21
83.4298416873
  0
LINE
  5
301
100
AcDbEntity
  8
0
100
AcDbLine
 62
7
  6
CONTINUOUS
 10
43.597064527
 20
58.5961266013
 11
43.597064527
 21
83.4358245772
  0
LINE
  5
302
100
AcDbEntity
  8
0
100
AcDbLine
 62
7
  6
CONTINUOUS
 10
43.6981174807
 20
58.5901437114
 11
43.6981174807
 21
83.4418074671
  0
LINE
  5
303
100
AcDbEntity
  8
0
100
AcDbLine
 62
7
  6
CONTINUOUS
 10
43.7991704343
 20
58.5841608215
 11
43.7991704343
 21
83.447790357
  0
LINE
  5
304
100
AcDbEntity
  8
0
100
AcDbLine
 62
7
  6
CONTINUOUS
 10
43.9002233879
 20
58.5781779315
 11
43.9002233879
 21
83.4537732469
  0
LINE
  5
305
100
AcDbEntity
  8
0
100
AcDbLine
 62
7
  6
CONTINUOUS
 10
44.0012763415
 20
58.5721950416
 11
44.0012763415
 21
83.4597561368
  0
LINE
  5
306
100
AcDbEntity
  8
0
100
AcDbLine
 62
7
  6
CONTINUOUS
 10
44.1023292952
 20
58.5662121517
 11
44.1023292952
 21
83.4657390267
  0
LINE
  5
307
100
AcDbEntity
  8
0
100
AcDbLine
 62
7
  6
CONTINUOUS
 10
44.1853391768
 20
58.5612507046
 11
44.1853391768
 21
83.4707004739
  0
LINE
  5
308
100
AcDbEntity
  8
0
100
AcDbLine
 62
7
  6
CONTINUOUS
 10
44.1907204109
 20
60.5610813778
 11
44.1907204109
 21
81.4708698006
  0
LINE
  5
309
100
AcDbEntity
  8
0
100
AcDbLine
 62
7
  6
CONTINUOUS
 10
44.3033530049
 20
58.3501685534
 11
44.3033530049
 21
58.4447396519
  0
LINE
  5
30A
100
AcDbEntity
  8
0
100
AcDbLine
 62
7
  6
CONTINUOUS
 10
44.3033530049
 20
83.5872114898
 11
44.3033530049
 21
83.681782625
  0
LINE
  5
30B
100
AcDbEntity
  8
0
100
AcDbLine
 62
7
  6
CONTINUOUS
 10
36.8506575949
 20
67.5617334406
 11
36.8419307273
 21
67.5530065728
  0
LINE
  5
30C
100
AcDbEntity
  8
0
100
AcDbLine
 62
7
  6
CONTINUOUS
 10
54.5115170363
 20
79.8379140441
 11
54.6529505556
 21
79.8965033715
  0
LINE
  5
30D
100
AcDbEntity
  8
0
100
AcDbLine
 62
7
  6
CONTINUOUS
 10
37.3133530049
 20
63.0117067834
 11
37.2828049736
 21
63.0117067834
  0
LINE
  5
30E
100
AcDbEntity
  8
0
100
AcDbLine
 62
7
  6
CONTINUOUS
 10
11.0033530049
 20
63.3617067834
 11
13.1033530049
 21
63.3617067834
  0
LINE
  5
30F
100
AcDbEntity
  8
0
100
AcDbLine
 62
7
  6
CONTINUOUS
 10
19.9033530049
 20
63.3617067834
 11
22.0033530049
 21
63.3617067834
  0
LINE
  5
310
100
AcDbEntity
  8
0
100
AcDbLine
 62
7
  6
CONTINUOUS
 10
75.9033530049
 20
63.3617067834
 11
78.0033530049
 21
63.3617067834
  0
LINE
  5
311
100
AcDbEntity
  8
0
100
AcDbLine
 62
7
  6
CONTINUOUS
 10
87.1033530049
 20
63.3617067834
 11
89.2033530049
 21
63.3617067834
  0
LINE
  5
312
100
AcDbEntity
  8
0
100
AcDbLine
 62
7
  6
CONTINUOUS
 10
89.6033530049
 20
63.7617067834
 11
87.1033530049
 21
63.7617067834
  0
LINE
  5
313
100
AcDbEntity
  8
0
100
AcDbLine
 62
7
  6
CONTINUOUS
 10
78.4033530049
 20
63.7617067834
 11
75.9033530049
 21
63.7617067834
  0
LINE
  5
314
100
AcDbEntity
  8
0
100
AcDbLine
 62
7
  6
CONTINUOUS
 10
22.0033530049
 20
63.7617067834
 11
19.5033530049
 21
63.7617067834
  0
LINE
  5
315
100
AcDbEntity
  8
0
100
AcDbLine
 62
7
  6
CONTINUOUS
 10
13.1033530049
 20
63.7617067834
 11
10.6033530049
 21
63.7617067834
  0
LINE
  5
316
100
AcDbEntity
  8
0
100
AcDbLine
 62
7
  6
CONTINUOUS
 10
23.2033530049
 20
64.5117067834
 11
29.7033530049
 21
64.5117067834
  0
LINE
  5
317
100
AcDbEntity
  8
0
100
AcDbLine
 62
7
  6
CONTINUOUS
 10
10.6033530049
 20
65.3617067834
 11
13.1033530049
 21
65.3617067833
  0
LINE
  5
318
100
AcDbEntity
  8
0
100
AcDbLine
 62
7
  6
CONTINUOUS
 10
75.9033530049
 20
65.3617067833
 11
78.4033530049
 21
65.3617067834
  0
LINE
  5
319
100
AcDbEntity
  8
0
100
AcDbLine
 62
7
  6
CONTINUOUS
 10
87.1033530049
 20
65.3617067833
 11
89.6033530049
 21
65.3617067834
  0
LINE
  5
31A
100
AcDbEntity
  8
0
100
AcDbLine
 62
7
  6
CONTINUOUS
 10
89.2033530049
 20
65.7617067834
 11
87.1033530049
 21
65.7617067834
  0
LINE
  5
31B
100
AcDbEntity
  8
0
100
AcDbLine
 62
7
  6
CONTINUOUS
 10
78.0033530049
 20
65.7617067834
 11
75.9033530049
 21
65.7617067834
  0
LINE
  5
31C
100
AcDbEntity
  8
0
100
AcDbLine
 62
7
  6
CONTINUOUS
 10
13.1033530049
 20
65.7617067834
 11
11.0033530049
 21
65.7617067834
  0
LINE
  5
31D
100
AcDbEntity
  8
0
100
AcDbLine
 62
7
  6
CONTINUOUS
 10
47.0033530049
 20
84.4117067834
 11
47.0033530049
 21
84.1117067834
  0
LINE
  5
31E
100
AcDbEntity
  8
0
100
AcDbLine
 62
7
  6
CONTINUOUS
 10
47.0033530049
 20
57.9158263174
 11
47.0033530049
 21
57.5117067834
  0
LINE
  5
31F
100
AcDbEntity
  8
0
100
AcDbLine
 62
7
  6
CONTINUOUS
 10
47.3033530049
 20
57.8117067834
 11
47.3033530049
 21
57.9158263174
  0
LINE
  5
320
100
AcDbEntity
  8
0
100
AcDbLine
 62
7
  6
CONTINUOUS
 10
34.8103531452
 20
60.5106418919
 11
34.7614185434
 21
60.4617067834
  0
LINE
  5
321
100
AcDbEntity
  8
0
100
AcDbLine
 62
7
  6
CONTINUOUS
 10
55.1912860937
 20
80.8117334407
 11
55.0912594364
 21
80.7117067834
  0
LINE
  5
322
100
AcDbEntity
  8
0
100
AcDbLine
 62
7
  6
CONTINUOUS
 10
55.811539883
 20
80.78198723
 11
55.7412594364
 21
80.7117067834
  0
LINE
  5
323
100
AcDbEntity
  8
0
100
AcDbLine
 62
7
  6
CONTINUOUS
 10
34.0615246505
 20
61.1616075164
 11
34.1104597589
 21
61.2105356459
  0
LINE
  5
324
100
AcDbEntity
  8
0
100
AcDbLine
 62
7
  6
CONTINUOUS
 10
24.0197373462
 20
60.9010969209
 11
24.9699194123
 21
61.4553117179
  0
LINE
  5
325
100
AcDbEntity
  8
0
100
AcDbLine
 62
7
  6
CONTINUOUS
 10
25.8337212906
 20
61.9591433515
 11
26.7839033567
 21
62.5133581485
  0
LINE
  5
326
100
AcDbEntity
  8
0
100
AcDbLine
 62
7
  6
CONTINUOUS
 10
27.1869686636
 20
61.8223166458
 11
26.2367865975
 21
61.2681018489
  0
LINE
  5
327
100
AcDbEntity
  8
0
100
AcDbLine
 62
7
  6
CONTINUOUS
 10
25.3729847192
 20
60.7642702152
 11
24.422802653
 21
60.2100554183
  0
LINE
  5
328
100
AcDbEntity
  8
0
100
AcDbLine
 62
7
  6
CONTINUOUS
 10
73.9225602258
 20
67.4483890917
 11
72.8241541621
 21
67.3891934888
  0
LINE
  5
329
100
AcDbEntity
  8
0
100
AcDbLine
 62
7
  6
CONTINUOUS
 10
71.8256031952
 20
67.3353793044
 11
70.7271971316
 21
67.2761837015
  0
LINE
  5
32A
100
AcDbEntity
  8
0
100
AcDbLine
 62
7
  6
CONTINUOUS
 10
70.684145784
 20
68.075024475
 11
71.7825518476
 21
68.1342200779
  0
LINE
  5
32B
100
AcDbEntity
  8
0
100
AcDbLine
 62
7
  6
CONTINUOUS
 10
72.7811028146
 20
68.1880342624
 11
73.8795088782
 21
68.2472298653
  0
LINE
  5
32C
100
AcDbEntity
  8
0
100
AcDbLine
 62
7
  6
CONTINUOUS
 10
37.2759607023
 20
66.5117067834
 11
37.3133530049
 21
66.5117067834
  0
LINE
  5
32D
100
AcDbEntity
  8
0
100
AcDbLine
 62
7
  6
CONTINUOUS
 10
37.4133530049
 20
66.6117067834
 11
37.7766958664
 21
66.6117067834
  0
LINE
  5
32E
100
AcDbEntity
  8
0
100
AcDbLine
 62
7
  6
CONTINUOUS
 10
37.7102511394
 20
66.7617334407
 11
37.7766958664
 21
66.7617334407
  0
LINE
  5
32F
100
AcDbEntity
  8
0
100
AcDbLine
 62
7
  6
CONTINUOUS
 10
30.9033530049
 20
66.8117067834
 11
28.7033530049
 21
66.8117067834
  0
LINE
  5
330
100
AcDbEntity
  8
0
100
AcDbLine
 62
7
  6
CONTINUOUS
 10
30.7533530049
 20
66.9117067834
 11
28.8533530049
 21
66.9117067834
  0
LINE
  5
331
100
AcDbEntity
  8
0
100
AcDbLine
 62
7
  6
CONTINUOUS
 10
30.9033530049
 20
67.1117067833
 11
30.7533530049
 21
67.1117067833
  0
LINE
  5
332
100
AcDbEntity
  8
0
100
AcDbLine
 62
7
  6
CONTINUOUS
 10
28.8533530049
 20
67.3117067834
 11
30.7533530049
 21
67.3117067834
  0
LINE
  5
333
100
AcDbEntity
  8
0
100
AcDbLine
 62
7
  6
CONTINUOUS
 10
28.7033530049
 20
67.4117067834
 11
30.9033530049
 21
67.4117067834
  0
LINE
  5
334
100
AcDbEntity
  8
0
100
AcDbLine
 62
7
  6
CONTINUOUS
 10
36.8419307273
 20
67.5530065728
 11
37.7766958664
 21
67.5530065728
  0
LINE
  5
335
100
AcDbEntity
  8
0
100
AcDbLine
 62
7
  6
CONTINUOUS
 10
54.3167392463
 20
68.0547399902
 11
57.3027142741
 21
68.0547399902
  0
LINE
  5
336
100
AcDbEntity
  8
0
100
AcDbLine
 62
7
  6
CONTINUOUS
 10
57.2028055933
 20
68.1547247365
 11
54.4167240222
 21
68.1547247551
  0
LINE
  5
337
100
AcDbEntity
  8
0
100
AcDbLine
 62
7
  6
CONTINUOUS
 10
57.5197555584
 20
68.3678497478
 11
54.1075293328
 21
68.3678497478
  0
LINE
  5
338
100
AcDbEntity
  8
0
100
AcDbLine
 62
7
  6
CONTINUOUS
 10
37.2064354462
 20
68.5204603085
 11
37.7766958664
 21
68.5204603085
  0
LINE
  5
339
100
AcDbEntity
  8
0
100
AcDbLine
 62
7
  6
CONTINUOUS
 10
34.1104597589
 20
80.7129312354
 11
34.0615246505
 21
80.7618593652
  0
LINE
  5
33A
100
AcDbEntity
  8
0
100
AcDbLine
 62
7
  6
CONTINUOUS
 10
34.761438962
 20
81.461733438
 11
34.810353263
 21
81.4128249894
  0
LINE
  5
33B
100
AcDbEntity
  8
0
100
AcDbLine
 62
7
  6
CONTINUOUS
 10
48.4533530049
 20
84.3117067834
 11
48.4533530049
 21
84.1117067834
  0
LINE
  5
33C
100
AcDbEntity
  8
0
100
AcDbLine
 62
7
  6
CONTINUOUS
 10
48.4533530049
 20
57.6117067834
 11
48.4533530049
 21
57.9158263174
  0
LINE
  5
33D
100
AcDbEntity
  8
0
100
AcDbLine
 62
7
  6
CONTINUOUS
 10
48.488539883
 20
72.2129140441
 11
48.488539883
 21
79.7129140441
  0
LINE
  5
33E
100
AcDbEntity
  8
0
100
AcDbLine
 62
7
  6
CONTINUOUS
 10
48.811539883
 20
72.0942797051
 11
48.811539883
 21
72.2129140441
  0
LINE
  5
33F
100
AcDbEntity
  8
0
100
AcDbLine
 62
7
  6
CONTINUOUS
 10
48.811539883
 20
79.7129140441
 11
48.811539883
 21
79.8291871763
  0
LINE
  5
340
100
AcDbEntity
  8
0
100
AcDbLine
 62
7
  6
CONTINUOUS
 10
49.3033530049
 20
81.7735657322
 11
49.3033530049
 21
81.4867067834
  0
LINE
  5
341
100
AcDbEntity
  8
0
100
AcDbLine
 62
7
  6
CONTINUOUS
 10
49.3033530049
 20
60.4617067834
 11
49.3033530049
 21
60.2583854462
  0
LINE
  5
342
100
AcDbEntity
  8
0
100
AcDbLine
 62
7
  6
CONTINUOUS
 10
49.711539883
 20
72.1021338861
 11
49.711539883
 21
72.2129140441
  0
LINE
  5
343
100
AcDbEntity
  8
0
100
AcDbLine
 62
7
  6
CONTINUOUS
 10
49.711539883
 20
79.7129140441
 11
49.711539883
 21
79.8213329953
  0
LINE
  5
344
100
AcDbEntity
  8
0
100
AcDbLine
 62
7
  6
CONTINUOUS
 10
50.3286971705
 20
70.7445494958
 11
50.3286971705
 21
60.5106418918
  0
LINE
  5
345
100
AcDbEntity
  8
0
100
AcDbLine
 62
7
  6
CONTINUOUS
 10
50.4701185268
 20
60.7106114307
 11
50.4701185268
 21
70.6031281395
  0
LINE
  5
346
100
AcDbEntity
  8
0
100
AcDbLine
 62
7
  6
CONTINUOUS
 10
60.5127111791
 20
81.4128249894
 11
60.5616244178
 21
81.461733438
  0
LINE
  5
347
100
AcDbEntity
  8
0
100
AcDbLine
 62
7
  6
CONTINUOUS
 10
60.320266515
 20
69.1205289212
 11
58.9115008141
 21
69.1117477428
  0
LINE
  5
348
100
AcDbEntity
  8
0
100
AcDbLine
 62
7
  6
CONTINUOUS
 10
37.8196965184
 20
68.8134958961
 11
37.844759643
 21
68.8134958976
  0
LINE
  5
349
100
AcDbEntity
  8
0
100
AcDbLine
 62
7
  6
CONTINUOUS
 10
53.4075336382
 20
69.0617410564
 11
58.2197512531
 21
69.0617410564
  0
LINE
  5
34A
100
AcDbEntity
  8
0
100
AcDbLine
 62
7
  6
CONTINUOUS
 10
37.7766958664
 20
69.2159755892
 11
34.2644388647
 21
69.2159755892
  0
LINE
  5
34B
100
AcDbEntity
  8
0
100
AcDbLine
 62
7
  6
CONTINUOUS
 10
51.4943825955
 20
69.6617067833
 11
61.0280453125
 21
69.6617067833
  0
LINE
  5
34C
100
AcDbEntity
  8
0
100
AcDbLine
 62
7
  6
CONTINUOUS
 10
61.0280453125
 20
69.7202854271
 11
51.3529612392
 21
69.7202854271
  0
LINE
  5
34D
100
AcDbEntity
  8
0
100
AcDbLine
 62
7
  6
CONTINUOUS
 10
11.0033530049
 20
69.7617067834
 11
13.1033530049
 21
69.7617067834
  0
LINE
  5
34E
100
AcDbEntity
  8
0
100
AcDbLine
 62
7
  6
CONTINUOUS
 10
75.9033530049
 20
69.7617067834
 11
78.0033530049
 21
69.7617067834
  0
LINE
  5
34F
100
AcDbEntity
  8
0
100
AcDbLine
 62
7
  6
CONTINUOUS
 10
87.1033530049
 20
69.7617067834
 11
89.2033530049
 21
69.7617067834
  0
LINE
  5
350
100
AcDbEntity
  8
0
100
AcDbLine
 62
7
  6
CONTINUOUS
 10
29.2033530049
 20
69.8117067834
 11
34.0624929333
 21
69.8117067834
  0
LINE
  5
351
100
AcDbEntity
  8
0
100
AcDbLine
 62
7
  6
CONTINUOUS
 10
61.2405328784
 20
69.8617067801
 11
61.2280148515
 21
69.8617067833
  0
LINE
  5
352
100
AcDbEntity
  8
0
100
AcDbLine
 62
7
  6
CONTINUOUS
 10
89.6033530049
 20
70.1617067834
 11
87.1033530049
 21
70.1617067834
  0
LINE
  5
353
100
AcDbEntity
  8
0
100
AcDbLine
 62
7
  6
CONTINUOUS
 10
78.4033530049
 20
70.1617067834
 11
75.9033530049
 21
70.1617067834
  0
LINE
  5
354
100
AcDbEntity
  8
0
100
AcDbLine
 62
7
  6
CONTINUOUS
 10
13.1033530049
 20
70.1617067834
 11
10.6033530049
 21
70.1617067834
  0
LINE
  5
355
100
AcDbEntity
  8
0
100
AcDbLine
 62
7
  6
CONTINUOUS
 10
50.4701185268
 20
70.6031281395
 11
61.0126352356
 21
70.6031281395
  0
LINE
  5
356
100
AcDbEntity
  8
0
100
AcDbLine
 62
7
  6
CONTINUOUS
 10
61.2126047745
 20
70.7445494958
 11
50.3286971705
 21
70.7445494958
  0
LINE
  5
357
100
AcDbEntity
  8
0
100
AcDbLine
 62
7
  6
CONTINUOUS
 10
42.9033530049
 20
70.822125031
 11
38.1033530049
 21
70.822125031
  0
LINE
  5
358
100
AcDbEntity
  8
0
100
AcDbLine
 62
7
  6
CONTINUOUS
 10
61.3837315292
 20
70.9617067834
 11
61.2604520099
 21
70.9617067834
  0
LINE
  5
359
100
AcDbEntity
  8
0
100
AcDbLine
 62
7
  6
CONTINUOUS
 10
42.9033530049
 20
71.022125031
 11
38.1033530049
 21
71.022125031
  0
LINE
  5
35A
100
AcDbEntity
  8
0
100
AcDbLine
 62
7
  6
CONTINUOUS
 10
54.711539883
 20
71.1117334407
 11
55.811539883
 21
71.1117334407
  0
LINE
  5
35B
100
AcDbEntity
  8
0
100
AcDbLine
 62
7
  6
CONTINUOUS
 10
38.1033530049
 20
71.222125031
 11
42.9033530049
 21
71.222125031
  0
LINE
  5
35C
100
AcDbEntity
  8
0
100
AcDbLine
 62
7
  6
CONTINUOUS
 10
55.811539883
 20
71.2686888093
 11
54.7667087871
 21
71.2686888093
  0
LINE
  5
35D
100
AcDbEntity
  8
0
100
AcDbLine
 62
7
  6
CONTINUOUS
 10
57.5197600285
 20
62.3556376865
 11
58.2197512531
 21
61.6617410564
  0
LINE
  5
35E
100
AcDbEntity
  8
0
100
AcDbLine
 62
7
  6
CONTINUOUS
 10
60.5616476071
 20
60.4617067834
 11
60.5406397418
 21
60.4827137881
  0
LINE
  5
35F
100
AcDbEntity
  8
0
100
AcDbLine
 62
7
  6
CONTINUOUS
 10
50.3286971705
 20
70.7445494958
 11
51.3529612393
 21
69.720285427
  0
LINE
  5
360
100
AcDbEntity
  8
0
100
AcDbLine
 62
7
  6
CONTINUOUS
 10
57.3097267611
 20
62.6617220185
 11
57.3027142751
 21
62.6687439976
  0
LINE
  5
361
100
AcDbEntity
  8
0
100
AcDbLine
 62
7
  6
CONTINUOUS
 10
51.0033530049
 20
81.8742150697
 11
51.0033530049
 21
81.4617067834
  0
LINE
  5
362
100
AcDbEntity
  8
0
100
AcDbLine
 62
7
  6
CONTINUOUS
 10
51.0033530049
 20
60.4617067834
 11
51.0033530049
 21
60.1577361087
  0
LINE
  5
363
100
AcDbEntity
  8
0
100
AcDbLine
 62
7
  6
CONTINUOUS
 10
51.7533530049
 20
57.6117067834
 11
51.7533530049
 21
57.9158263174
  0
LINE
  5
364
100
AcDbEntity
  8
0
100
AcDbLine
 62
7
  6
CONTINUOUS
 10
51.7533530049
 20
84.1117067834
 11
51.7533530049
 21
84.3117067834
  0
LINE
  5
365
100
AcDbEntity
  8
0
100
AcDbLine
 62
7
  6
CONTINUOUS
 10
51.811539883
 20
72.1021338861
 11
51.811539883
 21
72.2129140441
  0
LINE
  5
366
100
AcDbEntity
  8
0
100
AcDbLine
 62
7
  6
CONTINUOUS
 10
51.811539883
 20
79.7129140441
 11
51.811539883
 21
79.8213329953
  0
LINE
  5
367
100
AcDbEntity
  8
0
100
AcDbLine
 62
7
  6
CONTINUOUS
 10
51.9248166288
 20
79.8326528662
 11
51.9248166289
 21
79.7129140441
  0
LINE
  5
368
100
AcDbEntity
  8
0
100
AcDbLine
 62
7
  6
CONTINUOUS
 10
51.9248166312
 20
72.2129140441
 11
51.9248166313
 21
72.0907607055
  0
LINE
  5
369
100
AcDbEntity
  8
0
100
AcDbLine
 62
7
  6
CONTINUOUS
 10
51.9457627092
 20
72.1117067834
 11
51.9457627092
 21
72.2129140441
  0
LINE
  5
36A
100
AcDbEntity
  8
0
100
AcDbLine
 62
7
  6
CONTINUOUS
 10
51.9457627092
 20
79.7129140441
 11
51.9457627092
 21
79.8117067834
  0
LINE
  5
36B
100
AcDbEntity
  8
0
100
AcDbLine
 62
7
  6
CONTINUOUS
 10
52.0115342975
 20
69.6617067833
 11
52.0115291249
 21
60.683013588
  0
LINE
  5
36C
100
AcDbEntity
  8
0
100
AcDbLine
 62
7
  6
CONTINUOUS
 10
52.9033530049
 20
57.9158263174
 11
52.9033530049
 21
57.8117067834
  0
LINE
  5
36D
100
AcDbEntity
  8
0
100
AcDbLine
 62
7
  6
CONTINUOUS
 10
53.2033530049
 20
57.5117067834
 11
53.2033530049
 21
57.9158263174
  0
LINE
  5
36E
100
AcDbEntity
  8
0
100
AcDbLine
 62
7
  6
CONTINUOUS
 10
53.2033530049
 20
84.1117067834
 11
53.2033530049
 21
84.4117067834
  0
LINE
  5
36F
100
AcDbEntity
  8
0
100
AcDbLine
 62
7
  6
CONTINUOUS
 10
54.6529505556
 20
79.8965033715
 11
54.711539883
 21
80.0379368908
  0
LINE
  5
370
100
AcDbEntity
  8
0
100
AcDbLine
 62
7
  6
CONTINUOUS
 10
51.9457627092
 20
72.1117067834
 11
51.9303115043
 21
72.0962555785
  0
LINE
  5
371
100
AcDbEntity
  8
0
100
AcDbLine
 62
7
  6
CONTINUOUS
 10
61.2615398827
 20
80.7618575433
 11
61.2126047744
 21
80.7129311443
  0
LINE
  5
372
100
AcDbEntity
  8
0
100
AcDbLine
 62
7
  6
CONTINUOUS
 10
73.9225602258
 20
73.8483890917
 11
72.8241541621
 21
73.7891934888
  0
LINE
  5
373
100
AcDbEntity
  8
0
100
AcDbLine
 62
7
  6
CONTINUOUS
 10
71.8256031952
 20
73.7353793044
 11
70.7271971316
 21
73.6761837015
  0
LINE
  5
374
100
AcDbEntity
  8
0
100
AcDbLine
 62
7
  6
CONTINUOUS
 10
70.684145784
 20
74.475024475
 11
71.7825518476
 21
74.5342200779
  0
LINE
  5
375
100
AcDbEntity
  8
0
100
AcDbLine
 62
7
  6
CONTINUOUS
 10
72.7811028146
 20
74.5880342624
 11
73.8795088782
 21
74.6472298653
  0
LINE
  5
376
100
AcDbEntity
  8
0
100
AcDbLine
 62
7
  6
CONTINUOUS
 10
49.711539883
 20
72.1021338861
 11
48.811539883
 21
72.0942797051
  0
LINE
  5
377
100
AcDbEntity
  8
0
100
AcDbLine
 62
7
  6
CONTINUOUS
 10
10.6033530049
 20
71.7617067834
 11
13.1033530049
 21
71.7617067833
  0
LINE
  5
378
100
AcDbEntity
  8
0
100
AcDbLine
 62
7
  6
CONTINUOUS
 10
75.9033530049
 20
71.7617067833
 11
78.4033530049
 21
71.7617067834
  0
LINE
  5
379
100
AcDbEntity
  8
0
100
AcDbLine
 62
7
  6
CONTINUOUS
 10
87.1033530049
 20
71.7617067833
 11
89.6033530049
 21
71.7617067834
  0
LINE
  5
37A
100
AcDbEntity
  8
0
100
AcDbLine
 62
7
  6
CONTINUOUS
 10
55.538539883
 20
71.8129140441
 11
54.838539883
 21
71.8129140441
  0
LINE
  5
37B
100
AcDbEntity
  8
0
100
AcDbLine
 62
7
  6
CONTINUOUS
 10
54.7667087871
 20
72.0837786795
 11
54.838539883
 21
72.0837786795
  0
LINE
  5
37C
100
AcDbEntity
  8
0
100
AcDbLine
 62
7
  6
CONTINUOUS
 10
54.5115170363
 20
72.0855528373
 11
47.8706664434
 21
72.0855528373
  0
LINE
  5
37D
100
AcDbEntity
  8
0
100
AcDbLine
 62
7
  6
CONTINUOUS
 10
55.538539883
 20
72.0837786795
 11
60.811539883
 21
72.0855528373
  0
LINE
  5
37E
100
AcDbEntity
  8
0
100
AcDbLine
 62
7
  6
CONTINUOUS
 10
54.7597267611
 20
72.0907607055
 11
54.5071536024
 21
72.0907607055
  0
LINE
  5
37F
100
AcDbEntity
  8
0
100
AcDbLine
 62
7
  6
CONTINUOUS
 10
51.811539883
 20
72.1021338861
 11
49.711539883
 21
72.1021338861
  0
LINE
  5
380
100
AcDbEntity
  8
0
100
AcDbLine
 62
7
  6
CONTINUOUS
 10
59.9673766901
 20
72.1117067834
 11
58.761539883
 21
72.1117067834
  0
LINE
  5
381
100
AcDbEntity
  8
0
100
AcDbLine
 62
7
  6
CONTINUOUS
 10
57.861539883
 20
72.1117067834
 11
55.538539883
 21
72.1117067834
  0
LINE
  5
382
100
AcDbEntity
  8
0
100
AcDbLine
 62
7
  6
CONTINUOUS
 10
54.838539883
 20
72.1117067834
 11
53.446618463
 21
72.1117067834
  0
LINE
  5
383
100
AcDbEntity
  8
0
100
AcDbLine
 62
7
  6
CONTINUOUS
 10
53.130461303
 20
72.1117067834
 11
51.9457627092
 21
72.1117067834
  0
LINE
  5
384
100
AcDbEntity
  8
0
100
AcDbLine
 62
7
  6
CONTINUOUS
 10
34.062492934
 20
72.1117067834
 11
29.2033530049
 21
72.1117067834
  0
LINE
  5
385
100
AcDbEntity
  8
0
100
AcDbLine
 62
7
  6
CONTINUOUS
 10
89.2033530049
 20
72.1617067834
 11
87.1033530049
 21
72.1617067834
  0
LINE
  5
386
100
AcDbEntity
  8
0
100
AcDbLine
 62
7
  6
CONTINUOUS
 10
78.0033530049
 20
72.1617067834
 11
75.9033530049
 21
72.1617067834
  0
LINE
  5
387
100
AcDbEntity
  8
0
100
AcDbLine
 62
7
  6
CONTINUOUS
 10
13.1033530049
 20
72.1617067834
 11
11.0033530049
 21
72.1617067834
  0
LINE
  5
388
100
AcDbEntity
  8
0
100
AcDbLine
 62
7
  6
CONTINUOUS
 10
60.0710913047
 20
72.2129140441
 11
48.488539883
 21
72.2129140441
  0
LINE
  5
389
100
AcDbEntity
  8
0
100
AcDbLine
 62
7
  6
CONTINUOUS
 10
34.2644388647
 20
72.8159755892
 11
37.7766958664
 21
72.8159755892
  0
LINE
  5
38A
100
AcDbEntity
  8
0
100
AcDbLine
 62
7
  6
CONTINUOUS
 10
37.8447596233
 20
73.2184548173
 11
37.8196965074
 21
73.2184548173
  0
LINE
  5
38B
100
AcDbEntity
  8
0
100
AcDbLine
 62
7
  6
CONTINUOUS
 10
36.6113573202
 20
73.6331219698
 11
36.7064354462
 21
73.6331219697
  0
LINE
  5
38C
100
AcDbEntity
  8
0
100
AcDbLine
 62
7
  6
CONTINUOUS
 10
52.058397656
 20
72.0899162712
 11
51.811539883
 21
72.1021338861
  0
LINE
  5
38D
100
AcDbEntity
  8
0
100
AcDbLine
 62
7
  6
CONTINUOUS
 10
54.6529505556
 20
72.0269635099
 11
54.5115170363
 21
72.0855528373
  0
LINE
  5
38E
100
AcDbEntity
  8
0
100
AcDbLine
 62
7
  6
CONTINUOUS
 10
53.4075336382
 20
69.0617410564
 11
54.1075293329
 21
68.3678403475
  0
LINE
  5
38F
100
AcDbEntity
  8
0
100
AcDbLine
 62
7
  6
CONTINUOUS
 10
61.2405328783
 20
61.1826071744
 11
61.261539883
 21
61.1616001697
  0
LINE
  5
390
100
AcDbEntity
  8
0
100
AcDbLine
 62
7
  6
CONTINUOUS
 10
60.320266515
 20
61.6029609625
 11
60.311539883
 21
61.6117420665
  0
LINE
  5
391
100
AcDbEntity
  8
0
100
AcDbLine
 62
7
  6
CONTINUOUS
 10
53.4075336382
 20
61.6617410564
 11
53.4075336382
 21
69.0617410564
  0
LINE
  5
392
100
AcDbEntity
  8
0
100
AcDbLine
 62
7
  6
CONTINUOUS
 10
54.0033530049
 20
84.0519808196
 11
54.0033530049
 21
82.0518315477
  0
LINE
  5
393
100
AcDbEntity
  8
0
100
AcDbLine
 62
7
  6
CONTINUOUS
 10
54.0033530049
 20
59.9801196307
 11
54.0033530049
 21
57.9799703589
  0
LINE
  5
394
100
AcDbEntity
  8
0
100
AcDbLine
 62
7
  6
CONTINUOUS
 10
54.1075336382
 20
68.3678444263
 11
54.1075336382
 21
62.3556376865
  0
LINE
  5
395
100
AcDbEntity
  8
0
100
AcDbLine
 62
7
  6
CONTINUOUS
 10
54.3167392466
 20
68.0547304742
 11
54.3167392461
 21
62.6687462054
  0
LINE
  5
396
100
AcDbEntity
  8
0
100
AcDbLine
 62
7
  6
CONTINUOUS
 10
54.4167240199
 20
62.5687497382
 11
54.4167240199
 21
68.1547247458
  0
LINE
  5
397
100
AcDbEntity
  8
0
100
AcDbLine
 62
7
  6
CONTINUOUS
 10
54.711539883
 20
71.1117334407
 11
54.711539883
 21
71.8855299906
  0
LINE
  5
398
100
AcDbEntity
  8
0
100
AcDbLine
 62
7
  6
CONTINUOUS
 10
54.711539883
 20
80.0379368908
 11
54.711539883
 21
80.8117334407
  0
LINE
  5
399
100
AcDbEntity
  8
0
100
AcDbLine
 62
7
  6
CONTINUOUS
 10
54.7412594364
 20
80.8117334407
 11
54.7412594364
 21
80.7117067834
  0
LINE
  5
39A
100
AcDbEntity
  8
0
100
AcDbLine
 62
7
  6
CONTINUOUS
 10
54.7667087871
 20
71.2686888093
 11
54.7667087871
 21
72.0837786795
  0
LINE
  5
39B
100
AcDbEntity
  8
0
100
AcDbLine
 62
7
  6
CONTINUOUS
 10
54.7667087871
 20
79.8396348873
 11
54.7667087871
 21
80.6547247574
  0
LINE
  5
39C
100
AcDbEntity
  8
0
100
AcDbLine
 62
7
  6
CONTINUOUS
 10
54.838539883
 20
80.1129140441
 11
54.838539883
 21
79.7129140441
  0
LINE
  5
39D
100
AcDbEntity
  8
0
100
AcDbLine
 62
7
  6
CONTINUOUS
 10
54.838539883
 20
72.2129140441
 11
54.838539883
 21
71.8129140441
  0
LINE
  5
39E
100
AcDbEntity
  8
0
100
AcDbLine
 62
7
  6
CONTINUOUS
 10
55.0912594364
 20
80.7117067834
 11
55.0912594364
 21
80.8117334407
  0
LINE
  5
39F
100
AcDbEntity
  8
0
100
AcDbLine
 62
7
  6
CONTINUOUS
 10
55.318539883
 20
74.5529140441
 11
55.318539883
 21
77.3529140441
  0
LINE
  5
3A0
100
AcDbEntity
  8
0
100
AcDbLine
 62
7
  6
CONTINUOUS
 10
55.3912594364
 20
80.8117334407
 11
55.3912594364
 21
80.7117067834
  0
LINE
  5
3A1
100
AcDbEntity
  8
0
100
AcDbLine
 62
7
  6
CONTINUOUS
 10
55.538539883
 20
71.8129140441
 11
55.538539883
 21
72.2129140441
  0
LINE
  5
3A2
100
AcDbEntity
  8
0
100
AcDbLine
 62
7
  6
CONTINUOUS
 10
55.538539883
 20
79.7129140441
 11
55.538539883
 21
80.1129140441
  0
LINE
  5
3A3
100
AcDbEntity
  8
0
100
AcDbLine
 62
7
  6
CONTINUOUS
 10
55.6569044488
 20
74.7129140441
 11
55.6569044488
 21
77.2129140441
  0
LINE
  5
3A4
100
AcDbEntity
  8
0
100
AcDbLine
 62
7
  6
CONTINUOUS
 10
55.7412594364
 20
80.7117067834
 11
55.7412594364
 21
80.8117334407
  0
LINE
  5
3A5
100
AcDbEntity
  8
0
100
AcDbLine
 62
7
  6
CONTINUOUS
 10
55.7533530049
 20
58.7159755892
 11
55.7533530049
 21
59.9587382835
  0
LINE
  5
3A6
100
AcDbEntity
  8
0
100
AcDbLine
 62
7
  6
CONTINUOUS
 10
55.7533530049
 20
82.0732128949
 11
55.7533530049
 21
83.3159755892
  0
LINE
  5
3A7
100
AcDbEntity
  8
0
100
AcDbLine
 62
7
  6
CONTINUOUS
 10
55.811539883
 20
71.8852029257
 11
55.811539883
 21
71.1117334407
  0
LINE
  5
3A8
100
AcDbEntity
  8
0
100
AcDbLine
 62
7
  6
CONTINUOUS
 10
55.811539883
 20
80.0382639557
 11
55.811539883
 21
80.8117334407
  0
LINE
  5
3A9
100
AcDbEntity
  8
0
100
AcDbLine
 62
7
  6
CONTINUOUS
 10
37.7766958664
 20
60.5610813778
 11
36.9281159238
 21
60.2090928066
  0
LINE
  5
3AA
100
AcDbEntity
  8
0
100
AcDbLine
 62
7
  6
CONTINUOUS
 10
30.9033530049
 20
74.5117067834
 11
28.7033530049
 21
74.5117067834
  0
LINE
  5
3AB
100
AcDbEntity
  8
0
100
AcDbLine
 62
7
  6
CONTINUOUS
 10
55.318539883
 20
74.5529140441
 11
60.0710913047
 21
74.5529140441
  0
LINE
  5
3AC
100
AcDbEntity
  8
0
100
AcDbLine
 62
7
  6
CONTINUOUS
 10
28.8533530049
 20
74.6117067834
 11
30.7533530049
 21
74.6117067834
  0
LINE
  5
3AD
100
AcDbEntity
  8
0
100
AcDbLine
 62
7
  6
CONTINUOUS
 10
59.8569044488
 20
74.7129140441
 11
55.6569044488
 21
74.7129140441
  0
LINE
  5
3AE
100
AcDbEntity
  8
0
100
AcDbLine
 62
7
  6
CONTINUOUS
 10
30.7533530049
 20
74.8117067834
 11
30.9033530049
 21
74.8117067834
  0
LINE
  5
3AF
100
AcDbEntity
  8
0
100
AcDbLine
 62
7
  6
CONTINUOUS
 10
28.8533530049
 20
75.0117067834
 11
30.7533530049
 21
75.0117067834
  0
LINE
  5
3B0
100
AcDbEntity
  8
0
100
AcDbLine
 62
7
  6
CONTINUOUS
 10
36.7064354462
 20
75.0903458298
 11
36.6114019002
 21
75.0903458406
  0
LINE
  5
3B1
100
AcDbEntity
  8
0
100
AcDbLine
 62
7
  6
CONTINUOUS
 10
28.7033530049
 20
75.1117067834
 11
30.9033530049
 21
75.1117067834
  0
LINE
  5
3B2
100
AcDbEntity
  8
0
100
AcDbLine
 62
7
  6
CONTINUOUS
 10
36.6181160496
 20
75.9617067834
 11
36.7064354462
 21
75.9617067834
  0
LINE
  5
3B3
100
AcDbEntity
  8
0
100
AcDbLine
 62
7
  6
CONTINUOUS
 10
11.0033530049
 20
76.1617067834
 11
13.1033530049
 21
76.1617067834
  0
LINE
  5
3B4
100
AcDbEntity
  8
0
100
AcDbLine
 62
7
  6
CONTINUOUS
 10
75.9033530049
 20
76.1617067834
 11
78.0033530049
 21
76.1617067834
  0
LINE
  5
3B5
100
AcDbEntity
  8
0
100
AcDbLine
 62
7
  6
CONTINUOUS
 10
87.1033530049
 20
76.1617067834
 11
89.2033530049
 21
76.1617067834
  0
LINE
  5
3B6
100
AcDbEntity
  8
0
100
AcDbLine
 62
7
  6
CONTINUOUS
 10
89.6033530049
 20
76.5617067834
 11
87.1033530049
 21
76.5617067834
  0
LINE
  5
3B7
100
AcDbEntity
  8
0
100
AcDbLine
 62
7
  6
CONTINUOUS
 10
78.4033530049
 20
76.5617067834
 11
75.9033530049
 21
76.5617067834
  0
LINE
  5
3B8
100
AcDbEntity
  8
0
100
AcDbLine
 62
7
  6
CONTINUOUS
 10
13.1033530049
 20
76.5617067834
 11
10.6033530049
 21
76.5617067834
  0
LINE
  5
3B9
100
AcDbEntity
  8
0
100
AcDbLine
 62
7
  6
CONTINUOUS
 10
36.6115198149
 20
76.608674743
 11
36.7064354462
 21
76.608674743
  0
LINE
  5
3BA
100
AcDbEntity
  8
0
100
AcDbLine
 62
7
  6
CONTINUOUS
 10
59.8569044488
 20
76.6367067834
 11
59.9569044488
 21
76.6367067834
  0
LINE
  5
3BB
100
AcDbEntity
  8
0
100
AcDbLine
 62
7
  6
CONTINUOUS
 10
37.7766958664
 20
81.4708698006
 11
36.9281159238
 21
81.8228583718
  0
LINE
  5
3BC
100
AcDbEntity
  8
0
100
AcDbLine
 62
7
  6
CONTINUOUS
 10
54.711539883
 20
71.8855299906
 11
54.6529505556
 21
72.0269635099
  0
LINE
  5
3BD
100
AcDbEntity
  8
0
100
AcDbLine
 62
7
  6
CONTINUOUS
 10
56.1033530049
 20
59.4117067834
 11
56.1033530049
 21
60.0117067834
  0
LINE
  5
3BE
100
AcDbEntity
  8
0
100
AcDbLine
 62
7
  6
CONTINUOUS
 10
56.1033530049
 20
81.9117067834
 11
56.1033530049
 21
82.5117067834
  0
LINE
  5
3BF
100
AcDbEntity
  8
0
100
AcDbLine
 62
7
  6
CONTINUOUS
 10
56.6569044488
 20
74.7129140441
 11
56.6569044488
 21
77.2129140441
  0
LINE
  5
3C0
100
AcDbEntity
  8
0
100
AcDbLine
 62
7
  6
CONTINUOUS
 10
57.2027295024
 20
62.5687497382
 11
57.2027295024
 21
68.1547247458
  0
LINE
  5
3C1
100
AcDbEntity
  8
0
100
AcDbLine
 62
7
  6
CONTINUOUS
 10
57.3027142751
 20
62.6687439976
 11
57.302714273
 21
68.0547387555
  0
LINE
  5
3C2
100
AcDbEntity
  8
0
100
AcDbLine
 62
7
  6
CONTINUOUS
 10
57.5197512531
 20
62.3556376865
 11
57.5197512531
 21
68.3678444263
  0
LINE
  5
3C3
100
AcDbEntity
  8
0
100
AcDbLine
 62
7
  6
CONTINUOUS
 10
58.2197512531
 20
69.0617410564
 11
58.2197512531
 21
61.6617410564
  0
LINE
  5
3C4
100
AcDbEntity
  8
0
100
AcDbLine
 62
7
  6
CONTINUOUS
 10
58.2197512531
 20
69.0617410564
 11
57.5197600285
 21
68.3678444263
  0
LINE
  5
3C5
100
AcDbEntity
  8
0
100
AcDbLine
 62
7
  6
CONTINUOUS
 10
36.9281159238
 20
58.2089435348
 11
37.9033530049
 21
58.6134691304
  0
LINE
  5
3C6
100
AcDbEntity
  8
0
100
AcDbLine
 62
7
  6
CONTINUOUS
 10
73.9225602258
 20
80.2483890917
 11
72.8241541621
 21
80.1891934888
  0
LINE
  5
3C7
100
AcDbEntity
  8
0
100
AcDbLine
 62
7
  6
CONTINUOUS
 10
71.8256031952
 20
80.1353793044
 11
70.7271971316
 21
80.0761837015
  0
LINE
  5
3C8
100
AcDbEntity
  8
0
100
AcDbLine
 62
7
  6
CONTINUOUS
 10
36.7064354462
 20
77.0017334407
 11
36.6072074648
 21
77.0017334407
  0
LINE
  5
3C9
100
AcDbEntity
  8
0
100
AcDbLine
 62
7
  6
CONTINUOUS
 10
55.6569044488
 20
77.2129140441
 11
59.8569044488
 21
77.2129140441
  0
LINE
  5
3CA
100
AcDbEntity
  8
0
100
AcDbLine
 62
7
  6
CONTINUOUS
 10
59.8569044471
 20
77.2367067704
 11
59.9569044488
 21
77.2367067774
  0
LINE
  5
3CB
100
AcDbEntity
  8
0
100
AcDbLine
 62
7
  6
CONTINUOUS
 10
55.318539883
 20
77.3529140441
 11
60.0710913047
 21
77.3529140441
  0
LINE
  5
3CC
100
AcDbEntity
  8
0
100
AcDbLine
 62
7
  6
CONTINUOUS
 10
29.7033530049
 20
77.4117067834
 11
23.2033530049
 21
77.4117067834
  0
LINE
  5
3CD
100
AcDbEntity
  8
0
100
AcDbLine
 62
7
  6
CONTINUOUS
 10
36.600662314
 20
77.4682785915
 11
36.7064354462
 21
77.4682785915
  0
LINE
  5
3CE
100
AcDbEntity
  8
0
100
AcDbLine
 62
7
  6
CONTINUOUS
 10
10.6033530049
 20
78.1617067834
 11
13.1033530049
 21
78.1617067833
  0
LINE
  5
3CF
100
AcDbEntity
  8
0
100
AcDbLine
 62
7
  6
CONTINUOUS
 10
19.5033530049
 20
78.1617067834
 11
22.0033530049
 21
78.1617067833
  0
LINE
  5
3D0
100
AcDbEntity
  8
0
100
AcDbLine
 62
7
  6
CONTINUOUS
 10
75.9033530049
 20
78.1617067833
 11
78.4033530049
 21
78.1617067834
  0
LINE
  5
3D1
100
AcDbEntity
  8
0
100
AcDbLine
 62
7
  6
CONTINUOUS
 10
87.1033530049
 20
78.1617067833
 11
89.6033530049
 21
78.1617067834
  0
LINE
  5
3D2
100
AcDbEntity
  8
0
100
AcDbLine
 62
7
  6
CONTINUOUS
 10
89.2033530049
 20
78.5617067834
 11
87.1033530049
 21
78.5617067834
  0
LINE
  5
3D3
100
AcDbEntity
  8
0
100
AcDbLine
 62
7
  6
CONTINUOUS
 10
78.0033530049
 20
78.5617067834
 11
75.9033530049
 21
78.5617067834
  0
LINE
  5
3D4
100
AcDbEntity
  8
0
100
AcDbLine
 62
7
  6
CONTINUOUS
 10
22.0033530049
 20
78.5617067834
 11
19.9033530049
 21
78.5617067834
  0
LINE
  5
3D5
100
AcDbEntity
  8
0
100
AcDbLine
 62
7
  6
CONTINUOUS
 10
13.1033530049
 20
78.5617067834
 11
11.0033530049
 21
78.5617067834
  0
LINE
  5
3D6
100
AcDbEntity
  8
0
100
AcDbLine
 62
7
  6
CONTINUOUS
 10
37.8946244164
 20
83.4221026419
 11
36.9281159238
 21
83.8230076437
  0
LINE
  5
3D7
100
AcDbEntity
  8
0
100
AcDbLine
 62
7
  6
CONTINUOUS
 10
51.9457627092
 20
79.8117067834
 11
51.9302607056
 21
79.8272087887
  0
LINE
  5
3D8
100
AcDbEntity
  8
0
100
AcDbLine
 62
7
  6
CONTINUOUS
 10
61.0280453125
 20
69.7202854271
 11
61.0126352356
 21
70.6031281395
  0
LINE
  5
3D9
100
AcDbEntity
  8
0
100
AcDbLine
 62
7
  6
CONTINUOUS
 10
61.2126047745
 20
70.7445494982
 11
61.2280148515
 21
69.8617067833
  0
LINE
  5
3DA
100
AcDbEntity
  8
0
100
AcDbLine
 62
7
  6
CONTINUOUS
 10
61.2609213762
 20
75.1900144544
 11
61.3347267611
 21
70.9617067834
  0
LINE
  5
3DB
100
AcDbEntity
  8
0
100
AcDbLine
 62
7
  6
CONTINUOUS
 10
61.3847490953
 20
70.9615181193
 11
61.2612374628
 21
78.0374948042
  0
LINE
  5
3DC
100
AcDbEntity
  8
0
100
AcDbLine
 62
7
  6
CONTINUOUS
 10
61.0388149989
 20
69.6617143985
 11
61.0405633377
 21
61.1826159735
  0
LINE
  5
3DD
100
AcDbEntity
  8
0
100
AcDbLine
 62
7
  6
CONTINUOUS
 10
58.8552844656
 20
83.3159755892
 11
58.8552844656
 21
82.5117067834
  0
LINE
  5
3DE
100
AcDbEntity
  8
0
100
AcDbLine
 62
7
  6
CONTINUOUS
 10
58.8552844656
 20
59.4117067834
 11
58.8552844656
 21
58.7159755892
  0
LINE
  5
3DF
100
AcDbEntity
  8
0
100
AcDbLine
 62
7
  6
CONTINUOUS
 10
58.9115008123
 20
61.6117420789
 11
58.9115008137
 21
69.1117478047
  0
LINE
  5
3E0
100
AcDbEntity
  8
0
100
AcDbLine
 62
7
  6
CONTINUOUS
 10
59.1033530049
 20
82.5117067834
 11
59.1033530049
 21
81.9117067834
  0
LINE
  5
3E1
100
AcDbEntity
  8
0
100
AcDbLine
 62
7
  6
CONTINUOUS
 10
59.1033530049
 20
60.0117067834
 11
59.1033530049
 21
59.4117067834
  0
LINE
  5
3E2
100
AcDbEntity
  8
0
100
AcDbLine
 62
7
  6
CONTINUOUS
 10
59.7846824158
 20
72.2129140441
 11
59.7846824158
 21
74.5529140441
  0
LINE
  5
3E3
100
AcDbEntity
  8
0
100
AcDbLine
 62
7
  6
CONTINUOUS
 10
59.7846824158
 20
77.3529140441
 11
59.7846824158
 21
79.7129140441
  0
LINE
  5
3E4
100
AcDbEntity
  8
0
100
AcDbLine
 62
7
  6
CONTINUOUS
 10
59.8569044488
 20
74.5529140441
 11
59.8569044488
 21
77.3529140441
  0
LINE
  5
3E5
100
AcDbEntity
  8
0
100
AcDbLine
 62
7
  6
CONTINUOUS
 10
59.9569044488
 20
79.8326528613
 11
59.9569044488
 21
79.7129140441
  0
LINE
  5
3E6
100
AcDbEntity
  8
0
100
AcDbLine
 62
7
  6
CONTINUOUS
 10
59.9569044488
 20
77.3529140441
 11
59.9569044488
 21
74.5529140441
  0
LINE
  5
3E7
100
AcDbEntity
  8
0
100
AcDbLine
 62
7
  6
CONTINUOUS
 10
59.9569044488
 20
72.2129140441
 11
59.9569044488
 21
72.0907607055
  0
LINE
  5
3E8
100
AcDbEntity
  8
0
100
AcDbLine
 62
7
  6
CONTINUOUS
 10
60.0601651051
 20
79.7129140441
 11
60.0601651051
 21
77.3529140441
  0
LINE
  5
3E9
100
AcDbEntity
  8
0
100
AcDbLine
 62
7
  6
CONTINUOUS
 10
60.0601651051
 20
74.5529140441
 11
60.0601651051
 21
72.2129140441
  0
LINE
  5
3EA
100
AcDbEntity
  8
0
100
AcDbLine
 62
7
  6
CONTINUOUS
 10
60.0710913047
 20
79.7129140441
 11
60.0710913047
 21
77.3529140441
  0
LINE
  5
3EB
100
AcDbEntity
  8
0
100
AcDbLine
 62
7
  6
CONTINUOUS
 10
60.0710913047
 20
74.5529140441
 11
60.0710913047
 21
72.2129140441
  0
LINE
  5
3EC
100
AcDbEntity
  8
0
100
AcDbLine
 62
7
  6
CONTINUOUS
 10
60.1847267611
 20
72.0899162715
 11
60.1847267611
 21
79.83355061
  0
LINE
  5
3ED
100
AcDbEntity
  8
0
100
AcDbLine
 62
7
  6
CONTINUOUS
 10
60.3202665898
 20
61.6029610368
 11
60.3202665898
 21
69.1205288468
  0
LINE
  5
3EE
100
AcDbEntity
  8
0
100
AcDbLine
 62
7
  6
CONTINUOUS
 10
60.3332965051
 20
72.0899601172
 11
60.3332965051
 21
79.8335034007
  0
LINE
  5
3EF
100
AcDbEntity
  8
0
100
AcDbLine
 62
7
  6
CONTINUOUS
 10
60.512711388
 20
81.4128249894
 11
60.512711388
 21
81.2128554507
  0
LINE
  5
3F0
100
AcDbEntity
  8
0
100
AcDbLine
 62
7
  6
CONTINUOUS
 10
60.6052844656
 20
58.7159755892
 11
60.6052844656
 21
59.9373569364
  0
LINE
  5
3F1
100
AcDbEntity
  8
0
100
AcDbLine
 62
7
  6
CONTINUOUS
 10
60.6052844656
 20
82.0945942421
 11
60.6052844656
 21
83.3159755892
  0
LINE
  5
3F2
100
AcDbEntity
  8
0
100
AcDbLine
 62
7
  6
CONTINUOUS
 10
60.811539883
 20
79.8379140441
 11
60.811539883
 21
72.0855528373
  0
LINE
  5
3F3
100
AcDbEntity
  8
0
100
AcDbLine
 62
7
  6
CONTINUOUS
 10
61.0126352356
 20
80.7129316031
 11
61.0126352356
 21
70.6031281395
  0
LINE
  5
3F4
100
AcDbEntity
  8
0
100
AcDbLine
 62
7
  6
CONTINUOUS
 10
61.0280453125
 20
69.720285427
 11
61.0280453125
 21
69.6617067833
  0
LINE
  5
3F5
100
AcDbEntity
  8
0
100
AcDbLine
 62
7
  6
CONTINUOUS
 10
61.2126047745
 20
70.7445494982
 11
61.2126047744
 21
80.7129311443
  0
LINE
  5
3F6
100
AcDbEntity
  8
0
100
AcDbLine
 62
7
  6
CONTINUOUS
 10
61.2405328783
 20
61.1826071744
 11
61.2405328784
 21
69.8617067801
  0
LINE
  5
3F7
100
AcDbEntity
  8
0
100
AcDbLine
 62
7
  6
CONTINUOUS
 10
61.261539881
 20
80.7618427596
 11
61.261539883
 21
61.1616001689
  0
LINE
  5
3F8
100
AcDbEntity
  8
0
100
AcDbLine
 62
7
  6
CONTINUOUS
 10
61.2609213784
 20
66.7333992399
 11
61.3347267611
 21
70.9617067834
  0
LINE
  5
3F9
100
AcDbEntity
  8
0
100
AcDbLine
 62
7
  6
CONTINUOUS
 10
61.2612374665
 20
63.8859189759
 11
61.3847448661
 21
70.96165316
  0
LINE
  5
3FA
100
AcDbEntity
  8
0
100
AcDbLine
 62
7
  6
CONTINUOUS
 10
54.309726761
 20
62.6617248214
 11
54.3167392461
 21
62.6687462054
  0
LINE
  5
3FB
100
AcDbEntity
  8
0
100
AcDbLine
 62
7
  6
CONTINUOUS
 10
54.4097119074
 20
62.5617372492
 11
54.4167240199
 21
62.5687497382
  0
LINE
  5
3FC
100
AcDbEntity
  8
0
100
AcDbLine
 62
7
  6
CONTINUOUS
 10
53.4075336382
 20
61.6617410564
 11
54.1075248627
 21
62.3556376865
  0
LINE
  5
3FD
100
AcDbEntity
  8
0
100
AcDbLine
 62
7
  6
CONTINUOUS
 10
54.0033530049
 20
82.0518315477
 11
44.1907204109
 21
81.4708698006
  0
LINE
  5
3FE
100
AcDbEntity
  8
0
100
AcDbLine
 62
7
  6
CONTINUOUS
 10
70.684145784
 20
80.875024475
 11
71.7825518477
 21
80.9342200779
  0
LINE
  5
3FF
100
AcDbEntity
  8
0
100
AcDbLine
 62
7
  6
CONTINUOUS
 10
72.7811028146
 20
80.9880342624
 11
73.8795088782
 21
81.0472298653
  0
LINE
  5
400
100
AcDbEntity
  8
0
100
AcDbLine
 62
7
  6
CONTINUOUS
 10
51.811539883
 20
79.8213329953
 11
52.058397656
 21
79.8335506102
  0
LINE
  5
401
100
AcDbEntity
  8
0
100
AcDbLine
 62
7
  6
CONTINUOUS
 10
48.488539883
 20
79.7129140441
 11
60.0710913047
 21
79.7129140441
  0
LINE
  5
402
100
AcDbEntity
  8
0
100
AcDbLine
 62
7
  6
CONTINUOUS
 10
59.9673766901
 20
79.8117067834
 11
58.761539883
 21
79.8117067834
  0
LINE
  5
403
100
AcDbEntity
  8
0
100
AcDbLine
 62
7
  6
CONTINUOUS
 10
57.861539883
 20
79.8117067834
 11
55.538539883
 21
79.8117067834
  0
LINE
  5
404
100
AcDbEntity
  8
0
100
AcDbLine
 62
7
  6
CONTINUOUS
 10
54.838539883
 20
79.8117067834
 11
53.4476185905
 21
79.8117067834
  0
LINE
  5
405
100
AcDbEntity
  8
0
100
AcDbLine
 62
7
  6
CONTINUOUS
 10
53.1294611755
 20
79.8117067834
 11
51.9457627092
 21
79.8117067834
  0
LINE
  5
406
100
AcDbEntity
  8
0
100
AcDbLine
 62
7
  6
CONTINUOUS
 10
49.711539883
 20
79.8213329953
 11
51.811539883
 21
79.8213329953
  0
LINE
  5
407
100
AcDbEntity
  8
0
100
AcDbLine
 62
7
  6
CONTINUOUS
 10
54.5071536024
 20
79.8326528841
 11
54.7598076042
 21
79.8326528859
  0
LINE
  5
408
100
AcDbEntity
  8
0
100
AcDbLine
 62
7
  6
CONTINUOUS
 10
47.8706664434
 20
79.8379140441
 11
54.5115170363
 21
79.8379140441
  0
LINE
  5
409
100
AcDbEntity
  8
0
100
AcDbLine
 62
7
  6
CONTINUOUS
 10
60.811539883
 20
79.8379140441
 11
55.538539883
 21
79.8396348873
  0
LINE
  5
40A
100
AcDbEntity
  8
0
100
AcDbLine
 62
7
  6
CONTINUOUS
 10
54.838539883
 20
79.8396348873
 11
54.7667087871
 21
79.8396348873
  0
LINE
  5
40B
100
AcDbEntity
  8
0
100
AcDbLine
 62
7
  6
CONTINUOUS
 10
54.838539883
 20
80.1129140441
 11
55.538539883
 21
80.1129140441
  0
LINE
  5
40C
100
AcDbEntity
  8
0
100
AcDbLine
 62
7
  6
CONTINUOUS
 10
37.7766958664
 20
80.2204603085
 11
37.2064354462
 21
80.2204603085
  0
LINE
  5
40D
100
AcDbEntity
  8
0
100
AcDbLine
 62
7
  6
CONTINUOUS
 10
37.7766958664
 20
80.3704603086
 11
36.841930727
 21
80.3704603086
  0
LINE
  5
40E
100
AcDbEntity
  8
0
100
AcDbLine
 62
7
  6
CONTINUOUS
 10
54.761116673
 20
80.4617067834
 11
54.711539883
 21
80.4617067834
  0
LINE
  5
40F
100
AcDbEntity
  8
0
100
AcDbLine
 62
7
  6
CONTINUOUS
 10
54.7667087871
 20
80.6547247574
 11
55.811539883
 21
80.6547247574
  0
LINE
  5
410
100
AcDbEntity
  8
0
100
AcDbLine
 62
7
  6
CONTINUOUS
 10
55.811539883
 20
80.7117067834
 11
55.7412594364
 21
80.7117067834
  0
LINE
  5
411
100
AcDbEntity
  8
0
100
AcDbLine
 62
7
  6
CONTINUOUS
 10
55.3912594364
 20
80.7117067834
 11
55.0912594364
 21
80.7117067834
  0
LINE
  5
412
100
AcDbEntity
  8
0
100
AcDbLine
 62
7
  6
CONTINUOUS
 10
54.7412594364
 20
80.7117067834
 11
54.711539883
 21
80.7117067834
  0
LINE
  5
413
100
AcDbEntity
  8
0
100
AcDbLine
 62
7
  6
CONTINUOUS
 10
34.1104597589
 20
80.7129316031
 11
34.3104292976
 21
80.7129316031
  0
LINE
  5
414
100
AcDbEntity
  8
0
100
AcDbLine
 62
7
  6
CONTINUOUS
 10
61.0126352356
 20
80.7129316031
 11
61.2126047745
 21
80.7129316031
  0
LINE
  5
415
100
AcDbEntity
  8
0
100
AcDbLine
 62
7
  6
CONTINUOUS
 10
55.811539883
 20
80.8117334407
 11
54.711539883
 21
80.8117334407
  0
LINE
  5
416
100
AcDbEntity
  8
0
100
AcDbLine
 62
7
  6
CONTINUOUS
 10
37.8196964356
 20
81.0135099898
 11
37.8447590074
 21
81.0135099383
  0
LINE
  5
417
100
AcDbEntity
  8
0
100
AcDbLine
 62
7
  6
CONTINUOUS
 10
34.8103531452
 20
81.2128554507
 11
37.7766958664
 21
81.2128554507
  0
LINE
  5
418
100
AcDbEntity
  8
0
100
AcDbLine
 62
7
  6
CONTINUOUS
 10
44.1907204109
 20
81.2128554507
 11
60.512711388
 21
81.2128554507
  0
LINE
  5
419
100
AcDbEntity
  8
0
100
AcDbLine
 62
7
  6
CONTINUOUS
 10
60.5127111791
 20
81.4128249894
 11
44.1907204109
 21
81.4128249894
  0
LINE
  5
41A
100
AcDbEntity
  8
0
100
AcDbLine
 62
7
  6
CONTINUOUS
 10
37.7766958664
 20
81.4128249894
 11
34.810353263
 21
81.4128249894
  0
LINE
  5
41B
100
AcDbEntity
  8
0
100
AcDbLine
 62
7
  6
CONTINUOUS
 10
34.7379837349
 20
81.4617067834
 11
37.7766958664
 21
81.4617067834
  0
LINE
  5
41C
100
AcDbEntity
  8
0
100
AcDbLine
 62
7
  6
CONTINUOUS
 10
44.1907204109
 20
81.4617067834
 11
60.585096023
 21
81.4617067834
  0
LINE
  5
41D
100
AcDbEntity
  8
0
100
AcDbLine
 62
7
  6
CONTINUOUS
 10
60.2633530049
 20
81.4867067834
 11
57.5633530049
 21
81.4867067834
  0
LINE
  5
41E
100
AcDbEntity
  8
0
100
AcDbLine
 62
7
  6
CONTINUOUS
 10
49.7633530049
 20
81.4867067834
 11
45.5633530049
 21
81.4867067834
  0
LINE
  5
41F
100
AcDbEntity
  8
0
100
AcDbLine
 62
7
  6
CONTINUOUS
 10
37.7385158033
 20
81.4867067834
 11
35.0633530049
 21
81.4867067834
  0
LINE
  5
420
100
AcDbEntity
  8
0
100
AcDbLine
 62
7
  6
CONTINUOUS
 10
52.8010329667
 20
81.6116915731
 11
68.2033530049
 21
81.6117082349
  0
LINE
  5
421
100
AcDbEntity
  8
0
100
AcDbLine
 62
7
  6
CONTINUOUS
 10
29.7033530049
 20
81.6117005298
 11
37.4371806382
 21
81.6116997615
  0
LINE
  5
422
100
AcDbEntity
  8
0
100
AcDbLine
 62
7
  6
CONTINUOUS
 10
46.5693688654
 20
81.6116988543
 11
47.4056710268
 21
81.6116987712
  0
LINE
  5
423
100
AcDbEntity
  8
0
100
AcDbLine
 62
7
  6
CONTINUOUS
 10
68.2033530049
 20
81.9117067834
 11
53.1112592534
 21
81.9117067834
  0
LINE
  5
424
100
AcDbEntity
  8
0
100
AcDbLine
 62
7
  6
CONTINUOUS
 10
35.2314470816
 20
81.9117067834
 11
29.7033530049
 21
81.9117067834
  0
LINE
  5
425
100
AcDbEntity
  8
0
100
AcDbLine
 62
7
  6
CONTINUOUS
 10
56.1033530049
 20
82.0732128949
 11
55.7533530049
 21
82.0732128949
  0
LINE
  5
426
100
AcDbEntity
  8
0
100
AcDbLine
 62
7
  6
CONTINUOUS
 10
48.811539883
 20
79.8291871763
 11
49.711539883
 21
79.8213329953
  0
LINE
  5
427
100
AcDbEntity
  8
0
100
AcDbLine
 62
7
  6
CONTINUOUS
 10
36.9281159238
 20
81.8228583718
 11
34.0000159862
 21
81.9761923766
  0
LINE
  5
428
100
AcDbEntity
  8
0
100
AcDbLine
 62
7
  6
CONTINUOUS
 10
54.711539883
 20
80.7414263368
 11
54.7412594364
 21
80.7117067834
  0
LINE
  5
429
100
AcDbEntity
  8
0
100
AcDbLine
 62
7
  6
CONTINUOUS
 10
55.2912327791
 20
80.8117334407
 11
55.3912594364
 21
80.7117067834
  0
LINE
  5
42A
100
AcDbEntity
  8
0
100
AcDbLine
 62
7
  6
CONTINUOUS
 10
82.1603111341
 20
81.5189102797
 11
82.7687647643
 21
82.0383178076
  0
LINE
  5
42B
100
AcDbEntity
  8
0
100
AcDbLine
 62
7
  6
CONTINUOUS
 10
82.8986166462
 20
81.8862044
 11
82.2901630161
 21
81.3667968722
  0
LINE
  5
42C
100
AcDbEntity
  8
0
100
AcDbLine
 62
7
  6
CONTINUOUS
 10
81.3667275824
 20
79.2636960731
 11
82.8633657221
 21
80.5413038935
  0
LINE
  5
42D
100
AcDbEntity
  8
0
100
AcDbLine
 62
7
  6
CONTINUOUS
 10
83.6239327598
 20
81.1905633033
 11
85.1205708995
 21
82.4681711238
  0
LINE
  5
42E
100
AcDbEntity
  8
0
100
AcDbLine
 62
7
  6
CONTINUOUS
 10
54.1384198357
 20
57.9158263174
 11
55.2052855315
 21
58.7159755892
  0
LINE
  5
42F
100
AcDbEntity
  8
0
100
AcDbLine
 62
7
  6
CONTINUOUS
 10
54.0033530049
 20
84.0519808196
 11
44.1853391768
 21
83.4707004739
  0
LINE
  5
430
100
AcDbEntity
  8
0
100
AcDbLine
 62
7
  6
CONTINUOUS
 10
38.3982491827
 20
84.0923236049
 11
34.4208430701
 21
83.9543044558
  0
LINE
  5
431
100
AcDbEntity
  8
0
100
AcDbLine
 62
7
  6
CONTINUOUS
 10
43.6072159263
 20
84.116124861
 11
40.3288512202
 21
84.1011450768
  0
LINE
  5
432
100
AcDbEntity
  8
0
100
AcDbLine
 62
7
  6
CONTINUOUS
 10
38.6594391191
 20
84.0935170563
 11
38.3982491827
 21
84.0923236049
  0
LINE
  5
433
100
AcDbEntity
  8
0
100
AcDbLine
 62
7
  6
CONTINUOUS
 10
56.1033530049
 20
82.5117067834
 11
59.1033530049
 21
82.5117067834
  0
LINE
  5
434
100
AcDbEntity
  8
0
100
AcDbLine
 62
7
  6
CONTINUOUS
 10
11.0033530049
 20
82.5617067834
 11
13.1033530049
 21
82.5617067834
  0
LINE
  5
435
100
AcDbEntity
  8
0
100
AcDbLine
 62
7
  6
CONTINUOUS
 10
19.9033530049
 20
82.5617067834
 11
22.0033530049
 21
82.5617067834
  0
LINE
  5
436
100
AcDbEntity
  8
0
100
AcDbLine
 62
7
  6
CONTINUOUS
 10
75.9033530049
 20
82.5617067834
 11
78.0033530049
 21
82.5617067834
  0
LINE
  5
437
100
AcDbEntity
  8
0
100
AcDbLine
 62
7
  6
CONTINUOUS
 10
87.1033530049
 20
82.5617067834
 11
89.2033530049
 21
82.5617067834
  0
LINE
  5
438
100
AcDbEntity
  8
0
100
AcDbLine
 62
7
  6
CONTINUOUS
 10
42.9033530049
 20
82.622125031
 11
38.1033530049
 21
82.622125031
  0
LINE
  5
439
100
AcDbEntity
  8
0
100
AcDbLine
 62
7
  6
CONTINUOUS
 10
11.1533530049
 20
82.7617067834
 11
12.6533530049
 21
82.7617067834
  0
LINE
  5
43A
100
AcDbEntity
  8
0
100
AcDbLine
 62
7
  6
CONTINUOUS
 10
20.0533530049
 20
82.7617067834
 11
21.5533530049
 21
82.7617067834
  0
LINE
  5
43B
100
AcDbEntity
  8
0
100
AcDbLine
 62
7
  6
CONTINUOUS
 10
76.3533530049
 20
82.7617067834
 11
77.8533530049
 21
82.7617067834
  0
LINE
  5
43C
100
AcDbEntity
  8
0
100
AcDbLine
 62
7
  6
CONTINUOUS
 10
87.5533530049
 20
82.7617067834
 11
89.0533530049
 21
82.7617067834
  0
LINE
  5
43D
100
AcDbEntity
  8
0
100
AcDbLine
 62
7
  6
CONTINUOUS
 10
38.1033530049
 20
82.822125031
 11
42.9033530049
 21
82.822125031
  0
LINE
  5
43E
100
AcDbEntity
  8
0
100
AcDbLine
 62
7
  6
CONTINUOUS
 10
89.6033530049
 20
82.9617067834
 11
87.1033530049
 21
82.9617067834
  0
LINE
  5
43F
100
AcDbEntity
  8
0
100
AcDbLine
 62
7
  6
CONTINUOUS
 10
78.4033530049
 20
82.9617067834
 11
75.9033530049
 21
82.9617067834
  0
LINE
  5
440
100
AcDbEntity
  8
0
100
AcDbLine
 62
7
  6
CONTINUOUS
 10
22.0033530049
 20
82.9617067834
 11
19.5033530049
 21
82.9617067834
  0
LINE
  5
441
100
AcDbEntity
  8
0
100
AcDbLine
 62
7
  6
CONTINUOUS
 10
13.1033530049
 20
82.9617067834
 11
10.6033530049
 21
82.9617067834
  0
LINE
  5
442
100
AcDbEntity
  8
0
100
AcDbLine
 62
7
  6
CONTINUOUS
 10
37.9033530049
 20
83.122125031
 11
43.253307578
 21
83.122125031
  0
LINE
  5
443
100
AcDbEntity
  8
0
100
AcDbLine
 62
7
  6
CONTINUOUS
 10
55.2052855315
 20
83.3159755892
 11
60.6052844656
 21
83.3159755892
  0
LINE
  5
444
100
AcDbEntity
  8
0
100
AcDbLine
 62
7
  6
CONTINUOUS
 10
43.3255098063
 20
83.4221026419
 11
43.2533075421
 21
83.4221026419
  0
LINE
  5
445
100
AcDbEntity
  8
0
100
AcDbLine
 62
7
  6
CONTINUOUS
 10
43.2111797999
 20
83.4221026419
 11
37.8946244164
 21
83.4221026419
  0
LINE
  5
446
100
AcDbEntity
  8
0
100
AcDbLine
 62
7
  6
CONTINUOUS
 10
39.5033530049
 20
83.681782625
 11
44.3033530049
 21
83.681782625
  0
LINE
  5
447
100
AcDbEntity
  8
0
100
AcDbLine
 62
7
  6
CONTINUOUS
 10
10.6033530049
 20
84.1117067834
 11
42.6403081507
 21
84.1117067834
  0
LINE
  5
448
100
AcDbEntity
  8
0
100
AcDbLine
 62
7
  6
CONTINUOUS
 10
54.1384198357
 20
84.1117067834
 11
89.6033530049
 21
84.1117067834
  0
LINE
  5
449
100
AcDbEntity
  8
0
100
AcDbLine
 62
7
  6
CONTINUOUS
 10
54.1384198357
 20
84.116124861
 11
43.6072159263
 21
84.116124861
  0
LINE
  5
44A
100
AcDbEntity
  8
0
100
AcDbLine
 62
7
  6
CONTINUOUS
 10
48.3769598026
 20
84.3117067834
 11
48.4533530067
 21
84.3117067834
  0
LINE
  5
44B
100
AcDbEntity
  8
0
100
AcDbLine
 62
7
  6
CONTINUOUS
 10
51.7533530067
 20
84.3117067834
 11
51.8297462071
 21
84.3117067834
  0
LINE
  5
44C
100
AcDbEntity
  8
0
100
AcDbLine
 62
7
  6
CONTINUOUS
 10
89.3033530049
 20
84.4117067834
 11
52.0533530049
 21
84.4117067834
  0
LINE
  5
44D
100
AcDbEntity
  8
0
100
AcDbLine
 62
7
  6
CONTINUOUS
 10
48.1533530049
 20
84.4117067834
 11
10.9033530049
 21
84.4117067834
  0
LINE
  5
44E
100
AcDbEntity
  8
0
100
AcDbLine
 62
7
  6
CONTINUOUS
 10
34.4208430701
 20
83.9543044558
 11
36.9281159238
 21
83.8230076437
  0
LINE
  5
44F
100
AcDbEntity
  8
0
100
AcDbLine
 62
7
  6
CONTINUOUS
 10
55.2052855315
 20
83.3159755892
 11
54.1384198357
 21
84.116124861
  0
LINE
  5
450
100
AcDbEntity
  8
0
100
AcDbLine
 62
7
  6
CONTINUOUS
 10
85.6399784274
 20
81.8597174937
 11
84.1433402876
 21
80.5821096732
  0
LINE
  5
451
100
AcDbEntity
  8
0
100
AcDbLine
 62
7
  6
CONTINUOUS
 10
83.38277325
 20
79.9328502634
 11
81.8861351103
 21
78.6552424429
  0
LINE
  5
452
100
AcDbEntity
  8
0
100
AcDbLine
 62
7
  6
CONTINUOUS
 10
84.1080893636
 20
79.2372091667
 11
84.7165429937
 21
79.7566166946
  0
LINE
  5
453
100
AcDbEntity
  8
0
100
AcDbLine
 62
7
  6
CONTINUOUS
 10
84.8463948756
 20
79.604503287
 11
84.2379412455
 21
79.0850957592
  0
LINE
  5
454
100
AcDbEntity
  8
0
100
AcDbLine
 62
7
  6
CONTINUOUS
 10
68.2033530049
 20
84.1117067834
 11
68.2033530049
 21
57.8117067834
  0
LINE
  5
455
100
AcDbEntity
  8
0
100
AcDbLine
 62
7
  6
CONTINUOUS
 10
68.5033530049
 20
57.5117067834
 11
68.5033530049
 21
84.4117067834
  0
LINE
  5
456
100
AcDbEntity
  8
0
100
AcDbLine
 62
7
  6
CONTINUOUS
 10
82.1603111341
 20
75.1189102797
 11
82.7687647643
 21
75.6383178075
  0
LINE
  5
457
100
AcDbEntity
  8
0
100
AcDbLine
 62
7
  6
CONTINUOUS
 10
82.8986166462
 20
75.4862044
 11
82.2901630161
 21
74.9667968722
  0
LINE
  5
458
100
AcDbEntity
  8
0
100
AcDbLine
 62
7
  6
CONTINUOUS
 10
81.3667275824
 20
72.8636960731
 11
82.8633657221
 21
74.1413038935
  0
LINE
  5
459
100
AcDbEntity
  8
0
100
AcDbLine
 62
7
  6
CONTINUOUS
 10
83.6239327598
 20
74.7905633033
 11
85.1205708995
 21
76.0681711238
  0
LINE
  5
45A
100
AcDbEntity
  8
0
100
AcDbLine
 62
7
  6
CONTINUOUS
 10
85.6399784274
 20
75.4597174937
 11
84.1433402876
 21
74.1821096732
  0
LINE
  5
45B
100
AcDbEntity
  8
0
100
AcDbLine
 62
7
  6
CONTINUOUS
 10
83.38277325
 20
73.5328502634
 11
81.8861351103
 21
72.2552424429
  0
LINE
  5
45C
100
AcDbEntity
  8
0
100
AcDbLine
 62
7
  6
CONTINUOUS
 10
84.2379412455
 20
59.8850957592
 11
83.5237558947
 21
60.7217195006
  0
LINE
  5
45D
100
AcDbEntity
  8
0
100
AcDbLine
 62
7
  6
CONTINUOUS
 10
82.8744964849
 20
61.4822865383
 11
82.1603111341
 21
62.3189102797
  0
LINE
  5
45E
100
AcDbEntity
  8
0
100
AcDbLine
 62
7
  6
CONTINUOUS
 10
82.7687647643
 20
62.8383178075
 11
83.482950115
 21
62.0016940661
  0
LINE
  5
45F
100
AcDbEntity
  8
0
100
AcDbLine
 62
7
  6
CONTINUOUS
 10
84.1322095249
 20
61.2411270285
 11
84.8463948756
 21
60.404503287
  0
LINE
  5
460
100
AcDbEntity
  8
0
100
AcDbLine
 62
7
  6
CONTINUOUS
 10
70.7271971316
 20
60.8761837015
 11
70.684145784
 21
61.675024475
  0
LINE
  5
461
100
AcDbEntity
  8
0
100
AcDbLine
 62
7
  6
CONTINUOUS
 10
70.8838559774
 20
61.6857873119
 11
70.926907325
 21
60.8869465384
  0
LINE
  5
462
100
AcDbEntity
  8
0
100
AcDbLine
 62
7
  6
CONTINUOUS
 10
70.7271971316
 20
67.2761837015
 11
70.684145784
 21
68.075024475
  0
LINE
  5
463
100
AcDbEntity
  8
0
100
AcDbLine
 62
7
  6
CONTINUOUS
 10
70.8838559774
 20
68.0857873119
 11
70.926907325
 21
67.2869465384
  0
LINE
  5
464
100
AcDbEntity
  8
0
100
AcDbLine
 62
7
  6
CONTINUOUS
 10
70.7271971316
 20
73.6761837015
 11
70.684145784
 21
74.475024475
  0
LINE
  5
465
100
AcDbEntity
  8
0
100
AcDbLine
 62
7
  6
CONTINUOUS
 10
70.8838559774
 20
74.4857873119
 11
70.926907325
 21
73.6869465384
  0
LINE
  5
466
100
AcDbEntity
  8
0
100
AcDbLine
 62
7
  6
CONTINUOUS
 10
70.7271971316
 20
80.0761837015
 11
70.684145784
 21
80.875024475
  0
LINE
  5
467
100
AcDbEntity
  8
0
100
AcDbLine
 62
7
  6
CONTINUOUS
 10
72.0367348609
 20
58.8759644867
 11
71.9308397103
 21
60.8409056261
  0
LINE
  5
468
100
AcDbEntity
  8
0
100
AcDbLine
 62
7
  6
CONTINUOUS
 10
71.8770255259
 20
61.839456593
 11
71.7711303754
 21
63.8043977324
  0
LINE
  5
469
100
AcDbEntity
  8
0
100
AcDbLine
 62
7
  6
CONTINUOUS
 10
70.8838559774
 20
80.8857873119
 11
70.926907325
 21
80.0869465384
  0
LINE
  5
46A
100
AcDbEntity
  8
0
100
AcDbLine
 62
7
  6
CONTINUOUS
 10
72.0367348609
 20
65.2759644867
 11
71.9308397103
 21
67.2409056261
  0
LINE
  5
46B
100
AcDbEntity
  8
0
100
AcDbLine
 62
7
  6
CONTINUOUS
 10
71.8770255259
 20
68.239456593
 11
71.7711303754
 21
70.2043977324
  0
LINE
  5
46C
100
AcDbEntity
  8
0
100
AcDbLine
 62
7
  6
CONTINUOUS
 10
72.0367348609
 20
71.6759644867
 11
71.9308397103
 21
73.6409056261
  0
LINE
  5
46D
100
AcDbEntity
  8
0
100
AcDbLine
 62
7
  6
CONTINUOUS
 10
71.8770255259
 20
74.639456593
 11
71.7711303754
 21
76.6043977324
  0
LINE
  5
46E
100
AcDbEntity
  8
0
100
AcDbLine
 62
7
  6
CONTINUOUS
 10
72.5699711489
 20
63.84744908
 11
72.6758662994
 21
61.8825079406
  0
LINE
  5
46F
100
AcDbEntity
  8
0
100
AcDbLine
 62
7
  6
CONTINUOUS
 10
72.7296804839
 20
60.8839569737
 11
72.8355756344
 21
58.9190158343
  0
LINE
  5
470
100
AcDbEntity
  8
0
100
AcDbLine
 62
7
  6
CONTINUOUS
 10
72.0367348609
 20
78.0759644867
 11
71.9308397103
 21
80.0409056261
  0
LINE
  5
471
100
AcDbEntity
  8
0
100
AcDbLine
 62
7
  6
CONTINUOUS
 10
71.8770255259
 20
81.039456593
 11
71.7711303754
 21
83.0043977324
  0
LINE
  5
472
100
AcDbEntity
  8
0
100
AcDbLine
 62
7
  6
CONTINUOUS
 10
72.5699711489
 20
70.24744908
 11
72.6758662994
 21
68.2825079406
  0
LINE
  5
473
100
AcDbEntity
  8
0
100
AcDbLine
 62
7
  6
CONTINUOUS
 10
72.7296804839
 20
67.2839569737
 11
72.8355756344
 21
65.3190158343
  0
LINE
  5
474
100
AcDbEntity
  8
0
100
AcDbLine
 62
7
  6
CONTINUOUS
 10
84.1080893636
 20
72.8372091667
 11
84.7165429937
 21
73.3566166946
  0
LINE
  5
475
100
AcDbEntity
  8
0
100
AcDbLine
 62
7
  6
CONTINUOUS
 10
84.8463948756
 20
73.204503287
 11
84.2379412455
 21
72.6850957592
  0
LINE
  5
476
100
AcDbEntity
  8
0
100
AcDbLine
 62
7
  6
CONTINUOUS
 10
82.1603111341
 20
68.7189102797
 11
82.7687647643
 21
69.2383178075
  0
LINE
  5
477
100
AcDbEntity
  8
0
100
AcDbLine
 62
7
  6
CONTINUOUS
 10
72.5699711489
 20
76.64744908
 11
72.6758662994
 21
74.6825079406
  0
LINE
  5
478
100
AcDbEntity
  8
0
100
AcDbLine
 62
7
  6
CONTINUOUS
 10
72.7296804839
 20
73.6839569737
 11
72.8355756344
 21
71.7190158343
  0
LINE
  5
479
100
AcDbEntity
  8
0
100
AcDbLine
 62
7
  6
CONTINUOUS
 10
73.7228500324
 20
61.0376262548
 11
73.6797986848
 21
61.8364670284
  0
LINE
  5
47A
100
AcDbEntity
  8
0
100
AcDbLine
 62
7
  6
CONTINUOUS
 10
72.5699711489
 20
83.04744908
 11
72.6758662994
 21
81.0825079406
  0
LINE
  5
47B
100
AcDbEntity
  8
0
100
AcDbLine
 62
7
  6
CONTINUOUS
 10
72.7296804839
 20
80.0839569737
 11
72.8355756344
 21
78.1190158343
  0
LINE
  5
47C
100
AcDbEntity
  8
0
100
AcDbLine
 62
7
  6
CONTINUOUS
 10
73.8795088782
 20
61.8472298653
 11
73.9225602258
 21
61.0483890917
  0
LINE
  5
47D
100
AcDbEntity
  8
0
100
AcDbLine
 62
7
  6
CONTINUOUS
 10
73.7228500324
 20
67.4376262548
 11
73.6797986848
 21
68.2364670284
  0
LINE
  5
47E
100
AcDbEntity
  8
0
100
AcDbLine
 62
7
  6
CONTINUOUS
 10
73.8795088782
 20
68.2472298653
 11
73.9225602258
 21
67.4483890917
  0
LINE
  5
47F
100
AcDbEntity
  8
0
100
AcDbLine
 62
7
  6
CONTINUOUS
 10
73.7228500324
 20
73.8376262548
 11
73.6797986848
 21
74.6364670284
  0
LINE
  5
480
100
AcDbEntity
  8
0
100
AcDbLine
 62
7
  6
CONTINUOUS
 10
73.8795088782
 20
74.6472298653
 11
73.9225602258
 21
73.8483890917
  0
LINE
  5
481
100
AcDbEntity
  8
0
100
AcDbLine
 62
7
  6
CONTINUOUS
 10
73.7228500324
 20
80.2376262548
 11
73.6797986848
 21
81.0364670284
  0
LINE
  5
482
100
AcDbEntity
  8
0
100
AcDbLine
 62
7
  6
CONTINUOUS
 10
73.8795088782
 20
81.0472298653
 11
73.9225602258
 21
80.2483890917
  0
LINE
  5
483
100
AcDbEntity
  8
0
100
AcDbLine
 62
7
  6
CONTINUOUS
 10
82.8986166462
 20
69.0862044
 11
82.2901630161
 21
68.5667968722
  0
LINE
  5
484
100
AcDbEntity
  8
0
100
AcDbLine
 62
7
  6
CONTINUOUS
 10
81.3667275824
 20
66.4636960731
 11
82.8633657221
 21
67.7413038935
  0
LINE
  5
485
100
AcDbEntity
  8
0
100
AcDbLine
 62
7
  6
CONTINUOUS
 10
83.6239327598
 20
68.3905633033
 11
85.1205708995
 21
69.6681711238
  0
LINE
  5
486
100
AcDbEntity
  8
0
100
AcDbLine
 62
7
  6
CONTINUOUS
 10
85.6399784274
 20
69.0597174937
 11
84.1433402876
 21
67.7821096732
  0
LINE
  5
487
100
AcDbEntity
  8
0
100
AcDbLine
 62
7
  6
CONTINUOUS
 10
83.38277325
 20
67.1328502634
 11
81.8861351103
 21
65.8552424429
  0
LINE
  5
488
100
AcDbEntity
  8
0
100
AcDbLine
 62
7
  6
CONTINUOUS
 10
84.2379412455
 20
66.2850957592
 11
83.5237558947
 21
67.1217195006
  0
LINE
  5
489
100
AcDbEntity
  8
0
100
AcDbLine
 62
7
  6
CONTINUOUS
 10
82.8744964849
 20
67.8822865383
 11
82.1603111341
 21
68.7189102797
  0
LINE
  5
48A
100
AcDbEntity
  8
0
100
AcDbLine
 62
7
  6
CONTINUOUS
 10
82.7687647643
 20
69.2383178075
 11
83.482950115
 21
68.4016940661
  0
LINE
  5
48B
100
AcDbEntity
  8
0
100
AcDbLine
 62
7
  6
CONTINUOUS
 10
84.1322095249
 20
67.6411270285
 11
84.8463948756
 21
66.804503287
  0
LINE
  5
48C
100
AcDbEntity
  8
0
100
AcDbLine
 62
7
  6
CONTINUOUS
 10
75.9033530049
 20
82.9617067834
 11
75.9033530049
 21
78.1617067833
  0
LINE
  5
48D
100
AcDbEntity
  8
0
100
AcDbLine
 62
7
  6
CONTINUOUS
 10
75.9033530049
 20
76.5617067834
 11
75.9033530049
 21
71.7617067833
  0
LINE
  5
48E
100
AcDbEntity
  8
0
100
AcDbLine
 62
7
  6
CONTINUOUS
 10
75.9033530049
 20
70.1617067834
 11
75.9033530049
 21
65.3617067833
  0
LINE
  5
48F
100
AcDbEntity
  8
0
100
AcDbLine
 62
7
  6
CONTINUOUS
 10
75.9033530049
 20
63.7617067834
 11
75.9033530049
 21
58.9617067834
  0
LINE
  5
490
100
AcDbEntity
  8
0
100
AcDbLine
 62
7
  6
CONTINUOUS
 10
76.3533530049
 20
82.7617067834
 11
76.3533530049
 21
82.5617067834
  0
LINE
  5
491
100
AcDbEntity
  8
0
100
AcDbLine
 62
7
  6
CONTINUOUS
 10
76.3533530049
 20
59.3617067834
 11
76.3533530049
 21
59.1617067834
  0
LINE
  5
492
100
AcDbEntity
  8
0
100
AcDbLine
 62
7
  6
CONTINUOUS
 10
77.0533530049
 20
59.1617067834
 11
77.0533530049
 21
59.3617067834
  0
LINE
  5
493
100
AcDbEntity
  8
0
100
AcDbLine
 62
7
  6
CONTINUOUS
 10
77.0533530049
 20
82.5617067834
 11
77.0533530049
 21
82.7617067834
  0
LINE
  5
494
100
AcDbEntity
  8
0
100
AcDbLine
 62
7
  6
CONTINUOUS
 10
77.1533530049
 20
82.7617067834
 11
77.1533530049
 21
82.5617067834
  0
LINE
  5
495
100
AcDbEntity
  8
0
100
AcDbLine
 62
7
  6
CONTINUOUS
 10
77.1533530049
 20
59.3617067834
 11
77.1533530049
 21
59.1617067834
  0
LINE
  5
496
100
AcDbEntity
  8
0
100
AcDbLine
 62
7
  6
CONTINUOUS
 10
77.8533530049
 20
59.1617067834
 11
77.8533530049
 21
59.3617067834
  0
LINE
  5
497
100
AcDbEntity
  8
0
100
AcDbLine
 62
7
  6
CONTINUOUS
 10
77.8533530049
 20
82.5617067834
 11
77.8533530049
 21
82.7617067834
  0
LINE
  5
498
100
AcDbEntity
  8
0
100
AcDbLine
 62
7
  6
CONTINUOUS
 10
78.1033530049
 20
84.4117067834
 11
78.1033530049
 21
82.9617067835
  0
LINE
  5
499
100
AcDbEntity
  8
0
100
AcDbLine
 62
7
  6
CONTINUOUS
 10
78.1033530049
 20
78.1617067832
 11
78.1033530049
 21
76.5617067835
  0
LINE
  5
49A
100
AcDbEntity
  8
0
100
AcDbLine
 62
7
  6
CONTINUOUS
 10
78.1033530049
 20
71.7617067832
 11
78.1033530049
 21
70.1617067835
  0
LINE
  5
49B
100
AcDbEntity
  8
0
100
AcDbLine
 62
7
  6
CONTINUOUS
 10
78.1033530049
 20
65.3617067832
 11
78.1033530049
 21
63.7617067835
  0
LINE
  5
49C
100
AcDbEntity
  8
0
100
AcDbLine
 62
7
  6
CONTINUOUS
 10
78.1033530049
 20
58.9617067832
 11
78.1033530049
 21
57.5117067834
  0
LINE
  5
49D
100
AcDbEntity
  8
0
100
AcDbLine
 62
7
  6
CONTINUOUS
 10
84.1080893636
 20
66.4372091667
 11
84.7165429937
 21
66.9566166946
  0
LINE
  5
49E
100
AcDbEntity
  8
0
100
AcDbLine
 62
7
  6
CONTINUOUS
 10
84.8463948756
 20
66.804503287
 11
84.2379412455
 21
66.2850957592
  0
LINE
  5
49F
100
AcDbEntity
  8
0
100
AcDbLine
 62
7
  6
CONTINUOUS
 10
82.1603111341
 20
62.3189102797
 11
82.7687647643
 21
62.8383178075
  0
LINE
  5
4A0
100
AcDbEntity
  8
0
100
AcDbLine
 62
7
  6
CONTINUOUS
 10
82.8986166462
 20
62.6862044
 11
82.2901630161
 21
62.1667968722
  0
LINE
  5
4A1
100
AcDbEntity
  8
0
100
AcDbLine
 62
7
  6
CONTINUOUS
 10
84.2379412455
 20
72.6850957592
 11
83.5237558947
 21
73.5217195006
  0
LINE
  5
4A2
100
AcDbEntity
  8
0
100
AcDbLine
 62
7
  6
CONTINUOUS
 10
82.8744964849
 20
74.2822865383
 11
82.1603111341
 21
75.1189102797
  0
LINE
  5
4A3
100
AcDbEntity
  8
0
100
AcDbLine
 62
7
  6
CONTINUOUS
 10
82.7687647643
 20
75.6383178075
 11
83.482950115
 21
74.8016940661
  0
LINE
  5
4A4
100
AcDbEntity
  8
0
100
AcDbLine
 62
7
  6
CONTINUOUS
 10
84.1322095249
 20
74.0411270285
 11
84.8463948756
 21
73.204503287
  0
LINE
  5
4A5
100
AcDbEntity
  8
0
100
AcDbLine
 62
7
  6
CONTINUOUS
 10
78.4033530049
 20
57.8117067834
 11
78.4033530049
 21
58.9617067832
  0
LINE
  5
4A6
100
AcDbEntity
  8
0
100
AcDbLine
 62
7
  6
CONTINUOUS
 10
78.4033530049
 20
63.7617067835
 11
78.4033530049
 21
65.3617067832
  0
LINE
  5
4A7
100
AcDbEntity
  8
0
100
AcDbLine
 62
7
  6
CONTINUOUS
 10
78.4033530049
 20
70.1617067835
 11
78.4033530049
 21
71.7617067832
  0
LINE
  5
4A8
100
AcDbEntity
  8
0
100
AcDbLine
 62
7
  6
CONTINUOUS
 10
78.4033530049
 20
76.5617067835
 11
78.4033530049
 21
78.1617067832
  0
LINE
  5
4A9
100
AcDbEntity
  8
0
100
AcDbLine
 62
7
  6
CONTINUOUS
 10
78.4033530049
 20
82.9617067835
 11
78.4033530049
 21
84.1117067834
  0
LINE
  5
4AA
100
AcDbEntity
  8
0
100
AcDbLine
 62
7
  6
CONTINUOUS
 10
81.3667275824
 20
60.0636960731
 11
82.8633657221
 21
61.3413038935
  0
LINE
  5
4AB
100
AcDbEntity
  8
0
100
AcDbLine
 62
7
  6
CONTINUOUS
 10
83.6239327598
 20
61.9905633033
 11
85.1205708995
 21
63.2681711238
  0
LINE
  5
4AC
100
AcDbEntity
  8
0
100
AcDbLine
 62
7
  6
CONTINUOUS
 10
85.6399784274
 20
62.6597174937
 11
84.1433402876
 21
61.3821096732
  0
LINE
  5
4AD
100
AcDbEntity
  8
0
100
AcDbLine
 62
7
  6
CONTINUOUS
 10
83.38277325
 20
60.7328502634
 11
81.8861351103
 21
59.4552424429
  0
LINE
  5
4AE
100
AcDbEntity
  8
0
100
AcDbLine
 62
7
  6
CONTINUOUS
 10
84.1080893636
 20
60.0372091667
 11
84.7165429937
 21
60.5566166946
  0
LINE
  5
4AF
100
AcDbEntity
  8
0
100
AcDbLine
 62
7
  6
CONTINUOUS
 10
84.8463948756
 20
60.404503287
 11
84.2379412455
 21
59.8850957592
  0
LINE
  5
4B0
100
AcDbEntity
  8
0
100
AcDbLine
 62
7
  6
CONTINUOUS
 10
84.2379412455
 20
79.0850957592
 11
83.5237558947
 21
79.9217195006
  0
LINE
  5
4B1
100
AcDbEntity
  8
0
100
AcDbLine
 62
7
  6
CONTINUOUS
 10
82.8744964849
 20
80.6822865383
 11
82.1603111341
 21
81.5189102797
  0
LINE
  5
4B2
100
AcDbEntity
  8
0
100
AcDbLine
 62
7
  6
CONTINUOUS
 10
82.7687647643
 20
82.0383178076
 11
83.4829501151
 21
81.2016940661
  0
LINE
  5
4B3
100
AcDbEntity
  8
0
100
AcDbLine
 62
7
  6
CONTINUOUS
 10
84.1322095249
 20
80.4411270285
 11
84.8463948756
 21
79.604503287
  0
LINE
  5
4B4
100
AcDbEntity
  8
0
100
AcDbLine
 62
7
  6
CONTINUOUS
 10
87.1033530049
 20
82.9617067834
 11
87.1033530049
 21
78.1617067833
  0
LINE
  5
4B5
100
AcDbEntity
  8
0
100
AcDbLine
 62
7
  6
CONTINUOUS
 10
87.1033530049
 20
76.5617067834
 11
87.1033530049
 21
71.7617067833
  0
LINE
  5
4B6
100
AcDbEntity
  8
0
100
AcDbLine
 62
7
  6
CONTINUOUS
 10
87.1033530049
 20
70.1617067834
 11
87.1033530049
 21
65.3617067833
  0
LINE
  5
4B7
100
AcDbEntity
  8
0
100
AcDbLine
 62
7
  6
CONTINUOUS
 10
87.1033530049
 20
63.7617067834
 11
87.1033530049
 21
58.9617067833
  0
LINE
  5
4B8
100
AcDbEntity
  8
0
100
AcDbLine
 62
7
  6
CONTINUOUS
 10
87.5533530049
 20
82.7617067834
 11
87.5533530049
 21
82.5617067834
  0
LINE
  5
4B9
100
AcDbEntity
  8
0
100
AcDbLine
 62
7
  6
CONTINUOUS
 10
87.5533530049
 20
59.3617067834
 11
87.5533530049
 21
59.1617067834
  0
LINE
  5
4BA
100
AcDbEntity
  8
0
100
AcDbLine
 62
7
  6
CONTINUOUS
 10
88.2533530049
 20
59.1617067834
 11
88.2533530049
 21
59.3617067834
  0
LINE
  5
4BB
100
AcDbEntity
  8
0
100
AcDbLine
 62
7
  6
CONTINUOUS
 10
88.2533530049
 20
82.5617067834
 11
88.2533530049
 21
82.7617067834
  0
LINE
  5
4BC
100
AcDbEntity
  8
0
100
AcDbLine
 62
7
  6
CONTINUOUS
 10
88.3533530049
 20
82.7617067834
 11
88.3533530049
 21
82.5617067834
  0
LINE
  5
4BD
100
AcDbEntity
  8
0
100
AcDbLine
 62
7
  6
CONTINUOUS
 10
88.3533530049
 20
59.3617067834
 11
88.3533530049
 21
59.1617067834
  0
LINE
  5
4BE
100
AcDbEntity
  8
0
100
AcDbLine
 62
7
  6
CONTINUOUS
 10
89.0533530049
 20
59.1617067834
 11
89.0533530049
 21
59.3617067834
  0
LINE
  5
4BF
100
AcDbEntity
  8
0
100
AcDbLine
 62
7
  6
CONTINUOUS
 10
89.0533530049
 20
82.5617067834
 11
89.0533530049
 21
82.7617067834
  0
LINE
  5
4C0
100
AcDbEntity
  8
0
100
AcDbLine
 62
7
  6
CONTINUOUS
 10
89.3033530049
 20
84.4117067834
 11
89.3033530049
 21
82.9617067835
  0
LINE
  5
4C1
100
AcDbEntity
  8
0
100
AcDbLine
 62
7
  6
CONTINUOUS
 10
89.3033530049
 20
78.1617067832
 11
89.3033530049
 21
76.5617067835
  0
LINE
  5
4C2
100
AcDbEntity
  8
0
100
AcDbLine
 62
7
  6
CONTINUOUS
 10
89.3033530049
 20
71.7617067832
 11
89.3033530049
 21
70.1617067835
  0
LINE
  5
4C3
100
AcDbEntity
  8
0
100
AcDbLine
 62
7
  6
CONTINUOUS
 10
89.3033530049
 20
65.3617067832
 11
89.3033530049
 21
63.7617067835
  0
LINE
  5
4C4
100
AcDbEntity
  8
0
100
AcDbLine
 62
7
  6
CONTINUOUS
 10
89.3033530049
 20
58.9617067832
 11
89.3033530049
 21
57.5117067834
  0
LINE
  5
4C5
100
AcDbEntity
  8
0
100
AcDbLine
 62
7
  6
CONTINUOUS
 10
89.6033530049
 20
57.8117067834
 11
89.6033530049
 21
84.1117067834
  0
ARC
  5
4C6
100
AcDbEntity
  8
0
100
AcDbCircle
 62
7
  6
CONTINUOUS
 10
11.0033530049
 20
58.9617067834
 40
0.4
100
AcDbArc
 50
90.0000000014
 51
180.0
  0
ARC
  5
4C7
100
AcDbEntity
  8
0
100
AcDbCircle
 62
7
  6
CONTINUOUS
 10
19.9033530049
 20
58.9617067834
 40
0.4
100
AcDbArc
 50
90.0
 51
180.0000000155
  0
ARC
  5
4C8
100
AcDbEntity
  8
0
100
AcDbCircle
 62
7
  6
CONTINUOUS
 10
19.8033530049
 20
57.8117067834
 40
0.3
100
AcDbArc
 50
180.0
 51
270.0
  0
ARC
  5
4C9
100
AcDbEntity
  8
0
100
AcDbCircle
 62
7
  6
CONTINUOUS
 10
10.9033530049
 20
57.8117067834
 40
0.3
100
AcDbArc
 50
180.0
 51
270.0
  0
ARC
  5
4CA
100
AcDbEntity
  8
0
100
AcDbCircle
 62
7
  6
CONTINUOUS
 10
16.5233678825
 20
60.6778900274
 40
0.1
100
AcDbArc
 50
30.2538242752
 51
120.2538242689
  0
ARC
  5
4CB
100
AcDbEntity
  8
0
100
AcDbCircle
 62
7
  6
CONTINUOUS
 10
16.0195362489
 20
61.5416919057
 40
0.1
100
AcDbArc
 50
300.2538242601
 51
30.2538242672
  0
ARC
  5
4CC
100
AcDbEntity
  8
0
100
AcDbCircle
 62
7
  6
CONTINUOUS
 10
17.3871697608
 20
61.181721661
 40
0.1
100
AcDbArc
 50
120.2538242674
 51
210.2538242689
  0
CIRCLE
  5
4CD
100
AcDbEntity
  8
0
100
AcDbCircle
 62
7
  6
CONTINUOUS
 10
16.7033530049
 20
61.3617067834
 40
2.625
  0
ARC
  5
4CE
100
AcDbEntity
  8
0
100
AcDbCircle
 62
7
  6
CONTINUOUS
 10
16.7033530049
 20
61.3617067834
 40
2.525
100
AcDbArc
 50
111.0205092751
 51
109.1368589041
  0
CIRCLE
  5
4CF
100
AcDbEntity
  8
0
100
AcDbCircle
 62
7
  6
CONTINUOUS
 10
16.7033530049
 20
61.3617067834
 40
2.5
  0
ARC
  5
4D0
100
AcDbEntity
  8
0
100
AcDbCircle
 62
7
  6
CONTINUOUS
 10
16.7033530049
 20
61.3617067834
 40
2.2
100
AcDbArc
 50
130.7295059684
 51
289.7781425756
  0
ARC
  5
4D1
100
AcDbEntity
  8
0
100
AcDbCircle
 62
7
  6
CONTINUOUS
 10
16.7033530049
 20
61.3617067834
 40
2.2
100
AcDbArc
 50
310.7295059684
 51
109.7781425757
  0
ARC
  5
4D2
100
AcDbEntity
  8
0
100
AcDbCircle
 62
7
  6
CONTINUOUS
 10
16.7033530049
 20
61.3617067834
 40
1.3876815526
100
AcDbArc
 50
193.5005750564
 51
227.0070734875
  0
ARC
  5
4D3
100
AcDbEntity
  8
0
100
AcDbCircle
 62
7
  6
CONTINUOUS
 10
16.7033530049
 20
61.3617067834
 40
1.3876815526
100
AcDbArc
 50
13.5005750564
 51
47.0070734877
  0
ARC
  5
4D4
100
AcDbEntity
  8
0
100
AcDbCircle
 62
7
  6
CONTINUOUS
 10
16.7033530049
 20
61.3617067834
 40
1.3876815526
100
AcDbArc
 50
103.5005750566
 51
137.0070734877
  0
ARC
  5
4D5
100
AcDbEntity
  8
0
100
AcDbCircle
 62
7
  6
CONTINUOUS
 10
16.7033530049
 20
61.3617067834
 40
1.3876815526
100
AcDbArc
 50
283.5005750563
 51
317.0070734875
  0
ARC
  5
4D6
100
AcDbEntity
  8
0
100
AcDbCircle
 62
7
  6
CONTINUOUS
 10
16.7033530049
 20
61.3617067834
 40
0.7597753402
100
AcDbArc
 50
178.4864730269
 51
242.0211755167
  0
ARC
  5
4D7
100
AcDbEntity
  8
0
100
AcDbCircle
 62
7
  6
CONTINUOUS
 10
16.7033530049
 20
61.3617067834
 40
0.7597753402
100
AcDbArc
 50
88.4864730267
 51
152.021175517
  0
ARC
  5
4D8
100
AcDbEntity
  8
0
100
AcDbCircle
 62
7
  6
CONTINUOUS
 10
16.7033530049
 20
61.3617067834
 40
0.7597753402
100
AcDbArc
 50
358.4864730269
 51
62.0211755168
  0
ARC
  5
4D9
100
AcDbEntity
  8
0
100
AcDbCircle
 62
7
  6
CONTINUOUS
 10
16.7033530049
 20
61.3617067834
 40
0.7597753402
100
AcDbArc
 50
268.4864730267
 51
332.021175517
  0
CIRCLE
  5
4DA
100
AcDbEntity
  8
0
100
AcDbCircle
 62
7
  6
CONTINUOUS
 10
16.7033530049
 20
61.3617067834
 40
0.4
  0
ARC
  5
4DB
100
AcDbEntity
  8
0
100
AcDbCircle
 62
7
  6
CONTINUOUS
 10
16.8833381272
 20
62.0455235393
 40
0.1
100
AcDbArc
 50
210.2538242718
 51
300.2538242725
  0
ARC
  5
4DC
100
AcDbEntity
  8
0
100
AcDbCircle
 62
7
  6
CONTINUOUS
 10
29.4033530049
 20
57.8117067834
 40
0.3
100
AcDbArc
 50
270.0
 51
360.0
  0
ARC
  5
4DD
100
AcDbEntity
  8
0
100
AcDbCircle
 62
7
  6
CONTINUOUS
 10
25.4233678825
 20
60.6778900274
 40
0.1
100
AcDbArc
 50
30.2538242751
 51
120.2538242689
  0
ARC
  5
4DE
100
AcDbEntity
  8
0
100
AcDbCircle
 62
7
  6
CONTINUOUS
 10
24.9195362489
 20
61.5416919057
 40
0.1
100
AcDbArc
 50
300.2538242601
 51
30.2538242672
  0
ARC
  5
4DF
100
AcDbEntity
  8
0
100
AcDbCircle
 62
7
  6
CONTINUOUS
 10
26.2871697609
 20
61.181721661
 40
0.1
100
AcDbArc
 50
120.2538242675
 51
210.2538242689
  0
CIRCLE
  5
4E0
100
AcDbEntity
  8
0
100
AcDbCircle
 62
7
  6
CONTINUOUS
 10
25.6033530049
 20
61.3617067834
 40
2.65
  0
ARC
  5
4E1
100
AcDbEntity
  8
0
100
AcDbCircle
 62
7
  6
CONTINUOUS
 10
25.6033530049
 20
61.3617067834
 40
2.55
100
AcDbArc
 50
129.4635812106
 51
304.9477213029
  0
ARC
  5
4E2
100
AcDbEntity
  8
0
100
AcDbCircle
 62
7
  6
CONTINUOUS
 10
25.6033530049
 20
61.3617067834
 40
2.55
100
AcDbArc
 50
309.4635812105
 51
124.9477213029
  0
CIRCLE
  5
4E3
100
AcDbEntity
  8
0
100
AcDbCircle
 62
7
  6
CONTINUOUS
 10
25.6033530049
 20
61.3617067834
 40
2.5
  0
ARC
  5
4E4
100
AcDbEntity
  8
0
100
AcDbCircle
 62
7
  6
CONTINUOUS
 10
25.6033530049
 20
61.3617067834
 40
2.2
100
AcDbArc
 50
130.7295059684
 51
289.7781425756
  0
ARC
  5
4E5
100
AcDbEntity
  8
0
100
AcDbCircle
 62
7
  6
CONTINUOUS
 10
25.6033530049
 20
61.3617067834
 40
2.2
100
AcDbArc
 50
310.7295059684
 51
109.7781425757
  0
ARC
  5
4E6
100
AcDbEntity
  8
0
100
AcDbCircle
 62
7
  6
CONTINUOUS
 10
25.6033530049
 20
61.3617067834
 40
1.3876815526
100
AcDbArc
 50
193.5005750564
 51
227.0070734875
  0
ARC
  5
4E7
100
AcDbEntity
  8
0
100
AcDbCircle
 62
7
  6
CONTINUOUS
 10
25.6033530049
 20
61.3617067834
 40
1.3876815526
100
AcDbArc
 50
13.5005750564
 51
47.0070734877
  0
ARC
  5
4E8
100
AcDbEntity
  8
0
100
AcDbCircle
 62
7
  6
CONTINUOUS
 10
25.6033530049
 20
61.3617067834
 40
1.3876815526
100
AcDbArc
 50
103.5005750566
 51
137.0070734877
  0
ARC
  5
4E9
100
AcDbEntity
  8
0
100
AcDbCircle
 62
7
  6
CONTINUOUS
 10
25.6033530049
 20
61.3617067834
 40
1.3876815526
100
AcDbArc
 50
283.5005750563
 51
317.0070734875
  0
ARC
  5
4EA
100
AcDbEntity
  8
0
100
AcDbCircle
 62
7
  6
CONTINUOUS
 10
25.6033530049
 20
61.3617067834
 40
0.7597753402
100
AcDbArc
 50
178.4864730269
 51
242.0211755167
  0
ARC
  5
4EB
100
AcDbEntity
  8
0
100
AcDbCircle
 62
7
  6
CONTINUOUS
 10
25.6033530049
 20
61.3617067834
 40
0.7597753402
100
AcDbArc
 50
88.4864730267
 51
152.021175517
  0
ARC
  5
4EC
100
AcDbEntity
  8
0
100
AcDbCircle
 62
7
  6
CONTINUOUS
 10
25.6033530049
 20
61.3617067834
 40
0.7597753402
100
AcDbArc
 50
358.4864730269
 51
62.0211755168
  0
ARC
  5
4ED
100
AcDbEntity
  8
0
100
AcDbCircle
 62
7
  6
CONTINUOUS
 10
25.6033530049
 20
61.3617067834
 40
0.7597753402
100
AcDbArc
 50
268.4864730267
 51
332.021175517
  0
CIRCLE
  5
4EE
100
AcDbEntity
  8
0
100
AcDbCircle
 62
7
  6
CONTINUOUS
 10
25.6033530049
 20
61.3617067834
 40
0.4
  0
ARC
  5
4EF
100
AcDbEntity
  8
0
100
AcDbCircle
 62
7
  6
CONTINUOUS
 10
25.7833381272
 20
62.0455235393
 40
0.1
100
AcDbArc
 50
210.2538242718
 51
300.2538242725
  0
ARC
  5
4F0
100
AcDbEntity
  8
0
100
AcDbCircle
 62
7
  6
CONTINUOUS
 10
11.0033530049
 20
65.3617067834
 40
0.4
100
AcDbArc
 50
90.0000000014
 51
180.0
  0
ARC
  5
4F1
100
AcDbEntity
  8
0
100
AcDbCircle
 62
7
  6
CONTINUOUS
 10
11.0033530049
 20
63.7617067834
 40
0.4
100
AcDbArc
 50
180.0
 51
270.0
  0
ARC
  5
4F2
100
AcDbEntity
  8
0
100
AcDbCircle
 62
7
  6
CONTINUOUS
 10
19.9033530049
 20
63.7617067834
 40
0.4
100
AcDbArc
 50
179.9999999847
 51
270.0
  0
ARC
  5
4F3
100
AcDbEntity
  8
0
100
AcDbCircle
 62
7
  6
CONTINUOUS
 10
16.5233678825
 20
67.0778900274
 40
0.1
100
AcDbArc
 50
30.2538242746
 51
120.2538242726
  0
ARC
  5
4F4
100
AcDbEntity
  8
0
100
AcDbCircle
 62
7
  6
CONTINUOUS
 10
16.0195362489
 20
67.9416919057
 40
0.1
100
AcDbArc
 50
300.2538242675
 51
30.2538242672
  0
ARC
  5
4F5
100
AcDbEntity
  8
0
100
AcDbCircle
 62
7
  6
CONTINUOUS
 10
17.3871697608
 20
67.581721661
 40
0.1
100
AcDbArc
 50
120.2538242674
 51
210.2538242689
  0
CIRCLE
  5
4F6
100
AcDbEntity
  8
0
100
AcDbCircle
 62
7
  6
CONTINUOUS
 10
16.7033530049
 20
67.7617067834
 40
2.625
  0
ARC
  5
4F7
100
AcDbEntity
  8
0
100
AcDbCircle
 62
7
  6
CONTINUOUS
 10
16.7033530049
 20
67.7617067834
 40
2.525
100
AcDbArc
 50
111.0205092751
 51
109.1368589041
  0
CIRCLE
  5
4F8
100
AcDbEntity
  8
0
100
AcDbCircle
 62
7
  6
CONTINUOUS
 10
16.7033530049
 20
67.7617067834
 40
2.5
  0
ARC
  5
4F9
100
AcDbEntity
  8
0
100
AcDbCircle
 62
7
  6
CONTINUOUS
 10
16.7033530049
 20
67.7617067834
 40
2.2
100
AcDbArc
 50
130.7295059684
 51
289.7781425756
  0
ARC
  5
4FA
100
AcDbEntity
  8
0
100
AcDbCircle
 62
7
  6
CONTINUOUS
 10
16.7033530049
 20
67.7617067834
 40
2.2
100
AcDbArc
 50
310.7295059684
 51
109.7781425757
  0
ARC
  5
4FB
100
AcDbEntity
  8
0
100
AcDbCircle
 62
7
  6
CONTINUOUS
 10
16.7033530049
 20
67.7617067834
 40
1.3876815526
100
AcDbArc
 50
283.5005750563
 51
317.0070734875
  0
ARC
  5
4FC
100
AcDbEntity
  8
0
100
AcDbCircle
 62
7
  6
CONTINUOUS
 10
16.7033530049
 20
67.7617067834
 40
1.3876815526
100
AcDbArc
 50
193.5005750564
 51
227.0070734877
  0
ARC
  5
4FD
100
AcDbEntity
  8
0
100
AcDbCircle
 62
7
  6
CONTINUOUS
 10
16.7033530049
 20
67.7617067834
 40
1.3876815526
100
AcDbArc
 50
13.5005750564
 51
47.0070734877
  0
ARC
  5
4FE
100
AcDbEntity
  8
0
100
AcDbCircle
 62
7
  6
CONTINUOUS
 10
16.7033530049
 20
67.7617067834
 40
1.3876815526
100
AcDbArc
 50
103.5005750566
 51
137.0070734877
  0
ARC
  5
4FF
100
AcDbEntity
  8
0
100
AcDbCircle
 62
7
  6
CONTINUOUS
 10
16.7033530049
 20
67.7617067834
 40
0.7597753402
100
AcDbArc
 50
88.4864730267
 51
152.021175517
  0
ARC
  5
500
100
AcDbEntity
  8
0
100
AcDbCircle
 62
7
  6
CONTINUOUS
 10
16.7033530049
 20
67.7617067834
 40
0.7597753402
100
AcDbArc
 50
358.4864730269
 51
62.0211755168
  0
ARC
  5
501
100
AcDbEntity
  8
0
100
AcDbCircle
 62
7
  6
CONTINUOUS
 10
16.7033530049
 20
67.7617067834
 40
0.7597753402
100
AcDbArc
 50
268.4864730267
 51
332.021175517
  0
ARC
  5
502
100
AcDbEntity
  8
0
100
AcDbCircle
 62
7
  6
CONTINUOUS
 10
16.7033530049
 20
67.7617067834
 40
0.7597753402
100
AcDbArc
 50
178.4864730269
 51
242.0211755168
  0
CIRCLE
  5
503
100
AcDbEntity
  8
0
100
AcDbCircle
 62
7
  6
CONTINUOUS
 10
16.7033530049
 20
67.7617067834
 40
0.4
  0
ARC
  5
504
100
AcDbEntity
  8
0
100
AcDbCircle
 62
7
  6
CONTINUOUS
 10
16.8833381272
 20
68.4455235393
 40
0.1
100
AcDbArc
 50
210.2538242718
 51
300.2538242725
  0
ARC
  5
505
100
AcDbEntity
  8
0
100
AcDbCircle
 62
7
  6
CONTINUOUS
 10
34.7379798182
 20
60.9617067834
 40
0.5
100
AcDbArc
 50
255.4056403595
 51
270.0
  0
ARC
  5
506
100
AcDbEntity
  8
0
100
AcDbCircle
 62
7
  6
CONTINUOUS
 10
48.1533530049
 20
57.8117067834
 40
0.3
100
AcDbArc
 50
270.0
 51
360.0
  0
ARC
  5
507
100
AcDbEntity
  8
0
100
AcDbCircle
 62
7
  6
CONTINUOUS
 10
47.0033530049
 20
57.8117067834
 40
0.3
100
AcDbArc
 50
270.0
 51
360.0
  0
ARC
  5
508
100
AcDbEntity
  8
0
100
AcDbCircle
 62
7
  6
CONTINUOUS
 10
40.3033530049
 20
58.0117067834
 40
0.2
100
AcDbArc
 50
270.0
 51
348.5370192543
  0
ARC
  5
509
100
AcDbEntity
  8
0
100
AcDbCircle
 62
7
  6
CONTINUOUS
 10
38.7033530049
 20
58.0117067834
 40
0.2
100
AcDbArc
 50
188.3125009938
 51
270.0
  0
ARC
  5
50A
100
AcDbEntity
  8
0
100
AcDbCircle
 62
7
  6
CONTINUOUS
 10
37.4133530049
 20
63.0117067834
 40
0.1
100
AcDbArc
 50
239.8811302194
 51
269.9999999913
  0
ARC
  5
50B
100
AcDbEntity
  8
0
100
AcDbCircle
 62
7
  6
CONTINUOUS
 10
43.3248181122
 20
65.8005877551
 40
7.19056626
100
AcDbArc
 50
269.5366539167
 51
269.7793189188
  0
CIRCLE
  5
50C
100
AcDbEntity
  8
0
100
AcDbCircle
 62
7
  6
CONTINUOUS
 10
29.8033530049
 20
67.1117067834
 40
2.2
  0
CIRCLE
  5
50D
100
AcDbEntity
  8
0
100
AcDbCircle
 62
7
  6
CONTINUOUS
 10
29.8033530049
 20
67.1117067834
 40
1.9
  0
ARC
  5
50E
100
AcDbEntity
  8
0
100
AcDbCircle
 62
7
  6
CONTINUOUS
 10
37.8633530049
 20
66.0617067834
 40
0.5
100
AcDbArc
 50
101.3774493747
 51
179.9999999971
  0
ARC
  5
50F
100
AcDbEntity
  8
0
100
AcDbCircle
 62
7
  6
CONTINUOUS
 10
37.8633530049
 20
63.4617067834
 40
0.5
100
AcDbArc
 50
180.0
 51
258.6225506254
  0
ARC
  5
510
100
AcDbEntity
  8
0
100
AcDbCircle
 62
7
  6
CONTINUOUS
 10
37.2064354462
 20
69.0204603085
 40
0.5
100
AcDbArc
 50
180.0
 51
270.0
  0
ARC
  5
511
100
AcDbEntity
  8
0
100
AcDbCircle
 62
7
  6
CONTINUOUS
 10
36.8419228533
 20
67.8029934722
 40
0.2499874071
100
AcDbArc
 50
179.9991791414
 51
270.0018046734
  0
ARC
  5
512
100
AcDbEntity
  8
0
100
AcDbCircle
 62
7
  6
CONTINUOUS
 10
36.8506497211
 20
67.81172034
 40
0.2499874072
100
AcDbArc
 50
179.9991791485
 51
270.0018046174
  0
ARC
  5
513
100
AcDbEntity
  8
0
100
AcDbCircle
 62
7
  6
CONTINUOUS
 10
37.4133530049
 20
66.5117067834
 40
0.1
100
AcDbArc
 50
90.0000000176
 51
179.9999999911
  0
ARC
  5
514
100
AcDbEntity
  8
0
100
AcDbCircle
 62
7
  6
CONTINUOUS
 10
11.0033530049
 20
71.7617067834
 40
0.4
100
AcDbArc
 50
90.0000000014
 51
180.0
  0
ARC
  5
515
100
AcDbEntity
  8
0
100
AcDbCircle
 62
7
  6
CONTINUOUS
 10
11.0033530049
 20
70.1617067834
 40
0.4
100
AcDbArc
 50
180.0
 51
270.0
  0
ARC
  5
516
100
AcDbEntity
  8
0
100
AcDbCircle
 62
7
  6
CONTINUOUS
 10
16.5233678825
 20
73.4778900274
 40
0.1
100
AcDbArc
 50
30.2538242746
 51
120.2538242726
  0
ARC
  5
517
100
AcDbEntity
  8
0
100
AcDbCircle
 62
7
  6
CONTINUOUS
 10
16.0195362489
 20
74.3416919057
 40
0.1
100
AcDbArc
 50
300.2538242675
 51
30.2538242672
  0
ARC
  5
518
100
AcDbEntity
  8
0
100
AcDbCircle
 62
7
  6
CONTINUOUS
 10
17.3871697608
 20
73.981721661
 40
0.1
100
AcDbArc
 50
120.2538242674
 51
210.2538242689
  0
CIRCLE
  5
519
100
AcDbEntity
  8
0
100
AcDbCircle
 62
7
  6
CONTINUOUS
 10
16.7033530049
 20
74.1617067834
 40
2.625
  0
ARC
  5
51A
100
AcDbEntity
  8
0
100
AcDbCircle
 62
7
  6
CONTINUOUS
 10
16.7033530049
 20
74.1617067834
 40
2.525
100
AcDbArc
 50
111.0205092751
 51
109.1368589041
  0
CIRCLE
  5
51B
100
AcDbEntity
  8
0
100
AcDbCircle
 62
7
  6
CONTINUOUS
 10
16.7033530049
 20
74.1617067834
 40
2.5
  0
ARC
  5
51C
100
AcDbEntity
  8
0
100
AcDbCircle
 62
7
  6
CONTINUOUS
 10
16.7033530049
 20
74.1617067834
 40
2.2
100
AcDbArc
 50
130.7295059684
 51
289.7781425756
  0
ARC
  5
51D
100
AcDbEntity
  8
0
100
AcDbCircle
 62
7
  6
CONTINUOUS
 10
16.7033530049
 20
74.1617067834
 40
2.2
100
AcDbArc
 50
310.7295059684
 51
109.7781425757
  0
ARC
  5
51E
100
AcDbEntity
  8
0
100
AcDbCircle
 62
7
  6
CONTINUOUS
 10
16.7033530049
 20
74.1617067834
 40
1.3876815526
100
AcDbArc
 50
193.5005750564
 51
227.0070734877
  0
ARC
  5
51F
100
AcDbEntity
  8
0
100
AcDbCircle
 62
7
  6
CONTINUOUS
 10
16.7033530049
 20
74.1617067834
 40
1.3876815526
100
AcDbArc
 50
13.5005750564
 51
47.0070734877
  0
ARC
  5
520
100
AcDbEntity
  8
0
100
AcDbCircle
 62
7
  6
CONTINUOUS
 10
16.7033530049
 20
74.1617067834
 40
1.3876815526
100
AcDbArc
 50
103.5005750566
 51
137.0070734877
  0
ARC
  5
521
100
AcDbEntity
  8
0
100
AcDbCircle
 62
7
  6
CONTINUOUS
 10
16.7033530049
 20
74.1617067834
 40
1.3876815526
100
AcDbArc
 50
283.5005750563
 51
317.0070734875
  0
ARC
  5
522
100
AcDbEntity
  8
0
100
AcDbCircle
 62
7
  6
CONTINUOUS
 10
16.7033530049
 20
74.1617067834
 40
0.7597753402
100
AcDbArc
 50
178.4864730269
 51
242.0211755168
  0
ARC
  5
523
100
AcDbEntity
  8
0
100
AcDbCircle
 62
7
  6
CONTINUOUS
 10
16.7033530049
 20
74.1617067834
 40
0.7597753402
100
AcDbArc
 50
88.4864730267
 51
152.021175517
  0
ARC
  5
524
100
AcDbEntity
  8
0
100
AcDbCircle
 62
7
  6
CONTINUOUS
 10
16.7033530049
 20
74.1617067834
 40
0.7597753402
100
AcDbArc
 50
358.4864730269
 51
62.0211755168
  0
ARC
  5
525
100
AcDbEntity
  8
0
100
AcDbCircle
 62
7
  6
CONTINUOUS
 10
16.7033530049
 20
74.1617067834
 40
0.7597753402
100
AcDbArc
 50
268.4864730267
 51
332.021175517
  0
CIRCLE
  5
526
100
AcDbEntity
  8
0
100
AcDbCircle
 62
7
  6
CONTINUOUS
 10
16.7033530049
 20
74.1617067834
 40
0.4
  0
ARC
  5
527
100
AcDbEntity
  8
0
100
AcDbCircle
 62
7
  6
CONTINUOUS
 10
16.8833381272
 20
74.8455235393
 40
0.1
100
AcDbArc
 50
210.2538242718
 51
300.2538242725
  0
CIRCLE
  5
528
100
AcDbEntity
  8
0
100
AcDbCircle
 62
7
  6
CONTINUOUS
 10
29.8033530049
 20
74.8117067834
 40
2.2
  0
CIRCLE
  5
529
100
AcDbEntity
  8
0
100
AcDbCircle
 62
7
  6
CONTINUOUS
 10
29.8033530049
 20
74.8117067834
 40
1.9
  0
ARC
  5
52A
100
AcDbEntity
  8
0
100
AcDbCircle
 62
7
  6
CONTINUOUS
 10
11.0033530049
 20
76.5617067834
 40
0.4
100
AcDbArc
 50
180.0
 51
270.0
  0
ARC
  5
52B
100
AcDbEntity
  8
0
100
AcDbCircle
 62
7
  6
CONTINUOUS
 10
11.0033530049
 20
78.1617067834
 40
0.4
100
AcDbArc
 50
90.0
 51
180.0
  0
ARC
  5
52C
100
AcDbEntity
  8
0
100
AcDbCircle
 62
7
  6
CONTINUOUS
 10
16.5233678825
 20
79.8778900274
 40
0.1
100
AcDbArc
 50
30.2538242746
 51
120.2538242726
  0
ARC
  5
52D
100
AcDbEntity
  8
0
100
AcDbCircle
 62
7
  6
CONTINUOUS
 10
16.0195362489
 20
80.7416919057
 40
0.1
100
AcDbArc
 50
300.2538242675
 51
30.2538242704
  0
ARC
  5
52E
100
AcDbEntity
  8
0
100
AcDbCircle
 62
7
  6
CONTINUOUS
 10
17.3871697608
 20
80.381721661
 40
0.1
100
AcDbArc
 50
120.2538242601
 51
210.2538242689
  0
CIRCLE
  5
52F
100
AcDbEntity
  8
0
100
AcDbCircle
 62
7
  6
CONTINUOUS
 10
16.7033530049
 20
80.5617067834
 40
2.625
  0
ARC
  5
530
100
AcDbEntity
  8
0
100
AcDbCircle
 62
7
  6
CONTINUOUS
 10
16.7033530049
 20
80.5617067834
 40
2.525
100
AcDbArc
 50
111.0205092751
 51
109.136858904
  0
CIRCLE
  5
531
100
AcDbEntity
  8
0
100
AcDbCircle
 62
7
  6
CONTINUOUS
 10
16.7033530049
 20
80.5617067834
 40
2.5
  0
ARC
  5
532
100
AcDbEntity
  8
0
100
AcDbCircle
 62
7
  6
CONTINUOUS
 10
16.7033530049
 20
80.5617067834
 40
2.2
100
AcDbArc
 50
130.7295059684
 51
289.7781425756
  0
ARC
  5
533
100
AcDbEntity
  8
0
100
AcDbCircle
 62
7
  6
CONTINUOUS
 10
16.7033530049
 20
80.5617067834
 40
2.2
100
AcDbArc
 50
310.7295059684
 51
109.7781425757
  0
ARC
  5
534
100
AcDbEntity
  8
0
100
AcDbCircle
 62
7
  6
CONTINUOUS
 10
16.7033530049
 20
80.5617067834
 40
1.3876815526
100
AcDbArc
 50
193.5005750564
 51
227.0070734877
  0
ARC
  5
535
100
AcDbEntity
  8
0
100
AcDbCircle
 62
7
  6
CONTINUOUS
 10
16.7033530049
 20
80.5617067834
 40
1.3876815526
100
AcDbArc
 50
13.5005750564
 51
47.0070734875
  0
ARC
  5
536
100
AcDbEntity
  8
0
100
AcDbCircle
 62
7
  6
CONTINUOUS
 10
16.7033530049
 20
80.5617067834
 40
1.3876815526
100
AcDbArc
 50
103.5005750565
 51
137.0070734878
  0
ARC
  5
537
100
AcDbEntity
  8
0
100
AcDbCircle
 62
7
  6
CONTINUOUS
 10
16.7033530049
 20
80.5617067834
 40
1.3876815526
100
AcDbArc
 50
283.5005750563
 51
317.0070734875
  0
ARC
  5
538
100
AcDbEntity
  8
0
100
AcDbCircle
 62
7
  6
CONTINUOUS
 10
16.7033530049
 20
80.5617067834
 40
0.7597753402
100
AcDbArc
 50
178.4864730269
 51
242.0211755168
  0
ARC
  5
539
100
AcDbEntity
  8
0
100
AcDbCircle
 62
7
  6
CONTINUOUS
 10
16.7033530049
 20
80.5617067834
 40
0.7597753402
100
AcDbArc
 50
88.4864730267
 51
152.021175517
  0
ARC
  5
53A
100
AcDbEntity
  8
0
100
AcDbCircle
 62
7
  6
CONTINUOUS
 10
16.7033530049
 20
80.5617067834
 40
0.7597753402
100
AcDbArc
 50
358.4864730269
 51
62.0211755167
  0
ARC
  5
53B
100
AcDbEntity
  8
0
100
AcDbCircle
 62
7
  6
CONTINUOUS
 10
16.7033530049
 20
80.5617067834
 40
0.7597753402
100
AcDbArc
 50
268.4864730267
 51
332.021175517
  0
CIRCLE
  5
53C
100
AcDbEntity
  8
0
100
AcDbCircle
 62
7
  6
CONTINUOUS
 10
16.7033530049
 20
80.5617067834
 40
0.4
  0
ARC
  5
53D
100
AcDbEntity
  8
0
100
AcDbCircle
 62
7
  6
CONTINUOUS
 10
16.8833381272
 20
81.2455235393
 40
0.1
100
AcDbArc
 50
210.2538242692
 51
300.2538242689
  0
ARC
  5
53E
100
AcDbEntity
  8
0
100
AcDbCircle
 62
7
  6
CONTINUOUS
 10
19.9033530049
 20
78.1617067834
 40
0.4
100
AcDbArc
 50
90.0
 51
180.0000000152
  0
ARC
  5
53F
100
AcDbEntity
  8
0
100
AcDbCircle
 62
7
  6
CONTINUOUS
 10
25.4233678825
 20
79.8778900274
 40
0.1
100
AcDbArc
 50
30.2538242746
 51
120.2538242725
  0
ARC
  5
540
100
AcDbEntity
  8
0
100
AcDbCircle
 62
7
  6
CONTINUOUS
 10
24.9195362489
 20
80.7416919057
 40
0.1
100
AcDbArc
 50
300.2538242675
 51
30.2538242704
  0
ARC
  5
541
100
AcDbEntity
  8
0
100
AcDbCircle
 62
7
  6
CONTINUOUS
 10
26.2871697609
 20
80.381721661
 40
0.1
100
AcDbArc
 50
120.2538242601
 51
210.2538242689
  0
CIRCLE
  5
542
100
AcDbEntity
  8
0
100
AcDbCircle
 62
7
  6
CONTINUOUS
 10
25.6033530049
 20
80.5617067834
 40
2.65
  0
ARC
  5
543
100
AcDbEntity
  8
0
100
AcDbCircle
 62
7
  6
CONTINUOUS
 10
25.6033530049
 20
80.5617067834
 40
2.55
100
AcDbArc
 50
129.4635812107
 51
304.9477213029
  0
ARC
  5
544
100
AcDbEntity
  8
0
100
AcDbCircle
 62
7
  6
CONTINUOUS
 10
25.6033530049
 20
80.5617067834
 40
2.55
100
AcDbArc
 50
309.4635812105
 51
124.9477213029
  0
CIRCLE
  5
545
100
AcDbEntity
  8
0
100
AcDbCircle
 62
7
  6
CONTINUOUS
 10
25.6033530049
 20
80.5617067834
 40
2.5
  0
ARC
  5
546
100
AcDbEntity
  8
0
100
AcDbCircle
 62
7
  6
CONTINUOUS
 10
25.6033530049
 20
80.5617067834
 40
2.2
100
AcDbArc
 50
310.7295059684
 51
109.7781425757
  0
ARC
  5
547
100
AcDbEntity
  8
0
100
AcDbCircle
 62
7
  6
CONTINUOUS
 10
25.6033530049
 20
80.5617067834
 40
2.2
100
AcDbArc
 50
130.7295059684
 51
289.7781425756
  0
ARC
  5
548
100
AcDbEntity
  8
0
100
AcDbCircle
 62
7
  6
CONTINUOUS
 10
25.6033530049
 20
80.5617067834
 40
1.3876815526
100
AcDbArc
 50
13.5005750564
 51
47.0070734875
  0
ARC
  5
549
100
AcDbEntity
  8
0
100
AcDbCircle
 62
7
  6
CONTINUOUS
 10
25.6033530049
 20
80.5617067834
 40
1.3876815526
100
AcDbArc
 50
103.5005750565
 51
137.0070734878
  0
ARC
  5
54A
100
AcDbEntity
  8
0
100
AcDbCircle
 62
7
  6
CONTINUOUS
 10
25.6033530049
 20
80.5617067834
 40
1.3876815526
100
AcDbArc
 50
283.5005750563
 51
317.0070734875
  0
ARC
  5
54B
100
AcDbEntity
  8
0
100
AcDbCircle
 62
7
  6
CONTINUOUS
 10
25.6033530049
 20
80.5617067834
 40
1.3876815526
100
AcDbArc
 50
193.5005750564
 51
227.0070734877
  0
ARC
  5
54C
100
AcDbEntity
  8
0
100
AcDbCircle
 62
7
  6
CONTINUOUS
 10
25.6033530049
 20
80.5617067834
 40
0.7597753402
100
AcDbArc
 50
88.4864730267
 51
152.021175517
  0
ARC
  5
54D
100
AcDbEntity
  8
0
100
AcDbCircle
 62
7
  6
CONTINUOUS
 10
25.6033530049
 20
80.5617067834
 40
0.7597753402
100
AcDbArc
 50
358.4864730269
 51
62.0211755167
  0
ARC
  5
54E
100
AcDbEntity
  8
0
100
AcDbCircle
 62
7
  6
CONTINUOUS
 10
25.6033530049
 20
80.5617067834
 40
0.7597753402
100
AcDbArc
 50
268.4864730267
 51
332.021175517
  0
ARC
  5
54F
100
AcDbEntity
  8
0
100
AcDbCircle
 62
7
  6
CONTINUOUS
 10
25.6033530049
 20
80.5617067834
 40
0.7597753402
100
AcDbArc
 50
178.4864730269
 51
242.0211755168
  0
CIRCLE
  5
550
100
AcDbEntity
  8
0
100
AcDbCircle
 62
7
  6
CONTINUOUS
 10
25.6033530049
 20
80.5617067834
 40
0.4
  0
ARC
  5
551
100
AcDbEntity
  8
0
100
AcDbCircle
 62
7
  6
CONTINUOUS
 10
25.7833381272
 20
81.2455235393
 40
0.1
100
AcDbArc
 50
210.2538242692
 51
300.2538242689
  0
ARC
  5
552
100
AcDbEntity
  8
0
100
AcDbCircle
 62
7
  6
CONTINUOUS
 10
35.0633530049
 20
80.4867067834
 40
1.0
100
AcDbArc
 50
90.0
 51
104.4128900205
  0
ARC
  5
553
100
AcDbEntity
  8
0
100
AcDbCircle
 62
7
  6
CONTINUOUS
 10
45.5633530049
 20
80.4867067834
 40
1.0
100
AcDbArc
 50
90.0
 51
94.0286013564
  0
ARC
  5
554
100
AcDbEntity
  8
0
100
AcDbCircle
 62
7
  6
CONTINUOUS
 10
49.7633530049
 20
80.4867067834
 40
1.0
100
AcDbArc
 50
85.971278939
 51
90.0
  0
ARC
  5
555
100
AcDbEntity
  8
0
100
AcDbCircle
 62
7
  6
CONTINUOUS
 10
37.2064354462
 20
79.7204603085
 40
0.5
100
AcDbArc
 50
90.0
 51
180.0
  0
ARC
  5
556
100
AcDbEntity
  8
0
100
AcDbCircle
 62
7
  6
CONTINUOUS
 10
34.7379798182
 20
80.9617067834
 40
0.5
100
AcDbArc
 50
89.9986841229
 51
104.4421200415
  0
ARC
  5
557
100
AcDbEntity
  8
0
100
AcDbCircle
 62
7
  6
CONTINUOUS
 10
36.8506497211
 20
80.1117465414
 40
0.2499874071
100
AcDbArc
 50
89.9981953308
 51
180.0008208601
  0
ARC
  5
558
100
AcDbEntity
  8
0
100
AcDbCircle
 62
7
  6
CONTINUOUS
 10
36.8419228533
 20
80.1204734092
 40
0.2499874072
100
AcDbArc
 50
89.9981953847
 51
180.0008208516
  0
ARC
  5
559
100
AcDbEntity
  8
0
100
AcDbCircle
 62
7
  6
CONTINUOUS
 10
50.1033530049
 20
59.5617067834
 40
2.8
100
AcDbArc
 50
161.2495629999
 51
163.2267296488
  0
ARC
  5
55A
100
AcDbEntity
  8
0
100
AcDbCircle
 62
7
  6
CONTINUOUS
 10
50.1033530049
 20
59.5617067834
 40
2.8
100
AcDbArc
 50
10.0026983916
 51
19.1567508013
  0
ARC
  5
55B
100
AcDbEntity
  8
0
100
AcDbCircle
 62
7
  6
CONTINUOUS
 10
50.1033530049
 20
59.5617067834
 40
1.65
100
AcDbArc
 50
20.3940110207
 51
33.7029718592
  0
ARC
  5
55C
100
AcDbEntity
  8
0
100
AcDbCircle
 62
7
  6
CONTINUOUS
 10
50.1033530049
 20
59.5617067834
 40
1.65
100
AcDbArc
 50
146.2968052236
 51
153.2337927706
  0
ARC
  5
55D
100
AcDbEntity
  8
0
100
AcDbCircle
 62
7
  6
CONTINUOUS
 10
60.2633530049
 20
61.4867067834
 40
1.0
100
AcDbArc
 50
358.0015854437
 51
360.0
  0
ARC
  5
55E
100
AcDbEntity
  8
0
100
AcDbCircle
 62
7
  6
CONTINUOUS
 10
60.5850999478
 20
60.9617067834
 40
0.5
100
AcDbArc
 50
269.9974179075
 51
284.6037681239
  0
ARC
  5
55F
100
AcDbEntity
  8
0
100
AcDbCircle
 62
7
  6
CONTINUOUS
 10
53.1112592534
 20
60.3117067834
 40
0.3
100
AcDbArc
 50
194.0008094042
 51
254.5538002757
  0
ARC
  5
560
100
AcDbEntity
  8
0
100
AcDbCircle
 62
7
  6
CONTINUOUS
 10
52.0533530049
 20
57.8117067834
 40
0.3
100
AcDbArc
 50
180.0
 51
270.0
  0
ARC
  5
561
100
AcDbEntity
  8
0
100
AcDbCircle
 62
7
  6
CONTINUOUS
 10
53.2033530049
 20
57.8117067834
 40
0.3
100
AcDbArc
 50
180.0
 51
270.0
  0
ARC
  5
562
100
AcDbEntity
  8
0
100
AcDbCircle
 62
7
  6
CONTINUOUS
 10
68.5033530049
 20
57.8117067834
 40
0.3
100
AcDbArc
 50
180.0
 51
270.0000000019
  0
ARC
  5
563
100
AcDbEntity
  8
0
100
AcDbCircle
 62
7
  6
CONTINUOUS
 10
57.2027231807
 20
62.6687408293
 40
0.0999910914
100
AcDbArc
 50
270.0034048131
 51
359.9963776744
  0
ARC
  5
564
100
AcDbEntity
  8
0
100
AcDbCircle
 62
7
  6
CONTINUOUS
 10
54.4167303147
 20
62.6687408043
 40
0.0999910662
100
AcDbArc
 50
179.9994534752
 51
269.9963930485
  0
ARC
  5
565
100
AcDbEntity
  8
0
100
AcDbCircle
 62
7
  6
CONTINUOUS
 10
54.4096746498
 20
62.661685139
 40
0.0999478967
100
AcDbArc
 50
179.9772517883
 51
270.0213581566
  0
ARC
  5
566
100
AcDbEntity
  8
0
100
AcDbCircle
 62
7
  6
CONTINUOUS
 10
57.2097790257
 20
62.6616849843
 40
0.0999477423
100
AcDbArc
 50
269.9784228766
 51
0.021230136
  0
ARC
  5
567
100
AcDbEntity
  8
0
100
AcDbCircle
 62
7
  6
CONTINUOUS
 10
61.0280290232
 20
69.8616904961
 40
0.1999847713
100
AcDbArc
 50
270.0046669224
 51
0.0046662576
  0
ARC
  5
568
100
AcDbEntity
  8
0
100
AcDbCircle
 62
7
  6
CONTINUOUS
 10
57.2027016581
 20
68.0547247566
 40
0.100000007
100
AcDbArc
 50
0.0155912709
 51
89.9840464443
  0
ARC
  5
569
100
AcDbEntity
  8
0
100
AcDbCircle
 62
7
  6
CONTINUOUS
 10
54.4167303456
 20
68.0547336646
 40
0.0999910954
100
AcDbArc
 50
90.0036253079
 51
179.9963753518
  0
ARC
  5
56A
100
AcDbEntity
  8
0
100
AcDbCircle
 62
7
  6
CONTINUOUS
 10
57.2097790231
 20
68.0617895103
 40
0.0999477456
100
AcDbArc
 50
359.9778920276
 51
90.0212285503
  0
ARC
  5
56B
100
AcDbEntity
  8
0
100
AcDbCircle
 62
7
  6
CONTINUOUS
 10
78.0033530049
 20
58.9617067834
 40
0.4
100
AcDbArc
 50
0.0
 51
90.0
  0
ARC
  5
56C
100
AcDbEntity
  8
0
100
AcDbCircle
 62
7
  6
CONTINUOUS
 10
78.1033530049
 20
57.8117067834
 40
0.3
100
AcDbArc
 50
270.0
 51
360.0
  0
ARC
  5
56D
100
AcDbEntity
  8
0
100
AcDbCircle
 62
7
  6
CONTINUOUS
 10
71.8309846137
 20
60.8355242077
 40
0.1
100
AcDbArc
 50
3.0848158013
 51
93.0848157863
  0
ARC
  5
56E
100
AcDbEntity
  8
0
100
AcDbCircle
 62
7
  6
CONTINUOUS
 10
71.7771704292
 20
61.8340751746
 40
0.1
100
AcDbArc
 50
273.0848157893
 51
3.0848157857
  0
ARC
  5
56F
100
AcDbEntity
  8
0
100
AcDbCircle
 62
7
  6
CONTINUOUS
 10
72.8295355806
 20
60.8893383921
 40
0.1
100
AcDbArc
 50
93.0848157958
 51
183.084815793
  0
CIRCLE
  5
570
100
AcDbEntity
  8
0
100
AcDbCircle
 62
7
  6
CONTINUOUS
 10
72.3033530049
 20
61.3617067834
 40
2.65
  0
CIRCLE
  5
571
100
AcDbEntity
  8
0
100
AcDbCircle
 62
7
  6
CONTINUOUS
 10
72.3033530049
 20
61.3617067834
 40
2.55
  0
CIRCLE
  5
572
100
AcDbEntity
  8
0
100
AcDbCircle
 62
7
  6
CONTINUOUS
 10
72.3033530049
 20
61.3617067834
 40
2.5
  0
ARC
  5
573
100
AcDbEntity
  8
0
100
AcDbCircle
 62
7
  6
CONTINUOUS
 10
72.3033530049
 20
61.3617067834
 40
2.2
100
AcDbArc
 50
283.5604974879
 51
82.6091340952
  0
ARC
  5
574
100
AcDbEntity
  8
0
100
AcDbCircle
 62
7
  6
CONTINUOUS
 10
72.3033530049
 20
61.3617067834
 40
2.2
100
AcDbArc
 50
103.560497488
 51
262.6091340951
  0
ARC
  5
575
100
AcDbEntity
  8
0
100
AcDbCircle
 62
7
  6
CONTINUOUS
 10
72.3033530049
 20
61.3617067834
 40
1.3876815526
100
AcDbArc
 50
346.331566576
 51
19.8380650072
  0
ARC
  5
576
100
AcDbEntity
  8
0
100
AcDbCircle
 62
7
  6
CONTINUOUS
 10
72.3033530049
 20
61.3617067834
 40
1.3876815526
100
AcDbArc
 50
166.331566576
 51
199.8380650073
  0
ARC
  5
577
100
AcDbEntity
  8
0
100
AcDbCircle
 62
7
  6
CONTINUOUS
 10
72.3033530049
 20
61.3617067834
 40
1.3876815526
100
AcDbArc
 50
256.3315665762
 51
289.8380650073
  0
ARC
  5
578
100
AcDbEntity
  8
0
100
AcDbCircle
 62
7
  6
CONTINUOUS
 10
72.3033530049
 20
61.3617067834
 40
1.3876815526
100
AcDbArc
 50
76.3315665762
 51
109.8380650073
  0
ARC
  5
579
100
AcDbEntity
  8
0
100
AcDbCircle
 62
7
  6
CONTINUOUS
 10
72.3033530049
 20
61.3617067834
 40
0.7597753402
100
AcDbArc
 50
331.3174645465
 51
34.8521670368
  0
ARC
  5
57A
100
AcDbEntity
  8
0
100
AcDbCircle
 62
7
  6
CONTINUOUS
 10
72.3033530049
 20
61.3617067834
 40
0.7597753402
100
AcDbArc
 50
241.3174645465
 51
304.8521670367
  0
ARC
  5
57B
100
AcDbEntity
  8
0
100
AcDbCircle
 62
7
  6
CONTINUOUS
 10
72.3033530049
 20
61.3617067834
 40
0.7597753402
100
AcDbArc
 50
151.3174645465
 51
214.8521670367
  0
ARC
  5
57C
100
AcDbEntity
  8
0
100
AcDbCircle
 62
7
  6
CONTINUOUS
 10
72.3033530049
 20
61.3617067834
 40
0.7597753402
100
AcDbArc
 50
61.3174645465
 51
124.8521670366
  0
CIRCLE
  5
57D
100
AcDbEntity
  8
0
100
AcDbCircle
 62
7
  6
CONTINUOUS
 10
72.3033530049
 20
61.3617067834
 40
0.4
  0
ARC
  5
57E
100
AcDbEntity
  8
0
100
AcDbCircle
 62
7
  6
CONTINUOUS
 10
72.7757213961
 20
61.8878893591
 40
0.1
100
AcDbArc
 50
183.0848157973
 51
273.0848157927
  0
ARC
  5
57F
100
AcDbEntity
  8
0
100
AcDbCircle
 62
7
  6
CONTINUOUS
 10
78.0033530049
 20
63.7617067834
 40
0.4
100
AcDbArc
 50
269.9999999999
 51
360.0
  0
ARC
  5
580
100
AcDbEntity
  8
0
100
AcDbCircle
 62
7
  6
CONTINUOUS
 10
89.2033530049
 20
58.9617067834
 40
0.4
100
AcDbArc
 50
0.0
 51
90.0
  0
ARC
  5
581
100
AcDbEntity
  8
0
100
AcDbCircle
 62
7
  6
CONTINUOUS
 10
89.3033530049
 20
57.8117067834
 40
0.3
100
AcDbArc
 50
270.0
 51
360.0
  0
ARC
  5
582
100
AcDbEntity
  8
0
100
AcDbCircle
 62
7
  6
CONTINUOUS
 10
83.447699191
 20
60.6567935596
 40
0.1
100
AcDbArc
 50
40.4857878042
 51
130.4857877939
  0
CIRCLE
  5
583
100
AcDbEntity
  8
0
100
AcDbCircle
 62
7
  6
CONTINUOUS
 10
83.5033530049
 20
61.3617067834
 40
2.625
  0
CIRCLE
  5
584
100
AcDbEntity
  8
0
100
AcDbCircle
 62
7
  6
CONTINUOUS
 10
83.5033530049
 20
61.3617067834
 40
2.525
  0
CIRCLE
  5
585
100
AcDbEntity
  8
0
100
AcDbCircle
 62
7
  6
CONTINUOUS
 10
83.5033530049
 20
61.3617067834
 40
2.5
  0
ARC
  5
586
100
AcDbEntity
  8
0
100
AcDbCircle
 62
7
  6
CONTINUOUS
 10
83.5033530049
 20
61.3617067834
 40
2.2
100
AcDbArc
 50
230.9614694902
 51
30.0101060975
  0
ARC
  5
587
100
AcDbEntity
  8
0
100
AcDbCircle
 62
7
  6
CONTINUOUS
 10
83.5033530049
 20
61.3617067834
 40
2.2
100
AcDbArc
 50
50.9614694902
 51
210.0101060975
  0
ARC
  5
588
100
AcDbEntity
  8
0
100
AcDbCircle
 62
7
  6
CONTINUOUS
 10
83.5033530049
 20
61.3617067834
 40
1.3876815526
100
AcDbArc
 50
293.7325385781
 51
327.2390370094
  0
ARC
  5
589
100
AcDbEntity
  8
0
100
AcDbCircle
 62
7
  6
CONTINUOUS
 10
83.5033530049
 20
61.3617067834
 40
1.3876815526
100
AcDbArc
 50
113.7325385783
 51
147.2390370095
  0
ARC
  5
58A
100
AcDbEntity
  8
0
100
AcDbCircle
 62
7
  6
CONTINUOUS
 10
83.5033530049
 20
61.3617067834
 40
1.3876815526
100
AcDbArc
 50
203.7325385783
 51
237.2390370096
  0
ARC
  5
58B
100
AcDbEntity
  8
0
100
AcDbCircle
 62
7
  6
CONTINUOUS
 10
83.5033530049
 20
61.3617067834
 40
1.3876815526
100
AcDbArc
 50
23.7325385783
 51
57.2390370095
  0
ARC
  5
58C
100
AcDbEntity
  8
0
100
AcDbCircle
 62
7
  6
CONTINUOUS
 10
83.5033530049
 20
61.3617067834
 40
0.7597753402
100
AcDbArc
 50
278.7184365488
 51
342.2531390389
  0
ARC
  5
58D
100
AcDbEntity
  8
0
100
AcDbCircle
 62
7
  6
CONTINUOUS
 10
83.5033530049
 20
61.3617067834
 40
0.7597753402
100
AcDbArc
 50
188.7184365487
 51
252.2531390388
  0
ARC
  5
58E
100
AcDbEntity
  8
0
100
AcDbCircle
 62
7
  6
CONTINUOUS
 10
83.5033530049
 20
61.3617067834
 40
0.7597753402
100
AcDbArc
 50
98.7184365487
 51
162.2531390389
  0
ARC
  5
58F
100
AcDbEntity
  8
0
100
AcDbCircle
 62
7
  6
CONTINUOUS
 10
83.5033530049
 20
61.3617067834
 40
0.7597753402
100
AcDbArc
 50
8.7184365487
 51
72.2531390389
  0
CIRCLE
  5
590
100
AcDbEntity
  8
0
100
AcDbCircle
 62
7
  6
CONTINUOUS
 10
83.5033530049
 20
61.3617067834
 40
0.4
  0
ARC
  5
591
100
AcDbEntity
  8
0
100
AcDbCircle
 62
7
  6
CONTINUOUS
 10
84.2082662286
 20
61.3060529694
 40
0.1
100
AcDbArc
 50
130.4857877926
 51
220.4857877943
  0
ARC
  5
592
100
AcDbEntity
  8
0
100
AcDbCircle
 62
7
  6
CONTINUOUS
 10
83.5590068188
 20
62.0666200071
 40
0.1
100
AcDbArc
 50
220.485787794
 51
310.4857877957
  0
ARC
  5
593
100
AcDbEntity
  8
0
100
AcDbCircle
 62
7
  6
CONTINUOUS
 10
82.7984397812
 20
61.4173605973
 40
0.1
100
AcDbArc
 50
310.4857877908
 51
40.4857877943
  0
ARC
  5
594
100
AcDbEntity
  8
0
100
AcDbCircle
 62
7
  6
CONTINUOUS
 10
89.2033530049
 20
63.7617067834
 40
0.4
100
AcDbArc
 50
270.0
 51
360.0
  0
ARC
  5
595
100
AcDbEntity
  8
0
100
AcDbCircle
 62
7
  6
CONTINUOUS
 10
78.0033530049
 20
65.3617067834
 40
0.4
100
AcDbArc
 50
0.0
 51
89.9999999999
  0
ARC
  5
596
100
AcDbEntity
  8
0
100
AcDbCircle
 62
7
  6
CONTINUOUS
 10
71.8309846137
 20
67.2355242077
 40
0.1
100
AcDbArc
 50
3.0848158038
 51
93.0848157927
  0
ARC
  5
597
100
AcDbEntity
  8
0
100
AcDbCircle
 62
7
  6
CONTINUOUS
 10
71.7771704292
 20
68.2340751746
 40
0.1
100
AcDbArc
 50
273.0848157893
 51
3.0848157857
  0
ARC
  5
598
100
AcDbEntity
  8
0
100
AcDbCircle
 62
7
  6
CONTINUOUS
 10
72.8295355806
 20
67.2893383921
 40
0.1
100
AcDbArc
 50
93.0848157893
 51
183.0848157923
  0
CIRCLE
  5
599
100
AcDbEntity
  8
0
100
AcDbCircle
 62
7
  6
CONTINUOUS
 10
72.3033530049
 20
67.7617067834
 40
2.65
  0
CIRCLE
  5
59A
100
AcDbEntity
  8
0
100
AcDbCircle
 62
7
  6
CONTINUOUS
 10
72.3033530049
 20
67.7617067834
 40
2.55
  0
CIRCLE
  5
59B
100
AcDbEntity
  8
0
100
AcDbCircle
 62
7
  6
CONTINUOUS
 10
72.3033530049
 20
67.7617067834
 40
2.5
  0
ARC
  5
59C
100
AcDbEntity
  8
0
100
AcDbCircle
 62
7
  6
CONTINUOUS
 10
72.3033530049
 20
67.7617067834
 40
2.2
100
AcDbArc
 50
283.5604974879
 51
82.6091340952
  0
ARC
  5
59D
100
AcDbEntity
  8
0
100
AcDbCircle
 62
7
  6
CONTINUOUS
 10
72.3033530049
 20
67.7617067834
 40
2.2
100
AcDbArc
 50
103.560497488
 51
262.6091340951
  0
ARC
  5
59E
100
AcDbEntity
  8
0
100
AcDbCircle
 62
7
  6
CONTINUOUS
 10
72.3033530049
 20
67.7617067834
 40
1.3876815526
100
AcDbArc
 50
346.331566576
 51
19.8380650072
  0
ARC
  5
59F
100
AcDbEntity
  8
0
100
AcDbCircle
 62
7
  6
CONTINUOUS
 10
72.3033530049
 20
67.7617067834
 40
1.3876815526
100
AcDbArc
 50
166.331566576
 51
199.8380650072
  0
ARC
  5
5A0
100
AcDbEntity
  8
0
100
AcDbCircle
 62
7
  6
CONTINUOUS
 10
72.3033530049
 20
67.7617067834
 40
1.3876815526
100
AcDbArc
 50
256.3315665762
 51
289.8380650073
  0
ARC
  5
5A1
100
AcDbEntity
  8
0
100
AcDbCircle
 62
7
  6
CONTINUOUS
 10
72.3033530049
 20
67.7617067834
 40
1.3876815526
100
AcDbArc
 50
76.3315665762
 51
109.8380650073
  0
ARC
  5
5A2
100
AcDbEntity
  8
0
100
AcDbCircle
 62
7
  6
CONTINUOUS
 10
72.3033530049
 20
67.7617067834
 40
0.7597753402
100
AcDbArc
 50
331.3174645465
 51
34.8521670368
  0
ARC
  5
5A3
100
AcDbEntity
  8
0
100
AcDbCircle
 62
7
  6
CONTINUOUS
 10
72.3033530049
 20
67.7617067834
 40
0.7597753402
100
AcDbArc
 50
241.3174645465
 51
304.8521670366
  0
ARC
  5
5A4
100
AcDbEntity
  8
0
100
AcDbCircle
 62
7
  6
CONTINUOUS
 10
72.3033530049
 20
67.7617067834
 40
0.7597753402
100
AcDbArc
 50
151.3174645465
 51
214.8521670368
  0
ARC
  5
5A5
100
AcDbEntity
  8
0
100
AcDbCircle
 62
7
  6
CONTINUOUS
 10
72.3033530049
 20
67.7617067834
 40
0.7597753402
100
AcDbArc
 50
61.3174645465
 51
124.8521670366
  0
CIRCLE
  5
5A6
100
AcDbEntity
  8
0
100
AcDbCircle
 62
7
  6
CONTINUOUS
 10
72.3033530049
 20
67.7617067834
 40
0.4
  0
ARC
  5
5A7
100
AcDbEntity
  8
0
100
AcDbCircle
 62
7
  6
CONTINUOUS
 10
72.7757213961
 20
68.2878893591
 40
0.1
100
AcDbArc
 50
183.0848157973
 51
273.0848157927
  0
ARC
  5
5A8
100
AcDbEntity
  8
0
100
AcDbCircle
 62
7
  6
CONTINUOUS
 10
89.2033530049
 20
65.3617067834
 40
0.4
100
AcDbArc
 50
0.0
 51
90.0
  0
ARC
  5
5A9
100
AcDbEntity
  8
0
100
AcDbCircle
 62
7
  6
CONTINUOUS
 10
83.447699191
 20
67.0567935596
 40
0.1
100
AcDbArc
 50
40.485787794
 51
130.4857877955
  0
ARC
  5
5AA
100
AcDbEntity
  8
0
100
AcDbCircle
 62
7
  6
CONTINUOUS
 10
82.7984397812
 20
67.8173605973
 40
0.1
100
AcDbArc
 50
310.485787794
 51
40.4857877943
  0
ARC
  5
5AB
100
AcDbEntity
  8
0
100
AcDbCircle
 62
7
  6
CONTINUOUS
 10
84.2082662286
 20
67.7060529694
 40
0.1
100
AcDbArc
 50
130.4857877926
 51
220.4857877943
  0
CIRCLE
  5
5AC
100
AcDbEntity
  8
0
100
AcDbCircle
 62
7
  6
CONTINUOUS
 10
83.5033530049
 20
67.7617067834
 40
2.625
  0
CIRCLE
  5
5AD
100
AcDbEntity
  8
0
100
AcDbCircle
 62
7
  6
CONTINUOUS
 10
83.5033530049
 20
67.7617067834
 40
2.525
  0
CIRCLE
  5
5AE
100
AcDbEntity
  8
0
100
AcDbCircle
 62
7
  6
CONTINUOUS
 10
83.5033530049
 20
67.7617067834
 40
2.5
  0
ARC
  5
5AF
100
AcDbEntity
  8
0
100
AcDbCircle
 62
7
  6
CONTINUOUS
 10
83.5033530049
 20
67.7617067834
 40
2.2
100
AcDbArc
 50
230.9614694902
 51
30.0101060975
  0
ARC
  5
5B0
100
AcDbEntity
  8
0
100
AcDbCircle
 62
7
  6
CONTINUOUS
 10
83.5033530049
 20
67.7617067834
 40
2.2
100
AcDbArc
 50
50.9614694902
 51
210.0101060975
  0
ARC
  5
5B1
100
AcDbEntity
  8
0
100
AcDbCircle
 62
7
  6
CONTINUOUS
 10
83.5033530049
 20
67.7617067834
 40
1.3876815526
100
AcDbArc
 50
293.7325385783
 51
327.2390370095
  0
ARC
  5
5B2
100
AcDbEntity
  8
0
100
AcDbCircle
 62
7
  6
CONTINUOUS
 10
83.5033530049
 20
67.7617067834
 40
1.3876815526
100
AcDbArc
 50
113.7325385783
 51
147.2390370095
  0
ARC
  5
5B3
100
AcDbEntity
  8
0
100
AcDbCircle
 62
7
  6
CONTINUOUS
 10
83.5033530049
 20
67.7617067834
 40
1.3876815526
100
AcDbArc
 50
203.7325385783
 51
237.2390370095
  0
ARC
  5
5B4
100
AcDbEntity
  8
0
100
AcDbCircle
 62
7
  6
CONTINUOUS
 10
83.5033530049
 20
67.7617067834
 40
1.3876815526
100
AcDbArc
 50
23.7325385783
 51
57.2390370095
  0
ARC
  5
5B5
100
AcDbEntity
  8
0
100
AcDbCircle
 62
7
  6
CONTINUOUS
 10
83.5033530049
 20
67.7617067834
 40
0.7597753402
100
AcDbArc
 50
278.7184365487
 51
342.2531390389
  0
ARC
  5
5B6
100
AcDbEntity
  8
0
100
AcDbCircle
 62
7
  6
CONTINUOUS
 10
83.5033530049
 20
67.7617067834
 40
0.7597753402
100
AcDbArc
 50
188.7184365487
 51
252.2531390389
  0
ARC
  5
5B7
100
AcDbEntity
  8
0
100
AcDbCircle
 62
7
  6
CONTINUOUS
 10
83.5033530049
 20
67.7617067834
 40
0.7597753402
100
AcDbArc
 50
98.7184365487
 51
162.2531390389
  0
ARC
  5
5B8
100
AcDbEntity
  8
0
100
AcDbCircle
 62
7
  6
CONTINUOUS
 10
83.5033530049
 20
67.7617067834
 40
0.7597753402
100
AcDbArc
 50
8.7184365487
 51
72.2531390389
  0
CIRCLE
  5
5B9
100
AcDbEntity
  8
0
100
AcDbCircle
 62
7
  6
CONTINUOUS
 10
83.5033530049
 20
67.7617067834
 40
0.4
  0
ARC
  5
5BA
100
AcDbEntity
  8
0
100
AcDbCircle
 62
7
  6
CONTINUOUS
 10
83.5590068188
 20
68.4666200071
 40
0.1
100
AcDbArc
 50
220.485787794
 51
310.4857877957
  0
ARC
  5
5BB
100
AcDbEntity
  8
0
100
AcDbCircle
 62
7
  6
CONTINUOUS
 10
51.028979058
 20
75.9617334407
 40
4.9999714641
100
AcDbArc
 50
129.1731536854
 51
230.8268463147
  0
ARC
  5
5BC
100
AcDbEntity
  8
0
100
AcDbCircle
 62
7
  6
CONTINUOUS
 10
51.028979058
 20
75.9617334407
 40
4.6
100
AcDbArc
 50
122.7805113517
 51
237.2194886484
  0
CIRCLE
  5
5BD
100
AcDbEntity
  8
0
100
AcDbCircle
 62
7
  6
CONTINUOUS
 10
58.3569044488
 20
75.9629140441
 40
1.0
  0
CIRCLE
  5
5BE
100
AcDbEntity
  8
0
100
AcDbCircle
 62
7
  6
CONTINUOUS
 10
58.3569044488
 20
75.9629140441
 40
0.5
  0
ARC
  5
5BF
100
AcDbEntity
  8
0
100
AcDbCircle
 62
7
  6
CONTINUOUS
 10
53.288539883
 20
72.2129140441
 40
0.2
100
AcDbArc
 50
180.0
 51
219.1376516635
  0
ARC
  5
5C0
100
AcDbEntity
  8
0
100
AcDbCircle
 62
7
  6
CONTINUOUS
 10
53.288539883
 20
72.2129140441
 40
0.2
100
AcDbArc
 50
320.8623483365
 51
360.0
  0
ARC
  5
5C1
100
AcDbEntity
  8
0
100
AcDbCircle
 62
7
  6
CONTINUOUS
 10
58.911539883
 20
72.0629140441
 40
0.15
100
AcDbArc
 50
102.4712621023
 51
169.2001338916
  0
ARC
  5
5C2
100
AcDbEntity
  8
0
100
AcDbCircle
 62
7
  6
CONTINUOUS
 10
57.711539883
 20
72.0629140441
 40
0.15
100
AcDbArc
 50
10.7960434586
 51
90.0
  0
ARC
  5
5C3
100
AcDbEntity
  8
0
100
AcDbCircle
 62
7
  6
CONTINUOUS
 10
50.1033530049
 20
82.3617067834
 40
3.1
100
AcDbArc
 50
351.6533807368
 51
353.3571670286
  0
ARC
  5
5C4
100
AcDbEntity
  8
0
100
AcDbCircle
 62
7
  6
CONTINUOUS
 10
50.1033530049
 20
82.3617067834
 40
2.8
100
AcDbArc
 50
194.5043059977
 51
198.2099568643
  0
ARC
  5
5C5
100
AcDbEntity
  8
0
100
AcDbCircle
 62
7
  6
CONTINUOUS
 10
50.1033530049
 20
82.3617067834
 40
2.8
100
AcDbArc
 50
340.8482687022
 51
352.264168934
  0
ARC
  5
5C6
100
AcDbEntity
  8
0
100
AcDbCircle
 62
7
  6
CONTINUOUS
 10
50.1033530049
 20
82.3617067834
 40
1.65
100
AcDbArc
 50
202.8743999152
 51
212.4612624684
  0
ARC
  5
5C7
100
AcDbEntity
  8
0
100
AcDbCircle
 62
7
  6
CONTINUOUS
 10
50.1033530049
 20
82.3617067834
 40
1.65
100
AcDbArc
 50
326.2968052236
 51
343.6135277273
  0
ARC
  5
5C8
100
AcDbEntity
  8
0
100
AcDbCircle
 62
7
  6
CONTINUOUS
 10
60.2633530049
 20
80.4867067834
 40
1.0
100
AcDbArc
 50
77.161431859
 51
90.0
  0
ARC
  5
5C9
100
AcDbEntity
  8
0
100
AcDbCircle
 62
7
  6
CONTINUOUS
 10
57.5633530049
 20
80.4867067834
 40
1.0
100
AcDbArc
 50
90.0
 51
102.838568141
  0
ARC
  5
5CA
100
AcDbEntity
  8
0
100
AcDbCircle
 62
7
  6
CONTINUOUS
 10
60.2633530049
 20
80.4867067834
 40
1.0
100
AcDbArc
 50
0.0
 51
1.0234778592
  0
ARC
  5
5CB
100
AcDbEntity
  8
0
100
AcDbCircle
 62
7
  6
CONTINUOUS
 10
60.5616672038
 20
80.7618874255
 40
0.6998726787
100
AcDbArc
 50
359.9963433786
 51
77.7737728231
  0
ARC
  5
5CC
100
AcDbEntity
  8
0
100
AcDbCircle
 62
7
  6
CONTINUOUS
 10
60.5850999478
 20
80.9617067834
 40
0.5
100
AcDbArc
 50
75.5483660697
 51
90.0002249047
  0
ARC
  5
5CD
100
AcDbEntity
  8
0
100
AcDbCircle
 62
7
  6
CONTINUOUS
 10
53.1112592534
 20
81.6117067834
 40
0.3
100
AcDbArc
 50
90.0
 51
165.9991917288
  0
ARC
  5
5CE
100
AcDbEntity
  8
0
100
AcDbCircle
 62
7
  6
CONTINUOUS
 10
53.288539883
 20
79.7129140441
 40
0.2
100
AcDbArc
 50
0.0
 51
38.3863202783
  0
ARC
  5
5CF
100
AcDbEntity
  8
0
100
AcDbCircle
 62
7
  6
CONTINUOUS
 10
53.288539883
 20
79.7129140441
 40
0.2
100
AcDbArc
 50
141.6136797217
 51
180.0
  0
ARC
  5
5D0
100
AcDbEntity
  8
0
100
AcDbCircle
 62
7
  6
CONTINUOUS
 10
58.911539883
 20
79.8629140441
 40
0.15
100
AcDbArc
 50
191.7008764071
 51
270.0
  0
ARC
  5
5D1
100
AcDbEntity
  8
0
100
AcDbCircle
 62
7
  6
CONTINUOUS
 10
57.711539883
 20
79.8629140441
 40
0.15
100
AcDbArc
 50
270.0
 51
348.2559182681
  0
ARC
  5
5D2
100
AcDbEntity
  8
0
100
AcDbCircle
 62
7
  6
CONTINUOUS
 10
78.0033530049
 20
71.7617067834
 40
0.4
100
AcDbArc
 50
0.0
 51
90.0000000003
  0
ARC
  5
5D3
100
AcDbEntity
  8
0
100
AcDbCircle
 62
7
  6
CONTINUOUS
 10
78.0033530049
 20
70.1617067834
 40
0.4
100
AcDbArc
 50
269.9999999997
 51
360.0
  0
ARC
  5
5D4
100
AcDbEntity
  8
0
100
AcDbCircle
 62
7
  6
CONTINUOUS
 10
71.8309846137
 20
73.6355242077
 40
0.1
100
AcDbArc
 50
3.0848158038
 51
93.0848157927
  0
ARC
  5
5D5
100
AcDbEntity
  8
0
100
AcDbCircle
 62
7
  6
CONTINUOUS
 10
71.7771704292
 20
74.6340751746
 40
0.1
100
AcDbArc
 50
273.0848157893
 51
3.0848157857
  0
ARC
  5
5D6
100
AcDbEntity
  8
0
100
AcDbCircle
 62
7
  6
CONTINUOUS
 10
72.8295355806
 20
73.6893383921
 40
0.1
100
AcDbArc
 50
93.0848157893
 51
183.0848157923
  0
CIRCLE
  5
5D7
100
AcDbEntity
  8
0
100
AcDbCircle
 62
7
  6
CONTINUOUS
 10
72.3033530049
 20
74.1617067834
 40
2.65
  0
CIRCLE
  5
5D8
100
AcDbEntity
  8
0
100
AcDbCircle
 62
7
  6
CONTINUOUS
 10
72.3033530049
 20
74.1617067834
 40
2.55
  0
CIRCLE
  5
5D9
100
AcDbEntity
  8
0
100
AcDbCircle
 62
7
  6
CONTINUOUS
 10
72.3033530049
 20
74.1617067834
 40
2.5
  0
ARC
  5
5DA
100
AcDbEntity
  8
0
100
AcDbCircle
 62
7
  6
CONTINUOUS
 10
72.3033530049
 20
74.1617067834
 40
2.2
100
AcDbArc
 50
283.5604974879
 51
82.6091340952
  0
ARC
  5
5DB
100
AcDbEntity
  8
0
100
AcDbCircle
 62
7
  6
CONTINUOUS
 10
72.3033530049
 20
74.1617067834
 40
2.2
100
AcDbArc
 50
103.560497488
 51
262.6091340951
  0
ARC
  5
5DC
100
AcDbEntity
  8
0
100
AcDbCircle
 62
7
  6
CONTINUOUS
 10
72.3033530049
 20
74.1617067834
 40
1.3876815526
100
AcDbArc
 50
346.331566576
 51
19.8380650072
  0
ARC
  5
5DD
100
AcDbEntity
  8
0
100
AcDbCircle
 62
7
  6
CONTINUOUS
 10
72.3033530049
 20
74.1617067834
 40
1.3876815526
100
AcDbArc
 50
166.331566576
 51
199.8380650072
  0
ARC
  5
5DE
100
AcDbEntity
  8
0
100
AcDbCircle
 62
7
  6
CONTINUOUS
 10
72.3033530049
 20
74.1617067834
 40
1.3876815526
100
AcDbArc
 50
256.3315665762
 51
289.8380650073
  0
ARC
  5
5DF
100
AcDbEntity
  8
0
100
AcDbCircle
 62
7
  6
CONTINUOUS
 10
72.3033530049
 20
74.1617067834
 40
1.3876815526
100
AcDbArc
 50
76.3315665762
 51
109.8380650073
  0
ARC
  5
5E0
100
AcDbEntity
  8
0
100
AcDbCircle
 62
7
  6
CONTINUOUS
 10
72.3033530049
 20
74.1617067834
 40
0.7597753402
100
AcDbArc
 50
331.3174645465
 51
34.8521670368
  0
ARC
  5
5E1
100
AcDbEntity
  8
0
100
AcDbCircle
 62
7
  6
CONTINUOUS
 10
72.3033530049
 20
74.1617067834
 40
0.7597753402
100
AcDbArc
 50
241.3174645465
 51
304.8521670366
  0
ARC
  5
5E2
100
AcDbEntity
  8
0
100
AcDbCircle
 62
7
  6
CONTINUOUS
 10
72.3033530049
 20
74.1617067834
 40
0.7597753402
100
AcDbArc
 50
151.3174645465
 51
214.8521670368
  0
ARC
  5
5E3
100
AcDbEntity
  8
0
100
AcDbCircle
 62
7
  6
CONTINUOUS
 10
72.3033530049
 20
74.1617067834
 40
0.7597753402
100
AcDbArc
 50
61.3174645465
 51
124.8521670366
  0
CIRCLE
  5
5E4
100
AcDbEntity
  8
0
100
AcDbCircle
 62
7
  6
CONTINUOUS
 10
72.3033530049
 20
74.1617067834
 40
0.4
  0
ARC
  5
5E5
100
AcDbEntity
  8
0
100
AcDbCircle
 62
7
  6
CONTINUOUS
 10
72.7757213961
 20
74.6878893591
 40
0.1
100
AcDbArc
 50
183.0848157973
 51
273.0848157927
  0
ARC
  5
5E6
100
AcDbEntity
  8
0
100
AcDbCircle
 62
7
  6
CONTINUOUS
 10
89.2033530049
 20
71.7617067834
 40
0.4
100
AcDbArc
 50
0.0
 51
90.0
  0
ARC
  5
5E7
100
AcDbEntity
  8
0
100
AcDbCircle
 62
7
  6
CONTINUOUS
 10
89.2033530049
 20
70.1617067834
 40
0.4
100
AcDbArc
 50
270.0
 51
360.0
  0
ARC
  5
5E8
100
AcDbEntity
  8
0
100
AcDbCircle
 62
7
  6
CONTINUOUS
 10
83.447699191
 20
73.4567935596
 40
0.1
100
AcDbArc
 50
40.485787794
 51
130.4857877955
  0
ARC
  5
5E9
100
AcDbEntity
  8
0
100
AcDbCircle
 62
7
  6
CONTINUOUS
 10
82.7984397812
 20
74.2173605973
 40
0.1
100
AcDbArc
 50
310.485787794
 51
40.4857877943
  0
ARC
  5
5EA
100
AcDbEntity
  8
0
100
AcDbCircle
 62
7
  6
CONTINUOUS
 10
84.2082662286
 20
74.1060529694
 40
0.1
100
AcDbArc
 50
130.4857877926
 51
220.4857877943
  0
CIRCLE
  5
5EB
100
AcDbEntity
  8
0
100
AcDbCircle
 62
7
  6
CONTINUOUS
 10
83.5033530049
 20
74.1617067834
 40
2.625
  0
CIRCLE
  5
5EC
100
AcDbEntity
  8
0
100
AcDbCircle
 62
7
  6
CONTINUOUS
 10
83.5033530049
 20
74.1617067834
 40
2.525
  0
CIRCLE
  5
5ED
100
AcDbEntity
  8
0
100
AcDbCircle
 62
7
  6
CONTINUOUS
 10
83.5033530049
 20
74.1617067834
 40
2.5
  0
ARC
  5
5EE
100
AcDbEntity
  8
0
100
AcDbCircle
 62
7
  6
CONTINUOUS
 10
83.5033530049
 20
74.1617067834
 40
2.2
100
AcDbArc
 50
230.9614694902
 51
30.0101060975
  0
ARC
  5
5EF
100
AcDbEntity
  8
0
100
AcDbCircle
 62
7
  6
CONTINUOUS
 10
83.5033530049
 20
74.1617067834
 40
2.2
100
AcDbArc
 50
50.9614694902
 51
210.0101060975
  0
ARC
  5
5F0
100
AcDbEntity
  8
0
100
AcDbCircle
 62
7
  6
CONTINUOUS
 10
83.5033530049
 20
74.1617067834
 40
1.3876815526
100
AcDbArc
 50
293.7325385783
 51
327.2390370095
  0
ARC
  5
5F1
100
AcDbEntity
  8
0
100
AcDbCircle
 62
7
  6
CONTINUOUS
 10
83.5033530049
 20
74.1617067834
 40
1.3876815526
100
AcDbArc
 50
113.7325385783
 51
147.2390370095
  0
ARC
  5
5F2
100
AcDbEntity
  8
0
100
AcDbCircle
 62
7
  6
CONTINUOUS
 10
83.5033530049
 20
74.1617067834
 40
1.3876815526
100
AcDbArc
 50
203.7325385783
 51
237.2390370095
  0
ARC
  5
5F3
100
AcDbEntity
  8
0
100
AcDbCircle
 62
7
  6
CONTINUOUS
 10
83.5033530049
 20
74.1617067834
 40
1.3876815526
100
AcDbArc
 50
23.7325385783
 51
57.2390370095
  0
ARC
  5
5F4
100
AcDbEntity
  8
0
100
AcDbCircle
 62
7
  6
CONTINUOUS
 10
83.5033530049
 20
74.1617067834
 40
0.7597753402
100
AcDbArc
 50
278.7184365487
 51
342.2531390389
  0
ARC
  5
5F5
100
AcDbEntity
  8
0
100
AcDbCircle
 62
7
  6
CONTINUOUS
 10
83.5033530049
 20
74.1617067834
 40
0.7597753402
100
AcDbArc
 50
188.7184365487
 51
252.2531390389
  0
ARC
  5
5F6
100
AcDbEntity
  8
0
100
AcDbCircle
 62
7
  6
CONTINUOUS
 10
83.5033530049
 20
74.1617067834
 40
0.7597753402
100
AcDbArc
 50
98.7184365487
 51
162.2531390389
  0
ARC
  5
5F7
100
AcDbEntity
  8
0
100
AcDbCircle
 62
7
  6
CONTINUOUS
 10
83.5033530049
 20
74.1617067834
 40
0.7597753402
100
AcDbArc
 50
8.7184365487
 51
72.2531390389
  0
CIRCLE
  5
5F8
100
AcDbEntity
  8
0
100
AcDbCircle
 62
7
  6
CONTINUOUS
 10
83.5033530049
 20
74.1617067834
 40
0.4
  0
ARC
  5
5F9
100
AcDbEntity
  8
0
100
AcDbCircle
 62
7
  6
CONTINUOUS
 10
83.5590068188
 20
74.8666200071
 40
0.1
100
AcDbArc
 50
220.485787794
 51
310.4857877957
  0
ARC
  5
5FA
100
AcDbEntity
  8
0
100
AcDbCircle
 62
7
  6
CONTINUOUS
 10
78.0033530049
 20
78.1617067834
 40
0.4
100
AcDbArc
 50
0.0
 51
90.0000000003
  0
ARC
  5
5FB
100
AcDbEntity
  8
0
100
AcDbCircle
 62
7
  6
CONTINUOUS
 10
78.0033530049
 20
76.5617067834
 40
0.4
100
AcDbArc
 50
270.0000000004
 51
360.0
  0
ARC
  5
5FC
100
AcDbEntity
  8
0
100
AcDbCircle
 62
7
  6
CONTINUOUS
 10
71.8309846137
 20
80.0355242077
 40
0.1
100
AcDbArc
 50
3.0848158038
 51
93.0848157927
  0
ARC
  5
5FD
100
AcDbEntity
  8
0
100
AcDbCircle
 62
7
  6
CONTINUOUS
 10
71.7771704292
 20
81.0340751746
 40
0.1
100
AcDbArc
 50
273.0848157958
 51
3.0848157863
  0
ARC
  5
5FE
100
AcDbEntity
  8
0
100
AcDbCircle
 62
7
  6
CONTINUOUS
 10
72.8295355806
 20
80.0893383921
 40
0.1
100
AcDbArc
 50
93.0848157893
 51
183.0848157923
  0
CIRCLE
  5
5FF
100
AcDbEntity
  8
0
100
AcDbCircle
 62
7
  6
CONTINUOUS
 10
72.3033530049
 20
80.5617067834
 40
2.65
  0
CIRCLE
  5
600
100
AcDbEntity
  8
0
100
AcDbCircle
 62
7
  6
CONTINUOUS
 10
72.3033530049
 20
80.5617067834
 40
2.55
  0
CIRCLE
  5
601
100
AcDbEntity
  8
0
100
AcDbCircle
 62
7
  6
CONTINUOUS
 10
72.3033530049
 20
80.5617067834
 40
2.5
  0
ARC
  5
602
100
AcDbEntity
  8
0
100
AcDbCircle
 62
7
  6
CONTINUOUS
 10
72.3033530049
 20
80.5617067834
 40
2.2
100
AcDbArc
 50
283.5604974879
 51
82.6091340952
  0
ARC
  5
603
100
AcDbEntity
  8
0
100
AcDbCircle
 62
7
  6
CONTINUOUS
 10
72.3033530049
 20
80.5617067834
 40
2.2
100
AcDbArc
 50
103.560497488
 51
262.6091340951
  0
ARC
  5
604
100
AcDbEntity
  8
0
100
AcDbCircle
 62
7
  6
CONTINUOUS
 10
72.3033530049
 20
80.5617067834
 40
1.3876815526
100
AcDbArc
 50
346.331566576
 51
19.8380650073
  0
ARC
  5
605
100
AcDbEntity
  8
0
100
AcDbCircle
 62
7
  6
CONTINUOUS
 10
72.3033530049
 20
80.5617067834
 40
1.3876815526
100
AcDbArc
 50
166.331566576
 51
199.8380650072
  0
ARC
  5
606
100
AcDbEntity
  8
0
100
AcDbCircle
 62
7
  6
CONTINUOUS
 10
72.3033530049
 20
80.5617067834
 40
1.3876815526
100
AcDbArc
 50
256.3315665762
 51
289.8380650073
  0
ARC
  5
607
100
AcDbEntity
  8
0
100
AcDbCircle
 62
7
  6
CONTINUOUS
 10
72.3033530049
 20
80.5617067834
 40
1.3876815526
100
AcDbArc
 50
76.3315665762
 51
109.8380650073
  0
ARC
  5
608
100
AcDbEntity
  8
0
100
AcDbCircle
 62
7
  6
CONTINUOUS
 10
72.3033530049
 20
80.5617067834
 40
0.7597753402
100
AcDbArc
 50
331.3174645465
 51
34.8521670367
  0
ARC
  5
609
100
AcDbEntity
  8
0
100
AcDbCircle
 62
7
  6
CONTINUOUS
 10
72.3033530049
 20
80.5617067834
 40
0.7597753402
100
AcDbArc
 50
241.3174645465
 51
304.8521670366
  0
ARC
  5
60A
100
AcDbEntity
  8
0
100
AcDbCircle
 62
7
  6
CONTINUOUS
 10
72.3033530049
 20
80.5617067834
 40
0.7597753402
100
AcDbArc
 50
151.3174645465
 51
214.8521670368
  0
ARC
  5
60B
100
AcDbEntity
  8
0
100
AcDbCircle
 62
7
  6
CONTINUOUS
 10
72.3033530049
 20
80.5617067834
 40
0.7597753402
100
AcDbArc
 50
61.3174645465
 51
124.8521670367
  0
CIRCLE
  5
60C
100
AcDbEntity
  8
0
100
AcDbCircle
 62
7
  6
CONTINUOUS
 10
72.3033530049
 20
80.5617067834
 40
0.4
  0
ARC
  5
60D
100
AcDbEntity
  8
0
100
AcDbCircle
 62
7
  6
CONTINUOUS
 10
72.7757213961
 20
81.0878893591
 40
0.1
100
AcDbArc
 50
183.0848157946
 51
273.0848157863
  0
ARC
  5
60E
100
AcDbEntity
  8
0
100
AcDbCircle
 62
7
  6
CONTINUOUS
 10
89.2033530049
 20
76.5617067834
 40
0.4
100
AcDbArc
 50
270.0
 51
360.0
  0
ARC
  5
60F
100
AcDbEntity
  8
0
100
AcDbCircle
 62
7
  6
CONTINUOUS
 10
89.2033530049
 20
78.1617067834
 40
0.4
100
AcDbArc
 50
0.0
 51
90.0
  0
ARC
  5
610
100
AcDbEntity
  8
0
100
AcDbCircle
 62
7
  6
CONTINUOUS
 10
83.447699191
 20
79.8567935596
 40
0.1
100
AcDbArc
 50
40.485787794
 51
130.4857877955
  0
ARC
  5
611
100
AcDbEntity
  8
0
100
AcDbCircle
 62
7
  6
CONTINUOUS
 10
82.7984397812
 20
80.6173605973
 40
0.1
100
AcDbArc
 50
310.485787794
 51
40.4857877943
  0
ARC
  5
612
100
AcDbEntity
  8
0
100
AcDbCircle
 62
7
  6
CONTINUOUS
 10
84.2082662286
 20
80.5060529694
 40
0.1
100
AcDbArc
 50
130.4857877926
 51
220.4857877943
  0
CIRCLE
  5
613
100
AcDbEntity
  8
0
100
AcDbCircle
 62
7
  6
CONTINUOUS
 10
83.5033530049
 20
80.5617067834
 40
2.625
  0
CIRCLE
  5
614
100
AcDbEntity
  8
0
100
AcDbCircle
 62
7
  6
CONTINUOUS
 10
83.5033530049
 20
80.5617067834
 40
2.525
  0
CIRCLE
  5
615
100
AcDbEntity
  8
0
100
AcDbCircle
 62
7
  6
CONTINUOUS
 10
83.5033530049
 20
80.5617067834
 40
2.5
  0
ARC
  5
616
100
AcDbEntity
  8
0
100
AcDbCircle
 62
7
  6
CONTINUOUS
 10
83.5033530049
 20
80.5617067834
 40
2.2
100
AcDbArc
 50
230.9614694902
 51
30.0101060975
  0
ARC
  5
617
100
AcDbEntity
  8
0
100
AcDbCircle
 62
7
  6
CONTINUOUS
 10
83.5033530049
 20
80.5617067834
 40
2.2
100
AcDbArc
 50
50.9614694903
 51
210.0101060975
  0
ARC
  5
618
100
AcDbEntity
  8
0
100
AcDbCircle
 62
7
  6
CONTINUOUS
 10
83.5033530049
 20
80.5617067834
 40
1.3876815526
100
AcDbArc
 50
293.7325385783
 51
327.2390370095
  0
ARC
  5
619
100
AcDbEntity
  8
0
100
AcDbCircle
 62
7
  6
CONTINUOUS
 10
83.5033530049
 20
80.5617067834
 40
1.3876815526
100
AcDbArc
 50
113.7325385781
 51
147.2390370094
  0
ARC
  5
61A
100
AcDbEntity
  8
0
100
AcDbCircle
 62
7
  6
CONTINUOUS
 10
83.5033530049
 20
80.5617067834
 40
1.3876815526
100
AcDbArc
 50
203.7325385783
 51
237.2390370095
  0
ARC
  5
61B
100
AcDbEntity
  8
0
100
AcDbCircle
 62
7
  6
CONTINUOUS
 10
83.5033530049
 20
80.5617067834
 40
1.3876815526
100
AcDbArc
 50
23.7325385784
 51
57.2390370093
  0
ARC
  5
61C
100
AcDbEntity
  8
0
100
AcDbCircle
 62
7
  6
CONTINUOUS
 10
83.5033530049
 20
80.5617067834
 40
0.7597753402
100
AcDbArc
 50
278.7184365487
 51
342.2531390389
  0
ARC
  5
61D
100
AcDbEntity
  8
0
100
AcDbCircle
 62
7
  6
CONTINUOUS
 10
83.5033530049
 20
80.5617067834
 40
0.7597753402
100
AcDbArc
 50
188.7184365487
 51
252.2531390389
  0
ARC
  5
61E
100
AcDbEntity
  8
0
100
AcDbCircle
 62
7
  6
CONTINUOUS
 10
83.5033530049
 20
80.5617067834
 40
0.7597753402
100
AcDbArc
 50
98.7184365488
 51
162.2531390389
  0
ARC
  5
61F
100
AcDbEntity
  8
0
100
AcDbCircle
 62
7
  6
CONTINUOUS
 10
83.5033530049
 20
80.5617067834
 40
0.7597753402
100
AcDbArc
 50
8.7184365487
 51
72.2531390388
  0
CIRCLE
  5
620
100
AcDbEntity
  8
0
100
AcDbCircle
 62
7
  6
CONTINUOUS
 10
83.5033530049
 20
80.5617067834
 40
0.4
  0
ARC
  5
621
100
AcDbEntity
  8
0
100
AcDbCircle
 62
7
  6
CONTINUOUS
 10
83.5590068188
 20
81.2666200071
 40
0.1
100
AcDbArc
 50
220.4857878042
 51
310.4857877843
  0
ARC
  5
622
100
AcDbEntity
  8
0
100
AcDbCircle
 62
7
  6
CONTINUOUS
 10
40.0100792284
 20
107.0737118116
 40
23.0242674633
100
AcDbArc
 50
270.7836028802
 51
270.9473413791
  0
ARC
  5
623
100
AcDbEntity
  8
0
100
AcDbCircle
 62
7
  6
CONTINUOUS
 10
38.9725134234
 20
105.4763132603
 40
21.4266885592
100
AcDbArc
 50
269.0385165472
 51
269.2209781123
  0
ARC
  5
624
100
AcDbEntity
  8
0
100
AcDbCircle
 62
7
  6
CONTINUOUS
 10
11.0033530049
 20
82.9617067834
 40
0.4
100
AcDbArc
 50
180.0
 51
270.0
  0
ARC
  5
625
100
AcDbEntity
  8
0
100
AcDbCircle
 62
7
  6
CONTINUOUS
 10
19.9033530049
 20
82.9617067834
 40
0.4
100
AcDbArc
 50
179.9999999854
 51
270.0
  0
ARC
  5
626
100
AcDbEntity
  8
0
100
AcDbCircle
 62
7
  6
CONTINUOUS
 10
78.0033530049
 20
82.9617067834
 40
0.4
100
AcDbArc
 50
270.0
 51
360.0
  0
ARC
  5
627
100
AcDbEntity
  8
0
100
AcDbCircle
 62
7
  6
CONTINUOUS
 10
89.2033530049
 20
82.9617067834
 40
0.4
100
AcDbArc
 50
270.0
 51
360.0
  0
ARC
  5
628
100
AcDbEntity
  8
0
100
AcDbCircle
 62
7
  6
CONTINUOUS
 10
52.0533530049
 20
84.1117067834
 40
0.3
100
AcDbArc
 50
90.0
 51
180.0
  0
ARC
  5
629
100
AcDbEntity
  8
0
100
AcDbCircle
 62
7
  6
CONTINUOUS
 10
48.1533530049
 20
84.1117067834
 40
0.3
100
AcDbArc
 50
0.0
 51
90.0
  0
ARC
  5
62A
100
AcDbEntity
  8
0
100
AcDbCircle
 62
7
  6
CONTINUOUS
 10
47.0033530049
 20
84.1117067834
 40
0.3
100
AcDbArc
 50
0.0
 51
90.0
  0
ARC
  5
62B
100
AcDbEntity
  8
0
100
AcDbCircle
 62
7
  6
CONTINUOUS
 10
53.2033530049
 20
84.1117067834
 40
0.3
100
AcDbArc
 50
90.0
 51
180.0
  0
ARC
  5
62C
100
AcDbEntity
  8
0
100
AcDbCircle
 62
7
  6
CONTINUOUS
 10
10.9033530049
 20
84.1117067834
 40
0.3
100
AcDbArc
 50
90.0
 51
180.0
  0
ARC
  5
62D
100
AcDbEntity
  8
0
100
AcDbCircle
 62
7
  6
CONTINUOUS
 10
19.8033530049
 20
84.1117067834
 40
0.3
100
AcDbArc
 50
90.0
 51
180.0
  0
ARC
  5
62E
100
AcDbEntity
  8
0
100
AcDbCircle
 62
7
  6
CONTINUOUS
 10
29.4033530049
 20
84.1117067834
 40
0.3
100
AcDbArc
 50
0.0
 51
90.0
  0
ARC
  5
62F
100
AcDbEntity
  8
0
100
AcDbCircle
 62
7
  6
CONTINUOUS
 10
68.5033530049
 20
84.1117067834
 40
0.3
100
AcDbArc
 50
90.0
 51
180.0
  0
ARC
  5
630
100
AcDbEntity
  8
0
100
AcDbCircle
 62
7
  6
CONTINUOUS
 10
89.3033530049
 20
84.1117067834
 40
0.3
100
AcDbArc
 50
0.0
 51
90.0
  0
ARC
  5
631
100
AcDbEntity
  8
0
100
AcDbCircle
 62
7
  6
CONTINUOUS
 10
78.1033530049
 20
84.1117067834
 40
0.3
100
AcDbArc
 50
0.0
 51
90.0
  0
ARC
  5
632
100
AcDbEntity
  8
0
100
AcDbCircle
 62
7
  6
CONTINUOUS
 10
40.3033530049
 20
83.9117067834
 40
0.2
100
AcDbArc
 50
45.0000000014
 51
90.0
  0
ARC
  5
633
100
AcDbEntity
  8
0
100
AcDbCircle
 62
7
  6
CONTINUOUS
 10
38.7033530049
 20
83.9117067834
 40
0.2
100
AcDbArc
 50
90.0
 51
135.0
  0
ARC
  5
634
100
AcDbEntity
  8
0
100
AcDbCircle
 62
7
  6
CONTINUOUS
 10
171.5918099415
 20
74.3617383106
 40
134.9824206766
100
AcDbArc
 50
179.6907610375
 51
180.3092761611
  0
SPLINE
  5
635
100
AcDbEntity
  8
0
100
AcDbSpline
 62
7
  6
CONTINUOUS
 70
0
 71
3
 72
17
 73
13
 74
0
 42
0.0000001
 43
0.0000001
 44
0.0000000001
 40
0.0
 40
0.0
 40
0.0
 40
0.0
 40
0.0047631652
 40
0.0171456548
 40
0.037452242
 40
0.0656912494
 40
0.1458371827
 40
0.2572600712
 40
0.3994614006
 40
0.5714201956
 40
0.7719844169
 40
1.0
 40
1.0
 40
1.0
 40
1.0
 10
38.4033639453
 20
84.060533359
 30
0.0
 10
38.4033639453
 20
84.0601999958
 30
0.0
 10
38.4049829893
 20
84.0598337699
 30
0.0
 10
38.4071456518
 20
84.0593603177
 30
0.0
 10
38.4116139374
 20
84.0588795646
 30
0.0
 10
38.4204502227
 20
84.0581113684
 30
0.0
 10
38.4359139878
 20
84.0572440643
 30
0.0
 10
38.4592040405
 20
84.0562603132
 30
0.0
 10
38.4889935897
 20
84.0553005639
 30
0.0
 10
38.5249990269
 20
84.0543603258
 30
0.0
 10
38.5670220523
 20
84.0534541371
 30
0.0
 10
38.5970118925
 20
84.0529101884
 30
0.0
 10
38.6129679249
 20
84.0526415477
 30
0.0
  0
SPLINE
  5
636
100
AcDbEntity
  8
0
100
AcDbSpline
 62
7
  6
CONTINUOUS
 70
0
 71
3
 72
9
 73
5
 74
0
 42
0.0000001
 43
0.0000001
 44
0.0000000001
 40
0.0
 40
0.0
 40
0.0
 40
0.0
 40
0.4999088708
 40
1.0
 40
1.0
 40
1.0
 40
1.0
 10
38.681194495
 20
84.05160519
 30
0.0
 10
38.9550836926
 20
84.0478419989
 30
0.0
 10
39.5030271404
 20
84.0463468368
 30
0.0
 10
40.0509705273
 20
84.0478389508
 30
0.0
 10
40.3249596614
 20
84.0515976051
 30
0.0
  0
SPLINE
  5
637
100
AcDbEntity
  8
0
100
AcDbSpline
 62
7
  6
CONTINUOUS
 70
0
 71
3
 72
17
 73
13
 74
0
 42
0.0000001
 43
0.0000001
 44
0.0000000001
 40
0.0
 40
0.0
 40
0.0
 40
0.0
 40
0.2279357697
 40
0.4284727699
 40
0.6004410749
 40
0.7426727555
 40
0.8541285015
 40
0.9342999941
 40
0.9625480179
 40
0.9828603859
 40
0.9952443237
 40
1.0
 40
1.0
 40
1.0
 40
1.0
 10
40.3907503297
 20
84.052591471
 30
0.0
 10
40.4069277935
 20
84.0528612144
 30
0.0
 10
40.4373368768
 20
84.0534076431
 30
0.0
 10
40.4799511485
 20
84.0543185452
 30
0.0
 10
40.5164699935
 20
84.0552643332
 30
0.0
 10
40.5466889784
 20
84.0562300044
 30
0.0
 10
40.5703167128
 20
84.0572206978
 30
0.0
 10
40.5860063825
 20
84.0580933582
 30
0.0
 10
40.594970732
 20
84.058868033
 30
0.0
 10
40.5995057853
 20
84.0593506293
 30
0.0
 10
40.6016969019
 20
84.0598303488
 30
0.0
 10
40.6033420645
 20
84.0601957837
 30
0.0
 10
40.6033420645
 20
84.060533359
 30
0.0
  0
SPLINE
  5
638
100
AcDbEntity
  8
0
100
AcDbSpline
 62
7
  6
CONTINUOUS
 70
0
 71
3
 72
13
 73
9
 74
0
 42
0.0000001
 43
0.0000001
 44
0.0000000001
 40
0.0
 40
0.0
 40
0.0
 40
0.0
 40
0.020566824
 40
0.0699403276
 40
0.1500647498
 40
0.2609417381
 40
0.5730631077
 40
1.0
 40
1.0
 40
1.0
 40
1.0
 10
37.8285339267
 20
81.3134956159
 30
0.0
 10
37.8288688507
 20
81.3134956159
 30
0.0
 10
37.8294280268
 20
81.3121122346
 30
0.0
 10
37.8299124418
 20
81.3100096988
 30
0.0
 10
37.8305356383
 20
81.3059857725
 30
0.0
 10
37.8314071877
 20
81.2979306305
 30
0.0
 10
37.8324150115
 20
81.2840544251
 30
0.0
 10
37.8330299758
 20
81.2720590287
 30
0.0
 10
37.8333450565
 20
81.2651136449
 30
0.0
  0
SPLINE
  5
639
100
AcDbEntity
  8
0
100
AcDbSpline
 62
7
  6
CONTINUOUS
 70
0
 71
3
 72
9
 73
5
 74
0
 42
0.0000001
 43
0.0000001
 44
0.0000000001
 40
0.0
 40
0.0
 40
0.0
 40
0.0
 40
0.7402173238
 40
1.0
 40
1.0
 40
1.0
 40
1.0
 10
43.2533075421
 20
83.3092239966
 30
0.0
 10
43.2621297714
 20
83.2994315723
 30
0.0
 10
43.2673874651
 20
83.2806709616
 30
0.0
 10
43.2680491704
 20
83.2630414106
 30
0.0
 10
43.2680491704
 20
83.2584156838
 30
0.0
  0
SPLINE
  5
63A
100
AcDbEntity
  8
0
100
AcDbSpline
 62
7
  6
CONTINUOUS
 70
0
 71
3
 72
11
 73
7
 74
0
 42
0.0000001
 43
0.0000001
 44
0.0000000001
 40
0.0
 40
0.0
 40
0.0
 40
0.0
 40
0.0665544708
 40
0.2618736519
 40
0.5779484573
 40
1.0
 40
1.0
 40
1.0
 40
1.0
 10
43.2680491704
 20
58.6130690426
 30
0.0
 10
43.2680491704
 20
58.6127417797
 30
0.0
 10
43.2659900394
 20
58.6132703652
 30
0.0
 10
43.263881228
 20
58.612606732
 30
0.0
 10
43.2588822047
 20
58.6128396142
 30
0.0
 10
43.2553827132
 20
58.6126914072
 30
0.0
 10
43.2533075154
 20
58.6126689538
 30
0.0
  0
SPLINE
  5
63B
100
AcDbEntity
  8
0
100
AcDbSpline
 62
7
  6
CONTINUOUS
 70
0
 71
3
 72
13
 73
9
 74
0
 42
0.0000001
 43
0.0000001
 44
0.0000000001
 40
0.0
 40
0.0
 40
0.0
 40
0.0
 40
0.4269710453
 40
0.7390969411
 40
0.8499610477
 40
0.9300720093
 40
0.9794359624
 40
1.0
 40
1.0
 40
1.0
 40
1.0
 10
37.8333452732
 20
69.0651088696
 30
0.0
 10
37.8330301324
 20
69.0720557113
 30
0.0
 10
37.8324151314
 20
69.084053303
 30
0.0
 10
37.8314071909
 20
69.0979317155
 30
0.0
 10
37.8305354588
 20
69.1059875766
 30
0.0
 10
37.8299121189
 20
69.110011346
 30
0.0
 10
37.8294276775
 20
69.1121138844
 30
0.0
 10
37.8288683257
 20
69.1134970312
 30
0.0
 10
37.8285334036
 20
69.1134970312
 30
0.0
  0
SPLINE
  5
63C
100
AcDbEntity
  8
0
100
AcDbSpline
 62
7
  6
CONTINUOUS
 70
0
 71
3
 72
9
 73
5
 74
0
 42
0.0000001
 43
0.0000001
 44
0.0000000001
 40
0.0
 40
0.0
 40
0.0
 40
0.0
 40
0.4246074694
 40
1.0
 40
1.0
 40
1.0
 40
1.0
 10
43.2111797999
 20
83.3869630663
 30
0.0
 10
43.2111797999
 20
83.3742988465
 30
0.0
 10
43.2241331557
 20
83.3456510346
 30
0.0
 10
43.2418206215
 20
83.3219741814
 30
0.0
 10
43.2533075421
 20
83.3092239873
 30
0.0
  0
SPLINE
  5
63D
100
AcDbEntity
  8
0
100
AcDbSpline
 62
7
  6
CONTINUOUS
 70
0
 71
3
 72
9
 73
5
 74
0
 42
0.0000001
 43
0.0000001
 44
0.0000000001
 40
0.0
 40
0.0
 40
0.0
 40
0.0
 40
0.7450233218
 40
1.0
 40
1.0
 40
1.0
 40
1.0
 10
43.4913435854
 20
83.4303441182
 30
0.0
 10
43.4925101031
 20
83.430282096
 30
0.0
 10
43.4935247941
 20
83.4298472756
 30
0.0
 10
43.4960116321
 20
83.4302414775
 30
0.0
 10
43.4960116321
 20
83.4298416848
 30
0.0
  0
SPLINE
  5
63E
100
AcDbEntity
  8
0
100
AcDbSpline
 62
7
  6
CONTINUOUS
 70
0
 71
3
 72
9
 73
5
 74
0
 42
0.0000001
 43
0.0000001
 44
0.0000000001
 40
0.0
 40
0.0
 40
0.0
 40
0.0
 40
0.7450233219
 40
1.0
 40
1.0
 40
1.0
 40
1.0
 10
43.592396539
 20
83.4363270081
 30
0.0
 10
43.5935630567
 20
83.4362649859
 30
0.0
 10
43.5945777478
 20
83.4358301656
 30
0.0
 10
43.5970645857
 20
83.4362243674
 30
0.0
 10
43.5970645857
 20
83.4358245747
 30
0.0
  0
SPLINE
  5
63F
100
AcDbEntity
  8
0
100
AcDbSpline
 62
7
  6
CONTINUOUS
 70
0
 71
3
 72
9
 73
5
 74
0
 42
0.0000001
 43
0.0000001
 44
0.0000000001
 40
0.0
 40
0.0
 40
0.0
 40
0.0
 40
0.7450233219
 40
1.0
 40
1.0
 40
1.0
 40
1.0
 10
43.6934494926
 20
83.442309898
 30
0.0
 10
43.6946160103
 20
83.4422478758
 30
0.0
 10
43.6956307014
 20
83.4418130555
 30
0.0
 10
43.6981175393
 20
83.4422072573
 30
0.0
 10
43.6981175393
 20
83.4418074646
 30
0.0
  0
SPLINE
  5
640
100
AcDbEntity
  8
0
100
AcDbSpline
 62
7
  6
CONTINUOUS
 70
0
 71
3
 72
9
 73
5
 74
0
 42
0.0000001
 43
0.0000001
 44
0.0000000001
 40
0.0
 40
0.0
 40
0.0
 40
0.0
 40
0.7450233219
 40
1.0
 40
1.0
 40
1.0
 40
1.0
 10
43.7945024463
 20
83.4482927879
 30
0.0
 10
43.795668964
 20
83.4482307657
 30
0.0
 10
43.796683655
 20
83.4477959454
 30
0.0
 10
43.799170493
 20
83.4481901472
 30
0.0
 10
43.799170493
 20
83.4477903545
 30
0.0
  0
SPLINE
  5
641
100
AcDbEntity
  8
0
100
AcDbSpline
 62
7
  6
CONTINUOUS
 70
0
 71
3
 72
9
 73
5
 74
0
 42
0.0000001
 43
0.0000001
 44
0.0000000001
 40
0.0
 40
0.0
 40
0.0
 40
0.0
 40
0.7450233215
 40
1.0
 40
1.0
 40
1.0
 40
1.0
 10
43.8955553999
 20
83.4542756778
 30
0.0
 10
43.8967219176
 20
83.4542136556
 30
0.0
 10
43.8977366086
 20
83.4537788353
 30
0.0
 10
43.9002234466
 20
83.4541730372
 30
0.0
 10
43.9002234466
 20
83.4537732444
 30
0.0
  0
SPLINE
  5
642
100
AcDbEntity
  8
0
100
AcDbSpline
 62
7
  6
CONTINUOUS
 70
0
 71
3
 72
9
 73
5
 74
0
 42
0.0000001
 43
0.0000001
 44
0.0000000001
 40
0.0
 40
0.0
 40
0.0
 40
0.0
 40
0.7450233217
 40
1.0
 40
1.0
 40
1.0
 40
1.0
 10
43.9966083535
 20
83.4602585677
 30
0.0
 10
43.9977748712
 20
83.4601965455
 30
0.0
 10
43.9987895623
 20
83.4597617252
 30
0.0
 10
44.0012764002
 20
83.4601559271
 30
0.0
 10
44.0012764002
 20
83.4597561343
 30
0.0
  0
SPLINE
  5
643
100
AcDbEntity
  8
0
100
AcDbSpline
 62
7
  6
CONTINUOUS
 70
0
 71
3
 72
9
 73
5
 74
0
 42
0.0000001
 43
0.0000001
 44
0.0000000001
 40
0.0
 40
0.0
 40
0.0
 40
0.0
 40
0.7450233356
 40
1.0
 40
1.0
 40
1.0
 40
1.0
 10
44.0976613077
 20
83.4662414576
 30
0.0
 10
44.0988278253
 20
83.4661794354
 30
0.0
 10
44.0998425162
 20
83.4657446151
 30
0.0
 10
44.1023293538
 20
83.4661388169
 30
0.0
 10
44.1023293538
 20
83.4657390242
 30
0.0
  0
SPLINE
  5
644
100
AcDbEntity
  8
0
100
AcDbSpline
 62
7
  6
CONTINUOUS
 70
0
 71
3
 72
13
 73
9
 74
0
 42
0.0000001
 43
0.0000001
 44
0.0000000001
 40
0.0
 40
0.0
 40
0.0
 40
0.0
 40
0.0848123088
 40
0.2030887645
 40
0.49999995
 40
0.7969111723
 40
0.9151876633
 40
1.0
 40
1.0
 40
1.0
 40
1.0
 10
39.5033523692
 20
58.444739581
 30
0.0
 10
39.6390106611
 20
58.4483432851
 30
0.0
 10
39.9639347828
 20
58.4536851464
 30
0.0
 10
40.7639317451
 20
58.4616661193
 30
0.0
 10
41.9033528239
 20
58.4648598833
 30
0.0
 10
43.0427739593
 20
58.4616661213
 30
0.0
 10
43.8427710815
 20
58.4536851484
 30
0.0
 10
44.1676953041
 20
58.4483432863
 30
0.0
 10
44.3033536406
 20
58.444739581
 30
0.0
  0
SPLINE
  5
645
100
AcDbEntity
  8
0
100
AcDbSpline
 62
7
  6
CONTINUOUS
 70
0
 71
3
 72
17
 73
13
 74
0
 42
0.0000001
 43
0.0000001
 44
0.0000000001
 40
0.0
 40
0.0
 40
0.0
 40
0.0
 40
0.0047575951
 40
0.0171437368
 40
0.0374585197
 40
0.0657086435
 40
0.1458810101
 40
0.2573291132
 40
0.3995518991
 40
0.5715187797
 40
0.7720590501
 40
1.0
 40
1.0
 40
1.0
 40
1.0
 10
38.4033658733
 20
57.97141782
 30
0.0
 10
38.4033658733
 20
57.9717548485
 30
0.0
 10
38.4050076915
 20
57.9721202979
 30
0.0
 10
38.4071950113
 20
57.9725992257
 30
0.0
 10
38.4117211584
 20
57.9730815386
 30
0.0
 10
38.4206677989
 20
57.9738553507
 30
0.0
 10
38.4363252687
 20
57.9747272838
 30
0.0
 10
38.4599041012
 20
57.9757171157
 30
0.0
 10
38.4900606439
 20
57.976681966
 30
0.0
 10
38.5265051093
 20
57.9776268915
 30
0.0
 10
38.5690336674
 20
57.9785370303
 30
0.0
 10
38.5993818355
 20
57.9790830526
 30
0.0
 10
38.6155269416
 20
57.9793526158
 30
0.0
  0
SPLINE
  5
646
100
AcDbEntity
  8
0
100
AcDbSpline
 62
7
  6
CONTINUOUS
 70
0
 71
3
 72
11
 73
7
 74
0
 42
0.0000001
 43
0.0000001
 44
0.0000000001
 40
0.0
 40
0.0
 40
0.0
 40
0.0
 40
0.2193840649
 40
0.4994095814
 40
0.7797444346
 40
1.0
 40
1.0
 40
1.0
 40
1.0
 10
38.6155269416
 20
57.9793526158
 30
0.0
 10
38.7451428508
 20
57.9815167194
 30
0.0
 10
39.0402397016
 20
57.9840227786
 30
0.0
 10
39.5009894281
 20
57.9853180437
 30
0.0
 10
39.9622542647
 20
57.984046971
 30
0.0
 10
40.2580488999
 20
57.9815542852
 30
0.0
 10
40.3881800533
 20
57.9794024405
 30
0.0
  0
SPLINE
  5
647
100
AcDbEntity
  8
0
100
AcDbSpline
 62
7
  6
CONTINUOUS
 70
0
 71
3
 72
17
 73
13
 74
0
 42
0.0000001
 43
0.0000001
 44
0.0000000001
 40
0.0
 40
0.0
 40
0.0
 40
0.0
 40
0.2278597192
 40
0.4283722205
 40
0.6003485707
 40
0.7426018134
 40
0.8540829672
 40
0.9342814698
 40
0.9625409411
 40
0.9828618133
 40
0.9952496615
 40
1.0
 40
1.0
 40
1.0
 40
1.0
 10
40.3881800533
 20
57.9794024405
 30
0.0
 10
40.4045472012
 20
57.9791317939
 30
0.0
 10
40.4353158884
 20
57.9785833273
 30
0.0
 10
40.4784376275
 20
57.9776685263
 30
0.0
 10
40.5153974123
 20
57.9767180918
 30
0.0
 10
40.5459851252
 20
57.9757473552
 30
0.0
 10
40.569903096
 20
57.9747505923
 30
0.0
 10
40.5857875106
 20
57.973873335
 30
0.0
 10
40.594862843
 20
57.9730930341
 30
0.0
 10
40.5994561277
 20
57.9726089224
 30
0.0
 10
40.6016720349
 20
57.9721236665
 30
0.0
 10
40.6033401364
 20
57.9717590831
 30
0.0
 10
40.6033401364
 20
57.97141782
 30
0.0
  0
SPLINE
  5
648
100
AcDbEntity
  8
0
100
AcDbSpline
 62
7
  6
CONTINUOUS
 70
0
 71
3
 72
13
 73
9
 74
0
 42
0.0000001
 43
0.0000001
 44
0.0000000001
 40
0.0
 40
0.0
 40
0.0
 40
0.0
 40
0.020604977
 40
0.0700732204
 40
0.1502438204
 40
0.2610823638
 40
0.5731294734
 40
1.0
 40
1.0
 40
1.0
 40
1.0
 10
37.8285330603
 20
60.7184403596
 30
0.0
 10
37.8288690118
 20
60.7184403596
 30
0.0
 10
37.8294268428
 20
60.7198306762
 30
0.0
 10
37.8299124994
 20
60.7219366808
 30
0.0
 10
37.8305355766
 20
60.7259681403
 30
0.0
 10
37.8314085393
 20
60.7340314784
 30
0.0
 10
37.8324164525
 20
60.7479219735
 30
0.0
 10
37.8330316748
 20
60.759929496
 30
0.0
 10
37.8333470832
 20
60.7668822077
 30
0.0
  0
SPLINE
  5
649
100
AcDbEntity
  8
0
100
AcDbSpline
 62
7
  6
CONTINUOUS
 70
0
 71
3
 72
13
 73
9
 74
0
 42
0.0000001
 43
0.0000001
 44
0.0000000001
 40
0.0
 40
0.0
 40
0.0
 40
0.0
 40
0.0205981696
 40
0.0700526491
 40
0.1502120703
 40
0.2610489624
 40
0.5731309249
 40
1.0
 40
1.0
 40
1.0
 40
1.0
 10
37.8285330603
 20
72.9184420222
 30
0.0
 10
37.8288690517
 20
72.9184420222
 30
0.0
 10
37.8294271364
 20
72.919832411
 30
0.0
 10
37.8299128502
 20
72.9219390163
 30
0.0
 10
37.8305361239
 20
72.9259718045
 30
0.0
 10
37.8314092931
 20
72.9340391634
 30
0.0
 10
37.8324172612
 20
72.9479364395
 30
0.0
 10
37.833032601
 20
72.9599499125
 30
0.0
 10
37.83334815
 20
72.9669057244
 30
0.0
  0
SPLINE
  5
64A
100
AcDbEntity
  8
0
100
AcDbSpline
 62
7
  6
CONTINUOUS
 70
0
 71
3
 72
13
 73
9
 74
0
 42
0.0000001
 43
0.0000001
 44
0.0000000001
 40
0.0
 40
0.0
 40
0.0
 40
0.0
 40
0.0848122046
 40
0.2030869397
 40
0.5000000004
 40
0.7969130609
 40
0.9151877957
 40
1.0
 40
1.0
 40
1.0
 40
1.0
 10
39.50335237
 20
83.5872115699
 30
0.0
 10
39.6390104953
 20
83.5836078784
 30
0.0
 10
39.9639317016
 20
83.5782663207
 30
0.0
 10
40.7639287372
 20
83.5702848327
 30
0.0
 10
41.9033530064
 20
83.5670909943
 30
0.0
 10
43.0427772751
 20
83.5702848327
 30
0.0
 10
43.8427743094
 20
83.5782663207
 30
0.0
 10
44.1676955149
 20
83.5836078784
 30
0.0
 10
44.3033536398
 20
83.5872115699
 30
0.0
  0
SPLINE
  5
64B
100
AcDbEntity
  8
0
100
AcDbSpline
 62
7
  6
CONTINUOUS
 70
0
 71
3
 72
23
 73
19
 74
0
 42
0.0000001
 43
0.0000001
 44
0.0000000001
 40
0.0
 40
0.0
 40
0.0
 40
0.0
 40
0.2020232406
 40
0.3926947016
 40
0.5654182936
 40
0.6433721455
 40
0.714902002
 40
0.7794514513
 40
0.8364676247
 40
0.8854866868
 40
0.926160477
 40
0.9581497726
 40
0.9707943897
 40
0.9811804031
 40
0.9892946077
 40
0.9951261396
 40
0.9986725892
 40
1.0
 40
1.0
 40
1.0
 40
1.0
 10
59.1033530049
 20
82.0734286412
 30
0.0
 10
59.2045359906
 20
82.0736056708
 30
0.0
 10
59.4012161547
 20
82.0741642
 30
0.0
 10
59.6844017807
 20
82.0756392149
 30
0.0
 10
59.9054443147
 20
82.0774005714
 30
0.0
 10
60.0668124413
 20
82.0791265559
 30
0.0
 10
60.174001922
 20
82.0804971396
 30
0.0
 10
60.2707029191
 20
82.081973522
 30
0.0
 10
60.356124383
 20
82.0835443649
 30
0.0
 10
60.4295895102
 20
82.0851926869
 30
0.0
 10
60.4904982165
 20
82.0869055991
 30
0.0
 10
60.5332252619
 20
82.0884475706
 30
0.0
 10
60.5607081244
 20
82.0897749005
 30
0.0
 10
60.5763703058
 20
82.0906763499
 30
0.0
 10
60.5882905812
 20
82.0916188545
 30
0.0
 10
60.5975404713
 20
82.0924278463
 30
0.0
 10
60.6018858237
 20
82.0933886075
 30
0.0
 10
60.6052990551
 20
82.0939294097
 30
0.0
 10
60.6052990551
 20
82.0945942421
 30
0.0
  0
SPLINE
  5
64C
100
AcDbEntity
  8
0
100
AcDbSpline
 62
7
  6
CONTINUOUS
 70
0
 71
3
 72
13
 73
9
 74
0
 42
0.0000001
 43
0.0000001
 44
0.0000000001
 40
0.0
 40
0.0
 40
0.0
 40
0.0
 40
0.3640299516
 40
0.5284196374
 40
0.6729797245
 40
0.7934924057
 40
0.8874607055
 40
1.0
 40
1.0
 40
1.0
 40
1.0
 10
10.9033530049
 20
70.1617067835
 30
0.0
 10
10.9033534577
 20
70.1099337986
 30
0.0
 10
10.9068146152
 20
70.034710506
 30
0.0
 10
10.9194414011
 20
69.9396992842
 30
0.0
 10
10.931389147
 20
69.8799606864
 30
0.0
 10
10.9465976191
 20
69.8304165338
 30
0.0
 10
10.9640050698
 20
69.7893751678
 30
0.0
 10
10.987347467
 20
69.7617067834
 30
0.0
 10
11.0033530049
 20
69.7617067834
 30
0.0
  0
SPLINE
  5
64D
100
AcDbEntity
  8
0
100
AcDbSpline
 62
7
  6
CONTINUOUS
 70
0
 71
3
 72
13
 73
9
 74
0
 42
0.0000001
 43
0.0000001
 44
0.0000000001
 40
0.0
 40
0.0
 40
0.0
 40
0.0
 40
0.1125226967
 40
0.2064947988
 40
0.3270241938
 40
0.4716151129
 40
0.6360131073
 40
1.0
 40
1.0
 40
1.0
 40
1.0
 10
11.0033530049
 20
65.7617067834
 30
0.0
 10
10.987349876
 20
65.7617067834
 30
0.0
 10
10.9640064215
 20
65.7340430618
 30
0.0
 10
10.9466041655
 20
65.6929986412
 30
0.0
 10
10.9313868123
 20
65.6434498697
 30
0.0
 10
10.9194452427
 20
65.5837016652
 30
0.0
 10
10.9068227024
 20
65.488691248
 30
0.0
 10
10.9033534576
 20
65.4134734875
 30
0.0
 10
10.9033530049
 20
65.3617067833
 30
0.0
  0
SPLINE
  5
64E
100
AcDbEntity
  8
0
100
AcDbSpline
 62
7
  6
CONTINUOUS
 70
0
 71
3
 72
13
 73
9
 74
0
 42
0.0000001
 43
0.0000001
 44
0.0000000001
 40
0.0
 40
0.0
 40
0.0
 40
0.0
 40
0.1125226967
 40
0.2064947988
 40
0.3270241938
 40
0.4716151129
 40
0.6360131072
 40
1.0
 40
1.0
 40
1.0
 40
1.0
 10
11.0033530049
 20
59.3617067834
 30
0.0
 10
10.987349876
 20
59.3617067834
 30
0.0
 10
10.9640064215
 20
59.3340430618
 30
0.0
 10
10.9466041655
 20
59.2929986412
 30
0.0
 10
10.9313868123
 20
59.2434498698
 30
0.0
 10
10.9194452427
 20
59.1837016653
 30
0.0
 10
10.9068227024
 20
59.0886912481
 30
0.0
 10
10.9033534576
 20
59.0134734876
 30
0.0
 10
10.9033530049
 20
58.9617067834
 30
0.0
  0
SPLINE
  5
64F
100
AcDbEntity
  8
0
100
AcDbSpline
 62
7
  6
CONTINUOUS
 70
0
 71
3
 72
13
 73
9
 74
0
 42
0.0000001
 43
0.0000001
 44
0.0000000001
 40
0.0
 40
0.0
 40
0.0
 40
0.0
 40
0.3640299516
 40
0.5284196374
 40
0.6729797245
 40
0.7934924057
 40
0.8874607055
 40
1.0
 40
1.0
 40
1.0
 40
1.0
 10
10.9033530049
 20
76.5617067835
 30
0.0
 10
10.9033534577
 20
76.5099337986
 30
0.0
 10
10.9068146152
 20
76.434710506
 30
0.0
 10
10.9194414011
 20
76.3396992842
 30
0.0
 10
10.931389147
 20
76.2799606864
 30
0.0
 10
10.9465976191
 20
76.2304165338
 30
0.0
 10
10.9640050698
 20
76.1893751678
 30
0.0
 10
10.987347467
 20
76.1617067834
 30
0.0
 10
11.0033530049
 20
76.1617067834
 30
0.0
  0
SPLINE
  5
650
100
AcDbEntity
  8
0
100
AcDbSpline
 62
7
  6
CONTINUOUS
 70
0
 71
3
 72
13
 73
9
 74
0
 42
0.0000001
 43
0.0000001
 44
0.0000000001
 40
0.0
 40
0.0
 40
0.0
 40
0.0
 40
0.3640299516
 40
0.5284196374
 40
0.6729797245
 40
0.7934924057
 40
0.8874607055
 40
1.0
 40
1.0
 40
1.0
 40
1.0
 10
10.9033530049
 20
63.7617067835
 30
0.0
 10
10.9033534577
 20
63.7099337986
 30
0.0
 10
10.9068146152
 20
63.634710506
 30
0.0
 10
10.9194414011
 20
63.5396992842
 30
0.0
 10
10.931389147
 20
63.4799606864
 30
0.0
 10
10.9465976191
 20
63.4304165338
 30
0.0
 10
10.9640050698
 20
63.3893751678
 30
0.0
 10
10.987347467
 20
63.3617067834
 30
0.0
 10
11.0033530049
 20
63.3617067834
 30
0.0
  0
SPLINE
  5
651
100
AcDbEntity
  8
0
100
AcDbSpline
 62
7
  6
CONTINUOUS
 70
0
 71
3
 72
13
 73
9
 74
0
 42
0.0000001
 43
0.0000001
 44
0.0000000001
 40
0.0
 40
0.0
 40
0.0
 40
0.0
 40
0.1125226967
 40
0.2064947988
 40
0.3270241938
 40
0.4716151129
 40
0.6360131072
 40
1.0
 40
1.0
 40
1.0
 40
1.0
 10
11.0033530049
 20
78.5617067834
 30
0.0
 10
10.987349876
 20
78.5617067834
 30
0.0
 10
10.9640064215
 20
78.5340430618
 30
0.0
 10
10.9466041655
 20
78.4929986412
 30
0.0
 10
10.9313868123
 20
78.4434498697
 30
0.0
 10
10.9194452427
 20
78.3837016653
 30
0.0
 10
10.9068227024
 20
78.2886912481
 30
0.0
 10
10.9033534576
 20
78.2134734876
 30
0.0
 10
10.9033530049
 20
78.1617067834
 30
0.0
  0
SPLINE
  5
652
100
AcDbEntity
  8
0
100
AcDbSpline
 62
7
  6
CONTINUOUS
 70
0
 71
3
 72
13
 73
9
 74
0
 42
0.0000001
 43
0.0000001
 44
0.0000000001
 40
0.0
 40
0.0
 40
0.0
 40
0.0
 40
0.3640299516
 40
0.5284196374
 40
0.6729797245
 40
0.7934924057
 40
0.8874607055
 40
1.0
 40
1.0
 40
1.0
 40
1.0
 10
10.9033530049
 20
82.9617067835
 30
0.0
 10
10.9033534577
 20
82.9099337986
 30
0.0
 10
10.9068146152
 20
82.834710506
 30
0.0
 10
10.9194414012
 20
82.7396992842
 30
0.0
 10
10.931389147
 20
82.6799606864
 30
0.0
 10
10.9465976192
 20
82.6304165338
 30
0.0
 10
10.9640050699
 20
82.5893751678
 30
0.0
 10
10.987347467
 20
82.5617067834
 30
0.0
 10
11.0033530049
 20
82.5617067834
 30
0.0
  0
SPLINE
  5
653
100
AcDbEntity
  8
0
100
AcDbSpline
 62
7
  6
CONTINUOUS
 70
0
 71
3
 72
13
 73
9
 74
0
 42
0.0000001
 43
0.0000001
 44
0.0000000001
 40
0.0
 40
0.0
 40
0.0
 40
0.0
 40
0.1125226967
 40
0.2064947988
 40
0.3270241938
 40
0.4716151129
 40
0.6360131073
 40
1.0
 40
1.0
 40
1.0
 40
1.0
 10
11.0033530049
 20
72.1617067834
 30
0.0
 10
10.987349876
 20
72.1617067834
 30
0.0
 10
10.9640064215
 20
72.1340430618
 30
0.0
 10
10.9466041655
 20
72.0929986412
 30
0.0
 10
10.9313868123
 20
72.0434498697
 30
0.0
 10
10.9194452427
 20
71.9837016653
 30
0.0
 10
10.9068227024
 20
71.888691248
 30
0.0
 10
10.9033534576
 20
71.8134734875
 30
0.0
 10
10.9033530049
 20
71.7617067833
 30
0.0
  0
SPLINE
  5
654
100
AcDbEntity
  8
0
100
AcDbSpline
 62
7
  6
CONTINUOUS
 70
0
 71
3
 72
13
 73
9
 74
0
 42
0.0000001
 43
0.0000001
 44
0.0000000001
 40
0.0
 40
0.0
 40
0.0
 40
0.0
 40
0.1125226967
 40
0.2064947988
 40
0.3270241938
 40
0.4716151129
 40
0.6360131073
 40
1.0
 40
1.0
 40
1.0
 40
1.0
 10
19.9033530049
 20
59.3617067834
 30
0.0
 10
19.887349876
 20
59.3617067834
 30
0.0
 10
19.8640064215
 20
59.3340430618
 30
0.0
 10
19.8466041655
 20
59.2929986412
 30
0.0
 10
19.8313868123
 20
59.2434498697
 30
0.0
 10
19.8194452427
 20
59.1837016653
 30
0.0
 10
19.8068227024
 20
59.088691248
 30
0.0
 10
19.8033534576
 20
59.0134734875
 30
0.0
 10
19.8033530049
 20
58.9617067833
 30
0.0
  0
SPLINE
  5
655
100
AcDbEntity
  8
0
100
AcDbSpline
 62
7
  6
CONTINUOUS
 70
0
 71
3
 72
13
 73
9
 74
0
 42
0.0000001
 43
0.0000001
 44
0.0000000001
 40
0.0
 40
0.0
 40
0.0
 40
0.0
 40
0.3640299516
 40
0.5284196374
 40
0.6729797244
 40
0.7934924057
 40
0.8874607055
 40
1.0
 40
1.0
 40
1.0
 40
1.0
 10
19.8033530049
 20
63.7617067835
 30
0.0
 10
19.8033534577
 20
63.7099337986
 30
0.0
 10
19.8068146152
 20
63.634710506
 30
0.0
 10
19.8194414011
 20
63.5396992842
 30
0.0
 10
19.831389147
 20
63.4799606864
 30
0.0
 10
19.8465976191
 20
63.4304165338
 30
0.0
 10
19.8640050698
 20
63.3893751678
 30
0.0
 10
19.887347467
 20
63.3617067834
 30
0.0
 10
19.9033530049
 20
63.3617067834
 30
0.0
  0
SPLINE
  5
656
100
AcDbEntity
  8
0
100
AcDbSpline
 62
7
  6
CONTINUOUS
 70
0
 71
3
 72
11
 73
7
 74
0
 42
0.0000001
 43
0.0000001
 44
0.0000000001
 40
0.0
 40
0.0
 40
0.0
 40
0.0
 40
0.2530635582
 40
0.4999998278
 40
0.7469361492
 40
1.0
 40
1.0
 40
1.0
 40
1.0
 10
60.5127135738
 20
81.4128249892
 30
0.0
 10
60.6046752055
 20
81.4128166942
 30
0.0
 10
60.7884384971
 20
81.3746607745
 30
0.0
 10
61.0175527984
 20
81.2177682069
 30
0.0
 10
61.1744433295
 20
80.9886523555
 30
0.0
 10
61.2125974202
 20
80.8048885282
 30
0.0
 10
61.2126047747
 20
80.7129267901
 30
0.0
  0
SPLINE
  5
657
100
AcDbEntity
  8
0
100
AcDbSpline
 62
7
  6
CONTINUOUS
 70
0
 71
3
 72
13
 73
9
 74
0
 42
0.0000001
 43
0.0000001
 44
0.0000000001
 40
0.0
 40
0.0
 40
0.0
 40
0.0
 40
0.1125226967
 40
0.2064947988
 40
0.3270241938
 40
0.4716151129
 40
0.6360131073
 40
1.0
 40
1.0
 40
1.0
 40
1.0
 10
19.9033530049
 20
78.5617067834
 30
0.0
 10
19.887349876
 20
78.5617067834
 30
0.0
 10
19.8640064215
 20
78.5340430618
 30
0.0
 10
19.8466041655
 20
78.4929986412
 30
0.0
 10
19.8313868123
 20
78.4434498697
 30
0.0
 10
19.8194452427
 20
78.3837016653
 30
0.0
 10
19.8068227024
 20
78.288691248
 30
0.0
 10
19.8033534576
 20
78.2134734875
 30
0.0
 10
19.8033530049
 20
78.1617067833
 30
0.0
  0
SPLINE
  5
658
100
AcDbEntity
  8
0
100
AcDbSpline
 62
7
  6
CONTINUOUS
 70
0
 71
3
 72
13
 73
9
 74
0
 42
0.0000001
 43
0.0000001
 44
0.0000000001
 40
0.0
 40
0.0
 40
0.0
 40
0.0
 40
0.3640299516
 40
0.5284196374
 40
0.6729797245
 40
0.7934924057
 40
0.8874607055
 40
1.0
 40
1.0
 40
1.0
 40
1.0
 10
19.8033530049
 20
82.9617067835
 30
0.0
 10
19.8033534576
 20
82.9099337986
 30
0.0
 10
19.8068146152
 20
82.834710506
 30
0.0
 10
19.8194414011
 20
82.7396992842
 30
0.0
 10
19.831389147
 20
82.6799606864
 30
0.0
 10
19.8465976191
 20
82.6304165338
 30
0.0
 10
19.8640050699
 20
82.5893751678
 30
0.0
 10
19.887347467
 20
82.5617067834
 30
0.0
 10
19.9033530049
 20
82.5617067834
 30
0.0
  0
SPLINE
  5
659
100
AcDbEntity
  8
0
100
AcDbSpline
 62
7
  6
CONTINUOUS
 70
0
 71
3
 72
11
 73
7
 74
0
 42
0.0000001
 43
0.0000001
 44
0.0000000001
 40
0.0
 40
0.0
 40
0.0
 40
0.0
 40
0.2530636331
 40
0.4999999051
 40
0.7469362057
 40
1.0
 40
1.0
 40
1.0
 40
1.0
 10
34.8103531455
 20
60.510641892
 30
0.0
 10
34.7183913848
 20
60.5106498932
 30
0.0
 10
34.53462773
 20
60.5488053243
 30
0.0
 10
34.305512788
 20
60.7056975696
 30
0.0
 10
34.1486216648
 20
60.9348133658
 30
0.0
 10
34.1104672416
 20
61.1185773157
 30
0.0
 10
34.1104597586
 20
61.210539135
 30
0.0
  0
SPLINE
  5
65A
100
AcDbEntity
  8
0
100
AcDbSpline
 62
7
  6
CONTINUOUS
 70
0
 71
3
 72
11
 73
7
 74
0
 42
0.0000001
 43
0.0000001
 44
0.0000000001
 40
0.0
 40
0.0
 40
0.0
 40
0.0
 40
0.2093326835
 40
0.4453194235
 40
0.71316428
 40
1.0
 40
1.0
 40
1.0
 40
1.0
 10
50.3286971723
 20
60.5106418917
 30
0.0
 10
50.3473524011
 20
60.5109674211
 30
0.0
 10
50.3872011283
 20
60.5237970236
 30
0.0
 10
50.4331362831
 20
60.5702126497
 30
0.0
 10
50.4627035708
 20
60.6354016073
 30
0.0
 10
50.4698954071
 20
60.6850463986
 30
0.0
 10
50.4701185268
 20
60.7106114307
 30
0.0
  0
SPLINE
  5
65B
100
AcDbEntity
  8
0
100
AcDbSpline
 62
7
  6
CONTINUOUS
 70
0
 71
3
 72
12
 73
8
 74
0
 42
0.0000001
 43
0.0000001
 44
0.0000000001
 40
0.0
 40
0.0
 40
0.0
 40
0.0
 40
0.3429163846
 40
0.6355597398
 40
0.7538203306
 40
0.8523393258
 40
1.0
 40
1.0
 40
1.0
 40
1.0
 10
52.0115254113
 20
60.6829696359
 30
0.0
 10
52.0113591291
 20
60.6566880736
 30
0.0
 10
52.0071252609
 20
60.6079349729
 30
0.0
 10
51.9922484178
 20
60.5516177322
 30
0.0
 10
51.9744375486
 20
60.5165743065
 30
0.0
 10
51.9579064038
 20
60.4942635062
 30
0.0
 10
51.940004275
 20
60.4831901493
 30
0.0
 10
51.9286971704
 20
60.482713788
 30
0.0
  0
SPLINE
  5
65C
100
AcDbEntity
  8
0
100
AcDbSpline
 62
7
  6
CONTINUOUS
 70
0
 71
3
 72
9
 73
5
 74
0
 42
0.0000001
 43
0.0000001
 44
0.0000000001
 40
0.0
 40
0.0
 40
0.0
 40
0.0
 40
0.4999792071
 40
1.0
 40
1.0
 40
1.0
 40
1.0
 10
60.541128324
 20
60.682925689
 30
0.0
 10
60.6060588921
 20
60.6827132959
 30
0.0
 10
60.7373043412
 20
60.7086639236
 30
0.0
 10
60.848147701
 20
60.7832637994
 30
0.0
 10
60.8941473499
 20
60.8290978201
 30
0.0
  0
SPLINE
  5
65D
100
AcDbEntity
  8
0
100
AcDbSpline
 62
7
  6
CONTINUOUS
 70
0
 71
3
 72
9
 73
5
 74
0
 42
0.0000001
 43
0.0000001
 44
0.0000000001
 40
0.0
 40
0.0
 40
0.0
 40
0.0
 40
0.4999998994
 40
1.0
 40
1.0
 40
1.0
 40
1.0
 10
60.8941473499
 20
60.8290978201
 30
0.0
 10
60.9399263565
 20
60.8752778995
 30
0.0
 10
61.0150084674
 20
60.9861207585
 30
0.0
 10
61.0402833631
 20
61.1175910383
 30
0.0
 10
61.0405633377
 20
61.1826159735
 30
0.0
  0
SPLINE
  5
65E
100
AcDbEntity
  8
0
100
AcDbSpline
 62
7
  6
CONTINUOUS
 70
0
 71
3
 72
11
 73
7
 74
0
 42
0.0000001
 43
0.0000001
 44
0.0000000001
 40
0.0
 40
0.0
 40
0.0
 40
0.0
 40
0.2095190875
 40
0.4454107497
 40
0.7128953271
 40
1.0
 40
1.0
 40
1.0
 40
1.0
 10
61.2280148515
 20
69.8617067827
 30
0.0
 10
61.2276889877
 20
69.8430323729
 30
0.0
 10
61.2149574338
 20
69.8031181109
 30
0.0
 10
61.1683884957
 20
69.7573474928
 30
0.0
 10
61.1033176065
 20
69.7276001761
 30
0.0
 10
61.0536378366
 20
69.7205087866
 30
0.0
 10
61.0280453125
 20
69.7202854271
 30
0.0
  0
SPLINE
  5
65F
100
AcDbEntity
  8
0
100
AcDbSpline
 62
7
  6
CONTINUOUS
 70
0
 71
3
 72
11
 73
7
 74
0
 42
0.0000001
 43
0.0000001
 44
0.0000000001
 40
0.0
 40
0.0
 40
0.0
 40
0.0
 40
0.2163735477
 40
0.4467742773
 40
0.7057143842
 40
1.0
 40
1.0
 40
1.0
 40
1.0
 10
61.2405328783
 20
69.8617067763
 30
0.0
 10
61.2401400314
 20
69.8391971981
 30
0.0
 10
61.231338965
 20
69.7925002564
 30
0.0
 10
61.1933458137
 20
69.7279464862
 30
0.0
 10
61.1277612054
 20
69.6761158689
 30
0.0
 10
61.0694348363
 20
69.6619815907
 30
0.0
 10
61.0388164837
 20
69.6617143985
 30
0.0
  0
SPLINE
  5
660
100
AcDbEntity
  8
0
100
AcDbSpline
 62
7
  6
CONTINUOUS
 70
0
 71
3
 72
11
 73
7
 74
0
 42
0.0000001
 43
0.0000001
 44
0.0000000001
 40
0.0
 40
0.0
 40
0.0
 40
0.0
 40
0.253063694
 40
0.5000000167
 40
0.7469363344
 40
1.0
 40
1.0
 40
1.0
 40
1.0
 10
61.2405328783
 20
61.1826071744
 30
0.0
 10
61.2405248771
 20
61.0906457668
 30
0.0
 10
61.2023697507
 20
60.9068828348
 30
0.0
 10
61.0454786634
 20
60.67776847
 30
0.0
 10
60.8163644492
 20
60.5208771848
 30
0.0
 10
60.6326015693
 20
60.4827218807
 30
0.0
 10
60.540640172
 20
60.4827137881
 30
0.0
  0
SPLINE
  5
661
100
AcDbEntity
  8
0
100
AcDbSpline
 62
7
  6
CONTINUOUS
 70
0
 71
3
 72
13
 73
9
 74
0
 42
0.0000001
 43
0.0000001
 44
0.0000000001
 40
0.0
 40
0.0
 40
0.0
 40
0.0
 40
0.3640299517
 40
0.5284196375
 40
0.6729797245
 40
0.7934924058
 40
0.8874607055
 40
1.0
 40
1.0
 40
1.0
 40
1.0
 10
78.1033530049
 20
58.9617067834
 30
0.0
 10
78.1033525521
 20
59.0134797682
 30
0.0
 10
78.0998913946
 20
59.0887030608
 30
0.0
 10
78.0872646086
 20
59.1837142826
 30
0.0
 10
78.0753168627
 20
59.2434528804
 30
0.0
 10
78.0601083906
 20
59.292997033
 30
0.0
 10
78.0427009399
 20
59.3340383989
 30
0.0
 10
78.0193585428
 20
59.3617067834
 30
0.0
 10
78.0033530049
 20
59.3617067834
 30
0.0
  0
SPLINE
  5
662
100
AcDbEntity
  8
0
100
AcDbSpline
 62
7
  6
CONTINUOUS
 70
0
 71
3
 72
13
 73
9
 74
0
 42
0.0000001
 43
0.0000001
 44
0.0000000001
 40
0.0
 40
0.0
 40
0.0
 40
0.0
 40
0.1125226966
 40
0.2064947988
 40
0.3270241938
 40
0.4716151129
 40
0.6360131073
 40
1.0
 40
1.0
 40
1.0
 40
1.0
 10
78.0033530049
 20
63.3617067834
 30
0.0
 10
78.0193561338
 20
63.3617067834
 30
0.0
 10
78.0426995883
 20
63.389370505
 30
0.0
 10
78.0601018442
 20
63.4304149256
 30
0.0
 10
78.0753191975
 20
63.479963697
 30
0.0
 10
78.0872607671
 20
63.5397119015
 30
0.0
 10
78.0998833074
 20
63.6347223187
 30
0.0
 10
78.1033525522
 20
63.7099400792
 30
0.0
 10
78.1033530049
 20
63.7617067835
 30
0.0
  0
SPLINE
  5
663
100
AcDbEntity
  8
0
100
AcDbSpline
 62
7
  6
CONTINUOUS
 70
0
 71
3
 72
13
 73
9
 74
0
 42
0.0000001
 43
0.0000001
 44
0.0000000001
 40
0.0
 40
0.0
 40
0.0
 40
0.0
 40
0.3640299516
 40
0.5284196374
 40
0.6729797244
 40
0.7934924057
 40
0.8874607055
 40
1.0
 40
1.0
 40
1.0
 40
1.0
 10
89.3033530049
 20
65.3617067833
 30
0.0
 10
89.3033525521
 20
65.4134797681
 30
0.0
 10
89.2998913946
 20
65.4887030607
 30
0.0
 10
89.2872646086
 20
65.5837142826
 30
0.0
 10
89.2753168628
 20
65.6434528803
 30
0.0
 10
89.2601083906
 20
65.6929970329
 30
0.0
 10
89.2427009399
 20
65.7340383989
 30
0.0
 10
89.2193585428
 20
65.7617067834
 30
0.0
 10
89.2033530049
 20
65.7617067834
 30
0.0
  0
SPLINE
  5
664
100
AcDbEntity
  8
0
100
AcDbSpline
 62
7
  6
CONTINUOUS
 70
0
 71
3
 72
13
 73
9
 74
0
 42
0.0000001
 43
0.0000001
 44
0.0000000001
 40
0.0
 40
0.0
 40
0.0
 40
0.0
 40
0.3640299516
 40
0.5284196374
 40
0.6729797245
 40
0.7934924057
 40
0.8874607055
 40
1.0
 40
1.0
 40
1.0
 40
1.0
 10
78.1033530049
 20
78.1617067834
 30
0.0
 10
78.1033525521
 20
78.2134797682
 30
0.0
 10
78.0998913946
 20
78.2887030608
 30
0.0
 10
78.0872646086
 20
78.3837142826
 30
0.0
 10
78.0753168628
 20
78.4434528804
 30
0.0
 10
78.0601083906
 20
78.492997033
 30
0.0
 10
78.0427009399
 20
78.534038399
 30
0.0
 10
78.0193585428
 20
78.5617067834
 30
0.0
 10
78.0033530049
 20
78.5617067834
 30
0.0
  0
SPLINE
  5
665
100
AcDbEntity
  8
0
100
AcDbSpline
 62
7
  6
CONTINUOUS
 70
0
 71
3
 72
11
 73
7
 74
0
 42
0.0000001
 43
0.0000001
 44
0.0000000001
 40
0.0
 40
0.0
 40
0.0
 40
0.0
 40
0.2500037259
 40
0.4999914648
 40
0.7499823362
 40
1.0
 40
1.0
 40
1.0
 40
1.0
 10
34.8103531452
 20
81.2128554507
 30
0.0
 10
34.745346016
 20
81.2117402386
 30
0.0
 10
34.6139488669
 20
81.1870910578
 30
0.0
 10
34.4476352456
 20
81.0756687006
 30
0.0
 10
34.3361701713
 20
80.9093394747
 30
0.0
 10
34.311625169
 20
80.7779409239
 30
0.0
 10
34.3104292976
 20
80.7129316031
 30
0.0
  0
SPLINE
  5
666
100
AcDbEntity
  8
0
100
AcDbSpline
 62
7
  6
CONTINUOUS
 70
0
 71
3
 72
11
 73
7
 74
0
 42
0.0000001
 43
0.0000001
 44
0.0000000001
 40
0.0
 40
0.0
 40
0.0
 40
0.0
 40
0.2500037259
 40
0.4999914648
 40
0.7499823362
 40
1.0
 40
1.0
 40
1.0
 40
1.0
 10
61.0126352356
 20
80.7129316031
 30
0.0
 10
61.0115200235
 20
80.7779387324
 30
0.0
 10
60.9868708428
 20
80.9093358814
 30
0.0
 10
60.8754484856
 20
81.0756495027
 30
0.0
 10
60.7091192596
 20
81.187114577
 30
0.0
 10
60.5777207088
 20
81.2116595793
 30
0.0
 10
60.512711388
 20
81.2128554507
 30
0.0
  0
SPLINE
  5
667
100
AcDbEntity
  8
0
100
AcDbSpline
 62
7
  6
CONTINUOUS
 70
0
 71
3
 72
11
 73
7
 74
0
 42
0.0000001
 43
0.0000001
 44
0.0000000001
 40
0.0
 40
0.0
 40
0.0
 40
0.0
 40
0.2500037259
 40
0.4999914648
 40
0.7499823362
 40
1.0
 40
1.0
 40
1.0
 40
1.0
 10
34.3104292976
 20
61.2105352783
 30
0.0
 10
34.3115445097
 20
61.145528149
 30
0.0
 10
34.3361936905
 20
61.014131
 30
0.0
 10
34.4476160477
 20
60.8478173787
 30
0.0
 10
34.6139452737
 20
60.7363523044
 30
0.0
 10
34.7453438244
 20
60.7118073021
 30
0.0
 10
34.8103531452
 20
60.7106114307
 30
0.0
  0
SPLINE
  5
668
100
AcDbEntity
  8
0
100
AcDbSpline
 62
7
  6
CONTINUOUS
 70
0
 71
3
 72
13
 73
9
 74
0
 42
0.0000001
 43
0.0000001
 44
0.0000000001
 40
0.0
 40
0.0
 40
0.0
 40
0.0
 40
0.3640299516
 40
0.5284196374
 40
0.6729797244
 40
0.7934924057
 40
0.8874607055
 40
1.0
 40
1.0
 40
1.0
 40
1.0
 10
89.3033530049
 20
71.7617067833
 30
0.0
 10
89.3033525521
 20
71.8134797681
 30
0.0
 10
89.2998913946
 20
71.8887030607
 30
0.0
 10
89.2872646086
 20
71.9837142826
 30
0.0
 10
89.2753168628
 20
72.0434528803
 30
0.0
 10
89.2601083906
 20
72.0929970329
 30
0.0
 10
89.2427009399
 20
72.1340383989
 30
0.0
 10
89.2193585428
 20
72.1617067834
 30
0.0
 10
89.2033530049
 20
72.1617067834
 30
0.0
  0
SPLINE
  5
669
100
AcDbEntity
  8
0
100
AcDbSpline
 62
7
  6
CONTINUOUS
 70
0
 71
3
 72
13
 73
9
 74
0
 42
0.0000001
 43
0.0000001
 44
0.0000000001
 40
0.0
 40
0.0
 40
0.0
 40
0.0
 40
0.1125226967
 40
0.2064947988
 40
0.3270241938
 40
0.4716151129
 40
0.6360131073
 40
1.0
 40
1.0
 40
1.0
 40
1.0
 10
89.2033530049
 20
69.7617067834
 30
0.0
 10
89.2193561338
 20
69.7617067834
 30
0.0
 10
89.2426995883
 20
69.789370505
 30
0.0
 10
89.2601018442
 20
69.8304149256
 30
0.0
 10
89.2753191974
 20
69.879963697
 30
0.0
 10
89.2872607671
 20
69.9397119015
 30
0.0
 10
89.2998833074
 20
70.0347223187
 30
0.0
 10
89.3033525522
 20
70.1099400792
 30
0.0
 10
89.3033530049
 20
70.1617067835
 30
0.0
  0
SPLINE
  5
66A
100
AcDbEntity
  8
0
100
AcDbSpline
 62
7
  6
CONTINUOUS
 70
0
 71
3
 72
13
 73
9
 74
0
 42
0.0000001
 43
0.0000001
 44
0.0000000001
 40
0.0
 40
0.0
 40
0.0
 40
0.0
 40
0.1125226967
 40
0.2064947988
 40
0.3270241938
 40
0.4716151129
 40
0.6360131073
 40
1.0
 40
1.0
 40
1.0
 40
1.0
 10
89.2033530049
 20
63.3617067834
 30
0.0
 10
89.2193561338
 20
63.3617067834
 30
0.0
 10
89.2426995883
 20
63.3893705049
 30
0.0
 10
89.2601018443
 20
63.4304149256
 30
0.0
 10
89.2753191975
 20
63.479963697
 30
0.0
 10
89.2872607671
 20
63.5397119015
 30
0.0
 10
89.2998833074
 20
63.6347223187
 30
0.0
 10
89.3033525522
 20
63.7099400792
 30
0.0
 10
89.3033530049
 20
63.7617067835
 30
0.0
  0
SPLINE
  5
66B
100
AcDbEntity
  8
0
100
AcDbSpline
 62
7
  6
CONTINUOUS
 70
0
 71
3
 72
13
 73
9
 74
0
 42
0.0000001
 43
0.0000001
 44
0.0000000001
 40
0.0
 40
0.0
 40
0.0
 40
0.0
 40
0.3640299516
 40
0.5284196374
 40
0.6729797245
 40
0.7934924057
 40
0.8874607055
 40
1.0
 40
1.0
 40
1.0
 40
1.0
 10
89.3033530049
 20
58.9617067833
 30
0.0
 10
89.3033525521
 20
59.0134797681
 30
0.0
 10
89.2998913946
 20
59.0887030607
 30
0.0
 10
89.2872646086
 20
59.1837142825
 30
0.0
 10
89.2753168627
 20
59.2434528803
 30
0.0
 10
89.2601083906
 20
59.2929970329
 30
0.0
 10
89.2427009399
 20
59.3340383989
 30
0.0
 10
89.2193585428
 20
59.3617067834
 30
0.0
 10
89.2033530049
 20
59.3617067834
 30
0.0
  0
SPLINE
  5
66C
100
AcDbEntity
  8
0
100
AcDbSpline
 62
7
  6
CONTINUOUS
 70
0
 71
3
 72
13
 73
9
 74
0
 42
0.0000001
 43
0.0000001
 44
0.0000000001
 40
0.0
 40
0.0
 40
0.0
 40
0.0
 40
0.3640299516
 40
0.5284196374
 40
0.6729797244
 40
0.7934924057
 40
0.8874607055
 40
1.0
 40
1.0
 40
1.0
 40
1.0
 10
89.3033530049
 20
78.1617067833
 30
0.0
 10
89.3033525521
 20
78.2134797681
 30
0.0
 10
89.2998913946
 20
78.2887030607
 30
0.0
 10
89.2872646086
 20
78.3837142826
 30
0.0
 10
89.2753168628
 20
78.4434528803
 30
0.0
 10
89.2601083906
 20
78.4929970329
 30
0.0
 10
89.2427009399
 20
78.5340383989
 30
0.0
 10
89.2193585428
 20
78.5617067834
 30
0.0
 10
89.2033530049
 20
78.5617067834
 30
0.0
  0
SPLINE
  5
66D
100
AcDbEntity
  8
0
100
AcDbSpline
 62
7
  6
CONTINUOUS
 70
0
 71
3
 72
13
 73
9
 74
0
 42
0.0000001
 43
0.0000001
 44
0.0000000001
 40
0.0
 40
0.0
 40
0.0
 40
0.0
 40
0.1125226967
 40
0.2064947988
 40
0.3270241938
 40
0.4716151129
 40
0.6360131073
 40
1.0
 40
1.0
 40
1.0
 40
1.0
 10
89.2033530049
 20
82.5617067834
 30
0.0
 10
89.2193561338
 20
82.5617067834
 30
0.0
 10
89.2426995883
 20
82.5893705049
 30
0.0
 10
89.2601018442
 20
82.6304149256
 30
0.0
 10
89.2753191974
 20
82.679963697
 30
0.0
 10
89.2872607671
 20
82.7397119015
 30
0.0
 10
89.2998833074
 20
82.8347223187
 30
0.0
 10
89.3033525522
 20
82.9099400792
 30
0.0
 10
89.3033530049
 20
82.9617067835
 30
0.0
  0
SPLINE
  5
66E
100
AcDbEntity
  8
0
100
AcDbSpline
 62
7
  6
CONTINUOUS
 70
0
 71
3
 72
13
 73
9
 74
0
 42
0.0000001
 43
0.0000001
 44
0.0000000001
 40
0.0
 40
0.0
 40
0.0
 40
0.0
 40
0.1125226967
 40
0.2064947988
 40
0.3270241938
 40
0.4716151129
 40
0.6360131073
 40
1.0
 40
1.0
 40
1.0
 40
1.0
 10
78.0033530049
 20
82.5617067834
 30
0.0
 10
78.0193561338
 20
82.5617067834
 30
0.0
 10
78.0426995883
 20
82.589370505
 30
0.0
 10
78.0601018442
 20
82.6304149256
 30
0.0
 10
78.0753191974
 20
82.679963697
 30
0.0
 10
78.0872607671
 20
82.7397119015
 30
0.0
 10
78.0998833074
 20
82.8347223187
 30
0.0
 10
78.1033525522
 20
82.9099400792
 30
0.0
 10
78.1033530049
 20
82.9617067835
 30
0.0
  0
SPLINE
  5
66F
100
AcDbEntity
  8
0
100
AcDbSpline
 62
7
  6
CONTINUOUS
 70
0
 71
3
 72
13
 73
9
 74
0
 42
0.0000001
 43
0.0000001
 44
0.0000000001
 40
0.0
 40
0.0
 40
0.0
 40
0.0
 40
0.1125226967
 40
0.2064947988
 40
0.3270241938
 40
0.4716151129
 40
0.6360131073
 40
1.0
 40
1.0
 40
1.0
 40
1.0
 10
89.2033530049
 20
76.1617067834
 30
0.0
 10
89.2193561338
 20
76.1617067834
 30
0.0
 10
89.2426995883
 20
76.189370505
 30
0.0
 10
89.2601018442
 20
76.2304149256
 30
0.0
 10
89.2753191974
 20
76.279963697
 30
0.0
 10
89.2872607671
 20
76.3397119015
 30
0.0
 10
89.2998833074
 20
76.4347223187
 30
0.0
 10
89.3033525522
 20
76.5099400792
 30
0.0
 10
89.3033530049
 20
76.5617067835
 30
0.0
  0
SPLINE
  5
670
100
AcDbEntity
  8
0
100
AcDbSpline
 62
7
  6
CONTINUOUS
 70
0
 71
3
 72
18
 73
14
 74
0
 42
0.0000001
 43
0.0000001
 44
0.0000000001
 40
0.0
 40
0.0
 40
0.0
 40
0.0
 40
0.0056247268
 40
0.0202964754
 40
0.0442274614
 40
0.0773005083
 40
0.1192977777
 40
0.1697507106
 40
0.2938857272
 40
0.4451432423
 40
0.6178511307
 40
0.8055823271
 40
1.0
 40
1.0
 40
1.0
 40
1.0
 10
37.8285334036
 20
69.1134970312
 30
0.0
 10
37.8279700487
 20
69.1134970312
 30
0.0
 10
37.8274024299
 20
69.1107211885
 30
0.0
 10
37.8266045064
 20
69.1070872525
 30
0.0
 10
37.8258497572
 20
69.0995443336
 30
0.0
 10
37.8250506519
 20
69.0898349001
 30
0.0
 10
37.8242942306
 20
69.0772186068
 30
0.0
 10
37.8232476106
 20
69.0555816956
 30
0.0
 10
37.8221331246
 20
69.0229444671
 30
0.0
 10
37.8210796485
 20
68.9780839512
 30
0.0
 10
37.820291068
 20
68.9268369849
 30
0.0
 10
37.8198075911
 20
68.8712668664
 30
0.0
 10
37.8196965152
 20
68.8329917556
 30
0.0
 10
37.8196965158
 20
68.8135194924
 30
0.0
  0
SPLINE
  5
671
100
AcDbEntity
  8
0
100
AcDbSpline
 62
7
  6
CONTINUOUS
 70
0
 71
3
 72
18
 73
14
 74
0
 42
0.0000001
 43
0.0000001
 44
0.0000000001
 40
0.0
 40
0.0
 40
0.0
 40
0.0
 40
0.1944351603
 40
0.3821893134
 40
0.5548939343
 40
0.7061349797
 40
0.8302740144
 40
0.8807293526
 40
0.9227226091
 40
0.95578707
 40
0.979710494
 40
0.9943769446
 40
1.0
 40
1.0
 40
1.0
 40
1.0
 10
37.8196965157
 20
81.0135328756
 30
0.0
 10
37.8196965314
 20
81.033005945
 30
0.0
 10
37.8198078979
 20
81.0712832484
 30
0.0
 10
37.8202917415
 20
81.1268543888
 30
0.0
 10
37.8210803119
 20
81.1780991891
 30
0.0
 10
37.8221338261
 20
81.2229559527
 30
0.0
 10
37.8232479487
 20
81.2555905948
 30
0.0
 10
37.8242943267
 20
81.2772267139
 30
0.0
 10
37.8250507594
 20
81.2898413443
 30
0.0
 10
37.8258499383
 20
81.2995483763
 30
0.0
 10
37.8266049918
 20
81.3070884597
 30
0.0
 10
37.8274026721
 20
81.3107212882
 30
0.0
 10
37.8279707665
 20
81.3134956159
 30
0.0
 10
37.8285339267
 20
81.3134956159
 30
0.0
  0
SPLINE
  5
672
100
AcDbEntity
  8
0
100
AcDbSpline
 62
7
  6
CONTINUOUS
 70
0
 71
3
 72
9
 73
5
 74
0
 42
0.0000001
 43
0.0000001
 44
0.0000000001
 40
0.0
 40
0.0
 40
0.0
 40
0.0
 40
0.2436035615
 40
1.0
 40
1.0
 40
1.0
 40
1.0
 10
43.2680491704
 20
83.2584162692
 30
0.0
 10
43.2680491704
 20
83.2550784499
 30
0.0
 10
43.2676555313
 20
83.2413752965
 30
0.0
 10
43.26601277
 20
83.2277423557
 30
0.0
 10
43.2645305854
 20
83.2174848585
 30
0.0
  0
SPLINE
  5
673
100
AcDbEntity
  8
0
100
AcDbSpline
 62
7
  6
CONTINUOUS
 70
0
 71
3
 72
9
 73
5
 74
0
 42
0.0000001
 43
0.0000001
 44
0.0000000001
 40
0.0
 40
0.0
 40
0.0
 40
0.0
 40
0.2444232986
 40
1.0
 40
1.0
 40
1.0
 40
1.0
 10
43.2645305854
 20
83.2174848585
 30
0.0
 10
43.2634115317
 20
83.2097404178
 30
0.0
 10
43.2582311909
 20
83.1781789467
 30
0.0
 10
43.253307578
 20
83.1463137728
 30
0.0
 10
43.253307578
 20
83.122125031
 30
0.0
  0
SPLINE
  5
674
100
AcDbEntity
  8
0
100
AcDbSpline
 62
7
  6
CONTINUOUS
 70
0
 71
3
 72
9
 73
5
 74
0
 42
0.0000001
 43
0.0000001
 44
0.0000000001
 40
0.0
 40
0.0
 40
0.0
 40
0.0
 40
0.2708212072
 40
1.0
 40
1.0
 40
1.0
 40
1.0
 10
43.2971232112
 20
83.4213035096
 30
0.0
 10
43.2929683544
 20
83.4212021641
 30
0.0
 10
43.2776359603
 20
83.4207221364
 30
0.0
 10
43.2622701328
 20
83.4197680863
 30
0.0
 10
43.2512124381
 20
83.4180513372
 30
0.0
  0
SPLINE
  5
675
100
AcDbEntity
  8
0
100
AcDbSpline
 62
7
  6
CONTINUOUS
 70
0
 71
3
 72
11
 73
7
 74
0
 42
0.0000001
 43
0.0000001
 44
0.0000000001
 40
0.0
 40
0.0
 40
0.0
 40
0.0
 40
0.3230967498
 40
0.5783179599
 40
0.7890023957
 40
1.0
 40
1.0
 40
1.0
 40
1.0
 10
43.2512124381
 20
83.4180513372
 30
0.0
 10
43.2452876009
 20
83.4171314838
 30
0.0
 10
43.2347626247
 20
83.4149297553
 30
0.0
 10
43.2211262363
 20
83.4088867729
 30
0.0
 10
43.2126072495
 20
83.3989477219
 30
0.0
 10
43.2111797999
 20
83.3909074957
 30
0.0
 10
43.2111797999
 20
83.3869919407
 30
0.0
  0
SPLINE
  5
676
100
AcDbEntity
  8
0
100
AcDbSpline
 62
7
  6
CONTINUOUS
 70
0
 71
3
 72
9
 73
5
 74
0
 42
0.0000001
 43
0.0000001
 44
0.0000000001
 40
0.0
 40
0.0
 40
0.0
 40
0.0
 40
0.3226254473
 40
1.0
 40
1.0
 40
1.0
 40
1.0
 10
43.2971229133
 20
58.6100748307
 30
0.0
 10
43.3063682141
 20
58.6100152164
 30
0.0
 10
43.3350233632
 20
58.6097669668
 30
0.0
 10
43.3636837256
 20
58.6095135454
 30
0.0
 10
43.3830851243
 20
58.6088856824
 30
0.0
  0
SPLINE
  5
677
100
AcDbEntity
  8
0
100
AcDbSpline
 62
7
  6
CONTINUOUS
 70
0
 71
3
 72
11
 73
7
 74
0
 42
0.0000001
 43
0.0000001
 44
0.0000000001
 40
0.0
 40
0.0
 40
0.0
 40
0.0
 40
0.4328454445
 40
0.7449955023
 40
0.9343997139
 40
1.0
 40
1.0
 40
1.0
 40
1.0
 10
43.3830851243
 20
58.6088856824
 30
0.0
 10
43.3848037388
 20
58.6088300651
 30
0.0
 10
43.3876610974
 20
58.6086695827
 30
0.0
 10
43.3916760652
 20
58.6086509668
 30
0.0
 10
43.3933873787
 20
58.6081912319
 30
0.0
 10
43.3949585668
 20
58.608352974
 30
0.0
 10
43.3949585668
 20
58.6080923715
 30
0.0
  0
SPLINE
  5
678
100
AcDbEntity
  8
0
100
AcDbSpline
 62
7
  6
CONTINUOUS
 70
0
 71
3
 72
9
 73
5
 74
0
 42
0.0000001
 43
0.0000001
 44
0.0000000001
 40
0.0
 40
0.0
 40
0.0
 40
0.0
 40
0.2383903518
 40
1.0
 40
1.0
 40
1.0
 40
1.0
 10
43.3255098063
 20
83.4221026419
 30
0.0
 10
43.323253267
 20
83.4220807719
 30
0.0
 10
43.313788105
 20
83.4219259971
 30
0.0
 10
43.3043272277
 20
83.4215854544
 30
0.0
 10
43.2971232112
 20
83.4213035096
 30
0.0
  0
SPLINE
  5
679
100
AcDbEntity
  8
0
100
AcDbSpline
 62
7
  6
CONTINUOUS
 70
0
 71
3
 72
14
 73
10
 74
0
 42
0.0000001
 43
0.0000001
 44
0.0000000001
 40
0.0
 40
0.0
 40
0.0
 40
0.0
 40
0.0171423271
 40
0.0671325037
 40
0.149555553
 40
0.263496173
 40
0.4075121605
 40
0.5800325796
 40
1.0
 40
1.0
 40
1.0
 40
1.0
 10
43.3949586289
 20
83.4238587974
 30
0.0
 10
43.3949586289
 20
83.42346167
 30
0.0
 10
43.3925158981
 20
83.4238374777
 30
0.0
 10
43.3899072142
 20
83.4231006282
 30
0.0
 10
43.3837269377
 20
83.4231708635
 30
0.0
 10
43.3760519477
 20
83.4228200917
 30
0.0
 10
43.3660029731
 20
83.4226544936
 30
0.0
 10
43.3489797078
 20
83.4223453423
 30
0.0
 10
43.3352385161
 20
83.4221969313
 30
0.0
 10
43.3255098063
 20
83.4221026419
 30
0.0
  0
SPLINE
  5
67A
100
AcDbEntity
  8
0
100
AcDbSpline
 62
7
  6
CONTINUOUS
 70
0
 71
3
 72
16
 73
12
 74
0
 42
0.0000001
 43
0.0000001
 44
0.0000000001
 40
0.0
 40
0.0
 40
0.0
 40
0.0
 40
0.4119153372
 40
0.5847231511
 40
0.7303515611
 40
0.8464695802
 40
0.9309244524
 40
0.960814845
 40
0.9823335636
 40
0.9953871904
 40
1.0
 40
1.0
 40
1.0
 40
1.0
 10
43.3981758669
 20
58.6040919408
 30
0.0
 10
43.4116168242
 20
58.6040052726
 30
0.0
 10
43.430698857
 20
58.6038487134
 30
0.0
 10
43.4545234778
 20
58.603538467
 30
0.0
 10
43.4687137015
 20
58.6033027794
 30
0.0
 10
43.4799750987
 20
58.6030304562
 30
0.0
 10
43.4875609489
 20
58.6028191361
 30
0.0
 10
43.4918950906
 20
58.6025654498
 30
0.0
 10
43.494151141
 20
58.6024895796
 30
0.0
 10
43.4951415296
 20
58.6022452589
 30
0.0
 10
43.4960115204
 20
58.6022600025
 30
0.0
 10
43.4960115204
 20
58.6021094816
 30
0.0
  0
SPLINE
  5
67B
100
AcDbEntity
  8
0
100
AcDbSpline
 62
7
  6
CONTINUOUS
 70
0
 71
3
 72
16
 73
12
 74
0
 42
0.0000001
 43
0.0000001
 44
0.0000000001
 40
0.0
 40
0.0
 40
0.0
 40
0.0
 40
0.0046130119
 40
0.0176671775
 40
0.0391866177
 40
0.0690777657
 40
0.1535336665
 40
0.26965166
 40
0.4152792618
 40
0.5880858663
 40
1.0
 40
1.0
 40
1.0
 40
1.0
 10
43.4960116321
 20
83.4298416848
 30
0.0
 10
43.4960116321
 20
83.4296911599
 30
0.0
 10
43.4951416142
 20
83.4297059182
 30
0.0
 10
43.4941512095
 20
83.4294615884
 30
0.0
 10
43.4918951247
 20
83.4293857263
 30
0.0
 10
43.4875609777
 20
83.4291320417
 30
0.0
 10
43.4799751986
 20
83.4289207268
 30
0.0
 10
43.4687139871
 20
83.428648406
 30
0.0
 10
43.4545240722
 20
83.428412721
 30
0.0
 10
43.4306999628
 20
83.4281024753
 30
0.0
 10
43.4116183342
 20
83.4279459167
 30
0.0
 10
43.3981776454
 20
83.4278592503
 30
0.0
  0
SPLINE
  5
67C
100
AcDbEntity
  8
0
100
AcDbSpline
 62
7
  6
CONTINUOUS
 70
0
 71
3
 72
16
 73
12
 74
0
 42
0.0000001
 43
0.0000001
 44
0.0000000001
 40
0.0
 40
0.0
 40
0.0
 40
0.0
 40
0.4119153447
 40
0.5847231613
 40
0.7303515727
 40
0.8464695911
 40
0.9309244596
 40
0.9608148497
 40
0.982333566
 40
0.995387191
 40
1.0
 40
1.0
 40
1.0
 40
1.0
 10
43.4992288205
 20
58.5981090509
 30
0.0
 10
43.5126697781
 20
58.5980223827
 30
0.0
 10
43.5317518112
 20
58.5978658235
 30
0.0
 10
43.5555764324
 20
58.5975555771
 30
0.0
 10
43.5697666562
 20
58.5973198895
 30
0.0
 10
43.5810280533
 20
58.5970475663
 30
0.0
 10
43.5886139033
 20
58.5968362461
 30
0.0
 10
43.5929480447
 20
58.5965825599
 30
0.0
 10
43.5952040948
 20
58.5965066896
 30
0.0
 10
43.5961944833
 20
58.596262369
 30
0.0
 10
43.597064474
 20
58.5962771125
 30
0.0
 10
43.597064474
 20
58.5961265917
 30
0.0
  0
SPLINE
  5
67D
100
AcDbEntity
  8
0
100
AcDbSpline
 62
7
  6
CONTINUOUS
 70
0
 71
3
 72
16
 73
12
 74
0
 42
0.0000001
 43
0.0000001
 44
0.0000000001
 40
0.0
 40
0.0
 40
0.0
 40
0.0
 40
0.0046130119
 40
0.0176671776
 40
0.0391866178
 40
0.0690777657
 40
0.1535336666
 40
0.2696516601
 40
0.4152792619
 40
0.5880858664
 40
1.0
 40
1.0
 40
1.0
 40
1.0
 10
43.5970645857
 20
83.4358245747
 30
0.0
 10
43.5970645857
 20
83.4356740498
 30
0.0
 10
43.5961945678
 20
83.4356888081
 30
0.0
 10
43.5952041631
 20
83.4354444783
 30
0.0
 10
43.5929480783
 20
83.4353686162
 30
0.0
 10
43.5886139313
 20
83.4351149316
 30
0.0
 10
43.5810281522
 20
83.4349036167
 30
0.0
 10
43.5697669407
 20
83.4346312959
 30
0.0
 10
43.5555770258
 20
83.4343956109
 30
0.0
 10
43.5317529165
 20
83.4340853652
 30
0.0
 10
43.5126712879
 20
83.4339288066
 30
0.0
 10
43.499230599
 20
83.4338421402
 30
0.0
  0
SPLINE
  5
67E
100
AcDbEntity
  8
0
100
AcDbSpline
 62
7
  6
CONTINUOUS
 70
0
 71
3
 72
16
 73
12
 74
0
 42
0.0000001
 43
0.0000001
 44
0.0000000001
 40
0.0
 40
0.0
 40
0.0
 40
0.0
 40
0.4119153408
 40
0.584723156
 40
0.7303515666
 40
0.8464695854
 40
0.9309244559
 40
0.9608148472
 40
0.9823335647
 40
0.9953871907
 40
1.0
 40
1.0
 40
1.0
 40
1.0
 10
43.6002817741
 20
58.592126161
 30
0.0
 10
43.6137227316
 20
58.5920394928
 30
0.0
 10
43.6328047645
 20
58.5918829336
 30
0.0
 10
43.6566293855
 20
58.5915726872
 30
0.0
 10
43.6708196093
 20
58.5913369996
 30
0.0
 10
43.6820810064
 20
58.5910646764
 30
0.0
 10
43.6896668565
 20
58.5908533563
 30
0.0
 10
43.6940009981
 20
58.59059967
 30
0.0
 10
43.6962570483
 20
58.5905237998
 30
0.0
 10
43.6972474369
 20
58.5902794791
 30
0.0
 10
43.6981174277
 20
58.5902942227
 30
0.0
 10
43.6981174277
 20
58.5901437018
 30
0.0
  0
SPLINE
  5
67F
100
AcDbEntity
  8
0
100
AcDbSpline
 62
7
  6
CONTINUOUS
 70
0
 71
3
 72
16
 73
12
 74
0
 42
0.0000001
 43
0.0000001
 44
0.0000000001
 40
0.0
 40
0.0
 40
0.0
 40
0.0
 40
0.0046130119
 40
0.0176671775
 40
0.0391866178
 40
0.0690777657
 40
0.1535336666
 40
0.2696516601
 40
0.4152792618
 40
0.5880858663
 40
1.0
 40
1.0
 40
1.0
 40
1.0
 10
43.6981175393
 20
83.4418074646
 30
0.0
 10
43.6981175393
 20
83.4416569397
 30
0.0
 10
43.6972475214
 20
83.441671698
 30
0.0
 10
43.6962571167
 20
83.4414273682
 30
0.0
 10
43.694001032
 20
83.4413515061
 30
0.0
 10
43.689666885
 20
83.4410978216
 30
0.0
 10
43.6820811058
 20
83.4408865066
 30
0.0
 10
43.6708198944
 20
83.4406141858
 30
0.0
 10
43.6566299794
 20
83.4403785008
 30
0.0
 10
43.6328058701
 20
83.4400682551
 30
0.0
 10
43.6137242415
 20
83.4399116965
 30
0.0
 10
43.6002835527
 20
83.4398250301
 30
0.0
  0
SPLINE
  5
680
100
AcDbEntity
  8
0
100
AcDbSpline
 62
7
  6
CONTINUOUS
 70
0
 71
3
 72
16
 73
12
 74
0
 42
0.0000001
 43
0.0000001
 44
0.0000000001
 40
0.0
 40
0.0
 40
0.0
 40
0.0
 40
0.4119153447
 40
0.5847231612
 40
0.7303515726
 40
0.8464695911
 40
0.9309244596
 40
0.9608148497
 40
0.982333566
 40
0.995387191
 40
1.0
 40
1.0
 40
1.0
 40
1.0
 10
43.7013347278
 20
58.586143271
 30
0.0
 10
43.7147756853
 20
58.5860566029
 30
0.0
 10
43.7338577185
 20
58.5859000437
 30
0.0
 10
43.7576823396
 20
58.5855897973
 30
0.0
 10
43.7718725635
 20
58.5853541097
 30
0.0
 10
43.7831339606
 20
58.5850817865
 30
0.0
 10
43.7907198105
 20
58.5848704663
 30
0.0
 10
43.795053952
 20
58.5846167801
 30
0.0
 10
43.7973100021
 20
58.5845409098
 30
0.0
 10
43.7983003906
 20
58.5842965892
 30
0.0
 10
43.7991703813
 20
58.5843113327
 30
0.0
 10
43.7991703813
 20
58.5841608118
 30
0.0
  0
SPLINE
  5
681
100
AcDbEntity
  8
0
100
AcDbSpline
 62
7
  6
CONTINUOUS
 70
0
 71
3
 72
16
 73
12
 74
0
 42
0.0000001
 43
0.0000001
 44
0.0000000001
 40
0.0
 40
0.0
 40
0.0
 40
0.0
 40
0.0046130119
 40
0.0176671776
 40
0.0391866178
 40
0.0690777657
 40
0.1535336666
 40
0.2696516601
 40
0.4152792619
 40
0.5880858664
 40
1.0
 40
1.0
 40
1.0
 40
1.0
 10
43.799170493
 20
83.4477903545
 30
0.0
 10
43.799170493
 20
83.4476398296
 30
0.0
 10
43.7983004751
 20
83.4476545879
 30
0.0
 10
43.7973100704
 20
83.4474102581
 30
0.0
 10
43.7950539856
 20
83.447334396
 30
0.0
 10
43.7907198386
 20
83.4470807115
 30
0.0
 10
43.7831340594
 20
83.4468693965
 30
0.0
 10
43.771872848
 20
83.4465970757
 30
0.0
 10
43.757682933
 20
83.4463613907
 30
0.0
 10
43.7338588237
 20
83.446051145
 30
0.0
 10
43.7147771951
 20
83.4458945864
 30
0.0
 10
43.7013365063
 20
83.44580792
 30
0.0
  0
SPLINE
  5
682
100
AcDbEntity
  8
0
100
AcDbSpline
 62
7
  6
CONTINUOUS
 70
0
 71
3
 72
16
 73
12
 74
0
 42
0.0000001
 43
0.0000001
 44
0.0000000001
 40
0.0
 40
0.0
 40
0.0
 40
0.0
 40
0.4119153407
 40
0.5847231559
 40
0.7303515666
 40
0.8464695854
 40
0.9309244558
 40
0.9608148472
 40
0.9823335647
 40
0.9953871907
 40
1.0
 40
1.0
 40
1.0
 40
1.0
 10
43.8023876814
 20
58.5801603811
 30
0.0
 10
43.8158286388
 20
58.580073713
 30
0.0
 10
43.8349106718
 20
58.5799171538
 30
0.0
 10
43.8587352927
 20
58.5796069074
 30
0.0
 10
43.8729255165
 20
58.5793712198
 30
0.0
 10
43.8841869137
 20
58.5790988966
 30
0.0
 10
43.8917727637
 20
58.5788875765
 30
0.0
 10
43.8961069053
 20
58.5786338902
 30
0.0
 10
43.8983629556
 20
58.57855802
 30
0.0
 10
43.8993533441
 20
58.5783136993
 30
0.0
 10
43.9002233349
 20
58.5783284429
 30
0.0
 10
43.9002233349
 20
58.578177922
 30
0.0
  0
SPLINE
  5
683
100
AcDbEntity
  8
0
100
AcDbSpline
 62
7
  6
CONTINUOUS
 70
0
 71
3
 72
16
 73
12
 74
0
 42
0.0000001
 43
0.0000001
 44
0.0000000001
 40
0.0
 40
0.0
 40
0.0
 40
0.0
 40
0.0046130119
 40
0.0176671775
 40
0.0391866177
 40
0.0690777656
 40
0.1535336664
 40
0.2696516599
 40
0.4152792617
 40
0.5880858662
 40
1.0
 40
1.0
 40
1.0
 40
1.0
 10
43.9002234466
 20
83.4537732444
 30
0.0
 10
43.9002234466
 20
83.4536227195
 30
0.0
 10
43.8993534287
 20
83.4536374778
 30
0.0
 10
43.898363024
 20
83.4533931481
 30
0.0
 10
43.8961069392
 20
83.4533172859
 30
0.0
 10
43.8917727922
 20
83.4530636014
 30
0.0
 10
43.8841870131
 20
83.4528522864
 30
0.0
 10
43.8729258016
 20
83.4525799656
 30
0.0
 10
43.8587358867
 20
83.4523442806
 30
0.0
 10
43.8349117774
 20
83.4520340349
 30
0.0
 10
43.8158301487
 20
83.4518774763
 30
0.0
 10
43.8023894599
 20
83.4517908099
 30
0.0
  0
SPLINE
  5
684
100
AcDbEntity
  8
0
100
AcDbSpline
 62
7
  6
CONTINUOUS
 70
0
 71
3
 72
16
 73
12
 74
0
 42
0.0000001
 43
0.0000001
 44
0.0000000001
 40
0.0
 40
0.0
 40
0.0
 40
0.0
 40
0.411915345
 40
0.5847231617
 40
0.7303515731
 40
0.8464695916
 40
0.9309244599
 40
0.9608148499
 40
0.9823335661
 40
0.995387191
 40
1.0
 40
1.0
 40
1.0
 40
1.0
 10
43.903440635
 20
58.5741774912
 30
0.0
 10
43.9168815926
 20
58.5740908231
 30
0.0
 10
43.9359636257
 20
58.5739342639
 30
0.0
 10
43.9597882469
 20
58.5736240175
 30
0.0
 10
43.9739784708
 20
58.5733883298
 30
0.0
 10
43.9852398679
 20
58.5731160067
 30
0.0
 10
43.9928257178
 20
58.5729046865
 30
0.0
 10
43.9971598592
 20
58.5726510003
 30
0.0
 10
43.9994159094
 20
58.57257513
 30
0.0
 10
44.0004062978
 20
58.5723308094
 30
0.0
 10
44.0012762886
 20
58.5723455529
 30
0.0
 10
44.0012762886
 20
58.572195032
 30
0.0
  0
SPLINE
  5
685
100
AcDbEntity
  8
0
100
AcDbSpline
 62
7
  6
CONTINUOUS
 70
0
 71
3
 72
16
 73
12
 74
0
 42
0.0000001
 43
0.0000001
 44
0.0000000001
 40
0.0
 40
0.0
 40
0.0
 40
0.0
 40
0.0046130119
 40
0.0176671775
 40
0.0391866177
 40
0.0690777657
 40
0.1535336665
 40
0.26965166
 40
0.4152792618
 40
0.5880858663
 40
1.0
 40
1.0
 40
1.0
 40
1.0
 10
44.0012764002
 20
83.4597561343
 30
0.0
 10
44.0012764002
 20
83.4596056094
 30
0.0
 10
44.0004063823
 20
83.4596203677
 30
0.0
 10
43.9994159776
 20
83.459376038
 30
0.0
 10
43.9971598929
 20
83.4593001758
 30
0.0
 10
43.9928257459
 20
83.4590464913
 30
0.0
 10
43.9852399667
 20
83.4588351763
 30
0.0
 10
43.9739787553
 20
83.4585628555
 30
0.0
 10
43.9597888403
 20
83.4583271705
 30
0.0
 10
43.935964731
 20
83.4580169248
 30
0.0
 10
43.9168831024
 20
83.4578603662
 30
0.0
 10
43.9034424135
 20
83.4577736998
 30
0.0
  0
SPLINE
  5
686
100
AcDbEntity
  8
0
100
AcDbSpline
 62
7
  6
CONTINUOUS
 70
0
 71
3
 72
16
 73
12
 74
0
 42
0.0000001
 43
0.0000001
 44
0.0000000001
 40
0.0
 40
0.0
 40
0.0
 40
0.0
 40
0.4119153406
 40
0.5847231557
 40
0.7303515663
 40
0.8464695851
 40
0.9309244556
 40
0.9608148471
 40
0.9823335647
 40
0.9953871907
 40
1.0
 40
1.0
 40
1.0
 40
1.0
 10
44.0044935886
 20
58.5681946013
 30
0.0
 10
44.0179345461
 20
58.5681079332
 30
0.0
 10
44.037016579
 20
58.567951374
 30
0.0
 10
44.0608411999
 20
58.5676411276
 30
0.0
 10
44.0750314238
 20
58.56740544
 30
0.0
 10
44.0862928209
 20
58.5671331168
 30
0.0
 10
44.093878671
 20
58.5669217966
 30
0.0
 10
44.0982128126
 20
58.5666681104
 30
0.0
 10
44.1004688628
 20
58.5665922401
 30
0.0
 10
44.1014592514
 20
58.5663479195
 30
0.0
 10
44.1023292422
 20
58.566362663
 30
0.0
 10
44.1023292422
 20
58.5662121422
 30
0.0
  0
SPLINE
  5
687
100
AcDbEntity
  8
0
100
AcDbSpline
 62
7
  6
CONTINUOUS
 70
0
 71
3
 72
16
 73
12
 74
0
 42
0.0000001
 43
0.0000001
 44
0.0000000001
 40
0.0
 40
0.0
 40
0.0
 40
0.0
 40
0.0046130124
 40
0.0176671795
 40
0.0391866216
 40
0.0690777716
 40
0.1535336755
 40
0.2696516696
 40
0.4152792702
 40
0.5880858725
 40
1.0
 40
1.0
 40
1.0
 40
1.0
 10
44.1023293538
 20
83.4657390242
 30
0.0
 10
44.1023293538
 20
83.4655884992
 30
0.0
 10
44.1014593358
 20
83.4656032576
 30
0.0
 10
44.100468931
 20
83.4653589278
 30
0.0
 10
44.0982128461
 20
83.4652830657
 30
0.0
 10
44.0938786989
 20
83.4650293811
 30
0.0
 10
44.0862929195
 20
83.4648180662
 30
0.0
 10
44.075031708
 20
83.4645457454
 30
0.0
 10
44.0608417931
 20
83.4643100604
 30
0.0
 10
44.0370176841
 20
83.4639998147
 30
0.0
 10
44.0179360558
 20
83.4638432561
 30
0.0
 10
44.0044953672
 20
83.4637565897
 30
0.0
  0
SPLINE
  5
688
100
AcDbEntity
  8
0
100
AcDbSpline
 62
7
  6
CONTINUOUS
 70
0
 71
3
 72
18
 73
14
 74
0
 42
0.0000001
 43
0.0000001
 44
0.0000000001
 40
0.0
 40
0.0
 40
0.0
 40
0.0
 40
0.1944087204
 40
0.3821299607
 40
0.554829382
 40
0.706076411
 40
0.83019844
 40
0.8806493253
 40
0.922651284
 40
0.9557371065
 40
0.9796844522
 40
0.9943701318
 40
1.0
 40
1.0
 40
1.0
 40
1.0
 10
37.8196965158
 20
61.0184104993
 30
0.0
 10
37.8196965158
 20
60.9989396409
 30
0.0
 10
37.8198076435
 20
60.9606674226
 30
0.0
 10
37.8202912375
 20
60.9051014981
 30
0.0
 10
37.8210798216
 20
60.8538587641
 30
0.0
 10
37.8221332285
 20
60.809002622
 30
0.0
 10
37.8232477129
 20
60.7763687935
 30
0.0
 10
37.8242943298
 20
60.7547335037
 30
0.0
 10
37.82505067
 20
60.7421159352
 30
0.0
 10
37.8258499332
 20
60.7324035752
 30
0.0
 10
37.8266040714
 20
60.7248558474
 30
0.0
 10
37.8274028256
 20
60.7212198198
 30
0.0
 10
37.8279692051
 20
60.7184403596
 30
0.0
 10
37.8285330603
 20
60.7184403596
 30
0.0
  0
SPLINE
  5
689
100
AcDbEntity
  8
0
100
AcDbSpline
 62
7
  6
CONTINUOUS
 70
0
 71
3
 72
18
 73
14
 74
0
 42
0.0000001
 43
0.0000001
 44
0.0000000001
 40
0.0
 40
0.0
 40
0.0
 40
0.0
 40
0.1944140314
 40
0.3821375562
 40
0.5548375425
 40
0.7060845475
 40
0.8302063468
 40
0.8806566614
 40
0.9226574243
 40
0.9557413641
 40
0.9796866409
 40
0.9943706779
 40
1.0
 40
1.0
 40
1.0
 40
1.0
 10
37.8196965157
 20
73.2183846634
 30
0.0
 10
37.8196965157
 20
73.1989150522
 30
0.0
 10
37.8198077097
 20
73.1606455701
 30
0.0
 10
37.8202914626
 20
73.1050839069
 30
0.0
 10
37.8210801023
 20
73.0538455743
 30
0.0
 10
37.8221334954
 20
73.0089935007
 30
0.0
 10
37.8232479484
 20
72.9763627407
 30
0.0
 10
37.8242945225
 20
72.9547296269
 30
0.0
 10
37.8250508395
 20
72.9421135894
 30
0.0
 10
37.8258500363
 20
72.9324026036
 30
0.0
 10
37.8266042125
 20
72.9248562241
 30
0.0
 10
37.8274027999
 20
72.9212207796
 30
0.0
 10
37.8279693113
 20
72.9184420222
 30
0.0
 10
37.8285330603
 20
72.9184420222
 30
0.0
  0
SPLINE
  5
68A
100
AcDbEntity
  8
0
100
AcDbSpline
 62
7
  6
CONTINUOUS
 70
0
 71
3
 72
9
 73
5
 74
0
 42
0.0000001
 43
0.0000001
 44
0.0000000001
 40
0.0
 40
0.0
 40
0.0
 40
0.0
 40
0.3781203739
 40
1.0
 40
1.0
 40
1.0
 40
1.0
 10
60.541128559
 20
60.6829696359
 30
0.0
 10
60.5409191263
 20
60.657730037
 30
0.0
 10
60.5403995749
 20
60.5909788302
 30
0.0
 10
60.540701149
 20
60.5242257417
 30
0.0
 10
60.5406397418
 20
60.482713788
 30
0.0
  0
SPLINE
  5
68B
100
AcDbEntity
  8
0
100
AcDbSpline
 62
7
  6
CONTINUOUS
 70
0
 71
3
 72
11
 73
7
 74
0
 42
0.0000001
 43
0.0000001
 44
0.0000000001
 40
0.0
 40
0.0
 40
0.0
 40
0.0
 40
0.253063832
 40
0.500000164
 40
0.7469364466
 40
1.0
 40
1.0
 40
1.0
 40
1.0
 10
34.1104597586
 20
80.7129277465
 30
0.0
 10
34.1104672416
 20
80.8048893472
 30
0.0
 10
34.1486214762
 20
80.9886528498
 30
0.0
 10
34.3055118826
 20
81.2177682886
 30
0.0
 10
34.5346258453
 20
81.3746606342
 30
0.0
 10
34.7183888378
 20
81.4128166105
 30
0.0
 10
34.8103503372
 20
81.4128249891
 30
0.0
  0
SPLINE
  5
68C
100
AcDbEntity
  8
0
100
AcDbSpline
 62
7
  6
CONTINUOUS
 70
0
 71
3
 72
11
 73
7
 74
0
 42
0.0000001
 43
0.0000001
 44
0.0000000001
 40
0.0
 40
0.0
 40
0.0
 40
0.0
 40
0.2868357202
 40
0.5546805768
 40
0.7906673166
 40
1.0
 40
1.0
 40
1.0
 40
1.0
 10
61.0126352356
 20
70.6031281395
 30
0.0
 10
61.0382002678
 20
70.6033512592
 30
0.0
 10
61.0878450593
 20
70.6105430956
 30
0.0
 10
61.1530340172
 20
70.6401103836
 30
0.0
 10
61.1994496432
 20
70.6860455388
 30
0.0
 10
61.2122792455
 20
70.7258942663
 30
0.0
 10
61.2126047746
 20
70.7445494952
 30
0.0
  0
SPLINE
  5
68D
100
AcDbEntity
  8
0
100
AcDbSpline
 62
7
  6
CONTINUOUS
 70
0
 71
3
 72
13
 73
9
 74
0
 42
0.0000001
 43
0.0000001
 44
0.0000000001
 40
0.0
 40
0.0
 40
0.0
 40
0.0
 40
0.3640299516
 40
0.5284196374
 40
0.6729797245
 40
0.7934924057
 40
0.8874607055
 40
1.0
 40
1.0
 40
1.0
 40
1.0
 10
78.1033530049
 20
65.3617067834
 30
0.0
 10
78.1033525521
 20
65.4134797682
 30
0.0
 10
78.0998913946
 20
65.4887030608
 30
0.0
 10
78.0872646086
 20
65.5837142826
 30
0.0
 10
78.0753168628
 20
65.6434528804
 30
0.0
 10
78.0601083906
 20
65.692997033
 30
0.0
 10
78.0427009399
 20
65.7340383989
 30
0.0
 10
78.0193585428
 20
65.7617067834
 30
0.0
 10
78.0033530049
 20
65.7617067834
 30
0.0
  0
SPLINE
  5
68E
100
AcDbEntity
  8
0
100
AcDbSpline
 62
7
  6
CONTINUOUS
 70
0
 71
3
 72
13
 73
9
 74
0
 42
0.0000001
 43
0.0000001
 44
0.0000000001
 40
0.0
 40
0.0
 40
0.0
 40
0.0
 40
0.1125226967
 40
0.2064947988
 40
0.3270241938
 40
0.4716151129
 40
0.6360131073
 40
1.0
 40
1.0
 40
1.0
 40
1.0
 10
78.0033530049
 20
69.7617067834
 30
0.0
 10
78.0193561338
 20
69.7617067834
 30
0.0
 10
78.0426995883
 20
69.789370505
 30
0.0
 10
78.0601018442
 20
69.8304149256
 30
0.0
 10
78.0753191975
 20
69.879963697
 30
0.0
 10
78.0872607671
 20
69.9397119015
 30
0.0
 10
78.0998833074
 20
70.0347223187
 30
0.0
 10
78.1033525522
 20
70.1099400792
 30
0.0
 10
78.1033530049
 20
70.1617067835
 30
0.0
  0
SPLINE
  5
68F
100
AcDbEntity
  8
0
100
AcDbSpline
 62
7
  6
CONTINUOUS
 70
0
 71
3
 72
13
 73
9
 74
0
 42
0.0000001
 43
0.0000001
 44
0.0000000001
 40
0.0
 40
0.0
 40
0.0
 40
0.0
 40
0.3640299516
 40
0.5284196374
 40
0.6729797245
 40
0.7934924057
 40
0.8874607055
 40
1.0
 40
1.0
 40
1.0
 40
1.0
 10
78.1033530049
 20
71.7617067834
 30
0.0
 10
78.1033525521
 20
71.8134797682
 30
0.0
 10
78.0998913946
 20
71.8887030608
 30
0.0
 10
78.0872646086
 20
71.9837142826
 30
0.0
 10
78.0753168628
 20
72.0434528804
 30
0.0
 10
78.0601083906
 20
72.092997033
 30
0.0
 10
78.0427009399
 20
72.134038399
 30
0.0
 10
78.0193585428
 20
72.1617067834
 30
0.0
 10
78.0033530049
 20
72.1617067834
 30
0.0
  0
SPLINE
  5
690
100
AcDbEntity
  8
0
100
AcDbSpline
 62
7
  6
CONTINUOUS
 70
0
 71
3
 72
13
 73
9
 74
0
 42
0.0000001
 43
0.0000001
 44
0.0000000001
 40
0.0
 40
0.0
 40
0.0
 40
0.0
 40
0.1125226967
 40
0.2064947988
 40
0.3270241938
 40
0.4716151129
 40
0.6360131073
 40
1.0
 40
1.0
 40
1.0
 40
1.0
 10
78.0033530049
 20
76.1617067834
 30
0.0
 10
78.0193561338
 20
76.1617067834
 30
0.0
 10
78.0426995883
 20
76.1893705049
 30
0.0
 10
78.0601018442
 20
76.2304149256
 30
0.0
 10
78.0753191974
 20
76.279963697
 30
0.0
 10
78.0872607671
 20
76.3397119015
 30
0.0
 10
78.0998833074
 20
76.4347223187
 30
0.0
 10
78.1033525522
 20
76.5099400792
 30
0.0
 10
78.1033530049
 20
76.5617067835
 30
0.0
  0
ELLIPSE
  5
691
100
AcDbEntity
  8
0
100
AcDbEllipse
 62
7
  6
CONTINUOUS
 10
37.710289217
 20
66.2617144015
 30
0.0
 11
0.3535803156
 21
-0.3535803156
 31
0.0
 40
0.9999238505
 41
8.6394178736
 42
10.210138048
  0
ELLIPSE
  5
692
100
AcDbEntity
  8
0
100
AcDbEllipse
 62
7
  6
CONTINUOUS
 10
37.710289217
 20
63.2704793477
 30
0.0
 11
0.3535803156
 21
0.3535803156
 31
0.0
 40
0.9999238505
 41
2.3562325664
 42
3.9269527408
  0
ELLIPSE
  5
693
100
AcDbEntity
  8
0
100
AcDbEllipse
 62
7
  6
CONTINUOUS
 10
56.0155006636
 20
80.0379216597
 30
0.0
 11
0.2037743519
 21
-0.0088915591
 31
0.0
 40
0.9805447742
 41
-3.0988333095
 42
-1.5263255674
  0
ELLIPSE
  5
694
100
AcDbEntity
  8
0
100
AcDbEllipse
 62
7
  6
CONTINUOUS
 10
56.0155006636
 20
71.8855452216
 30
0.0
 11
0.2037743519
 21
0.0088915591
 31
0.0
 40
0.9805447742
 41
1.5263255674
 42
3.0988333095
  0
ELLIPSE
  5
695
100
AcDbEntity
  8
0
100
AcDbEllipse
 62
7
  6
CONTINUOUS
 10
55.7533530049
 20
82.0518315477
 30
0.0
 11
1.75
 21
0.0
 31
0.0
 40
0.0122179127
 41
1.5707963268
 42
3.1415926536
  0
ELLIPSE
  5
696
100
AcDbEntity
  8
0
100
AcDbEllipse
 62
7
  6
CONTINUOUS
 10
55.7533530049
 20
59.9801196307
 30
0.0
 11
1.75
 21
0.0
 31
0.0
 40
0.0122179127
 41
3.1415926536
 42
4.7123889804
  0
ELLIPSE
  5
697
100
AcDbEntity
  8
0
100
AcDbEllipse
 62
7
  6
CONTINUOUS
 10
58.8552844656
 20
59.9373569364
 30
0.0
 11
1.75
 21
-0.0
 31
0.0
 40
0.0122179127
 41
-0.0
 42
1.4285637978
  0
ELLIPSE
  5
698
100
AcDbEntity
  8
0
100
AcDbEllipse
 62
7
  6
CONTINUOUS
 10
34.7616312798
 20
80.7616534685
 30
0.0
 11
0.4951255324
 21
-0.4951255324
 31
0.0
 40
0.9996954599
 41
2.5695605988
 42
3.9268490145
  0
ELLIPSE
  5
699
100
AcDbEntity
  8
0
100
AcDbEllipse
 62
7
  6
CONTINUOUS
 10
34.7616312798
 20
61.1618134129
 30
0.0
 11
0.4951255324
 21
0.4951255324
 31
0.0
 40
0.9996954599
 41
2.3563362923
 42
3.7117446074
  0
ELLIPSE
  5
69A
100
AcDbEntity
  8
0
100
AcDbEllipse
 62
7
  6
CONTINUOUS
 10
60.5614332534
 20
61.1618134129
 30
0.0
 11
0.4951255324
 21
-0.4951255324
 31
0.0
 40
0.9996954599
 41
-0.5700135067
 42
0.7852458687
  0
ELLIPSE
  5
69B
100
AcDbEntity
  8
0
100
AcDbEllipse
 62
7
  6
CONTINUOUS
 10
54.4097419939
 20
68.0617220162
 30
0.0
 11
0.0707322189
 21
-0.0707322189
 31
0.0
 40
0.9996954599
 41
2.3563467835
 42
3.9268385258
  0
ELLIPSE
  5
69C
100
AcDbEntity
  8
0
100
AcDbEllipse
 62
7
  6
CONTINUOUS
 10
44.0874028096
 20
83.4709474051
 30
0.0
 11
0.1
 21
-0.0
 31
0.0
 40
0.0122179127
 41
-1.3137500562
 42
-0.2035077268
  0
ELLIPSE
  5
69D
100
AcDbEntity
  8
0
100
AcDbEllipse
 62
7
  6
CONTINUOUS
 10
44.0874028096
 20
58.5610037733
 30
0.0
 11
0.1
 21
0.0
 31
0.0
 40
0.0122179127
 41
0.203507727
 42
0.5645675378
  0
ELLIPSE
  5
69E
100
AcDbEntity
  8
0
100
AcDbEllipse
 62
7
  6
CONTINUOUS
 10
55.7533530049
 20
84.0519808196
 30
0.0
 11
1.75
 21
0.0
 31
0.0
 40
0.0122179127
 41
2.6501125637
 42
3.1415926536
  0
ELLIPSE
  5
69F
100
AcDbEntity
  8
0
100
AcDbEllipse
 62
7
  6
CONTINUOUS
 10
37.8945164603
 20
83.122125031
 30
0.0
 11
-0.0
 21
0.3
 31
0.0
 40
0.0294551485
 41
-1.5707963268
 42
-0.0122173048
  0
ELLIPSE
  5
6A0
100
AcDbEntity
  8
0
100
AcDbEllipse
 62
7
  6
CONTINUOUS
 10
43.2243084575
 20
58.6130690426
 30
0.0
 11
0.0437407129
 21
0.0
 31
0.0
 40
0.0122179127
 41
-0.0
 42
0.8460069525
  0
ELLIPSE
  5
6A1
100
AcDbEntity
  8
0
100
AcDbEllipse
 62
7
  6
CONTINUOUS
 10
55.7533530049
 20
57.9799703589
 30
0.0
 11
1.75
 21
-0.0
 31
0.0
 40
0.0122179127
 41
-3.1415926536
 42
-2.6501125637
  0
ELLIPSE
  5
6A2
100
AcDbEntity
  8
0
100
AcDbEllipse
 62
7
  6
CONTINUOUS
 10
51.4943825955
 20
69.8617067833
 30
0.0
 11
-0.0
 21
0.2
 31
0.0
 40
1.0
 41
-3.9269908169
 42
-3.1415926536
  0
ENDSEC
  0
SECTION
  2
OBJECTS
  0
DICTIONARY
  5
C
100
AcDbDictionary
280
0
281
1
  3
ACAD_GROUP
350
D
  3
ACAD_MLINESTYLE
350
17
  3
ACAD_LAYOUT
350
1A
  3
ACAD_PLOTSETTINGS
350
19
  3
ACAD_PLOTSTYLENAME
350
E
  0
DICTIONARY
  5
D
102
{ACAD_REACTORS
330
C
102
}
100
AcDbDictionary
280
0
281
1
  0
ACDBDICTIONARYWDFLT
  5
E
102
{ACAD_REACTORS
330
C
102
}
100
AcDbDictionary
281
1
  3
Normal
350
F
100
AcDbDictionaryWithDefault
340
F
  0
DICTIONARY
  5
17
102
{ACAD_REACTORS
330
C
102
}
100
AcDbDictionary
280
0
281
1
  3
Standard
350
18
  0
DICTIONARY
  5
19
102
{ACAD_REACTORS
330
C
102
}
100
AcDbDictionary
281
1
  0
DICTIONARY
  5
1A
102
{ACAD_REACTORS
330
C
102
}
100
AcDbDictionary
281
1
  3
Model
350
6A3
  3
Layout1
350
6A4
  0
ACDBPLACEHOLDER
  5
F
102
{ACAD_REACTORS
330
E
102
}
  0
MLINESTYLE
  5
18
102
{ACAD_REACTORS
330
17
102
}
100
AcDbMlineStyle
  2
STANDARD
 70
0
  3

 62
256
 51
90.0
 52
90.0
 71
2
 49
0.5
 62
256
  6
BYLAYER
 49
-0.5
 62
256
  6
BYLAYER
  0
LAYOUT
  5
6A3
102
{ACAD_REACTORS
330
1A
102
}
100
AcDbPlotSettings
  1

  2
none_device
  4

  6

 40
0.0
 41
0.0
 42
0.0
 43
0.0
 44
210.0
 45
297.0
 46
0.0
 47
0.0
 48
0.0
 49
0.0
140
0.0
141
0.0
142
1.0
143
1.0
 70
1024
 72
1
 73
0
 74
0
  7

 75
0
147
1.0
148
0.0
149
0.0
100
AcDbLayout
  1
Model
 70
0
 71
0
 10
0.0
 20
0.0
 11
210.0
 21
297.0
 12
0.0
 22
0.0
 32
0.0
 14
0.0
 24
0.0
 34
0.0
 15
0.0
 25
0.0
 35
0.0
146
0.0
 13
0.0
 23
0.0
 33
0.0
 16
1.0
 26
0.0
 36
0.0
 17
0.0
 27
1.0
 37
0.0
 76
0
330
210
345
0
346
0
  0
LAYOUT
  5
6A4
102
{ACAD_REACTORS
330
1A
102
}
100
AcDbPlotSettings
  1

  2
none_device
  4

  6

 40
0.0
 41
0.0
 42
0.0
 43
0.0
 44
210.0
 45
297.0
 46
0.0
 47
0.0
 48
0.0
 49
0.0
140
0.0
141
0.0
142
1.0
143
1.0
 70
0
 72
1
 73
0
 74
0
  7

 75
0
147
1.0
148
0.0
149
0.0
100
AcDbLayout
  1
Layout1
 70
0
 71
1
 10
0.0
 20
0.0
 11
210.0
 21
297.0
 12
0.0
 22
0.0
 32
0.0
 14
0.0
 24
0.0
 34
0.0
 15
0.0
 25
0.0
 35
0.0
146
0.0
 13
0.0
 23
0.0
 33
0.0
 16
1.0
 26
0.0
 36
0.0
 17
0.0
 27
1.0
 37
0.0
 76
0
330
211
345
0
346
0
  0
ENDSEC
  0
EOF
