999
DXF file: C:\Users\sesa63760\Dev\_Creo\CAD\MCADID0005242_3D-CAD\drw0001_5.dxf
999
Pro/ENGINEER 2019471 by Parametric Technology Corporation
  0
SECTION
  2
HEADER
  9
$ACADVER
  1
AC1024
  9
$DWGCODEPAGE
  3
ANSI_1252
  9
$EXTMAX
 10
65.9356557406
 20
93.251855976
 30
0.0
  9
$EXTMIN
 10
0.0
 20
0.0
 30
0.0
  9
$LIMMIN
 10
0.0
 20
0.0
  9
$LIMMAX
 10
65.9356557406
 20
93.251855976
  9
$VIEWCTR
 10
32.9678278703
 20
46.625927988
  9
$VIEWSIZE
 40
93.251855976
  9
$CLAYER
  8
0
  9
$LTSCALE
 40
6.0786395007
  9
$CELTYPE
  6
BYLAYER
  9
$DIMSCALE
 40
1.0
  9
$DIMASZ
 40
0.7849482826
  9
$DIMEXO
 40
1.0
  9
$DIMDLI
 40
4.1997872914
  9
$DIMEXE
 40
1.0
  9
$DIMCEN
 40
0.9946864637
  9
$DIMLFAC
 40
1.0
  9
$DIMBLK
  1
_FILLED
  9
$DIMALT
 70
0
  9
$DIMALTF
 40
0.0393700787
  9
$DIMTXT
 40
1.0989275957
  9
$DIMTOL
 70
1
  9
$DIMLIM
 70
0
  9
$DIMTFAC
 40
1.0
  9
$DIMTP
 40
0.01
  9
$DIMTM
 40
0.01
  9
$DIMGAP
 40
0.625
  9
$DIMDSEP
 70
46
  9
$AUNITS
 70
0
  9
$PDMODE
 70
3
  9
$PDSIZE
 40
0.3125
  9
$HANDSEED
  5
323
  9
$TILEMODE
 70
1
  9
$MEASUREMENT
 70
1
  9
$INSUNITS
 70
4
  0
ENDSEC
  0
SECTION
  2
CLASSES
  0
CLASS
  1
ACDBDICTIONARYWDFLT
  2
AcDbDictionaryWithDefault
  3
AutoCAD 2000
 90
0
 91
1
280
0
281
0
  0
CLASS
  1
ACDBPLACEHOLDER
  2
AcDbPlaceHolder
  3
AutoCAD 2000
 90
0
 91
1
280
0
281
0
  0
CLASS
  1
LAYOUT
  2
AcDbLayout
  3
AutoCAD 2000
 90
0
 91
0
280
0
281
0
  0
ENDSEC
  0
SECTION
  2
TABLES
  0
TABLE
  2
VPORT
  5
8
100
AcDbSymbolTable
 70
2
  0
VPORT
  5
1F4
100
AcDbSymbolTableRecord
100
AcDbViewportTableRecord
  2
*ACTIVE
 70
0
 10
0.0
 20
0.0
 11
1.0
 21
1.0
 12
32.9678278703
 22
46.625927988
 13
0.0
 23
0.0
 14
1.0
 24
1.0
 15
0.0
 25
0.0
 16
0.0
 26
0.0
 36
1.0
 17
0.0
 27
0.0
 37
0.0
 40
93.251855976
 41
0.7070707071
 42
50.0
 43
0.0
 44
0.0
 50
0.0
 51
0.0
 71
0
 72
100
 73
1
 74
1
 75
0
 76
0
 77
0
 78
0
  0
ENDTAB
  0
TABLE
  2
LTYPE
  5
5
100
AcDbSymbolTable
 70
6
  0
LTYPE
  5
14
100
AcDbSymbolTableRecord
100
AcDbLinetypeTableRecord
  2
BYBLOCK
 70
0
  3

 72
65
 73
0
 40
0.0
  0
LTYPE
  5
15
100
AcDbSymbolTableRecord
100
AcDbLinetypeTableRecord
  2
BYLAYER
 70
0
  3

 72
65
 73
0
 40
0.0
  0
LTYPE
  5
16
100
AcDbSymbolTableRecord
100
AcDbLinetypeTableRecord
  2
CONTINUOUS
 70
64
  3
Solid line
 72
65
 73
0
 40
0.0
  0
LTYPE
  5
1F5
100
AcDbSymbolTableRecord
100
AcDbLinetypeTableRecord
  2
CENTER
 70
64
  3
____ _ ____ _ ____ _ ____ _ ____ _ ____ _ ____
 72
65
 73
4
 40
0.6
 49
0.375
 74
0
 49
-0.075
 74
0
 49
0.075
 74
0
 49
-0.075
 74
0
  0
LTYPE
  5
1F6
100
AcDbSymbolTableRecord
100
AcDbLinetypeTableRecord
  2
HIDDEN
 70
64
  3
- - - - - - - - - - - - - - - - - - - -
 72
65
 73
2
 40
0.2
 49
0.1
 74
0
 49
-0.1
 74
0
  0
LTYPE
  5
1F7
100
AcDbSymbolTableRecord
100
AcDbLinetypeTableRecord
  2
PHANTOM
 70
64
  3
_____ _ _ _____ _ _ _____ _ _ _____
 72
65
 73
6
 40
0.8
 49
0.45
 74
0
 49
-0.05
 74
0
 49
0.1
 74
0
 49
-0.05
 74
0
 49
0.1
 74
0
 49
-0.05
 74
0
  0
LTYPE
  5
1F8
100
AcDbSymbolTableRecord
100
AcDbLinetypeTableRecord
  2
DOT
 70
64
  3
. . . . . . . . . . . . . . . . . . . .
 72
65
 73
2
 40
0.2
 49
0.1
 74
0
 49
-0.1
 74
0
  0
LTYPE
  5
1F9
100
AcDbSymbolTableRecord
100
AcDbLinetypeTableRecord
  2
DASHED
 70
64
  3
- - - - - - - - - - - - - - - - - - - -
 72
65
 73
2
 40
0.2
 49
0.1
 74
0
 49
-0.1
 74
0
  0
ENDTAB
  0
TABLE
  2
LAYER
  5
2
100
AcDbSymbolTable
 70
36
  0
LAYER
  5
10
100
AcDbSymbolTableRecord
100
AcDbLayerTableRecord
  2
0
 70
0
 62
7
  6
CONTINUOUS
370
-3
390
F
  0
LAYER
  5
1FA
100
AcDbSymbolTableRecord
100
AcDbLayerTableRecord
  2
DEFAULT_1
 70
0
 62
7
  6
CENTER
370
-3
390
F
  0
LAYER
  5
1FB
100
AcDbSymbolTableRecord
100
AcDbLayerTableRecord
  2
DEFAULT_2
 70
0
 62
7
  6
HIDDEN
370
-3
390
F
  0
LAYER
  5
1FC
100
AcDbSymbolTableRecord
100
AcDbLayerTableRecord
  2
DEFAULT_3
 70
0
 62
7
  6
PHANTOM
370
-3
390
F
  0
LAYER
  5
1FD
100
AcDbSymbolTableRecord
100
AcDbLayerTableRecord
  2
00_COMPONENTS
 70
0
 62
7
  6
CONTINUOUS
370
-3
390
F
  0
LAYER
  5
1FE
100
AcDbSymbolTableRecord
100
AcDbLayerTableRecord
  2
00_COMPONENTS_1
 70
0
 62
7
  6
CONTINUOUS
370
-3
390
F
  0
LAYER
  5
1FF
100
AcDbSymbolTableRecord
100
AcDbLayerTableRecord
  2
00_COMPONENTS_2
 70
0
 62
7
  6
CONTINUOUS
370
-3
390
F
  0
LAYER
  5
200
100
AcDbSymbolTableRecord
100
AcDbLayerTableRecord
  2
00_COMPONENTS_3
 70
0
 62
7
  6
CONTINUOUS
370
-3
390
F
  0
LAYER
  5
201
100
AcDbSymbolTableRecord
100
AcDbLayerTableRecord
  2
01_1_DEFAULT_DATUMS
 70
0
 62
7
  6
CONTINUOUS
370
-3
390
F
  0
LAYER
  5
202
100
AcDbSymbolTableRecord
100
AcDbLayerTableRecord
  2
01_PLANES
 70
0
 62
7
  6
CONTINUOUS
370
-3
390
F
  0
LAYER
  5
203
100
AcDbSymbolTableRecord
100
AcDbLayerTableRecord
  2
02_COORD_SYS
 70
0
 62
7
  6
CONTINUOUS
370
-3
390
F
  0
LAYER
  5
204
100
AcDbSymbolTableRecord
100
AcDbLayerTableRecord
  2
03_AXES
 70
0
 62
7
  6
CONTINUOUS
370
-3
390
F
  0
LAYER
  5
205
100
AcDbSymbolTableRecord
100
AcDbLayerTableRecord
  2
04_POINTS
 70
0
 62
7
  6
CONTINUOUS
370
-3
390
F
  0
LAYER
  5
206
100
AcDbSymbolTableRecord
100
AcDbLayerTableRecord
  2
05_CURVES
 70
0
 62
7
  6
CONTINUOUS
370
-3
390
F
  0
LAYER
  5
207
100
AcDbSymbolTableRecord
100
AcDbLayerTableRecord
  2
06_SURFS
 70
0
 62
7
  6
CONTINUOUS
370
-3
390
F
  0
LAYER
  5
208
100
AcDbSymbolTableRecord
100
AcDbLayerTableRecord
  2
07_COSMETICS
 70
0
 62
7
  6
CONTINUOUS
370
-3
390
F
  0
LAYER
  5
209
100
AcDbSymbolTableRecord
100
AcDbLayerTableRecord
  2
10_NOTES
 70
0
 62
7
  6
CONTINUOUS
370
-3
390
F
  0
LAYER
  5
20A
100
AcDbSymbolTableRecord
100
AcDbLayerTableRecord
  2
11_NOTES_PUB
 70
0
 62
7
  6
CONTINUOUS
370
-3
390
F
  0
LAYER
  5
20B
100
AcDbSymbolTableRecord
100
AcDbLayerTableRecord
  2
13_REF_GTOL
 70
0
 62
7
  6
CONTINUOUS
370
-3
390
F
  0
LAYER
  5
20C
100
AcDbSymbolTableRecord
100
AcDbLayerTableRecord
  2
16_MISC
 70
0
 62
7
  6
CONTINUOUS
370
-3
390
F
  0
LAYER
  5
20D
100
AcDbSymbolTableRecord
100
AcDbLayerTableRecord
  2
17_NO_PRINT
 70
0
 62
7
  6
CONTINUOUS
370
-3
390
F
  0
LAYER
  5
20E
100
AcDbSymbolTableRecord
100
AcDbLayerTableRecord
  2
18_DATUM_CAMS_JOINTS
 70
0
 62
7
  6
CONTINUOUS
370
-3
390
F
  0
LAYER
  5
20F
100
AcDbSymbolTableRecord
100
AcDbLayerTableRecord
  2
19_DATUM_FUNCTIONAL
 70
0
 62
7
  6
CONTINUOUS
370
-3
390
F
  0
LAYER
  5
210
100
AcDbSymbolTableRecord
100
AcDbLayerTableRecord
  2
20_DATUM_KINEMATIC_SCHEME
 70
0
 62
7
  6
CONTINUOUS
370
-3
390
F
  0
LAYER
  5
211
100
AcDbSymbolTableRecord
100
AcDbLayerTableRecord
  2
INTFCLR_28848
 70
0
 62
7
  6
CONTINUOUS
370
-3
390
F
  0
LAYER
  5
212
100
AcDbSymbolTableRecord
100
AcDbLayerTableRecord
  2
INTF_BLANK
 70
0
 62
7
  6
CONTINUOUS
370
-3
390
F
  0
LAYER
  5
213
100
AcDbSymbolTableRecord
100
AcDbLayerTableRecord
  2
SHELL35
 70
0
 62
7
  6
CONTINUOUS
370
-3
390
F
  0
LAYER
  5
214
100
AcDbSymbolTableRecord
100
AcDbLayerTableRecord
  2
SHELL36
 70
0
 62
7
  6
CONTINUOUS
370
-3
390
F
  0
LAYER
  5
215
100
AcDbSymbolTableRecord
100
AcDbLayerTableRecord
  2
SHELL980
 70
0
 62
7
  6
CONTINUOUS
370
-3
390
F
  0
LAYER
  5
216
100
AcDbSymbolTableRecord
100
AcDbLayerTableRecord
  2
_BLACK_HOLE
 70
0
 62
7
  6
CONTINUOUS
370
-3
390
F
  0
LAYER
  5
217
100
AcDbSymbolTableRecord
100
AcDbLayerTableRecord
  2
black
 70
0
 62
7
  6
CONTINUOUS
370
-3
390
F
  0
ENDTAB
  0
TABLE
  2
STYLE
  5
3
100
AcDbSymbolTable
 70
1
  0
STYLE
  5
11
100
AcDbSymbolTableRecord
100
AcDbTextStyleTableRecord
  2
STANDARD
 70
0
 40
0.0
 41
1.0
 50
0.0
 71
0
 42
0.2
  3
ARIAL.TTF
  4

  0
STYLE
  5
218
100
AcDbSymbolTableRecord
100
AcDbTextStyleTableRecord
  2
TEXTSTYLE_1
 70
0
 40
0.0
 41
0.8
 50
0.0
 71
0
 42
0.2
  3
gdt
  4

  0
ENDTAB
  0
TABLE
  2
VIEW
  5
6
100
AcDbSymbolTable
 70
0
  0
ENDTAB
  0
TABLE
  2
UCS
  5
7
100
AcDbSymbolTable
 70
0
  0
ENDTAB
  0
TABLE
  2
APPID
  5
9
100
AcDbSymbolTable
 70
1
  0
APPID
  5
219
100
AcDbSymbolTableRecord
100
AcDbRegAppTableRecord
  2
ACAD
 70
0
  0
ENDTAB
  0
TABLE
  2
BLOCK_RECORD
  5
1
100
AcDbSymbolTable
 70
0
  0
BLOCK_RECORD
  5
21A
100
AcDbSymbolTableRecord
100
AcDbBlockTableRecord
  2
*Model_Space
  0
BLOCK_RECORD
  5
21B
100
AcDbSymbolTableRecord
100
AcDbBlockTableRecord
  2
*Paper_Space
  0
BLOCK_RECORD
  5
21C
100
AcDbSymbolTableRecord
100
AcDbBlockTableRecord
  2
_FILLED
  0
ENDTAB
  0
TABLE
  2
DIMSTYLE
  5
A
100
AcDbSymbolTable
 70
1
100
AcDbDimStyleTable
 71
0
  0
DIMSTYLE
105
21D
100
AcDbSymbolTableRecord
100
AcDbDimStyleTableRecord
  2
STANDARD
 70
0
  3

  4

 40
1.0
 41
0.7849482826
 42
1.0
 43
0.38
 44
1.0
 45
0.0
 46
0.0
 47
0.01
 48
0.01
140
1.0989275957
141
0.09
142
0.0
143
25.4
144
1.0
145
0.0
146
1.0
147
0.625
 71
1
 72
0
 73
0
 74
0
 75
0
 76
0
 77
1
 78
8
 79
2
170
0
171
1
172
0
173
0
174
0
175
0
176
0
177
0
178
0
270
2
179
2
271
2
272
2
273
2
274
2
275
0
280
0
281
0
282
0
283
1
284
8
285
0
286
0
287
3
288
0
340
11
278
46
341
21C
342
21C
343
21C
344
21C
  0
ENDTAB
  0
ENDSEC
  0
SECTION
  2
BLOCKS
  0
BLOCK
  5
20
100
AcDbEntity
  8
0
100
AcDbBlockBegin
  2
*Model_Space
 70
0
 10
0.0
 20
0.0
 30
0.0
  3
*Model_Space
  1

  0
ENDBLK
  5
21
100
AcDbEntity
  8
0
100
AcDbBlockEnd
  0
BLOCK
  5
1C
100
AcDbEntity
  8
0
100
AcDbBlockBegin
  2
*Paper_Space
 70
0
 10
0.0
 20
0.0
 30
0.0
  3
*Paper_Space
  1

  0
ENDBLK
  5
1D
100
AcDbEntity
  8
0
100
AcDbBlockEnd
  0
BLOCK
  5
21E
100
AcDbEntity
  8
0
100
AcDbBlockBegin
  2
_FILLED
 70
64
 10
0.0
 20
0.0
  3
_FILLED
  1

  0
SOLID
  5
21F
100
AcDbEntity
  8
0
  6
BYBLOCK
 62
0
100
AcDbTrace
 10
0.0
 20
0.0
 11
-1.0
 21
0.25
 12
-1.0
 22
-0.25
 13
-1.0
 23
-0.25
  0
ENDBLK
  5
220
100
AcDbEntity
  8
0
  6
BYBLOCK
 62
0
100
AcDbBlockEnd
  0
ENDSEC
  0
SECTION
  2
ENTITIES
  0
LINE
  5
221
100
AcDbEntity
  8
00_COMPONENTS
100
AcDbLine
 62
7
  6
BYLAYER
 10
47.0453398911
 20
8.1925887296
 11
49.7981193279
 21
8.4980465396
  0
LINE
  5
222
100
AcDbEntity
  8
00_COMPONENTS
100
AcDbLine
 62
7
  6
BYLAYER
 10
30.7611926346
 20
7.5926710499
 11
35.6798928436
 21
7.5926710499
  0
LINE
  5
223
100
AcDbEntity
  8
00_COMPONENTS
100
AcDbLine
 62
7
  6
BYLAYER
 10
30.04071354
 20
7.5993035214
 11
36.4003719382
 21
7.5993035214
  0
LINE
  5
224
100
AcDbEntity
  8
00_COMPONENTS
100
AcDbLine
 62
7
  6
BYLAYER
 10
29.3238977653
 20
7.6101084418
 11
37.1171877129
 21
7.6101084418
  0
LINE
  5
225
100
AcDbEntity
  8
00_COMPONENTS
100
AcDbLine
 62
7
  6
BYLAYER
 10
28.603737315
 20
7.6251897613
 11
37.8373481632
 21
7.6251897613
  0
LINE
  5
226
100
AcDbEntity
  8
00_COMPONENTS
100
AcDbLine
 62
7
  6
BYLAYER
 10
27.8539723783
 20
7.6453933238
 11
38.5871130999
 21
7.6453933238
  0
LINE
  5
227
100
AcDbEntity
  8
00_COMPONENTS
100
AcDbLine
 62
7
  6
BYLAYER
 10
27.2010580448
 20
7.6667301713
 11
39.2400274334
 21
7.6667301713
  0
LINE
  5
228
100
AcDbEntity
  8
00_COMPONENTS
100
AcDbLine
 62
7
  6
BYLAYER
 10
26.4786064649
 20
7.6944028265
 11
39.9624790133
 21
7.6944028265
  0
LINE
  5
229
100
AcDbEntity
  8
00_COMPONENTS
100
AcDbLine
 62
7
  6
BYLAYER
 10
25.5837075318
 20
7.7346039906
 11
40.8573779464
 21
7.7346039906
  0
LINE
  5
22A
100
AcDbEntity
  8
00_COMPONENTS
100
AcDbLine
 62
7
  6
BYLAYER
 10
24.904904321
 20
7.7694728389
 11
41.5361811571
 21
7.7694728389
  0
LINE
  5
22B
100
AcDbEntity
  8
00_COMPONENTS
100
AcDbLine
 62
7
  6
BYLAYER
 10
24.0719443516
 20
7.8174232056
 11
42.3691411266
 21
7.8174232056
  0
LINE
  5
22C
100
AcDbEntity
  8
00_COMPONENTS
100
AcDbLine
 62
7
  6
BYLAYER
 10
23.4976672485
 20
7.8537987424
 11
42.9434182296
 21
7.8537987424
  0
LINE
  5
22D
100
AcDbEntity
  8
00_COMPONENTS
100
AcDbLine
 62
7
  6
BYLAYER
 10
22.7955152646
 20
7.9019562003
 11
43.6455702136
 21
7.9019562003
  0
LINE
  5
22E
100
AcDbEntity
  8
00_COMPONENTS
100
AcDbLine
 62
7
  6
BYLAYER
 10
22.1827712875
 20
7.947295195
 11
44.2583141907
 21
7.947295195
  0
LINE
  5
22F
100
AcDbEntity
  8
00_COMPONENTS
100
AcDbLine
 62
7
  6
BYLAYER
 10
21.6260294779
 20
7.9911712525
 11
44.8150560003
 21
7.9911712525
  0
LINE
  5
230
100
AcDbEntity
  8
00_COMPONENTS
100
AcDbLine
 62
7
  6
BYLAYER
 10
20.9087475571
 20
8.0514664823
 11
45.5323379211
 21
8.0514664823
  0
LINE
  5
231
100
AcDbEntity
  8
00_COMPONENTS
100
AcDbLine
 62
7
  6
BYLAYER
 10
20.1235129123
 20
8.1223445785
 11
46.3175725659
 21
8.1223445785
  0
LINE
  5
232
100
AcDbEntity
  8
00_COMPONENTS
100
AcDbLine
 62
7
  6
BYLAYER
 10
19.3957455871
 20
8.1925887296
 11
16.6429661502
 21
8.4980465396
  0
LINE
  5
233
100
AcDbEntity
  8
00_COMPONENTS
100
AcDbLine
 62
7
  6
BYLAYER
 10
47.0453398909
 20
8.1925887297
 11
19.3957455873
 21
8.1925887297
  0
LINE
  5
234
100
AcDbEntity
  8
00_COMPONENTS
100
AcDbLine
 62
7
  6
BYLAYER
 10
16.643022477
 20
8.498039644
 11
49.7980630012
 21
8.498039644
  0
LINE
  5
235
100
AcDbEntity
  8
00_COMPONENTS
100
AcDbLine
 62
7
  6
BYLAYER
 10
49.6703340717
 20
10.5902673451
 11
16.7707514064
 21
10.5902673451
  0
LINE
  5
236
100
AcDbEntity
  8
00_COMPONENTS
100
AcDbLine
 62
7
  6
BYLAYER
 10
21.6260294779
 20
7.9911712525
 11
21.543165199
 21
8.0514664823
  0
LINE
  5
237
100
AcDbEntity
  8
00_COMPONENTS
100
AcDbLine
 62
7
  6
BYLAYER
 10
20.1235129123
 20
8.1223445785
 11
20.0526278768
 21
8.1925887297
  0
LINE
  5
238
100
AcDbEntity
  8
00_COMPONENTS
100
AcDbLine
 62
7
  6
BYLAYER
 10
20.9087475571
 20
8.0514664823
 11
20.8372227927
 21
8.1223445785
  0
LINE
  5
239
100
AcDbEntity
  8
0
100
AcDbLine
 62
7
  6
BYLAYER
 10
16.7396396722
 20
78.0158142085
 11
22.81029281
 21
84.0864673463
  0
LINE
  5
23A
100
AcDbEntity
  8
0
100
AcDbLine
 62
7
  6
BYLAYER
 10
21.472234648
 20
80.95235796
 11
18.9398024219
 21
78.4199257339
  0
LINE
  5
23B
100
AcDbEntity
  8
00_COMPONENTS
100
AcDbLine
 62
7
  6
BYLAYER
 10
22.7955152646
 20
7.9019562003
 11
22.7557933353
 21
7.947295195
  0
LINE
  5
23C
100
AcDbEntity
  8
00_COMPONENTS
100
AcDbLine
 62
7
  6
BYLAYER
 10
23.4976672485
 20
7.8537987424
 11
23.4554760366
 21
7.9019562003
  0
LINE
  5
23D
100
AcDbEntity
  8
0
100
AcDbLine
 62
7
  6
BYLAYER
 10
26.8109930212
 20
84.0864673463
 11
22.5745591415
 21
79.8500334666
  0
LINE
  5
23E
100
AcDbEntity
  8
0
100
AcDbLine
 62
7
  6
BYLAYER
 10
20.0421269153
 20
77.3176012404
 11
18.7399897778
 21
76.0154641029
  0
LINE
  5
23F
100
AcDbEntity
  8
0
100
AcDbLine
 62
7
  6
BYLAYER
 10
12.4291167341
 20
68.7481898915
 11
19.2181903616
 21
75.537263519
  0
LINE
  5
240
100
AcDbEntity
  8
00_COMPONENTS
100
AcDbLine
 62
7
  6
BYLAYER
 10
27.8539723782
 20
7.6453933238
 11
27.8324408604
 21
7.6667301713
  0
LINE
  5
241
100
AcDbEntity
  8
00_COMPONENTS
100
AcDbLine
 62
7
  6
BYLAYER
 10
28.603737315
 20
7.6251897613
 11
28.5833494219
 21
7.6453933238
  0
LINE
  5
242
100
AcDbEntity
  8
00_COMPONENTS
100
AcDbLine
 62
7
  6
BYLAYER
 10
29.3238977653
 20
7.6101084418
 11
29.3086788488
 21
7.6251897613
  0
LINE
  5
243
100
AcDbEntity
  8
00_COMPONENTS
100
AcDbLine
 62
7
  6
BYLAYER
 10
30.04071354
 20
7.5993035214
 11
30.0298100391
 21
7.6101084418
  0
LINE
  5
244
100
AcDbEntity
  8
00_COMPONENTS
100
AcDbLine
 62
7
  6
BYLAYER
 10
24.904904321
 20
7.7694728389
 11
24.8628945437
 21
7.8174232056
  0
LINE
  5
245
100
AcDbEntity
  8
00_COMPONENTS
100
AcDbLine
 62
7
  6
BYLAYER
 10
27.2010580448
 20
7.6667301713
 11
27.1768137654
 21
7.6944028265
  0
LINE
  5
246
100
AcDbEntity
  8
00_COMPONENTS
100
AcDbLine
 62
7
  6
BYLAYER
 10
26.4786064649
 20
7.6944028265
 11
26.4465682973
 21
7.7346039906
  0
LINE
  5
247
100
AcDbEntity
  8
00_COMPONENTS
100
AcDbLine
 62
7
  6
BYLAYER
 10
24.0719443516
 20
7.8174232056
 11
24.0452020676
 21
7.8537987424
  0
LINE
  5
248
100
AcDbEntity
  8
00_COMPONENTS
100
AcDbLine
 62
7
  6
BYLAYER
 10
22.1827712874
 20
7.947295195
 11
22.1526477095
 21
7.9911712525
  0
LINE
  5
249
100
AcDbEntity
  8
0
100
AcDbLine
 62
7
  6
BYLAYER
 10
17.5748034915
 20
72.0978254247
 11
15.0423712653
 21
69.5653931985
  0
LINE
  5
24A
100
AcDbEntity
  8
0
100
AcDbLine
 62
7
  6
BYLAYER
 10
21.4183531113
 20
75.9413750445
 11
23.9507853374
 21
78.4738072706
  0
LINE
  5
24B
100
AcDbEntity
  8
0
100
AcDbLine
 62
7
  6
BYLAYER
 10
22.7623510522
 20
75.9922161039
 11
22.1401806575
 21
75.3700457093
  0
LINE
  5
24C
100
AcDbEntity
  8
0
100
AcDbLine
 62
7
  6
BYLAYER
 10
22.4959838458
 20
74.86374431
 11
25.028416072
 21
77.3961765361
  0
LINE
  5
24D
100
AcDbEntity
  8
0
100
AcDbLine
 62
7
  6
BYLAYER
 10
21.2185404672
 20
73.5369134135
 11
18.6771279849
 21
70.9955009312
  0
LINE
  5
24E
100
AcDbEntity
  8
0
100
AcDbLine
 62
7
  6
BYLAYER
 10
16.1446957588
 20
68.4630687051
 11
13.7309668397
 21
66.0493397859
  0
LINE
  5
24F
100
AcDbEntity
  8
00_COMPONENTS
100
AcDbLine
 62
7
  6
BYLAYER
 10
25.5837075318
 20
7.7346039906
 11
25.5629227005
 21
7.7694728389
  0
LINE
  5
250
100
AcDbEntity
  8
0
100
AcDbLine
 62
7
  6
BYLAYER
 10
23.5736145803
 20
73.7861135754
 11
26.1060468065
 21
76.3185458016
  0
LINE
  5
251
100
AcDbEntity
  8
0
100
AcDbLine
 62
7
  6
BYLAYER
 10
17.5209219547
 20
67.0868425091
 11
20.0533541809
 21
69.6192747353
  0
LINE
  5
252
100
AcDbEntity
  8
0
100
AcDbLine
 62
7
  6
BYLAYER
 10
26.5550596125
 20
75.8695329955
 11
24.0226273864
 21
73.3371007694
  0
LINE
  5
253
100
AcDbEntity
  8
0
100
AcDbLine
 62
7
  6
BYLAYER
 10
24.2022325088
 20
73.157495647
 11
26.734664735
 21
75.6899278731
  0
LINE
  5
254
100
AcDbEntity
  8
0
100
AcDbLine
 62
7
  6
BYLAYER
 10
28.000880848
 20
76.5969337413
 11
26.9142698574
 21
75.5103227507
  0
LINE
  5
255
100
AcDbEntity
  8
0
100
AcDbLine
 62
7
  6
BYLAYER
 10
24.3818376312
 20
72.9778905245
 11
23.2952266406
 21
71.8912795339
  0
LINE
  5
256
100
AcDbEntity
  8
0
100
AcDbLine
 62
7
  6
BYLAYER
 10
18.8649198956
 20
67.1376835686
 11
18.2427495009
 21
66.5155131739
  0
LINE
  5
257
100
AcDbEntity
  8
0
100
AcDbLine
 62
7
  6
BYLAYER
 10
27.8033152134
 20
75.680947617
 11
24.2112127649
 21
72.0888451686
  0
LINE
  5
258
100
AcDbEntity
  8
0
100
AcDbLine
 62
7
  6
BYLAYER
 10
18.5985526893
 20
66.0092117746
 11
21.1309849154
 21
68.5416440007
  0
LINE
  5
259
100
AcDbEntity
  8
00_COMPONENTS
100
AcDbLine
 62
7
  6
BYLAYER
 10
17.4745427351
 20
25.5902673463
 11
17.2205427351
 21
25.8442673463
  0
LINE
  5
25A
100
AcDbEntity
  8
0
100
AcDbLine
 62
7
  6
BYLAYER
 10
11.7829427391
 20
52.0062673463
 11
11.7829427391
 21
59.4484673463
  0
LINE
  5
25B
100
AcDbEntity
  8
0
100
AcDbLine
 62
7
  6
BYLAYER
 10
12.4291167341
 20
67.3511898915
 11
12.4291167341
 21
68.7481898915
  0
LINE
  5
25C
100
AcDbEntity
  8
0
100
AcDbLine
 62
7
  6
BYLAYER
 10
12.7829427391
 20
84.0864673463
 11
12.7829427391
 21
69.1020158965
  0
LINE
  5
25D
100
AcDbEntity
  8
0
100
AcDbLine
 62
7
  6
BYLAYER
 10
12.7829427391
 20
66.9973638865
 11
12.7829427391
 21
59.4484673463
  0
LINE
  5
25E
100
AcDbEntity
  8
0
100
AcDbLine
 62
7
  6
BYLAYER
 10
12.9259427391
 20
49.6059673463
 11
12.9259427391
 21
52.0062673463
  0
LINE
  5
25F
100
AcDbEntity
  8
0
100
AcDbLine
 62
7
  6
BYLAYER
 10
19.6761834238
 20
64.9315810401
 11
22.2086156499
 21
67.4640132662
  0
LINE
  5
260
100
AcDbEntity
  8
0
100
AcDbLine
 62
7
  6
BYLAYER
 10
25.181080426
 20
70.0054257485
 11
29.8867346334
 21
74.7110799559
  0
LINE
  5
261
100
AcDbEntity
  8
0
100
AcDbLine
 62
7
  6
BYLAYER
 10
22.657628456
 20
67.0150004601
 11
20.1251962298
 21
64.482568234
  0
LINE
  5
262
100
AcDbEntity
  8
0
100
AcDbLine
 62
7
  6
BYLAYER
 10
20.3048013523
 20
64.3029631116
 11
22.8372335784
 21
66.8353953377
  0
LINE
  5
263
100
AcDbEntity
  8
0
100
AcDbLine
 62
7
  6
BYLAYER
 10
24.1034496915
 20
67.742401206
 11
23.0168387008
 21
66.6557902153
  0
LINE
  5
264
100
AcDbEntity
  8
0
100
AcDbLine
 62
7
  6
BYLAYER
 10
20.4844064747
 20
64.1233579892
 11
19.397795484
 21
63.0367469985
  0
LINE
  5
265
100
AcDbEntity
  8
0
100
AcDbLine
 62
7
  6
BYLAYER
 10
23.9058840568
 20
66.8264150816
 11
20.3137816084
 21
63.2343126332
  0
LINE
  5
266
100
AcDbEntity
  8
0
100
AcDbLine
 62
7
  6
BYLAYER
 10
42.3513301295
 20
73.8130543438
 11
42.4304143205
 21
73.8382569981
  0
LINE
  5
267
100
AcDbEntity
  8
00_COMPONENTS
100
AcDbLine
 62
7
  6
BYLAYER
 10
17.4747446676
 20
25.5902673463
 11
48.9663408106
 21
25.5902673463
  0
LINE
  5
268
100
AcDbEntity
  8
00_COMPONENTS
100
AcDbLine
 62
7
  6
BYLAYER
 10
17.2205427351
 20
25.8442673463
 11
49.2205427431
 21
25.8442673463
  0
LINE
  5
269
100
AcDbEntity
  8
00_COMPONENTS
100
AcDbLine
 62
7
  6
BYLAYER
 10
16.8268427351
 20
31.9643701473
 11
15.7580427391
 21
32.5814421127
  0
LINE
  5
26A
100
AcDbEntity
  8
00_COMPONENTS
100
AcDbLine
 62
7
  6
BYLAYER
 10
13.3767927391
 20
40.1444673463
 11
13.3767927391
 21
41.6684673463
  0
LINE
  5
26B
100
AcDbEntity
  8
0
100
AcDbLine
 62
7
  6
BYLAYER
 10
13.3767927391
 20
48.0184673463
 11
13.3767927391
 21
49.6059673463
  0
LINE
  5
26C
100
AcDbEntity
  8
00_COMPONENTS
100
AcDbLine
 62
7
  6
BYLAYER
 10
14.5515427391
 20
38.8744673463
 11
14.5515427391
 21
40.1444673463
  0
LINE
  5
26D
100
AcDbEntity
  8
00_COMPONENTS
100
AcDbLine
 62
7
  6
BYLAYER
 10
15.7580427391
 20
32.5813144679
 11
15.7580427391
 21
38.8744673463
  0
LINE
  5
26E
100
AcDbEntity
  8
0
100
AcDbLine
 62
7
  6
BYLAYER
 10
21.2836492695
 20
61.1508932131
 11
25.9893034769
 21
65.8565474205
  0
LINE
  5
26F
100
AcDbEntity
  8
0
100
AcDbLine
 62
7
  6
BYLAYER
 10
37.9510046302
 20
76.5969337413
 11
36.0651508447
 21
74.7110799559
  0
LINE
  5
270
100
AcDbEntity
  8
0
100
AcDbLine
 62
7
  6
BYLAYER
 10
36.1729139182
 20
74.6033168825
 11
38.0587677036
 21
76.4891706679
  0
LINE
  5
271
100
AcDbEntity
  8
00_COMPONENTS
100
AcDbLine
 62
7
  6
BYLAYER
 10
17.2205427351
 20
25.8442673463
 11
17.2205427351
 21
31.2824617443
  0
LINE
  5
272
100
AcDbEntity
  8
0
100
AcDbLine
 62
7
  6
BYLAYER
 10
18.2345427391
 20
41.6684673463
 11
18.2345427391
 21
48.0184673463
  0
LINE
  5
273
100
AcDbEntity
  8
0
100
AcDbLine
 62
7
  6
BYLAYER
 10
38.5077805097
 20
76.0401578618
 11
36.6219267242
 21
74.1543040764
  0
LINE
  5
274
100
AcDbEntity
  8
0
100
AcDbLine
 62
7
  6
BYLAYER
 10
39.0376156208
 20
75.5103227507
 11
44.4796508302
 21
80.95235796
  0
LINE
  5
275
100
AcDbEntity
  8
0
100
AcDbLine
 62
7
  6
BYLAYER
 10
39.423766634
 20
75.8425922272
 11
39.2441615116
 21
75.6629871047
  0
LINE
  5
276
100
AcDbEntity
  8
0
100
AcDbLine
 62
7
  6
BYLAYER
 10
38.7053461443
 20
75.1241717375
 11
37.1787026038
 21
73.5975281969
  0
LINE
  5
277
100
AcDbEntity
  8
0
100
AcDbLine
 62
7
  6
BYLAYER
 10
41.4297708055
 20
77.7519797244
 11
42.0763492463
 21
78.3985581651
  0
LINE
  5
278
100
AcDbEntity
  8
0
100
AcDbLine
 62
7
  6
BYLAYER
 10
42.6985196409
 20
77.7763877705
 11
42.0519412002
 21
77.1298093298
  0
LINE
  5
279
100
AcDbEntity
  8
00_COMPONENTS
100
AcDbLine
 62
7
  6
BYLAYER
 10
49.2205427431
 20
31.2824617443
 11
17.2205427351
 21
31.2824617443
  0
LINE
  5
27A
100
AcDbEntity
  8
00_COMPONENTS
100
AcDbLine
 62
7
  6
BYLAYER
 10
16.8268427351
 20
31.9643701473
 11
49.6142427431
 21
31.9643701473
  0
LINE
  5
27B
100
AcDbEntity
  8
00_COMPONENTS
100
AcDbLine
 62
7
  6
BYLAYER
 10
20.7205427391
 20
10.5902673451
 11
20.7205427391
 21
25.5902673463
  0
LINE
  5
27C
100
AcDbEntity
  8
0
100
AcDbLine
 62
7
  6
BYLAYER
 10
39.6572532932
 20
71.1189775075
 11
41.1838968338
 21
72.6456210481
  0
LINE
  5
27D
100
AcDbEntity
  8
0
100
AcDbLine
 62
7
  6
BYLAYER
 10
41.722712201
 20
73.1844364153
 11
41.9023173234
 21
73.3640415377
  0
LINE
  5
27E
100
AcDbEntity
  8
0
100
AcDbLine
 62
7
  6
BYLAYER
 10
41.570047847
 20
72.9778905245
 11
47.0120830563
 21
78.4199257339
  0
LINE
  5
27F
100
AcDbEntity
  8
0
100
AcDbLine
 62
7
  6
BYLAYER
 10
40.2140291727
 20
70.562201628
 11
42.0998829581
 21
72.4480554134
  0
LINE
  5
280
100
AcDbEntity
  8
0
100
AcDbLine
 62
7
  6
BYLAYER
 10
42.5488957642
 20
71.9990426073
 11
40.6630419787
 21
70.1131888219
  0
LINE
  5
281
100
AcDbEntity
  8
0
100
AcDbLine
 62
7
  6
BYLAYER
 10
46.248761286
 20
64.9585218084
 11
46.327845477
 21
64.9837244627
  0
LINE
  5
282
100
AcDbEntity
  8
0
100
AcDbLine
 62
7
  6
BYLAYER
 10
40.7708050522
 20
70.0054257485
 11
42.6566588376
 21
71.8912795339
  0
LINE
  5
283
100
AcDbEntity
  8
0
100
AcDbLine
 62
7
  6
BYLAYER
 10
49.212245806
 20
78.0158142085
 11
44.733345011
 21
73.5369134135
  0
LINE
  5
284
100
AcDbEntity
  8
0
100
AcDbLine
 62
7
  6
BYLAYER
 10
41.8484357867
 20
67.742401206
 11
39.9625820013
 21
65.8565474205
  0
LINE
  5
285
100
AcDbEntity
  8
0
100
AcDbLine
 62
7
  6
BYLAYER
 10
40.0703450747
 20
65.7487843471
 11
41.9561988602
 21
67.6346381325
  0
LINE
  5
286
100
AcDbEntity
  8
00_COMPONENTS
100
AcDbLine
 62
7
  6
BYLAYER
 10
25.9873384062
 20
38.8744673463
 11
25.9873384062
 21
33.412118552
  0
LINE
  5
287
100
AcDbEntity
  8
0
100
AcDbLine
 62
7
  6
BYLAYER
 10
27.3571025168
 20
56.967734013
 11
27.3571025168
 21
52.0062673463
  0
LINE
  5
288
100
AcDbEntity
  8
00_COMPONENTS
100
AcDbLine
 62
7
  6
BYLAYER
 10
27.6642927391
 20
41.6684673463
 11
27.6642927391
 21
40.1444673463
  0
LINE
  5
289
100
AcDbEntity
  8
0
100
AcDbLine
 62
7
  6
BYLAYER
 10
42.4052116662
 20
67.1856253264
 11
40.5193578808
 21
65.299771541
  0
LINE
  5
28A
100
AcDbEntity
  8
0
100
AcDbLine
 62
7
  6
BYLAYER
 10
42.9350467774
 20
66.6557902153
 11
48.3770819867
 21
72.0978254247
  0
LINE
  5
28B
100
AcDbEntity
  8
0
100
AcDbLine
 62
7
  6
BYLAYER
 10
43.3211977906
 20
66.9880596918
 11
43.1415926681
 21
66.8084545694
  0
LINE
  5
28C
100
AcDbEntity
  8
0
100
AcDbLine
 62
7
  6
BYLAYER
 10
42.6027773009
 20
66.2696392021
 11
41.0761337603
 21
64.7429956615
  0
LINE
  5
28D
100
AcDbEntity
  8
0
100
AcDbLine
 62
7
  6
BYLAYER
 10
45.3272019621
 20
68.897447189
 11
45.9737804028
 21
69.5440256298
  0
LINE
  5
28E
100
AcDbEntity
  8
0
100
AcDbLine
 62
7
  6
BYLAYER
 10
46.5959507975
 20
68.9218552351
 11
45.9493723568
 21
68.2752767944
  0
LINE
  5
28F
100
AcDbEntity
  8
00_COMPONENTS
100
AcDbLine
 62
7
  6
BYLAYER
 10
14.5517428584
 20
38.8744673463
 11
51.6355427391
 21
38.8744673463
  0
LINE
  5
290
100
AcDbEntity
  8
00_COMPONENTS
100
AcDbLine
 62
7
  6
BYLAYER
 10
13.3768027053
 20
40.1444673463
 11
53.0642827729
 21
40.1444673463
  0
LINE
  5
291
100
AcDbEntity
  8
0
100
AcDbLine
 62
7
  6
BYLAYER
 10
29.7374427391
 20
84.0864673463
 11
29.7374427391
 21
85.8898673463
  0
LINE
  5
292
100
AcDbEntity
  8
00_COMPONENTS
100
AcDbLine
 62
7
  6
BYLAYER
 10
30.1514490618
 20
40.1444673463
 11
30.1514490618
 21
38.8744673463
  0
LINE
  5
293
100
AcDbEntity
  8
0
100
AcDbLine
 62
7
  6
BYLAYER
 10
39.8979820944
 20
76.3706892242
 11
39.8727794401
 21
76.2916050332
  0
LINE
  5
294
100
AcDbEntity
  8
0
100
AcDbLine
 62
7
  6
BYLAYER
 10
43.5546844497
 20
62.2644449721
 11
45.0813279903
 21
63.7910885127
  0
LINE
  5
295
100
AcDbEntity
  8
0
100
AcDbLine
 62
7
  6
BYLAYER
 10
45.6201433576
 20
64.3299038799
 11
45.79974848
 21
64.5095090024
  0
LINE
  5
296
100
AcDbEntity
  8
0
100
AcDbLine
 62
7
  6
BYLAYER
 10
45.4674790035
 20
64.1233579892
 11
50.9095142129
 21
69.5653931985
  0
LINE
  5
297
100
AcDbEntity
  8
0
100
AcDbLine
 62
7
  6
BYLAYER
 10
44.1114603292
 20
61.7076690926
 11
45.9973141146
 21
63.593522878
  0
LINE
  5
298
100
AcDbEntity
  8
0
100
AcDbLine
 62
7
  6
BYLAYER
 10
46.4463269207
 20
63.144510072
 11
44.5604731353
 21
61.2586562865
  0
LINE
  5
299
100
AcDbEntity
  8
00_COMPONENTS
100
AcDbLine
 62
7
  6
BYLAYER
 10
13.3768027053
 20
41.6684673463
 11
53.0642827729
 21
41.6684673463
  0
LINE
  5
29A
100
AcDbEntity
  8
0
100
AcDbLine
 62
7
  6
BYLAYER
 10
22.1816748816
 20
67.4370724978
 11
22.1564722273
 21
67.5161566888
  0
LINE
  5
29B
100
AcDbEntity
  8
00_COMPONENTS
100
AcDbLine
 62
7
  6
BYLAYER
 10
33.2205427391
 20
7.5902673469
 11
33.2205427391
 21
7.1714589605
  0
LINE
  5
29C
100
AcDbEntity
  8
0
100
AcDbLine
 62
7
  6
BYLAYER
 10
44.6682362087
 20
61.1508932131
 11
46.5540899942
 21
63.0367469985
  0
LINE
  5
29D
100
AcDbEntity
  8
0
100
AcDbLine
 62
7
  6
BYLAYER
 10
53.5227687441
 20
67.3511898915
 11
45.7458669433
 21
59.5742880907
  0
LINE
  5
29E
100
AcDbEntity
  8
0
100
AcDbLine
 62
7
  6
BYLAYER
 10
20.2060185349
 20
59.5742880907
 11
12.4291167341
 21
67.3511898915
  0
LINE
  5
29F
100
AcDbEntity
  8
0
100
AcDbLine
 62
7
  6
BYLAYER
 10
36.2144427391
 20
84.0864673463
 11
36.2144427391
 21
85.8898673463
  0
LINE
  5
2A0
100
AcDbEntity
  8
00_COMPONENTS
100
AcDbLine
 62
7
  6
BYLAYER
 10
36.2896364164
 20
38.8744673463
 11
36.2896364164
 21
40.1444673463
  0
LINE
  5
2A1
100
AcDbEntity
  8
0
100
AcDbLine
 62
7
  6
BYLAYER
 10
43.7954132509
 20
67.5161566888
 11
43.7702105966
 21
67.4370724978
  0
LINE
  5
2A2
100
AcDbEntity
  8
0
100
AcDbLine
 62
7
  6
BYLAYER
 10
13.3769629
 20
48.0184673463
 11
53.0641225781
 21
48.0184673463
  0
LINE
  5
2A3
100
AcDbEntity
  8
0
100
AcDbLine
 62
7
  6
BYLAYER
 10
12.9261175193
 20
49.6059673463
 11
53.5149679589
 21
49.6059673463
  0
LINE
  5
2A4
100
AcDbEntity
  8
0
100
AcDbLine
 62
7
  6
BYLAYER
 10
19.397795484
 20
63.0367469985
 11
21.2836492695
 21
61.1508932131
  0
LINE
  5
2A5
100
AcDbEntity
  8
0
100
AcDbLine
 62
7
  6
BYLAYER
 10
21.3914123429
 20
61.2586562865
 11
19.5055585575
 21
63.144510072
  0
LINE
  5
2A6
100
AcDbEntity
  8
0
100
AcDbLine
 62
7
  6
BYLAYER
 10
19.9545713635
 20
63.593522878
 11
21.840425149
 21
61.7076690926
  0
LINE
  5
2A7
100
AcDbEntity
  8
0
100
AcDbLine
 62
7
  6
BYLAYER
 10
20.4844064747
 20
64.1233579892
 11
15.0423712653
 21
69.5653931985
  0
LINE
  5
2A8
100
AcDbEntity
  8
0
100
AcDbLine
 62
7
  6
BYLAYER
 10
20.1521369982
 20
64.5095090024
 11
20.3317421206
 21
64.3299038799
  0
LINE
  5
2A9
100
AcDbEntity
  8
0
100
AcDbLine
 62
7
  6
BYLAYER
 10
20.8705574879
 20
63.7910885127
 11
22.3972010285
 21
62.2644449721
  0
LINE
  5
2AA
100
AcDbEntity
  8
0
100
AcDbLine
 62
7
  6
BYLAYER
 10
18.2427495009
 20
66.5155131739
 11
17.5961710602
 21
67.1620916146
  0
LINE
  5
2AB
100
AcDbEntity
  8
0
100
AcDbLine
 62
7
  6
BYLAYER
 10
26.0791060381
 20
76.2916050332
 11
26.0539033838
 21
76.3706892242
  0
LINE
  5
2AC
100
AcDbEntity
  8
00_COMPONENTS
100
AcDbLine
 62
7
  6
BYLAYER
 10
38.7767927391
 20
40.1444673463
 11
38.7767927391
 21
41.6684673463
  0
LINE
  5
2AD
100
AcDbEntity
  8
0
100
AcDbLine
 62
7
  6
BYLAYER
 10
39.0839829614
 20
52.0062673463
 11
39.0839829614
 21
56.967734013
  0
LINE
  5
2AE
100
AcDbEntity
  8
0
100
AcDbLine
 62
7
  6
BYLAYER
 10
11.7829427391
 20
52.0062673463
 11
55.9789427391
 21
52.0062673463
  0
LINE
  5
2AF
100
AcDbEntity
  8
0
100
AcDbLine
 62
7
  6
BYLAYER
 10
18.2183414549
 20
67.7842620093
 11
18.8649198956
 21
67.1376835686
  0
LINE
  5
2B0
100
AcDbEntity
  8
0
100
AcDbLine
 62
7
  6
BYLAYER
 10
24.8757517179
 20
64.7429956615
 11
23.3491081773
 21
66.2696392021
  0
LINE
  5
2B1
100
AcDbEntity
  8
0
100
AcDbLine
 62
7
  6
BYLAYER
 10
22.81029281
 20
66.8084545694
 11
22.6306876876
 21
66.9880596918
  0
LINE
  5
2B2
100
AcDbEntity
  8
00_COMPONENTS
100
AcDbLine
 62
7
  6
BYLAYER
 10
40.453747072
 20
38.8744673463
 11
40.453747072
 21
33.412118552
  0
LINE
  5
2B3
100
AcDbEntity
  8
0
100
AcDbLine
 62
7
  6
BYLAYER
 10
23.0168387008
 20
66.6557902153
 11
17.5748034915
 21
72.0978254247
  0
LINE
  5
2B4
100
AcDbEntity
  8
0
100
AcDbLine
 62
7
  6
BYLAYER
 10
25.4325275974
 20
65.299771541
 11
23.546673812
 21
67.1856253264
  0
LINE
  5
2B5
100
AcDbEntity
  8
0
100
AcDbLine
 62
7
  6
BYLAYER
 10
23.995686618
 20
67.6346381325
 11
25.8815404035
 21
65.7487843471
  0
LINE
  5
2B6
100
AcDbEntity
  8
0
100
AcDbLine
 62
7
  6
BYLAYER
 10
25.9893034769
 20
65.8565474205
 11
24.1034496915
 21
67.742401206
  0
LINE
  5
2B7
100
AcDbEntity
  8
00_COMPONENTS
100
AcDbLine
 62
7
  6
BYLAYER
 10
45.720542739
 20
10.5902673451
 11
45.720542739
 21
25.5902673463
  0
LINE
  5
2B8
100
AcDbEntity
  8
0
100
AcDbLine
 62
7
  6
BYLAYER
 10
11.7829427391
 20
56.967734013
 11
27.3571025168
 21
56.967734013
  0
LINE
  5
2B9
100
AcDbEntity
  8
0
100
AcDbLine
 62
7
  6
BYLAYER
 10
39.0839829614
 20
56.967734013
 11
54.6581427391
 21
56.967734013
  0
LINE
  5
2BA
100
AcDbEntity
  8
0
100
AcDbLine
 62
7
  6
BYLAYER
 10
21.2185404672
 20
73.5369134135
 11
16.7396396722
 21
78.0158142085
  0
LINE
  5
2BB
100
AcDbEntity
  8
0
100
AcDbLine
 62
7
  6
BYLAYER
 10
23.2952266406
 20
71.8912795339
 11
25.181080426
 21
70.0054257485
  0
LINE
  5
2BC
100
AcDbEntity
  8
0
100
AcDbLine
 62
7
  6
BYLAYER
 10
25.2888434995
 20
70.1131888219
 11
23.402989714
 21
71.9990426073
  0
LINE
  5
2BD
100
AcDbEntity
  8
0
100
AcDbLine
 62
7
  6
BYLAYER
 10
23.8520025201
 20
72.4480554134
 11
25.7378563055
 21
70.562201628
  0
LINE
  5
2BE
100
AcDbEntity
  8
0
100
AcDbLine
 62
7
  6
BYLAYER
 10
24.3818376312
 20
72.9778905245
 11
18.9398024219
 21
78.4199257339
  0
LINE
  5
2BF
100
AcDbEntity
  8
0
100
AcDbLine
 62
7
  6
BYLAYER
 10
24.0495681548
 20
73.3640415377
 11
24.2291732772
 21
73.1844364153
  0
LINE
  5
2C0
100
AcDbEntity
  8
0
100
AcDbLine
 62
7
  6
BYLAYER
 10
24.7679886444
 20
72.6456210481
 11
26.294632185
 21
71.1189775075
  0
LINE
  5
2C1
100
AcDbEntity
  8
0
100
AcDbLine
 62
7
  6
BYLAYER
 10
22.1401806575
 20
75.3700457093
 11
21.4936022168
 21
76.01662415
  0
LINE
  5
2C2
100
AcDbEntity
  8
0
100
AcDbLine
 62
7
  6
BYLAYER
 10
48.2065427391
 20
41.6684673463
 11
48.2065427391
 21
48.0184673463
  0
LINE
  5
2C3
100
AcDbEntity
  8
00_COMPONENTS
100
AcDbLine
 62
7
  6
BYLAYER
 10
49.2205427431
 20
25.8442673463
 11
49.2205427431
 21
31.2824617443
  0
LINE
  5
2C4
100
AcDbEntity
  8
0
100
AcDbLine
 62
7
  6
BYLAYER
 10
55.9789427391
 20
59.4484673463
 11
11.7829427391
 21
59.4484673463
  0
LINE
  5
2C5
100
AcDbEntity
  8
0
100
AcDbLine
 62
7
  6
BYLAYER
 10
45.7458669433
 20
59.5742880907
 11
20.2060185349
 21
59.5742880907
  0
LINE
  5
2C6
100
AcDbEntity
  8
0
100
AcDbLine
 62
7
  6
BYLAYER
 10
19.6240400012
 20
64.9837244627
 11
19.7031241922
 21
64.9585218084
  0
LINE
  5
2C7
100
AcDbEntity
  8
0
100
AcDbLine
 62
7
  6
BYLAYER
 10
22.1157726114
 20
76.6387945447
 11
22.7623510522
 21
75.9922161039
  0
LINE
  5
2C8
100
AcDbEntity
  8
0
100
AcDbLine
 62
7
  6
BYLAYER
 10
28.7731828744
 20
73.5975281969
 11
27.2465393339
 21
75.1241717375
  0
LINE
  5
2C9
100
AcDbEntity
  8
0
100
AcDbLine
 62
7
  6
BYLAYER
 10
26.7077239666
 20
75.6629871047
 11
26.5281188442
 21
75.8425922272
  0
LINE
  5
2CA
100
AcDbEntity
  8
00_COMPONENTS
100
AcDbLine
 62
7
  6
BYLAYER
 10
50.6830427391
 20
38.8744673463
 11
50.6830427391
 21
32.5813144679
  0
LINE
  5
2CB
100
AcDbEntity
  8
00_COMPONENTS
100
AcDbLine
 62
7
  6
BYLAYER
 10
51.6355427391
 20
40.1444673463
 11
51.6355427391
 21
38.8744673463
  0
LINE
  5
2CC
100
AcDbEntity
  8
0
100
AcDbLine
 62
7
  6
BYLAYER
 10
26.9142698574
 20
75.5103227507
 11
21.472234648
 21
80.95235796
  0
LINE
  5
2CD
100
AcDbEntity
  8
0
100
AcDbLine
 62
7
  6
BYLAYER
 10
29.3299587539
 20
74.1543040764
 11
27.4441049685
 21
76.0401578618
  0
LINE
  5
2CE
100
AcDbEntity
  8
0
100
AcDbLine
 62
7
  6
BYLAYER
 10
27.8931177746
 20
76.4891706679
 11
29.77897156
 21
74.6033168825
  0
LINE
  5
2CF
100
AcDbEntity
  8
0
100
AcDbLine
 62
7
  6
BYLAYER
 10
29.8867346334
 20
74.7110799559
 11
28.000880848
 21
76.5969337413
  0
LINE
  5
2D0
100
AcDbEntity
  8
0
100
AcDbLine
 62
7
  6
BYLAYER
 10
39.9625820013
 20
65.8565474205
 11
44.6682362087
 21
61.1508932131
  0
LINE
  5
2D1
100
AcDbEntity
  8
00_COMPONENTS
100
AcDbLine
 62
7
  6
BYLAYER
 10
53.0642927391
 20
40.1444673463
 11
53.0642927391
 21
41.6684673463
  0
LINE
  5
2D2
100
AcDbEntity
  8
0
100
AcDbLine
 62
7
  6
BYLAYER
 10
53.0642927391
 20
48.0184673463
 11
53.0642927391
 21
49.6059673463
  0
LINE
  5
2D3
100
AcDbEntity
  8
0
100
AcDbLine
 62
7
  6
BYLAYER
 10
53.1689427391
 20
59.4484673463
 11
53.1689427391
 21
66.9973638865
  0
LINE
  5
2D4
100
AcDbEntity
  8
0
100
AcDbLine
 62
7
  6
BYLAYER
 10
53.1689427391
 20
69.1020158965
 11
53.1689427391
 21
84.0864673463
  0
LINE
  5
2D5
100
AcDbEntity
  8
0
100
AcDbLine
 62
7
  6
BYLAYER
 10
53.5151427391
 20
49.6059673463
 11
53.5151427391
 21
52.0062673463
  0
LINE
  5
2D6
100
AcDbEntity
  8
0
100
AcDbLine
 62
7
  6
BYLAYER
 10
53.5227687441
 20
68.7481898915
 11
53.5227687441
 21
67.3511898915
  0
LINE
  5
2D7
100
AcDbEntity
  8
0
100
AcDbLine
 62
7
  6
BYLAYER
 10
54.4704870742
 20
56.967734013
 11
54.4704870742
 21
52.0062673463
  0
LINE
  5
2D8
100
AcDbEntity
  8
0
100
AcDbLine
 62
7
  6
BYLAYER
 10
54.6581427391
 20
59.4484673463
 11
54.6581427391
 21
56.967734013
  0
LINE
  5
2D9
100
AcDbEntity
  8
00_COMPONENTS
100
AcDbLine
 62
7
  6
BYLAYER
 10
49.6142427431
 20
31.9643701473
 11
50.6830427391
 21
32.5814421127
  0
LINE
  5
2DA
100
AcDbEntity
  8
0
100
AcDbLine
 62
7
  6
BYLAYER
 10
45.6381038698
 20
63.2343126332
 11
42.0460014214
 21
66.8264150816
  0
LINE
  5
2DB
100
AcDbEntity
  8
0
100
AcDbLine
 62
7
  6
BYLAYER
 10
46.5540899942
 20
63.0367469985
 11
45.4674790035
 21
64.1233579892
  0
LINE
  5
2DC
100
AcDbEntity
  8
0
100
AcDbLine
 62
7
  6
BYLAYER
 10
42.9350467774
 20
66.6557902153
 11
41.8484357867
 21
67.742401206
  0
LINE
  5
2DD
100
AcDbEntity
  8
0
100
AcDbLine
 62
7
  6
BYLAYER
 10
43.1146518998
 20
66.8353953377
 11
45.6470841259
 21
64.3029631116
  0
LINE
  5
2DE
100
AcDbEntity
  8
0
100
AcDbLine
 62
7
  6
BYLAYER
 10
45.8266892483
 20
64.482568234
 11
43.2942570222
 21
67.0150004601
  0
LINE
  5
2DF
100
AcDbEntity
  8
0
100
AcDbLine
 62
7
  6
BYLAYER
 10
36.0651508447
 20
74.7110799559
 11
40.7708050522
 21
70.0054257485
  0
LINE
  5
2E0
100
AcDbEntity
  8
0
100
AcDbLine
 62
7
  6
BYLAYER
 10
55.9789427391
 20
59.4484673463
 11
55.9789427391
 21
52.0062673463
  0
LINE
  5
2E1
100
AcDbEntity
  8
0
100
AcDbLine
 62
7
  6
BYLAYER
 10
23.5214711577
 20
73.8382569981
 11
23.6005553487
 21
73.8130543438
  0
LINE
  5
2E2
100
AcDbEntity
  8
0
100
AcDbLine
 62
7
  6
BYLAYER
 10
43.7432698283
 20
67.4640132662
 11
46.2757020544
 21
64.9315810401
  0
LINE
  5
2E3
100
AcDbEntity
  8
0
100
AcDbLine
 62
7
  6
BYLAYER
 10
44.8209005628
 20
68.5416440007
 11
47.3533327889
 21
66.0092117746
  0
LINE
  5
2E4
100
AcDbEntity
  8
0
100
AcDbLine
 62
7
  6
BYLAYER
 10
41.7406727133
 20
72.0888451686
 11
38.1485702648
 21
75.680947617
  0
LINE
  5
2E5
100
AcDbEntity
  8
0
100
AcDbLine
 62
7
  6
BYLAYER
 10
45.9493723568
 20
68.2752767944
 11
45.3272019621
 21
68.897447189
  0
LINE
  5
2E6
100
AcDbEntity
  8
0
100
AcDbLine
 62
7
  6
BYLAYER
 10
42.6566588376
 20
71.8912795339
 11
41.570047847
 21
72.9778905245
  0
LINE
  5
2E7
100
AcDbEntity
  8
0
100
AcDbLine
 62
7
  6
BYLAYER
 10
39.0376156208
 20
75.5103227507
 11
37.9510046302
 21
76.5969337413
  0
LINE
  5
2E8
100
AcDbEntity
  8
0
100
AcDbLine
 62
7
  6
BYLAYER
 10
39.2172207432
 20
75.6899278731
 11
41.7496529694
 21
73.157495647
  0
LINE
  5
2E9
100
AcDbEntity
  8
00_COMPONENTS
100
AcDbLine
 62
7
  6
BYLAYER
 10
40.8573779464
 20
7.7346039906
 11
40.8781627777
 21
7.7694728389
  0
LINE
  5
2EA
100
AcDbEntity
  8
00_COMPONENTS
100
AcDbLine
 62
7
  6
BYLAYER
 10
48.9665427431
 20
25.5902673463
 11
49.2205427431
 21
25.8442673463
  0
LINE
  5
2EB
100
AcDbEntity
  8
0
100
AcDbLine
 62
7
  6
BYLAYER
 10
41.9292580918
 20
73.3371007694
 11
39.3968258657
 21
75.8695329955
  0
LINE
  5
2EC
100
AcDbEntity
  8
0
100
AcDbLine
 62
7
  6
BYLAYER
 10
48.4309635235
 20
67.0868425091
 11
45.8985312973
 21
69.6192747353
  0
LINE
  5
2ED
100
AcDbEntity
  8
0
100
AcDbLine
 62
7
  6
BYLAYER
 10
39.8458386717
 20
76.3185458016
 11
42.3782708978
 21
73.7861135754
  0
LINE
  5
2EE
100
AcDbEntity
  8
0
100
AcDbLine
 62
7
  6
BYLAYER
 10
52.2209186385
 20
66.0493397859
 11
49.8071897194
 21
68.4630687051
  0
LINE
  5
2EF
100
AcDbEntity
  8
0
100
AcDbLine
 62
7
  6
BYLAYER
 10
47.2747574933
 20
70.9955009312
 11
44.733345011
 21
73.5369134135
  0
LINE
  5
2F0
100
AcDbEntity
  8
0
100
AcDbLine
 62
7
  6
BYLAYER
 10
40.9234694062
 20
77.3961765361
 11
43.4559016324
 21
74.86374431
  0
LINE
  5
2F1
100
AcDbEntity
  8
0
100
AcDbLine
 62
7
  6
BYLAYER
 10
42.0519412002
 20
77.1298093298
 11
41.4297708055
 21
77.7519797244
  0
LINE
  5
2F2
100
AcDbEntity
  8
00_COMPONENTS
100
AcDbLine
 62
7
  6
BYLAYER
 10
42.3691411266
 20
7.8174232056
 11
42.3958834106
 21
7.8537987424
  0
LINE
  5
2F3
100
AcDbEntity
  8
00_COMPONENTS
100
AcDbLine
 62
7
  6
BYLAYER
 10
39.9624790133
 20
7.6944028265
 11
39.9945171809
 21
7.7346039906
  0
LINE
  5
2F4
100
AcDbEntity
  8
00_COMPONENTS
100
AcDbLine
 62
7
  6
BYLAYER
 10
39.2400274334
 20
7.6667301713
 11
39.2642717127
 21
7.6944028265
  0
LINE
  5
2F5
100
AcDbEntity
  8
00_COMPONENTS
100
AcDbLine
 62
7
  6
BYLAYER
 10
36.4003719382
 20
7.5993035214
 11
36.4112754391
 21
7.6101084418
  0
LINE
  5
2F6
100
AcDbEntity
  8
00_COMPONENTS
100
AcDbLine
 62
7
  6
BYLAYER
 10
37.1171877129
 20
7.6101084418
 11
37.1324066293
 21
7.6251897613
  0
LINE
  5
2F7
100
AcDbEntity
  8
0
100
AcDbLine
 62
7
  6
BYLAYER
 10
50.9095142129
 20
69.5653931985
 11
48.3770819867
 21
72.0978254247
  0
LINE
  5
2F8
100
AcDbEntity
  8
0
100
AcDbLine
 62
7
  6
BYLAYER
 10
44.5335323669
 20
75.9413750445
 11
42.0011001408
 21
78.4738072706
  0
LINE
  5
2F9
100
AcDbEntity
  8
0
100
AcDbLine
 62
7
  6
BYLAYER
 10
46.7336951166
 20
75.537263519
 11
53.5227687441
 21
68.7481898915
  0
LINE
  5
2FA
100
AcDbEntity
  8
0
100
AcDbLine
 62
7
  6
BYLAYER
 10
47.2118957004
 20
76.0154641029
 11
45.9097585628
 21
77.3176012404
  0
LINE
  5
2FB
100
AcDbEntity
  8
0
100
AcDbLine
 62
7
  6
BYLAYER
 10
43.3773263367
 20
79.8500334666
 11
39.140892457
 21
84.0864673463
  0
LINE
  5
2FC
100
AcDbEntity
  8
00_COMPONENTS
100
AcDbLine
 62
7
  6
BYLAYER
 10
44.2583141907
 20
7.947295195
 11
44.2884377687
 21
7.9911712525
  0
LINE
  5
2FD
100
AcDbEntity
  8
00_COMPONENTS
100
AcDbLine
 62
7
  6
BYLAYER
 10
41.5361811571
 20
7.7694728389
 11
41.5781909345
 21
7.8174232056
  0
LINE
  5
2FE
100
AcDbEntity
  8
00_COMPONENTS
100
AcDbLine
 62
7
  6
BYLAYER
 10
42.9434182296
 20
7.8537987424
 11
42.9856094416
 21
7.9019562003
  0
LINE
  5
2FF
100
AcDbEntity
  8
00_COMPONENTS
100
AcDbLine
 62
7
  6
BYLAYER
 10
43.6455702136
 20
7.9019562003
 11
43.6852921429
 21
7.947295195
  0
LINE
  5
300
100
AcDbEntity
  8
00_COMPONENTS
100
AcDbLine
 62
7
  6
BYLAYER
 10
37.8373481632
 20
7.6251897613
 11
37.8577360563
 21
7.6453933238
  0
LINE
  5
301
100
AcDbEntity
  8
00_COMPONENTS
100
AcDbLine
 62
7
  6
BYLAYER
 10
38.5871130999
 20
7.6453933238
 11
38.6086446178
 21
7.6667301713
  0
LINE
  5
302
100
AcDbEntity
  8
0
100
AcDbLine
 62
7
  6
BYLAYER
 10
47.0120830563
 20
78.4199257339
 11
44.4796508302
 21
80.95235796
  0
LINE
  5
303
100
AcDbEntity
  8
0
100
AcDbLine
 62
7
  6
BYLAYER
 10
43.1415926681
 20
84.0864673463
 11
49.212245806
 21
78.0158142085
  0
LINE
  5
304
100
AcDbEntity
  8
00_COMPONENTS
100
AcDbLine
 62
7
  6
BYLAYER
 10
45.5323379211
 20
8.0514664823
 11
45.6038626855
 21
8.1223445785
  0
LINE
  5
305
100
AcDbEntity
  8
00_COMPONENTS
100
AcDbLine
 62
7
  6
BYLAYER
 10
46.3175725659
 20
8.1223445785
 11
46.3884576013
 21
8.1925887297
  0
LINE
  5
306
100
AcDbEntity
  8
00_COMPONENTS
100
AcDbLine
 62
7
  6
BYLAYER
 10
44.8150560003
 20
7.9911712525
 11
44.8979202792
 21
8.0514664823
  0
LINE
  5
307
100
AcDbEntity
  8
0
100
AcDbLine
 62
7
  6
BYLAYER
 10
12.7829427391
 20
84.0864673463
 11
53.1689427391
 21
84.0864673463
  0
LINE
  5
308
100
AcDbEntity
  8
0
100
AcDbLine
 62
7
  6
BYLAYER
 10
36.2144427391
 20
85.8898673463
 11
29.7374427391
 21
85.8898673463
  0
ARC
  5
309
100
AcDbEntity
  8
00_COMPONENTS
100
AcDbCircle
 62
7
  6
BYLAYER
 10
16.7705427405
 20
9.5402673437
 40
1.0500000001
100
AcDbArc
 50
90.0000001386
 51
263.0204297379
  0
ARC
  5
30A
100
AcDbEntity
  8
00_COMPONENTS
100
AcDbCircle
 62
7
  6
BYLAYER
 10
49.6705427377
 20
9.5402673437
 40
1.0500000001
100
AcDbArc
 50
276.9795702622
 51
89.9999998614
  0
ARC
  5
30B
100
AcDbEntity
  8
00_COMPONENTS
100
AcDbCircle
 62
7
  6
BYLAYER
 10
16.4331427351
 20
31.2824617443
 40
0.7874
100
AcDbArc
 50
0.0
 51
60.0
  0
ARC
  5
30C
100
AcDbEntity
  8
00_COMPONENTS
100
AcDbCircle
 62
7
  6
BYLAYER
 10
50.0079427431
 20
31.2824617443
 40
0.7874
100
AcDbArc
 50
120.0
 51
180.0
  0
SPLINE
  5
30D
100
AcDbEntity
  8
00_COMPONENTS
100
AcDbSpline
 62
7
  6
BYLAYER
 70
0
 71
3
 72
11
 73
7
 74
0
 42
0.0000001
 43
0.0000001
 44
0.0000000001
 40
0.0
 40
0.0
 40
0.0
 40
0.0
 40
0.2499981613
 40
0.4999984974
 40
0.7499975914
 40
1.0
 40
1.0
 40
1.0
 40
1.0
 10
33.2205427391
 20
32.5814421127
 30
0.0
 10
33.828409377
 20
32.5814421127
 30
0.0
 10
35.0444561372
 20
32.6182906866
 30
0.0
 10
36.8617355968
 20
32.7812628913
 30
0.0
 10
38.6670543719
 20
33.0448618735
 30
0.0
 10
39.8601850158
 20
33.2809755371
 30
0.0
 10
40.453747072
 20
33.412118552
 30
0.0
  0
SPLINE
  5
30E
100
AcDbEntity
  8
00_COMPONENTS
100
AcDbSpline
 62
7
  6
BYLAYER
 70
0
 71
3
 72
15
 73
11
 74
0
 42
0.0000001
 43
0.0000001
 44
0.0000000001
 40
0.0
 40
0.0
 40
0.0
 40
0.0
 40
0.1262643924
 40
0.2515123322
 40
0.3759716731
 40
0.5
 40
0.6240283269
 40
0.7484876678
 40
0.8737356076
 40
1.0
 40
1.0
 40
1.0
 40
1.0
 10
15.7580427391
 20
33.412118552
 30
0.0
 10
16.1758925653
 20
33.2815573148
 30
0.0
 10
17.0162520756
 20
33.0461082685
 30
0.0
 10
18.2938942254
 20
32.7818987983
 30
0.0
 10
19.5807600125
 20
32.618415477
 30
0.0
 10
20.8726905726
 20
32.5630057777
 30
0.0
 10
22.1646211328
 20
32.618415477
 30
0.0
 10
23.4514869198
 20
32.7818987983
 30
0.0
 10
24.7291290697
 20
33.0461082685
 30
0.0
 10
25.5694885799
 20
33.2815573148
 30
0.0
 10
25.9873384062
 20
33.412118552
 30
0.0
  0
SPLINE
  5
30F
100
AcDbEntity
  8
00_COMPONENTS
100
AcDbSpline
 62
7
  6
BYLAYER
 70
0
 71
3
 72
11
 73
7
 74
0
 42
0.0000001
 43
0.0000001
 44
0.0000000001
 40
0.0
 40
0.0
 40
0.0
 40
0.0
 40
0.250002409
 40
0.5000015229
 40
0.7500018388
 40
1.0
 40
1.0
 40
1.0
 40
1.0
 10
25.9873384062
 20
33.412118552
 30
0.0
 10
26.5809004653
 20
33.2809755364
 30
0.0
 10
27.7740311102
 20
33.0448615007
 30
0.0
 10
29.5793500255
 20
32.7812636501
 30
0.0
 10
31.3966293235
 20
32.6182894622
 30
0.0
 10
32.6126760993
 20
32.5814421127
 30
0.0
 10
33.2205427391
 20
32.5814421127
 30
0.0
  0
SPLINE
  5
310
100
AcDbEntity
  8
00_COMPONENTS
100
AcDbSpline
 62
7
  6
BYLAYER
 70
0
 71
3
 72
15
 73
11
 74
0
 42
0.0000001
 43
0.0000001
 44
0.0000000001
 40
0.0
 40
0.0
 40
0.0
 40
0.0
 40
0.1262643924
 40
0.2515123322
 40
0.3759716731
 40
0.5
 40
0.6240283269
 40
0.7484876678
 40
0.8737356076
 40
1.0
 40
1.0
 40
1.0
 40
1.0
 10
40.453747072
 20
33.412118552
 30
0.0
 10
40.8715968982
 20
33.2815573148
 30
0.0
 10
41.7119564085
 20
33.0461082685
 30
0.0
 10
42.9895985584
 20
32.7818987983
 30
0.0
 10
44.2764643454
 20
32.618415477
 30
0.0
 10
45.5683949056
 20
32.5630057777
 30
0.0
 10
46.8603254657
 20
32.618415477
 30
0.0
 10
48.1471912528
 20
32.7818987983
 30
0.0
 10
49.4248334026
 20
33.0461082685
 30
0.0
 10
50.2651929129
 20
33.2815573148
 30
0.0
 10
50.6830427391
 20
33.412118552
 30
0.0
  0
SPLINE
  5
311
100
AcDbEntity
  8
0
100
AcDbSpline
 62
7
  6
BYLAYER
 70
0
 71
3
 72
16
 73
12
 74
0
 42
0.0000001
 43
0.0000001
 44
0.0000000001
 40
0.0
 40
0.0
 40
0.0
 40
0.0
 40
0.180580069
 40
0.3463949369
 40
0.49563748
 40
0.6274159419
 40
0.7416009451
 40
0.8392620499
 40
0.923454459
 40
0.9622684253
 40
1.0
 40
1.0
 40
1.0
 40
1.0
 10
46.5029475047
 20
77.9107901823
 30
0.0
 10
46.5941397478
 20
77.8536504064
 30
0.0
 10
46.7721593737
 20
77.7488412564
 30
0.0
 10
47.0362802969
 20
77.6160603315
 30
0.0
 10
47.2833451583
 20
77.5157770845
 30
0.0
 10
47.5098270213
 20
77.4493812798
 30
0.0
 10
47.7129456105
 20
77.417761877
 30
0.0
 10
47.8904868057
 20
77.4216457274
 30
0.0
 10
48.0192259708
 20
77.4572015403
 30
0.0
 10
48.1027638215
 20
77.504932108
 30
0.0
 10
48.1380410615
 20
77.5343063679
 30
0.0
 10
48.1539409016
 20
77.5502062081
 30
0.0
  0
SPLINE
  5
312
100
AcDbEntity
  8
0
100
AcDbSpline
 62
7
  6
BYLAYER
 70
0
 71
3
 72
16
 73
12
 74
0
 42
0.0000001
 43
0.0000001
 44
0.0000000001
 40
0.0
 40
0.0
 40
0.0
 40
0.0
 40
0.0377315747
 40
0.076545541
 40
0.1607379501
 40
0.2583990549
 40
0.3725840581
 40
0.50436252
 40
0.6536050631
 40
0.819419931
 40
1.0
 40
1.0
 40
1.0
 40
1.0
 10
43.6099313044
 20
82.0942158053
 30
0.0
 10
43.5940314642
 20
82.0783159652
 30
0.0
 10
43.5646572042
 20
82.0430387252
 30
0.0
 10
43.5169266366
 20
81.9595008745
 30
0.0
 10
43.4813708237
 20
81.8307617094
 30
0.0
 10
43.4774869733
 20
81.6532205143
 30
0.0
 10
43.5091063761
 20
81.450101925
 30
0.0
 10
43.5755021807
 20
81.223620062
 30
0.0
 10
43.6757854278
 20
80.9765552006
 30
0.0
 10
43.8085663527
 20
80.7124342775
 30
0.0
 10
43.9133755026
 20
80.5344146515
 30
0.0
 10
43.9705152785
 20
80.4432224084
 30
0.0
  0
SPLINE
  5
313
100
AcDbEntity
  8
0
100
AcDbSpline
 62
7
  6
BYLAYER
 70
0
 71
3
 72
16
 73
12
 74
0
 42
0.0000001
 43
0.0000001
 44
0.0000000001
 40
0.0
 40
0.0
 40
0.0
 40
0.0
 40
0.0377315747
 40
0.076545541
 40
0.1607379501
 40
0.2583990549
 40
0.3725840581
 40
0.50436252
 40
0.6536050631
 40
0.819419931
 40
1.0
 40
1.0
 40
1.0
 40
1.0
 10
47.5073624609
 20
73.23968327
 30
0.0
 10
47.4914626207
 20
73.2237834298
 30
0.0
 10
47.4620883608
 20
73.1885061899
 30
0.0
 10
47.4143577931
 20
73.1049683392
 30
0.0
 10
47.3788019802
 20
72.976229174
 30
0.0
 10
47.3749181298
 20
72.7986879789
 30
0.0
 10
47.4065375326
 20
72.5955693896
 30
0.0
 10
47.4729333373
 20
72.3690875266
 30
0.0
 10
47.5732165843
 20
72.1220226652
 30
0.0
 10
47.7059975092
 20
71.8579017421
 30
0.0
 10
47.8108066592
 20
71.6798821161
 30
0.0
 10
47.8679464351
 20
71.588689873
 30
0.0
  0
SPLINE
  5
314
100
AcDbEntity
  8
0
100
AcDbSpline
 62
7
  6
BYLAYER
 70
0
 71
3
 72
16
 73
12
 74
0
 42
0.0000001
 43
0.0000001
 44
0.0000000001
 40
0.0
 40
0.0
 40
0.0
 40
0.0
 40
0.180580069
 40
0.3463949369
 40
0.49563748
 40
0.6274159419
 40
0.7416009451
 40
0.8392620499
 40
0.923454459
 40
0.9622684253
 40
1.0
 40
1.0
 40
1.0
 40
1.0
 10
21.9813701997
 20
80.4432224084
 30
0.0
 10
22.0385099756
 20
80.5344146515
 30
0.0
 10
22.1433191255
 20
80.7124342775
 30
0.0
 10
22.2761000504
 20
80.9765552006
 30
0.0
 10
22.3763832975
 20
81.223620062
 30
0.0
 10
22.4427791021
 20
81.450101925
 30
0.0
 10
22.4743985049
 20
81.6532205143
 30
0.0
 10
22.4705146545
 20
81.8307617094
 30
0.0
 10
22.4349588416
 20
81.9595008745
 30
0.0
 10
22.387228274
 20
82.0430387252
 30
0.0
 10
22.357854014
 20
82.0783159652
 30
0.0
 10
22.3419541738
 20
82.0942158053
 30
0.0
  0
SPLINE
  5
315
100
AcDbEntity
  8
0
100
AcDbSpline
 62
7
  6
BYLAYER
 70
0
 71
3
 72
16
 73
12
 74
0
 42
0.0000001
 43
0.0000001
 44
0.0000000001
 40
0.0
 40
0.0
 40
0.0
 40
0.0
 40
0.180580069
 40
0.3463949369
 40
0.49563748
 40
0.6274159419
 40
0.7416009451
 40
0.8392620499
 40
0.923454459
 40
0.9622684253
 40
1.0
 40
1.0
 40
1.0
 40
1.0
 10
50.4003786612
 20
69.0562576469
 30
0.0
 10
50.4915709043
 20
68.999117871
 30
0.0
 10
50.6695905303
 20
68.894308721
 30
0.0
 10
50.9337114534
 20
68.7615277961
 30
0.0
 10
51.1807763148
 20
68.6612445491
 30
0.0
 10
51.4072581778
 20
68.5948487444
 30
0.0
 10
51.6103767671
 20
68.5632293416
 30
0.0
 10
51.7879179622
 20
68.567113192
 30
0.0
 10
51.9166571273
 20
68.6026690049
 30
0.0
 10
52.000194978
 20
68.6503995726
 30
0.0
 10
52.035472218
 20
68.6797738325
 30
0.0
 10
52.0513720582
 20
68.6956736727
 30
0.0
  0
SPLINE
  5
316
100
AcDbEntity
  8
0
100
AcDbSpline
 62
7
  6
BYLAYER
 70
0
 71
3
 72
16
 73
12
 74
0
 42
0.0000001
 43
0.0000001
 44
0.0000000001
 40
0.0
 40
0.0
 40
0.0
 40
0.0
 40
0.0377315747
 40
0.076545541
 40
0.1607379501
 40
0.2583990549
 40
0.3725840581
 40
0.50436252
 40
0.6536050631
 40
0.819419931
 40
1.0
 40
1.0
 40
1.0
 40
1.0
 10
13.90051342
 20
68.6956736727
 30
0.0
 10
13.9164132602
 20
68.6797738325
 30
0.0
 10
13.9516905001
 20
68.6503995726
 30
0.0
 10
14.0352283508
 20
68.6026690049
 30
0.0
 10
14.163967516
 20
68.567113192
 30
0.0
 10
14.3415087111
 20
68.5632293416
 30
0.0
 10
14.5446273004
 20
68.5948487444
 30
0.0
 10
14.7711091634
 20
68.6612445491
 30
0.0
 10
15.0181740248
 20
68.7615277961
 30
0.0
 10
15.2822949479
 20
68.894308721
 30
0.0
 10
15.4603145739
 20
68.999117871
 30
0.0
 10
15.551506817
 20
69.0562576469
 30
0.0
  0
SPLINE
  5
317
100
AcDbEntity
  8
0
100
AcDbSpline
 62
7
  6
BYLAYER
 70
0
 71
3
 72
16
 73
12
 74
0
 42
0.0000001
 43
0.0000001
 44
0.0000000001
 40
0.0
 40
0.0
 40
0.0
 40
0.0
 40
0.180580069
 40
0.3463949369
 40
0.49563748
 40
0.6274159419
 40
0.7416009451
 40
0.8392620499
 40
0.923454459
 40
0.9622684253
 40
1.0
 40
1.0
 40
1.0
 40
1.0
 10
18.0839390431
 20
71.588689873
 30
0.0
 10
18.141078819
 20
71.6798821161
 30
0.0
 10
18.245887969
 20
71.8579017421
 30
0.0
 10
18.3786688939
 20
72.1220226652
 30
0.0
 10
18.4789521409
 20
72.3690875266
 30
0.0
 10
18.5453479456
 20
72.5955693896
 30
0.0
 10
18.5769673484
 20
72.7986879789
 30
0.0
 10
18.573083498
 20
72.976229174
 30
0.0
 10
18.5375276851
 20
73.1049683391
 30
0.0
 10
18.4897971174
 20
73.1885061898
 30
0.0
 10
18.4604228574
 20
73.2237834298
 30
0.0
 10
18.4445230173
 20
73.23968327
 30
0.0
  0
SPLINE
  5
318
100
AcDbEntity
  8
0
100
AcDbSpline
 62
7
  6
BYLAYER
 70
0
 71
3
 72
16
 73
12
 74
0
 42
0.0000001
 43
0.0000001
 44
0.0000000001
 40
0.0
 40
0.0
 40
0.0
 40
0.0
 40
0.0377315747
 40
0.076545541
 40
0.1607379501
 40
0.2583990549
 40
0.3725840581
 40
0.50436252
 40
0.6536050631
 40
0.819419931
 40
1.0
 40
1.0
 40
1.0
 40
1.0
 10
17.7979445766
 20
77.5502062081
 30
0.0
 10
17.8138444167
 20
77.5343063679
 30
0.0
 10
17.8491216567
 20
77.504932108
 30
0.0
 10
17.9326595074
 20
77.4572015403
 30
0.0
 10
18.0613986725
 20
77.4216457274
 30
0.0
 10
18.2389398676
 20
77.417761877
 30
0.0
 10
18.4420584569
 20
77.4493812798
 30
0.0
 10
18.6685403199
 20
77.5157770845
 30
0.0
 10
18.9156051813
 20
77.6160603315
 30
0.0
 10
19.1797261044
 20
77.7488412564
 30
0.0
 10
19.3577457304
 20
77.8536504064
 30
0.0
 10
19.4489379735
 20
77.9107901823
 30
0.0
  0
SPLINE
  5
319
100
AcDbEntity
  8
0
100
AcDbSpline
 62
7
  6
BYLAYER
 70
0
 71
3
 72
19
 73
15
 74
0
 42
0.0000001
 43
0.0000001
 44
0.0000000001
 40
0.0
 40
0.0
 40
0.0
 40
0.0
 40
0.1795025625
 40
0.348966001
 40
0.5042008494
 40
0.6418113283
 40
0.7032263409
 40
0.7594342888
 40
0.8103972211
 40
0.8562249606
 40
0.8972651983
 40
0.9341697973
 40
0.9679523204
 40
1.0
 40
1.0
 40
1.0
 40
1.0
 10
14.9646232566
 20
71.283696414
 30
0.0
 10
14.8482015124
 20
71.1501622425
 30
0.0
 10
14.6294826341
 20
70.8837813282
 30
0.0
 10
14.3392533854
 20
70.4790669411
 30
0.0
 10
14.1017732094
 20
70.0889275585
 30
0.0
 10
13.9476931887
 20
69.7742238297
 30
0.0
 10
13.8587198057
 20
69.5383675656
 30
0.0
 10
13.8114774793
 20
69.3786462718
 30
0.0
 10
13.7814007523
 20
69.2304339829
 30
0.0
 10
13.7687718488
 20
69.094665742
 30
0.0
 10
13.7737970802
 20
68.9721652334
 30
0.0
 10
13.7967675119
 20
68.8636504914
 30
0.0
 10
13.8380047453
 20
68.7701357118
 30
0.0
 10
13.8781481185
 20
68.7180389742
 30
0.0
 10
13.90051342
 20
68.6956736727
 30
0.0
  0
SPLINE
  5
31A
100
AcDbEntity
  8
0
100
AcDbSpline
 62
7
  6
BYLAYER
 70
0
 71
3
 72
19
 73
15
 74
0
 42
0.0000001
 43
0.0000001
 44
0.0000000001
 40
0.0
 40
0.0
 40
0.0
 40
0.0
 40
0.0320476796
 40
0.0658302027
 40
0.1027348017
 40
0.1437750394
 40
0.1896027789
 40
0.2405657112
 40
0.2967736591
 40
0.3581886717
 40
0.4957991506
 40
0.651033999
 40
0.8204974375
 40
1.0
 40
1.0
 40
1.0
 40
1.0
 10
22.3419541738
 20
82.0942158053
 30
0.0
 10
22.3195888723
 20
82.1165811068
 30
0.0
 10
22.2674921348
 20
82.15672448
 30
0.0
 10
22.1739773552
 20
82.1979617135
 30
0.0
 10
22.0654626132
 20
82.2209321451
 30
0.0
 10
21.9429621045
 20
82.2259573765
 30
0.0
 10
21.8071938636
 20
82.2133284731
 30
0.0
 10
21.6589815747
 20
82.1832517461
 30
0.0
 10
21.4992602809
 20
82.1360094196
 30
0.0
 10
21.2634040168
 20
82.0470360366
 30
0.0
 10
20.9487002881
 20
81.892956016
 30
0.0
 10
20.5585609054
 20
81.65547584
 30
0.0
 10
20.1538465183
 20
81.3652465913
 30
0.0
 10
19.887465604
 20
81.146527713
 30
0.0
 10
19.7539314325
 20
81.0301059687
 30
0.0
  0
SPLINE
  5
31B
100
AcDbEntity
  8
0
100
AcDbSpline
 62
7
  6
BYLAYER
 70
0
 71
3
 72
19
 73
15
 74
0
 42
0.0000001
 43
0.0000001
 44
0.0000000001
 40
0.0
 40
0.0
 40
0.0
 40
0.0
 40
0.1795025625
 40
0.348966001
 40
0.5042008494
 40
0.6418113283
 40
0.7032263409
 40
0.7594342888
 40
0.8103972211
 40
0.8562249606
 40
0.8972651983
 40
0.9341697973
 40
0.9679523204
 40
1.0
 40
1.0
 40
1.0
 40
1.0
 10
46.1979540457
 20
81.0301059687
 30
0.0
 10
46.0644198742
 20
81.1465277129
 30
0.0
 10
45.7980389599
 20
81.3652465913
 30
0.0
 10
45.3933245728
 20
81.6554758399
 30
0.0
 10
45.0031851901
 20
81.892956016
 30
0.0
 10
44.6884814614
 20
82.0470360366
 30
0.0
 10
44.4526251973
 20
82.1360094196
 30
0.0
 10
44.2929039035
 20
82.1832517461
 30
0.0
 10
44.1446916146
 20
82.2133284731
 30
0.0
 10
44.0089233737
 20
82.2259573765
 30
0.0
 10
43.886422865
 20
82.2209321451
 30
0.0
 10
43.777908123
 20
82.1979617135
 30
0.0
 10
43.6843933434
 20
82.15672448
 30
0.0
 10
43.6322966058
 20
82.1165811068
 30
0.0
 10
43.6099313044
 20
82.0942158053
 30
0.0
  0
SPLINE
  5
31C
100
AcDbEntity
  8
0
100
AcDbSpline
 62
7
  6
BYLAYER
 70
0
 71
3
 72
19
 73
15
 74
0
 42
0.0000001
 43
0.0000001
 44
0.0000000001
 40
0.0
 40
0.0
 40
0.0
 40
0.0
 40
0.0320476796
 40
0.0658302027
 40
0.1027348017
 40
0.1437750394
 40
0.1896027789
 40
0.2405657112
 40
0.2967736591
 40
0.3581886717
 40
0.4957991506
 40
0.651033999
 40
0.8204974375
 40
1.0
 40
1.0
 40
1.0
 40
1.0
 10
48.1539409016
 20
77.5502062081
 30
0.0
 10
48.1763062031
 20
77.5725715096
 30
0.0
 10
48.2164495763
 20
77.6246682471
 30
0.0
 10
48.2576868098
 20
77.7181830267
 30
0.0
 10
48.2806572414
 20
77.8266977687
 30
0.0
 10
48.2856824728
 20
77.9491982774
 30
0.0
 10
48.2730535694
 20
78.0849665183
 30
0.0
 10
48.2429768423
 20
78.2331788072
 30
0.0
 10
48.1957345159
 20
78.392900101
 30
0.0
 10
48.1067611329
 20
78.6287563651
 30
0.0
 10
47.9526811123
 20
78.9434600938
 30
0.0
 10
47.7152009362
 20
79.3335994765
 30
0.0
 10
47.4249716876
 20
79.7383138636
 30
0.0
 10
47.2062528092
 20
80.0046947779
 30
0.0
 10
47.089831065
 20
80.1382289494
 30
0.0
  0
SPLINE
  5
31D
100
AcDbEntity
  8
0
100
AcDbSpline
 62
7
  6
BYLAYER
 70
0
 71
3
 72
19
 73
15
 74
0
 42
0.0000001
 43
0.0000001
 44
0.0000000001
 40
0.0
 40
0.0
 40
0.0
 40
0.0
 40
0.0320476796
 40
0.0658302027
 40
0.1027348017
 40
0.1437750394
 40
0.1896027789
 40
0.2405657112
 40
0.2967736591
 40
0.3581886717
 40
0.4957991506
 40
0.651033999
 40
0.8204974375
 40
1.0
 40
1.0
 40
1.0
 40
1.0
 10
18.4445230173
 20
73.23968327
 30
0.0
 10
18.4221577158
 20
73.2620485715
 30
0.0
 10
18.3700609782
 20
73.3021919447
 30
0.0
 10
18.2765461986
 20
73.3434291781
 30
0.0
 10
18.1680314566
 20
73.3663996098
 30
0.0
 10
18.045530948
 20
73.3714248412
 30
0.0
 10
17.9097627071
 20
73.3587959377
 30
0.0
 10
17.7615504182
 20
73.3287192107
 30
0.0
 10
17.6018291244
 20
73.2814768843
 30
0.0
 10
17.3659728603
 20
73.1925035013
 30
0.0
 10
17.0512691315
 20
73.0384234806
 30
0.0
 10
16.6611297488
 20
72.8009433046
 30
0.0
 10
16.2564153618
 20
72.5107140559
 30
0.0
 10
15.9900344474
 20
72.2919951776
 30
0.0
 10
15.8565002759
 20
72.1755734334
 30
0.0
  0
SPLINE
  5
31E
100
AcDbEntity
  8
0
100
AcDbSpline
 62
7
  6
BYLAYER
 70
0
 71
3
 72
19
 73
15
 74
0
 42
0.0000001
 43
0.0000001
 44
0.0000000001
 40
0.0
 40
0.0
 40
0.0
 40
0.0
 40
0.1795025625
 40
0.348966001
 40
0.5042008494
 40
0.6418113283
 40
0.7032263409
 40
0.7594342888
 40
0.8103972211
 40
0.8562249606
 40
0.8972651983
 40
0.9341697973
 40
0.9679523204
 40
1.0
 40
1.0
 40
1.0
 40
1.0
 10
18.8620544132
 20
80.1382289494
 30
0.0
 10
18.745632669
 20
80.0046947779
 30
0.0
 10
18.5269137906
 20
79.7383138636
 30
0.0
 10
18.236684542
 20
79.3335994765
 30
0.0
 10
17.9992043659
 20
78.9434600938
 30
0.0
 10
17.8451243453
 20
78.6287563651
 30
0.0
 10
17.7561509623
 20
78.392900101
 30
0.0
 10
17.7089086358
 20
78.2331788072
 30
0.0
 10
17.6788319088
 20
78.0849665183
 30
0.0
 10
17.6662030054
 20
77.9491982774
 30
0.0
 10
17.6712282368
 20
77.8266977687
 30
0.0
 10
17.6941986684
 20
77.7181830267
 30
0.0
 10
17.7354359019
 20
77.6246682471
 30
0.0
 10
17.7755792751
 20
77.5725715096
 30
0.0
 10
17.7979445766
 20
77.5502062081
 30
0.0
  0
SPLINE
  5
31F
100
AcDbEntity
  8
0
100
AcDbSpline
 62
7
  6
BYLAYER
 70
0
 71
3
 72
19
 73
15
 74
0
 42
0.0000001
 43
0.0000001
 44
0.0000000001
 40
0.0
 40
0.0
 40
0.0
 40
0.0
 40
0.0320476796
 40
0.0658302027
 40
0.1027348017
 40
0.1437750394
 40
0.1896027789
 40
0.2405657112
 40
0.2967736591
 40
0.3581886717
 40
0.4957991506
 40
0.651033999
 40
0.8204974375
 40
1.0
 40
1.0
 40
1.0
 40
1.0
 10
52.0513720582
 20
68.6956736727
 30
0.0
 10
52.0737373597
 20
68.7180389742
 30
0.0
 10
52.1138807329
 20
68.7701357118
 30
0.0
 10
52.1551179663
 20
68.8636504914
 30
0.0
 10
52.178088398
 20
68.9721652334
 30
0.0
 10
52.1831136294
 20
69.094665742
 30
0.0
 10
52.1704847259
 20
69.2304339829
 30
0.0
 10
52.1404079989
 20
69.3786462718
 30
0.0
 10
52.0931656725
 20
69.5383675656
 30
0.0
 10
52.0041922895
 20
69.7742238297
 30
0.0
 10
51.8501122688
 20
70.0889275585
 30
0.0
 10
51.6126320928
 20
70.4790669412
 30
0.0
 10
51.3224028441
 20
70.8837813282
 30
0.0
 10
51.1036839658
 20
71.1501622425
 30
0.0
 10
50.9872622216
 20
71.2836964141
 30
0.0
  0
SPLINE
  5
320
100
AcDbEntity
  8
0
100
AcDbSpline
 62
7
  6
BYLAYER
 70
0
 71
3
 72
19
 73
15
 74
0
 42
0.0000001
 43
0.0000001
 44
0.0000000001
 40
0.0
 40
0.0
 40
0.0
 40
0.0
 40
0.1795025625
 40
0.348966001
 40
0.5042008494
 40
0.6418113283
 40
0.7032263409
 40
0.7594342888
 40
0.8103972211
 40
0.8562249606
 40
0.8972651983
 40
0.9341697973
 40
0.9679523204
 40
1.0
 40
1.0
 40
1.0
 40
1.0
 10
50.0953852022
 20
72.1755734334
 30
0.0
 10
49.9618510307
 20
72.2919951776
 30
0.0
 10
49.6954701164
 20
72.5107140559
 30
0.0
 10
49.2907557293
 20
72.8009433046
 30
0.0
 10
48.9006163467
 20
73.0384234806
 30
0.0
 10
48.5859126179
 20
73.1925035013
 30
0.0
 10
48.3500563538
 20
73.2814768843
 30
0.0
 10
48.19033506
 20
73.3287192107
 30
0.0
 10
48.0421227711
 20
73.3587959377
 30
0.0
 10
47.9063545302
 20
73.3714248412
 30
0.0
 10
47.7838540216
 20
73.3663996098
 30
0.0
 10
47.6753392796
 20
73.3434291781
 30
0.0
 10
47.5818245
 20
73.3021919447
 30
0.0
 10
47.5297277624
 20
73.2620485715
 30
0.0
 10
47.5073624609
 20
73.23968327
 30
0.0
  0
ENDSEC
  0
SECTION
  2
OBJECTS
  0
DICTIONARY
  5
C
100
AcDbDictionary
280
0
281
1
  3
ACAD_GROUP
350
D
  3
ACAD_MLINESTYLE
350
17
  3
ACAD_LAYOUT
350
1A
  3
ACAD_PLOTSETTINGS
350
19
  3
ACAD_PLOTSTYLENAME
350
E
  0
DICTIONARY
  5
D
102
{ACAD_REACTORS
330
C
102
}
100
AcDbDictionary
280
0
281
1
  0
ACDBDICTIONARYWDFLT
  5
E
102
{ACAD_REACTORS
330
C
102
}
100
AcDbDictionary
281
1
  3
Normal
350
F
100
AcDbDictionaryWithDefault
340
F
  0
DICTIONARY
  5
17
102
{ACAD_REACTORS
330
C
102
}
100
AcDbDictionary
280
0
281
1
  3
Standard
350
18
  0
DICTIONARY
  5
19
102
{ACAD_REACTORS
330
C
102
}
100
AcDbDictionary
281
1
  0
DICTIONARY
  5
1A
102
{ACAD_REACTORS
330
C
102
}
100
AcDbDictionary
281
1
  3
Model
350
321
  3
Layout1
350
322
  0
ACDBPLACEHOLDER
  5
F
102
{ACAD_REACTORS
330
E
102
}
  0
MLINESTYLE
  5
18
102
{ACAD_REACTORS
330
17
102
}
100
AcDbMlineStyle
  2
STANDARD
 70
0
  3

 62
256
 51
90.0
 52
90.0
 71
2
 49
0.5
 62
256
  6
BYLAYER
 49
-0.5
 62
256
  6
BYLAYER
  0
LAYOUT
  5
321
102
{ACAD_REACTORS
330
1A
102
}
100
AcDbPlotSettings
  1

  2
none_device
  4

  6

 40
0.0
 41
0.0
 42
0.0
 43
0.0
 44
210.0
 45
297.0
 46
0.0
 47
0.0
 48
0.0
 49
0.0
140
0.0
141
0.0
142
1.0
143
1.0
 70
1024
 72
1
 73
0
 74
0
  7

 75
0
147
1.0
148
0.0
149
0.0
100
AcDbLayout
  1
Model
 70
0
 71
0
 10
0.0
 20
0.0
 11
210.0
 21
297.0
 12
0.0
 22
0.0
 32
0.0
 14
0.0
 24
0.0
 34
0.0
 15
0.0
 25
0.0
 35
0.0
146
0.0
 13
0.0
 23
0.0
 33
0.0
 16
1.0
 26
0.0
 36
0.0
 17
0.0
 27
1.0
 37
0.0
 76
0
330
21A
345
0
346
0
  0
LAYOUT
  5
322
102
{ACAD_REACTORS
330
1A
102
}
100
AcDbPlotSettings
  1

  2
none_device
  4

  6

 40
0.0
 41
0.0
 42
0.0
 43
0.0
 44
210.0
 45
297.0
 46
0.0
 47
0.0
 48
0.0
 49
0.0
140
0.0
141
0.0
142
1.0
143
1.0
 70
0
 72
1
 73
0
 74
0
  7

 75
0
147
1.0
148
0.0
149
0.0
100
AcDbLayout
  1
Layout1
 70
0
 71
1
 10
0.0
 20
0.0
 11
210.0
 21
297.0
 12
0.0
 22
0.0
 32
0.0
 14
0.0
 24
0.0
 34
0.0
 15
0.0
 25
0.0
 35
0.0
146
0.0
 13
0.0
 23
0.0
 33
0.0
 16
1.0
 26
0.0
 36
0.0
 17
0.0
 27
1.0
 37
0.0
 76
0
330
21B
345
0
346
0
  0
ENDSEC
  0
EOF
